  0
SECTION
  2
HEADER
  9
$ACADVER
  1
AC1009
  9
$INSBASE
 10
0.0
 20
0.0
 30
0.0
  9
$EXTMIN
 10
-0.5782953384755452
 20
1.239823247676233
 30
0.0
  9
$EXTMAX
 10
8.683666167394211
 20
6.7523232476762347
 30
0.0
  9
$LIMMIN
 10
0.0
 20
0.0
  9
$LIMMAX
 10
12.0
 20
9.0
  9
$ORTHOMODE
 70
     1
  9
$REGENMODE
 70
     0
  9
$FILLMODE
 70
     1
  9
$QTEXTMODE
 70
     0
  9
$MIRRTEXT
 70
     0
  9
$DRAGMODE
 70
     2
  9
$LTSCALE
 40
1.0
  9
$OSMODE
 70
    55
  9
$ATTMODE
 70
     1
  9
$TEXTSIZE
 40
0.12
  9
$TRACEWID
 40
0.05
  9
$TEXTSTYLE
  7
ADESK1
  9
$CLAYER
  8
0
  9
$CELTYPE
  6
BYLAYER
  9
$CECOLOR
 62
   256
  9
$DIMSCALE
 40
1.0
  9
$DIMASZ
 40
0.125
  9
$DIMEXO
 40
0.0625
  9
$DIMDLI
 40
0.38
  9
$DIMRND
 40
0.0
  9
$DIMDLE
 40
0.0
  9
$DIMEXE
 40
0.18
  9
$DIMTP
 40
0.0
  9
$DIMTM
 40
0.0
  9
$DIMTXT
 40
0.09375
  9
$DIMCEN
 40
-0.125
  9
$DIMTSZ
 40
0.0
  9
$DIMTOL
 70
     0
  9
$DIMLIM
 70
     0
  9
$DIMTIH
 70
     0
  9
$DIMTOH
 70
     0
  9
$DIMSE1
 70
     0
  9
$DIMSE2
 70
     0
  9
$DIMTAD
 70
     0
  9
$DIMZIN
 70
     3
  9
$DIMBLK
  1

  9
$DIMASO
 70
     0
  9
$DIMSHO
 70
     1
  9
$DIMPOST
  1

  9
$DIMAPOST
  1

  9
$DIMALT
 70
     0
  9
$DIMALTD
 70
     2
  9
$DIMALTF
 40
25.399999999999999
  9
$DIMLFAC
 40
1.0
  9
$DIMTOFL
 70
     1
  9
$DIMTVP
 40
0.0
  9
$DIMTIX
 70
     0
  9
$DIMSOXD
 70
     0
  9
$DIMSAH
 70
     0
  9
$DIMBLK1
  1

  9
$DIMBLK2
  1

  9
$DIMSTYLE
  2
STANDARD
  9
$DIMCLRD
 70
     0
  9
$DIMCLRE
 70
     0
  9
$DIMCLRT
 70
     0
  9
$DIMTFAC
 40
1.0
  9
$DIMGAP
 40
0.09
  9
$LUNITS
 70
     4
  9
$LUPREC
 70
     4
  9
$SKETCHINC
 40
0.1
  9
$FILLETRAD
 40
0.0
  9
$AUNITS
 70
     0
  9
$AUPREC
 70
     4
  9
$MENU
  1
.
  9
$ELEVATION
 40
0.0
  9
$PELEVATION
 40
0.0
  9
$THICKNESS
 40
0.0
  9
$LIMCHECK
 70
     0
  9
$BLIPMODE
 70
     0
  9
$CHAMFERA
 40
0.5
  9
$CHAMFERB
 40
0.5
  9
$SKPOLY
 70
     0
  9
$TDCREATE
 40
2451065.3838062501
  9
$TDUPDATE
 40
2453913.5782586229
  9
$TDINDWG
 40
0.0432941319
  9
$TDUSRTIMER
 40
0.0432941319
  9
$USRTIMER
 70
     1
  9
$ANGBASE
 50
0.0
  9
$ANGDIR
 70
     0
  9
$PDMODE
 70
    34
  9
$PDSIZE
 40
3.0
  9
$PLINEWID
 40
0.0
  9
$COORDS
 70
     1
  9
$SPLFRAME
 70
     0
  9
$SPLINETYPE
 70
     6
  9
$SPLINESEGS
 70
     8
  9
$ATTDIA
 70
     0
  9
$ATTREQ
 70
     1
  9
$HANDLING
 70
     1
  9
$HANDSEED
  5
A29
  9
$SURFTAB1
 70
     6
  9
$SURFTAB2
 70
     6
  9
$SURFTYPE
 70
     6
  9
$SURFU
 70
     6
  9
$SURFV
 70
     6
  9
$UCSNAME
  2

  9
$UCSORG
 10
0.0
 20
0.0
 30
0.0
  9
$UCSXDIR
 10
1.0
 20
0.0
 30
0.0
  9
$UCSYDIR
 10
0.0
 20
1.0
 30
0.0
  9
$PUCSNAME
  2

  9
$PUCSORG
 10
0.0
 20
0.0
 30
0.0
  9
$PUCSXDIR
 10
1.0
 20
0.0
 30
0.0
  9
$PUCSYDIR
 10
0.0
 20
1.0
 30
0.0
  9
$USERI1
 70
     0
  9
$USERI2
 70
     0
  9
$USERI3
 70
     0
  9
$USERI4
 70
     0
  9
$USERI5
 70
     0
  9
$USERR1
 40
0.0
  9
$USERR2
 40
0.0
  9
$USERR3
 40
0.0
  9
$USERR4
 40
0.0
  9
$USERR5
 40
0.0
  9
$WORLDVIEW
 70
     1
  9
$SHADEDGE
 70
     3
  9
$SHADEDIF
 70
    70
  9
$TILEMODE
 70
     1
  9
$MAXACTVP
 70
    48
  9
$PLIMCHECK
 70
     0
  9
$PEXTMIN
 10
-1.1446599331660541
 20
0.4295024061808679
 30
0.0
  9
$PEXTMAX
 10
8.1156561371072335
 20
7.5670024061808698
 30
0.0
  9
$PLIMMIN
 10
-0.1579164520023376
 20
-0.2812499887361301
  9
$PLIMMAX
 10
10.84208330770177
 20
8.2187497709679782
  9
$UNITMODE
 70
     0
  9
$VISRETAIN
 70
     1
  9
$PLINEGEN
 70
     0
  9
$PSLTSCALE
 70
     1
  0
ENDSEC
  0
SECTION
  2
TABLES
  0
TABLE
  2
VPORT
 70
     2
  0
VPORT
  2
*ACTIVE
 70
     0
 10
0.0
 20
0.0
 11
1.0
 21
1.0
 12
3.305157805948391
 22
0.9696237919095654
 13
0.0
 23
0.0
 14
0.5
 24
0.5
 15
0.5
 25
0.5
 16
0.0
 26
0.0
 36
1.0
 17
5.497749504904605
 27
3.5303762080904351
 37
0.0
 40
9.3364485981308416
 41
2.4581395348837201
 42
50.0
 43
0.0
 44
0.0
 50
0.0
 51
0.0
 71
     0
 72
   100
 73
     1
 74
     1
 75
     0
 76
     0
 77
     0
 78
     0
  0
ENDTAB
  0
TABLE
  2
LTYPE
 70
    18
  0
LTYPE
  2
CONTINUOUS
 70
     0
  3
Solid line
 72
    65
 73
     0
 40
0.0
  0
LTYPE
  2
HIDDEN
 70
     0
  3
__ __ __ __ __ __ __ __ __ __ __ __ __ __ __ __
 72
    65
 73
     2
 40
0.375
 49
0.25
 49
-0.125
  0
LTYPE
  2
PHANTOM2
 70
     0
  3
Phantom (.5x) ___ _ _ ___ _ _ ___ _ _ ___ _ _
 72
    65
 73
     6
 40
1.25
 49
0.625
 49
-0.125
 49
0.125
 49
-0.125
 49
0.125
 49
-0.125
  0
LTYPE
  2
CENTER
 70
     0
  3
Center ____ _ ____ _ ____ _ ____ _ ____ _ ____
 72
    65
 73
     4
 40
2.0
 49
1.25
 49
-0.25
 49
0.25
 49
-0.25
  0
LTYPE
  2
ASULTYPE
 70
     0
  3
Solid line
 72
    65
 73
     2
 40
3.0
 49
2.5
 49
0.5
  0
LTYPE
  2
ASVLTYPE
 70
     0
  3
__ __ __ __ __ __ __ __ __ __ __ __ __ __ __ __ __ __ __ __ __
 72
    65
 73
     2
 40
0.75
 49
0.5
 49
-0.25
  0
LTYPE
  2
AM_ISO02W050
 70
     0
  3
__ __ __ __ __ __ __ __ __ __ __ __ __ __ __
 72
    65
 73
     2
 40
7.5
 49
6.0
 49
-1.5
  0
LTYPE
  2
AM_ISO08W050
 70
     0
  3
____ . ____ . ____ . ____ . ____ . ____ . ____
 72
    65
 73
     4
 40
18.0
 49
12.0
 49
-1.5
 49
3.0
 49
-1.5
  0
LTYPE
  2
AM_ISO09W050
 70
     0
  3
_____ . . _____ . . _____ . . ____ .. ____
 72
    65
 73
     6
 40
22.5
 49
12.0
 49
-1.5
 49
3.0
 49
-1.5
 49
3.0
 49
-1.5
  0
LTYPE
  2
AMCONSTR
 70
     0
  3
_______________________
 72
    65
 73
     2
 40
9999.0
 49
9999.0
 49
0.0
  0
LTYPE
  2
AM_ISO08W050X2
 70
     0
  3
__ . __ . __ . __ . __ . __
 72
    65
 73
     4
 40
9.0
 49
6.0
 49
-0.75
 49
1.5
 49
-0.75
  0
LTYPE
  2
AM_ISO02W050X2
 70
     0
  3
 _ _ _ _ _ _ _ _ _ _ _ _
 72
    65
 73
     2
 40
3.75
 49
3.0
 49
-0.75
  0
LTYPE
  2
AMZIGZAG
 70
     0
  3
/\/-/\/-/\/-/\/-/\/-/\/
 72
    65
 73
     2
 40
11.0001
 49
0.0001
 49
-11.0
  0
LTYPE
  2
CENTER2
 70
     0
  3
Center (.5x) ___ _ ___ _ ___ _ ___ _ ___ _ ___
 72
    65
 73
     4
 40
1.125
 49
0.75
 49
-0.125
 49
0.125
 49
-0.125
  0
LTYPE
  2
HIDDEN2
 70
     0
  3
Hidden (.5x) _ _ _ _ _ _ _ _ _ _ _ _ _ _ _ _ _
 72
    65
 73
     2
 40
0.1875
 49
0.125
 49
-0.0625
  0
LTYPE
  2
AMZIGZAG2
 70
     0
  3
/\/-/\/-/\/-/\/-/\/-/\/
 72
    65
 73
     2
 40
0.4401
 49
0.0001
 49
-0.4400000000000001
  0
LTYPE
  2
ACANSTGB
 70
     0
  3
__ . . __ . .
 72
    65
 73
     6
 40
0.35433070866
 49
0.15748031496
 49
-0.03937007874
 49
0.03937007874
 49
-0.03937007874
 49
0.03937007874
 49
-0.03937007874
  0
LTYPE
  2
ACANSTGL
 70
     0
  3
_ _ _ _ _
 72
    65
 73
     2
 40
0.11811023622
 49
0.07874015748
 49
-0.03937007874
  0
ENDTAB
  0
TABLE
  2
LAYER
 70
     3
  0
LAYER
  2
0
 70
     0
 62
     7
  6
CONTINUOUS
  0
LAYER
  2
AM_VIS
 70
     0
 62
     7
  6
CONTINUOUS
  0
LAYER
  2
AM_HID
 70
     0
 62
     7
  6
HIDDEN
  0
ENDTAB
  0
TABLE
  2
STYLE
 70
     5
  0
STYLE
  2
STANDARD
 70
     0
 40
0.0
 41
1.0
 50
0.0
 71
     0
 42
0.2
  3
txt
  4

  0
STYLE
  2
ADESK1
 70
     0
 40
0.0
 41
1.0
 50
0.0
 71
     0
 42
0.12
  3
romans.shx
  4

  0
STYLE
  2

 70
     1
 40
0.0
 41
1.0
 50
0.0
 71
     0
 42
0.12
  3
ltypeshp.shx
  4

  0
STYLE
  2
ACANSTS
 70
     0
 40
1.0
 41
1.0
 50
0.0
 71
     0
 42
0.12
  3
romans.shx
  4

  0
STYLE
  2
ACANSGDT
 70
     0
 40
0.0
 41
1.0
 50
0.0
 71
     0
 42
0.12
  3
amgdtans.shx
  4

  0
ENDTAB
  0
TABLE
  2
VIEW
 70
     0
  0
ENDTAB
  0
TABLE
  2
UCS
 70
     0
  0
ENDTAB
  0
TABLE
  2
APPID
 70
    13
  0
APPID
  2
ACAD
 70
     0
  0
APPID
  2
GENIUS_GENDIM_13
 70
     0
  0
APPID
  2
GENIUS_GENDTOL_13
 70
     0
  0
APPID
  2
GENIUS_GE3DTOL_13
 70
     0
  0
APPID
  2
MCAD_NO_VIS
 70
     0
  0
APPID
  2
ACAD_TEMP_GRAPHIC
 70
     0
  0
APPID
  2
AD_DRAW
 70
     0
  0
APPID
  2
ACATTRIBSERVICES
 70
     0
  0
APPID
  2
ASURF_PCURVE_APPNAME
 70
     0
  0
APPID
  2
AMG_3D2D_5_0
 70
     0
  0
APPID
  2
DESIGNERASSEMBLIES
 70
     0
  0
APPID
  2
ACADM_DIM_EDIT
 70
     0
  0
APPID
  2
AMDT_DM_ADJ
 70
     0
  0
ENDTAB
  0
TABLE
  2
DIMSTYLE
 70
     7
  0
DIMSTYLE
  2
STANDARD
 70
     0
  3

  4

  5

  6

  7

 40
1.0
 41
0.18
 42
0.0625
 43
0.38
 44
0.18
 45
0.0
 46
0.0
 47
0.0
 48
0.0
140
0.18
141
0.09
142
0.0
143
25.399999999999999
144
1.0
145
0.0
146
1.0
147
0.09
 71
     0
 72
     0
 73
     1
 74
     1
 75
     0
 76
     0
 77
     0
 78
     0
170
     0
171
     2
172
     0
173
     0
174
     0
175
     0
176
     0
177
     0
178
     0
  0
DIMSTYLE
  2
AM_ANSI
 70
     0
  3

  4
mm
  5

  6

  7

 40
1.0
 41
0.1
 42
0.05
 43
0.5
 44
0.1
 45
0.0
 46
0.0
 47
0.1
 48
0.1
140
0.12
141
0.0
142
0.0
143
25.399999999999999
144
1.0
145
0.0
146
0.71
147
0.06
 71
     0
 72
     0
 73
     1
 74
     1
 75
     0
 76
     0
 77
     0
 78
     7
170
     0
171
     2
172
     0
173
     0
174
     0
175
     0
176
   256
177
   256
178
     2
  0
DIMSTYLE
  2
AM_ANSI$3
 70
     0
  3

  4
mm
  5

  6

  7

 40
1.0
 41
0.1
 42
0.05
 43
0.5
 44
0.1
 45
0.0
 46
0.0
 47
0.1
 48
0.1
140
0.12
141
0.0
142
0.0
143
25.399999999999999
144
1.0
145
0.0
146
0.71
147
0.06
 71
     0
 72
     0
 73
     1
 74
     1
 75
     0
 76
     0
 77
     0
 78
     7
170
     0
171
     2
172
     0
173
     0
174
     0
175
     0
176
   256
177
   256
178
     2
  0
DIMSTYLE
  2
AM_ANSI$4
 70
     0
  3

  4
mm
  5

  6

  7

 40
1.0
 41
0.1
 42
0.05
 43
0.5
 44
0.1
 45
0.0
 46
0.0
 47
0.1
 48
0.1
140
0.12
141
0.0
142
0.0
143
25.399999999999999
144
1.0
145
0.0
146
0.71
147
0.06
 71
     0
 72
     0
 73
     1
 74
     1
 75
     0
 76
     0
 77
     0
 78
     7
170
     0
171
     2
172
     0
173
     0
174
     0
175
     0
176
   256
177
   256
178
     2
  0
DIMSTYLE
  2
AM_ANSI$7
 70
     0
  3

  4
mm
  5

  6

  7

 40
1.0
 41
0.1
 42
0.05
 43
0.5
 44
0.1
 45
0.0
 46
0.0
 47
0.1
 48
0.1
140
0.24
141
0.0
142
0.0
143
25.399999999999999
144
1.0
145
0.0
146
0.71
147
0.06
 71
     0
 72
     0
 73
     1
 74
     1
 75
     0
 76
     0
 77
     0
 78
     7
170
     0
171
     2
172
     0
173
     0
174
     0
175
     0
176
   256
177
   256
178
     2
  0
DIMSTYLE
  2
AM_ANSI$SF
 70
     0
  3

  4
mm
  5

  6

  7

 40
1.0
 41
0.1
 42
0.05
 43
0.5
 44
0.1
 45
0.0
 46
0.0
 47
0.1
 48
0.1
140
0.12
141
0.0
142
0.0
143
25.399999999999999
144
1.0
145
0.0
146
0.71
147
0.06
 71
     0
 72
     0
 73
     1
 74
     1
 75
     1
 76
     1
 77
     0
 78
     7
170
     0
171
     2
172
     0
173
     0
174
     0
175
     0
176
   256
177
   256
178
     2
  0
DIMSTYLE
  2
AM_ANSI$SH
 70
     0
  3

  4
mm
  5

  6
GENAXEH
  7

 40
1.0
 41
0.1
 42
0.05
 43
0.5
 44
0.1
 45
0.0
 46
0.0
 47
0.1
 48
0.1
140
0.12
141
0.0
142
0.0
143
25.399999999999999
144
1.0
145
0.0
146
0.71
147
0.06
 71
     0
 72
     0
 73
     1
 74
     1
 75
     1
 76
     1
 77
     0
 78
     7
170
     0
171
     2
172
     0
173
     1
174
     0
175
     0
176
   256
177
   256
178
     2
  0
ENDTAB
  0
ENDSEC
  0
SECTION
  2
BLOCKS
  0
BLOCK
  8
0
  2
$MODEL_SPACE
 70
     0
 10
0.0
 20
0.0
 30
0.0
  3
$MODEL_SPACE
  1

  0
ENDBLK
  5
A
  8
0
  0
BLOCK
 67
     1
  8
0
  2
$PAPER_SPACE
 70
     0
 10
0.0
 20
0.0
 30
0.0
  3
$PAPER_SPACE
  1

  0
ENDBLK
  5
F
 67
     1
  8
0
  0
BLOCK
  8
0
  2
*U0
 70
     1
 10
0.0
 20
0.0
 30
0.0
  3
*U0
  1

  0
ENDBLK
  5
117
  8
0
  0
BLOCK
  8
0
  2
GENAXEH
 70
     0
 10
0.0
 20
0.0
 30
0.0
  3
GENAXEH
  1

  0
LINE
  5
154
  8
0
 10
-1.0
 20
0.0
 30
0.0
 11
1.0
 21
0.0
 31
0.0
  0
ENDBLK
  5
156
  8
0
  0
BLOCK
  8
0
  2
*U2
 70
     1
 10
0.0
 20
0.0
 30
0.0
  3
*U2
  1

  0
TEXT
  5
1A2
  8
0
 10
8.5578268816799223
 20
3.7489750333905212
 30
0.0
 40
0.084375
  1
5-1/2"
 50
90.0
  7
ADESK1
  0
ENDBLK
  5
1A4
  8
0
  0
ENDSEC
  0
SECTION
  2
ENTITIES
  0
POINT
  5
26
  8
0
 10
0.0
 20
0.0
 30
0.0
  0
POINT
  5
27
  8
0
 10
0.0
 20
0.0
 30
0.0
  0
LINE
  5
28
  8
AM_VIS
 10
2.5717046615244552
 20
5.1773232476762336
 30
0.0
 11
2.5717046615244552
 21
2.814823247676232
 31
0.0
  0
ARC
  5
2A
  8
AM_VIS
 10
0.9967046615244555
 20
5.1773232476762354
 30
0.0
 40
1.575
 50
0.0
 51
180.0
  0
LINE
  5
2B
  8
AM_VIS
 10
-0.5782953384755447
 20
2.8148232476762329
 30
0.0
 11
-0.5782953384755443
 21
5.1773232476762354
 31
0.0
  0
ARC
  5
2C
  8
AM_VIS
 10
0.9967046615244553
 20
2.8148232476762329
 30
0.0
 40
1.575
 50
180.0
 51
0.0
  0
CIRCLE
  5
2D
  8
AM_VIS
 10
0.9967046615244553
 20
1.971073247676234
 30
0.0
 40
0.253125
  0
CIRCLE
  5
2E
  8
AM_VIS
 10
0.9967046615244555
 20
6.0210732476762336
 30
0.0
 40
0.253125
  0
CIRCLE
  5
2F
  8
AM_VIS
 10
0.9967046615244553
 20
3.9960732476762342
 30
0.0
 40
0.8774999999999998
  0
CIRCLE
  5
30
  8
AM_VIS
 10
0.9967046615244553
 20
3.9960732476762342
 30
0.0
 40
1.1025
  0
LINE
  5
31
  8
AM_HID
 10
2.144204661524455
 20
4.1407404328271786
 30
0.0
 11
2.0896720240474629
 21
4.1407404328271786
 31
0.0
  0
LINE
  5
34
  8
AM_HID
 10
2.1442046615244541
 20
3.8514060625252888
 30
0.0
 11
2.0896720240474629
 21
3.8514060625252888
 31
0.0
  0
LINE
  5
35
  8
AM_HID
 10
2.144204661524455
 20
3.9960732476762342
 30
0.0
 11
2.0992046615244551
 21
3.9960732476762342
 31
0.0
  0
LINE
  5
36
  8
AM_VIS
 10
2.1442046615244541
 20
3.7148232476762342
 30
0.0
 11
2.1442046615244541
 21
3.9960732476762342
 31
0.0
  0
LINE
  5
37
  8
AM_VIS
 10
2.1442046615244541
 20
3.9960732476762342
 30
0.0
 11
2.1442046615244541
 21
4.2773232476762342
 31
0.0
  0
LINE
  5
38
  8
AM_VIS
 10
2.1442046615244541
 20
3.7148232476762342
 30
0.0
 11
2.056227650249125
 21
3.691249878552505
 31
0.0
  0
LINE
  5
39
  8
AM_VIS
 10
2.1442046615244541
 20
4.2773232476762342
 30
0.0
 11
2.0562276502491259
 21
4.300896616799962
 31
0.0
  0
LINE
  5
3A
  8
AM_VIS
 10
6.630989124770414
 20
5.1773232476762336
 30
0.0
 11
6.630989124770414
 21
2.814823247676232
 31
0.0
  0
LINE
  5
3B
  8
AM_VIS
 10
6.630989124770414
 20
5.1773232476762354
 30
0.0
 11
6.630989124770414
 21
6.7523232476762347
 31
0.0
  0
LINE
  5
3C
  8
AM_VIS
 10
6.630989124770414
 20
1.2398232476762341
 30
0.0
 11
6.630989124770414
 21
2.8148232476762338
 31
0.0
  0
LINE
  5
3D
  8
AM_VIS
 10
7.0809891247704142
 20
2.8148232476762329
 30
0.0
 11
7.0809891247704142
 21
5.1773232476762336
 31
0.0
  0
LINE
  5
3E
  8
AM_VIS
 10
7.0809891247704142
 20
2.8148232476762329
 30
0.0
 11
7.0809891247704142
 21
1.2398232476762341
 31
0.0
  0
LINE
  5
3F
  8
AM_VIS
 10
7.0809891247704142
 20
6.7523232476762347
 30
0.0
 11
7.0809891247704142
 21
5.1773232476762354
 31
0.0
  0
LINE
  5
40
  8
AM_VIS
 10
3.930989124770413
 20
2.8935732476762341
 30
0.0
 11
3.930989124770413
 21
5.0985732476762342
 31
0.0
  0
LINE
  5
41
  8
AM_VIS
 10
4.6628006952188619
 20
4.1407404328271777
 30
0.0
 11
4.8298479717984693
 21
4.1407404328271777
 31
0.0
  0
LINE
  5
42
  8
AM_VIS
 10
4.8298479717984701
 20
4.1407404328271786
 30
0.0
 11
4.9133716100882721
 21
3.9960732476762342
 31
0.0
  0
LINE
  5
43
  8
AM_VIS
 10
4.9133716100882721
 20
3.9960732476762342
 30
0.0
 11
4.829847971798471
 21
3.8514060625252888
 31
0.0
  0
LINE
  5
44
  8
AM_VIS
 10
4.8298479717984693
 20
3.8514060625252888
 30
0.0
 11
4.6628006952188619
 21
3.8514060625252888
 31
0.0
  0
LINE
  5
45
  8
AM_VIS
 10
4.5792770569290582
 20
3.9960732476762342
 30
0.0
 11
4.6628006952188619
 21
4.1407404328271786
 31
0.0
  0
LINE
  5
46
  8
AM_VIS
 10
4.6628006952188619
 20
3.8514060625252888
 30
0.0
 11
4.5792770569290591
 21
3.9960732476762342
 31
0.0
  0
POLYLINE
  8
AM_VIS
  5
1A5
  66
     1
 10
0.000000
 20
0.000000
 30
0.000000
  70
     8
  0
VERTEX
  8
AM_VIS
  5
1A6
 10
4.74632
 20
3.69125
 30
0.000000
  70
    32
  0
VERTEX
  8
AM_VIS
  5
1A7
 10
4.74799
 20
3.69126
 30
0.000000
  70
    32
  0
VERTEX
  8
AM_VIS
  5
1A8
 10
4.74967
 20
3.69127
 30
0.000000
  70
    32
  0
VERTEX
  8
AM_VIS
  5
1A9
 10
4.75134
 20
3.69130
 30
0.000000
  70
    32
  0
VERTEX
  8
AM_VIS
  5
1AA
 10
4.75302
 20
3.69133
 30
0.000000
  70
    32
  0
VERTEX
  8
AM_VIS
  5
1AB
 10
4.75470
 20
3.69138
 30
0.000000
  70
    32
  0
VERTEX
  8
AM_VIS
  5
1AC
 10
4.75638
 20
3.69144
 30
0.000000
  70
    32
  0
VERTEX
  8
AM_VIS
  5
1AD
 10
4.75806
 20
3.69151
 30
0.000000
  70
    32
  0
VERTEX
  8
AM_VIS
  5
1AE
 10
4.75975
 20
3.69159
 30
0.000000
  70
    32
  0
VERTEX
  8
AM_VIS
  5
1AF
 10
4.76144
 20
3.69167
 30
0.000000
  70
    32
  0
VERTEX
  8
AM_VIS
  5
1B0
 10
4.76312
 20
3.69177
 30
0.000000
  70
    32
  0
VERTEX
  8
AM_VIS
  5
1B1
 10
4.76482
 20
3.69188
 30
0.000000
  70
    32
  0
VERTEX
  8
AM_VIS
  5
1B2
 10
4.76651
 20
3.69200
 30
0.000000
  70
    32
  0
VERTEX
  8
AM_VIS
  5
1B3
 10
4.76820
 20
3.69214
 30
0.000000
  70
    32
  0
VERTEX
  8
AM_VIS
  5
1B4
 10
4.76990
 20
3.69228
 30
0.000000
  70
    32
  0
VERTEX
  8
AM_VIS
  5
1B5
 10
4.77160
 20
3.69243
 30
0.000000
  70
    32
  0
VERTEX
  8
AM_VIS
  5
1B6
 10
4.77329
 20
3.69259
 30
0.000000
  70
    32
  0
VERTEX
  8
AM_VIS
  5
1B7
 10
4.77499
 20
3.69276
 30
0.000000
  70
    32
  0
VERTEX
  8
AM_VIS
  5
1B8
 10
4.77669
 20
3.69295
 30
0.000000
  70
    32
  0
VERTEX
  8
AM_VIS
  5
1B9
 10
4.77839
 20
3.69314
 30
0.000000
  70
    32
  0
VERTEX
  8
AM_VIS
  5
1BA
 10
4.78010
 20
3.69334
 30
0.000000
  70
    32
  0
VERTEX
  8
AM_VIS
  5
1BB
 10
4.78180
 20
3.69356
 30
0.000000
  70
    32
  0
VERTEX
  8
AM_VIS
  5
1BC
 10
4.78350
 20
3.69378
 30
0.000000
  70
    32
  0
VERTEX
  8
AM_VIS
  5
1BD
 10
4.78520
 20
3.69402
 30
0.000000
  70
    32
  0
VERTEX
  8
AM_VIS
  5
1BE
 10
4.78691
 20
3.69427
 30
0.000000
  70
    32
  0
VERTEX
  8
AM_VIS
  5
1BF
 10
4.78861
 20
3.69452
 30
0.000000
  70
    32
  0
VERTEX
  8
AM_VIS
  5
1C0
 10
4.79031
 20
3.69479
 30
0.000000
  70
    32
  0
VERTEX
  8
AM_VIS
  5
1C1
 10
4.79202
 20
3.69506
 30
0.000000
  70
    32
  0
VERTEX
  8
AM_VIS
  5
1C2
 10
4.79372
 20
3.69535
 30
0.000000
  70
    32
  0
VERTEX
  8
AM_VIS
  5
1C3
 10
4.79542
 20
3.69565
 30
0.000000
  70
    32
  0
VERTEX
  8
AM_VIS
  5
1C4
 10
4.79713
 20
3.69596
 30
0.000000
  70
    32
  0
VERTEX
  8
AM_VIS
  5
1C5
 10
4.79883
 20
3.69628
 30
0.000000
  70
    32
  0
VERTEX
  8
AM_VIS
  5
1C6
 10
4.80053
 20
3.69661
 30
0.000000
  70
    32
  0
VERTEX
  8
AM_VIS
  5
1C7
 10
4.80223
 20
3.69695
 30
0.000000
  70
    32
  0
VERTEX
  8
AM_VIS
  5
1C8
 10
4.80393
 20
3.69730
 30
0.000000
  70
    32
  0
VERTEX
  8
AM_VIS
  5
1C9
 10
4.80563
 20
3.69766
 30
0.000000
  70
    32
  0
VERTEX
  8
AM_VIS
  5
1CA
 10
4.80733
 20
3.69803
 30
0.000000
  70
    32
  0
VERTEX
  8
AM_VIS
  5
1CB
 10
4.80903
 20
3.69841
 30
0.000000
  70
    32
  0
VERTEX
  8
AM_VIS
  5
1CC
 10
4.81072
 20
3.69880
 30
0.000000
  70
    32
  0
VERTEX
  8
AM_VIS
  5
1CD
 10
4.81242
 20
3.69920
 30
0.000000
  70
    32
  0
VERTEX
  8
AM_VIS
  5
1CE
 10
4.81411
 20
3.69961
 30
0.000000
  70
    32
  0
VERTEX
  8
AM_VIS
  5
1CF
 10
4.81580
 20
3.70003
 30
0.000000
  70
    32
  0
VERTEX
  8
AM_VIS
  5
1D0
 10
4.81749
 20
3.70047
 30
0.000000
  70
    32
  0
VERTEX
  8
AM_VIS
  5
1D1
 10
4.81918
 20
3.70091
 30
0.000000
  70
    32
  0
VERTEX
  8
AM_VIS
  5
1D2
 10
4.82087
 20
3.70136
 30
0.000000
  70
    32
  0
VERTEX
  8
AM_VIS
  5
1D3
 10
4.82255
 20
3.70183
 30
0.000000
  70
    32
  0
VERTEX
  8
AM_VIS
  5
1D4
 10
4.82423
 20
3.70230
 30
0.000000
  70
    32
  0
VERTEX
  8
AM_VIS
  5
1D5
 10
4.82591
 20
3.70279
 30
0.000000
  70
    32
  0
VERTEX
  8
AM_VIS
  5
1D6
 10
4.82759
 20
3.70328
 30
0.000000
  70
    32
  0
VERTEX
  8
AM_VIS
  5
1D7
 10
4.82926
 20
3.70379
 30
0.000000
  70
    32
  0
VERTEX
  8
AM_VIS
  5
1D8
 10
4.83094
 20
3.70430
 30
0.000000
  70
    32
  0
VERTEX
  8
AM_VIS
  5
1D9
 10
4.83261
 20
3.70483
 30
0.000000
  70
    32
  0
VERTEX
  8
AM_VIS
  5
1DA
 10
4.83427
 20
3.70537
 30
0.000000
  70
    32
  0
VERTEX
  8
AM_VIS
  5
1DB
 10
4.83594
 20
3.70591
 30
0.000000
  70
    32
  0
VERTEX
  8
AM_VIS
  5
1DC
 10
4.83760
 20
3.70647
 30
0.000000
  70
    32
  0
VERTEX
  8
AM_VIS
  5
1DD
 10
4.83926
 20
3.70704
 30
0.000000
  70
    32
  0
VERTEX
  8
AM_VIS
  5
1DE
 10
4.84091
 20
3.70762
 30
0.000000
  70
    32
  0
VERTEX
  8
AM_VIS
  5
1DF
 10
4.84256
 20
3.70820
 30
0.000000
  70
    32
  0
VERTEX
  8
AM_VIS
  5
1E0
 10
4.84421
 20
3.70880
 30
0.000000
  70
    32
  0
VERTEX
  8
AM_VIS
  5
1E1
 10
4.84586
 20
3.70941
 30
0.000000
  70
    32
  0
VERTEX
  8
AM_VIS
  5
1E2
 10
4.84750
 20
3.71003
 30
0.000000
  70
    32
  0
VERTEX
  8
AM_VIS
  5
1E3
 10
4.84913
 20
3.71066
 30
0.000000
  70
    32
  0
VERTEX
  8
AM_VIS
  5
1E4
 10
4.85077
 20
3.71130
 30
0.000000
  70
    32
  0
VERTEX
  8
AM_VIS
  5
1E5
 10
4.85240
 20
3.71195
 30
0.000000
  70
    32
  0
VERTEX
  8
AM_VIS
  5
1E6
 10
4.85402
 20
3.71261
 30
0.000000
  70
    32
  0
VERTEX
  8
AM_VIS
  5
1E7
 10
4.85564
 20
3.71328
 30
0.000000
  70
    32
  0
VERTEX
  8
AM_VIS
  5
1E8
 10
4.85726
 20
3.71396
 30
0.000000
  70
    32
  0
VERTEX
  8
AM_VIS
  5
1E9
 10
4.85887
 20
3.71465
 30
0.000000
  70
    32
  0
VERTEX
  8
AM_VIS
  5
1EA
 10
4.86048
 20
3.71535
 30
0.000000
  70
    32
  0
VERTEX
  8
AM_VIS
  5
1EB
 10
4.86208
 20
3.71606
 30
0.000000
  70
    32
  0
VERTEX
  8
AM_VIS
  5
1EC
 10
4.86368
 20
3.71679
 30
0.000000
  70
    32
  0
VERTEX
  8
AM_VIS
  5
1ED
 10
4.86528
 20
3.71752
 30
0.000000
  70
    32
  0
VERTEX
  8
AM_VIS
  5
1EE
 10
4.86687
 20
3.71826
 30
0.000000
  70
    32
  0
VERTEX
  8
AM_VIS
  5
1EF
 10
4.86845
 20
3.71901
 30
0.000000
  70
    32
  0
VERTEX
  8
AM_VIS
  5
1F0
 10
4.87003
 20
3.71977
 30
0.000000
  70
    32
  0
VERTEX
  8
AM_VIS
  5
1F1
 10
4.87160
 20
3.72055
 30
0.000000
  70
    32
  0
VERTEX
  8
AM_VIS
  5
1F2
 10
4.87317
 20
3.72133
 30
0.000000
  70
    32
  0
VERTEX
  8
AM_VIS
  5
1F3
 10
4.87474
 20
3.72212
 30
0.000000
  70
    32
  0
VERTEX
  8
AM_VIS
  5
1F4
 10
4.87630
 20
3.72292
 30
0.000000
  70
    32
  0
VERTEX
  8
AM_VIS
  5
1F5
 10
4.87785
 20
3.72373
 30
0.000000
  70
    32
  0
VERTEX
  8
AM_VIS
  5
1F6
 10
4.87940
 20
3.72455
 30
0.000000
  70
    32
  0
VERTEX
  8
AM_VIS
  5
1F7
 10
4.88094
 20
3.72537
 30
0.000000
  70
    32
  0
VERTEX
  8
AM_VIS
  5
1F8
 10
4.88248
 20
3.72621
 30
0.000000
  70
    32
  0
VERTEX
  8
AM_VIS
  5
1F9
 10
4.88401
 20
3.72706
 30
0.000000
  70
    32
  0
VERTEX
  8
AM_VIS
  5
1FA
 10
4.88553
 20
3.72791
 30
0.000000
  70
    32
  0
VERTEX
  8
AM_VIS
  5
1FB
 10
4.88706
 20
3.72878
 30
0.000000
  70
    32
  0
VERTEX
  8
AM_VIS
  5
1FC
 10
4.88857
 20
3.72965
 30
0.000000
  70
    32
  0
VERTEX
  8
AM_VIS
  5
1FD
 10
4.89008
 20
3.73053
 30
0.000000
  70
    32
  0
VERTEX
  8
AM_VIS
  5
1FE
 10
4.89158
 20
3.73142
 30
0.000000
  70
    32
  0
VERTEX
  8
AM_VIS
  5
1FF
 10
4.89308
 20
3.73232
 30
0.000000
  70
    32
  0
VERTEX
  8
AM_VIS
  5
200
 10
4.89457
 20
3.73323
 30
0.000000
  70
    32
  0
VERTEX
  8
AM_VIS
  5
201
 10
4.89605
 20
3.73414
 30
0.000000
  70
    32
  0
VERTEX
  8
AM_VIS
  5
202
 10
4.89753
 20
3.73507
 30
0.000000
  70
    32
  0
VERTEX
  8
AM_VIS
  5
203
 10
4.89901
 20
3.73600
 30
0.000000
  70
    32
  0
VERTEX
  8
AM_VIS
  5
204
 10
4.90047
 20
3.73694
 30
0.000000
  70
    32
  0
VERTEX
  8
AM_VIS
  5
205
 10
4.90193
 20
3.73789
 30
0.000000
  70
    32
  0
VERTEX
  8
AM_VIS
  5
206
 10
4.90338
 20
3.73884
 30
0.000000
  70
    32
  0
VERTEX
  8
AM_VIS
  5
207
 10
4.90483
 20
3.73981
 30
0.000000
  70
    32
  0
VERTEX
  8
AM_VIS
  5
208
 10
4.90627
 20
3.74078
 30
0.000000
  70
    32
  0
VERTEX
  8
AM_VIS
  5
209
 10
4.90771
 20
3.74176
 30
0.000000
  70
    32
  0
VERTEX
  8
AM_VIS
  5
20A
 10
4.90913
 20
3.74274
 30
0.000000
  70
    32
  0
VERTEX
  8
AM_VIS
  5
20B
 10
4.91055
 20
3.74374
 30
0.000000
  70
    32
  0
VERTEX
  8
AM_VIS
  5
20C
 10
4.91197
 20
3.74474
 30
0.000000
  70
    32
  0
VERTEX
  8
AM_VIS
  5
20D
 10
4.91337
 20
3.74575
 30
0.000000
  70
    32
  0
VERTEX
  8
AM_VIS
  5
20E
 10
4.91477
 20
3.74676
 30
0.000000
  70
    32
  0
VERTEX
  8
AM_VIS
  5
20F
 10
4.91616
 20
3.74778
 30
0.000000
  70
    32
  0
VERTEX
  8
AM_VIS
  5
210
 10
4.91755
 20
3.74881
 30
0.000000
  70
    32
  0
VERTEX
  8
AM_VIS
  5
211
 10
4.91893
 20
3.74985
 30
0.000000
  70
    32
  0
VERTEX
  8
AM_VIS
  5
212
 10
4.92030
 20
3.75089
 30
0.000000
  70
    32
  0
VERTEX
  8
AM_VIS
  5
213
 10
4.92166
 20
3.75194
 30
0.000000
  70
    32
  0
VERTEX
  8
AM_VIS
  5
214
 10
4.92302
 20
3.75300
 30
0.000000
  70
    32
  0
VERTEX
  8
AM_VIS
  5
215
 10
4.92437
 20
3.75407
 30
0.000000
  70
    32
  0
VERTEX
  8
AM_VIS
  5
216
 10
4.92571
 20
3.75514
 30
0.000000
  70
    32
  0
VERTEX
  8
AM_VIS
  5
217
 10
4.92704
 20
3.75621
 30
0.000000
  70
    32
  0
VERTEX
  8
AM_VIS
  5
218
 10
4.92837
 20
3.75729
 30
0.000000
  70
    32
  0
VERTEX
  8
AM_VIS
  5
219
 10
4.92969
 20
3.75838
 30
0.000000
  70
    32
  0
VERTEX
  8
AM_VIS
  5
21A
 10
4.93100
 20
3.75948
 30
0.000000
  70
    32
  0
VERTEX
  8
AM_VIS
  5
21B
 10
4.93230
 20
3.76058
 30
0.000000
  70
    32
  0
VERTEX
  8
AM_VIS
  5
21C
 10
4.93359
 20
3.76169
 30
0.000000
  70
    32
  0
VERTEX
  8
AM_VIS
  5
21D
 10
4.93488
 20
3.76280
 30
0.000000
  70
    32
  0
VERTEX
  8
AM_VIS
  5
21E
 10
4.93616
 20
3.76392
 30
0.000000
  70
    32
  0
VERTEX
  8
AM_VIS
  5
21F
 10
4.93743
 20
3.76504
 30
0.000000
  70
    32
  0
VERTEX
  8
AM_VIS
  5
220
 10
4.93869
 20
3.76617
 30
0.000000
  70
    32
  0
VERTEX
  8
AM_VIS
  5
221
 10
4.93995
 20
3.76731
 30
0.000000
  70
    32
  0
VERTEX
  8
AM_VIS
  5
222
 10
4.94119
 20
3.76845
 30
0.000000
  70
    32
  0
VERTEX
  8
AM_VIS
  5
223
 10
4.94243
 20
3.76959
 30
0.000000
  70
    32
  0
VERTEX
  8
AM_VIS
  5
224
 10
4.94366
 20
3.77074
 30
0.000000
  70
    32
  0
VERTEX
  8
AM_VIS
  5
225
 10
4.94488
 20
3.77190
 30
0.000000
  70
    32
  0
VERTEX
  8
AM_VIS
  5
226
 10
4.94609
 20
3.77306
 30
0.000000
  70
    32
  0
VERTEX
  8
AM_VIS
  5
227
 10
4.94729
 20
3.77423
 30
0.000000
  70
    32
  0
VERTEX
  8
AM_VIS
  5
228
 10
4.94849
 20
3.77540
 30
0.000000
  70
    32
  0
VERTEX
  8
AM_VIS
  5
229
 10
4.94967
 20
3.77657
 30
0.000000
  70
    32
  0
VERTEX
  8
AM_VIS
  5
22A
 10
4.95085
 20
3.77776
 30
0.000000
  70
    32
  0
VERTEX
  8
AM_VIS
  5
22B
 10
4.95202
 20
3.77894
 30
0.000000
  70
    32
  0
VERTEX
  8
AM_VIS
  5
22C
 10
4.95317
 20
3.78013
 30
0.000000
  70
    32
  0
VERTEX
  8
AM_VIS
  5
22D
 10
4.95432
 20
3.78132
 30
0.000000
  70
    32
  0
VERTEX
  8
AM_VIS
  5
22E
 10
4.95546
 20
3.78252
 30
0.000000
  70
    32
  0
VERTEX
  8
AM_VIS
  5
22F
 10
4.95659
 20
3.78373
 30
0.000000
  70
    32
  0
VERTEX
  8
AM_VIS
  5
230
 10
4.95772
 20
3.78494
 30
0.000000
  70
    32
  0
VERTEX
  8
AM_VIS
  5
231
 10
4.95884
 20
3.78616
 30
0.000000
  70
    32
  0
VERTEX
  8
AM_VIS
  5
232
 10
4.95996
 20
3.78739
 30
0.000000
  70
    32
  0
VERTEX
  8
AM_VIS
  5
233
 10
4.96107
 20
3.78863
 30
0.000000
  70
    32
  0
VERTEX
  8
AM_VIS
  5
234
 10
4.96218
 20
3.78987
 30
0.000000
  70
    32
  0
VERTEX
  8
AM_VIS
  5
235
 10
4.96328
 20
3.79113
 30
0.000000
  70
    32
  0
VERTEX
  8
AM_VIS
  5
236
 10
4.96438
 20
3.79239
 30
0.000000
  70
    32
  0
VERTEX
  8
AM_VIS
  5
237
 10
4.96547
 20
3.79367
 30
0.000000
  70
    32
  0
VERTEX
  8
AM_VIS
  5
238
 10
4.96655
 20
3.79495
 30
0.000000
  70
    32
  0
VERTEX
  8
AM_VIS
  5
239
 10
4.96763
 20
3.79624
 30
0.000000
  70
    32
  0
VERTEX
  8
AM_VIS
  5
23A
 10
4.96871
 20
3.79753
 30
0.000000
  70
    32
  0
VERTEX
  8
AM_VIS
  5
23B
 10
4.96978
 20
3.79884
 30
0.000000
  70
    32
  0
VERTEX
  8
AM_VIS
  5
23C
 10
4.97084
 20
3.80015
 30
0.000000
  70
    32
  0
VERTEX
  8
AM_VIS
  5
23D
 10
4.97190
 20
3.80148
 30
0.000000
  70
    32
  0
VERTEX
  8
AM_VIS
  5
23E
 10
4.97295
 20
3.80281
 30
0.000000
  70
    32
  0
VERTEX
  8
AM_VIS
  5
23F
 10
4.97400
 20
3.80414
 30
0.000000
  70
    32
  0
VERTEX
  8
AM_VIS
  5
240
 10
4.97504
 20
3.80549
 30
0.000000
  70
    32
  0
VERTEX
  8
AM_VIS
  5
241
 10
4.97607
 20
3.80684
 30
0.000000
  70
    32
  0
VERTEX
  8
AM_VIS
  5
242
 10
4.97710
 20
3.80820
 30
0.000000
  70
    32
  0
VERTEX
  8
AM_VIS
  5
243
 10
4.97812
 20
3.80957
 30
0.000000
  70
    32
  0
VERTEX
  8
AM_VIS
  5
244
 10
4.97914
 20
3.81095
 30
0.000000
  70
    32
  0
VERTEX
  8
AM_VIS
  5
245
 10
4.98015
 20
3.81233
 30
0.000000
  70
    32
  0
VERTEX
  8
AM_VIS
  5
246
 10
4.98116
 20
3.81372
 30
0.000000
  70
    32
  0
VERTEX
  8
AM_VIS
  5
247
 10
4.98215
 20
3.81512
 30
0.000000
  70
    32
  0
VERTEX
  8
AM_VIS
  5
248
 10
4.98314
 20
3.81653
 30
0.000000
  70
    32
  0
VERTEX
  8
AM_VIS
  5
249
 10
4.98413
 20
3.81794
 30
0.000000
  70
    32
  0
VERTEX
  8
AM_VIS
  5
24A
 10
4.98511
 20
3.81936
 30
0.000000
  70
    32
  0
VERTEX
  8
AM_VIS
  5
24B
 10
4.98608
 20
3.82078
 30
0.000000
  70
    32
  0
VERTEX
  8
AM_VIS
  5
24C
 10
4.98704
 20
3.82222
 30
0.000000
  70
    32
  0
VERTEX
  8
AM_VIS
  5
24D
 10
4.98800
 20
3.82366
 30
0.000000
  70
    32
  0
VERTEX
  8
AM_VIS
  5
24E
 10
4.98895
 20
3.82511
 30
0.000000
  70
    32
  0
VERTEX
  8
AM_VIS
  5
24F
 10
4.98989
 20
3.82656
 30
0.000000
  70
    32
  0
VERTEX
  8
AM_VIS
  5
250
 10
4.99083
 20
3.82802
 30
0.000000
  70
    32
  0
VERTEX
  8
AM_VIS
  5
251
 10
4.99176
 20
3.82949
 30
0.000000
  70
    32
  0
VERTEX
  8
AM_VIS
  5
252
 10
4.99268
 20
3.83096
 30
0.000000
  70
    32
  0
VERTEX
  8
AM_VIS
  5
253
 10
4.99359
 20
3.83244
 30
0.000000
  70
    32
  0
VERTEX
  8
AM_VIS
  5
254
 10
4.99450
 20
3.83393
 30
0.000000
  70
    32
  0
VERTEX
  8
AM_VIS
  5
255
 10
4.99540
 20
3.83542
 30
0.000000
  70
    32
  0
VERTEX
  8
AM_VIS
  5
256
 10
4.99629
 20
3.83692
 30
0.000000
  70
    32
  0
VERTEX
  8
AM_VIS
  5
257
 10
4.99717
 20
3.83842
 30
0.000000
  70
    32
  0
VERTEX
  8
AM_VIS
  5
258
 10
4.99805
 20
3.83993
 30
0.000000
  70
    32
  0
VERTEX
  8
AM_VIS
  5
259
 10
4.99892
 20
3.84145
 30
0.000000
  70
    32
  0
VERTEX
  8
AM_VIS
  5
25A
 10
4.99978
 20
3.84297
 30
0.000000
  70
    32
  0
VERTEX
  8
AM_VIS
  5
25B
 10
5.00063
 20
3.84450
 30
0.000000
  70
    32
  0
VERTEX
  8
AM_VIS
  5
25C
 10
5.00148
 20
3.84603
 30
0.000000
  70
    32
  0
VERTEX
  8
AM_VIS
  5
25D
 10
5.00232
 20
3.84757
 30
0.000000
  70
    32
  0
VERTEX
  8
AM_VIS
  5
25E
 10
5.00315
 20
3.84912
 30
0.000000
  70
    32
  0
VERTEX
  8
AM_VIS
  5
25F
 10
5.00397
 20
3.85067
 30
0.000000
  70
    32
  0
VERTEX
  8
AM_VIS
  5
260
 10
5.00478
 20
3.85223
 30
0.000000
  70
    32
  0
VERTEX
  8
AM_VIS
  5
261
 10
5.00558
 20
3.85379
 30
0.000000
  70
    32
  0
VERTEX
  8
AM_VIS
  5
262
 10
5.00638
 20
3.85535
 30
0.000000
  70
    32
  0
VERTEX
  8
AM_VIS
  5
263
 10
5.00717
 20
3.85693
 30
0.000000
  70
    32
  0
VERTEX
  8
AM_VIS
  5
264
 10
5.00794
 20
3.85850
 30
0.000000
  70
    32
  0
VERTEX
  8
AM_VIS
  5
265
 10
5.00871
 20
3.86009
 30
0.000000
  70
    32
  0
VERTEX
  8
AM_VIS
  5
266
 10
5.00948
 20
3.86167
 30
0.000000
  70
    32
  0
VERTEX
  8
AM_VIS
  5
267
 10
5.01023
 20
3.86327
 30
0.000000
  70
    32
  0
VERTEX
  8
AM_VIS
  5
268
 10
5.01097
 20
3.86486
 30
0.000000
  70
    32
  0
VERTEX
  8
AM_VIS
  5
269
 10
5.01171
 20
3.86647
 30
0.000000
  70
    32
  0
VERTEX
  8
AM_VIS
  5
26A
 10
5.01243
 20
3.86807
 30
0.000000
  70
    32
  0
VERTEX
  8
AM_VIS
  5
26B
 10
5.01315
 20
3.86968
 30
0.000000
  70
    32
  0
VERTEX
  8
AM_VIS
  5
26C
 10
5.01386
 20
3.87130
 30
0.000000
  70
    32
  0
VERTEX
  8
AM_VIS
  5
26D
 10
5.01455
 20
3.87292
 30
0.000000
  70
    32
  0
VERTEX
  8
AM_VIS
  5
26E
 10
5.01524
 20
3.87454
 30
0.000000
  70
    32
  0
VERTEX
  8
AM_VIS
  5
26F
 10
5.01592
 20
3.87617
 30
0.000000
  70
    32
  0
VERTEX
  8
AM_VIS
  5
270
 10
5.01659
 20
3.87781
 30
0.000000
  70
    32
  0
VERTEX
  8
AM_VIS
  5
271
 10
5.01725
 20
3.87944
 30
0.000000
  70
    32
  0
VERTEX
  8
AM_VIS
  5
272
 10
5.01790
 20
3.88108
 30
0.000000
  70
    32
  0
VERTEX
  8
AM_VIS
  5
273
 10
5.01854
 20
3.88273
 30
0.000000
  70
    32
  0
VERTEX
  8
AM_VIS
  5
274
 10
5.01917
 20
3.88438
 30
0.000000
  70
    32
  0
VERTEX
  8
AM_VIS
  5
275
 10
5.01980
 20
3.88603
 30
0.000000
  70
    32
  0
VERTEX
  8
AM_VIS
  5
276
 10
5.02041
 20
3.88769
 30
0.000000
  70
    32
  0
VERTEX
  8
AM_VIS
  5
277
 10
5.02101
 20
3.88935
 30
0.000000
  70
    32
  0
VERTEX
  8
AM_VIS
  5
278
 10
5.02160
 20
3.89101
 30
0.000000
  70
    32
  0
VERTEX
  8
AM_VIS
  5
279
 10
5.02218
 20
3.89268
 30
0.000000
  70
    32
  0
VERTEX
  8
AM_VIS
  5
27A
 10
5.02276
 20
3.89435
 30
0.000000
  70
    32
  0
VERTEX
  8
AM_VIS
  5
27B
 10
5.02332
 20
3.89603
 30
0.000000
  70
    32
  0
VERTEX
  8
AM_VIS
  5
27C
 10
5.02387
 20
3.89770
 30
0.000000
  70
    32
  0
VERTEX
  8
AM_VIS
  5
27D
 10
5.02442
 20
3.89938
 30
0.000000
  70
    32
  0
VERTEX
  8
AM_VIS
  5
27E
 10
5.02495
 20
3.90106
 30
0.000000
  70
    32
  0
VERTEX
  8
AM_VIS
  5
27F
 10
5.02548
 20
3.90275
 30
0.000000
  70
    32
  0
VERTEX
  8
AM_VIS
  5
280
 10
5.02599
 20
3.90444
 30
0.000000
  70
    32
  0
VERTEX
  8
AM_VIS
  5
281
 10
5.02650
 20
3.90613
 30
0.000000
  70
    32
  0
VERTEX
  8
AM_VIS
  5
282
 10
5.02699
 20
3.90782
 30
0.000000
  70
    32
  0
VERTEX
  8
AM_VIS
  5
283
 10
5.02748
 20
3.90952
 30
0.000000
  70
    32
  0
VERTEX
  8
AM_VIS
  5
284
 10
5.02796
 20
3.91122
 30
0.000000
  70
    32
  0
VERTEX
  8
AM_VIS
  5
285
 10
5.02842
 20
3.91291
 30
0.000000
  70
    32
  0
VERTEX
  8
AM_VIS
  5
286
 10
5.02888
 20
3.91462
 30
0.000000
  70
    32
  0
VERTEX
  8
AM_VIS
  5
287
 10
5.02933
 20
3.91632
 30
0.000000
  70
    32
  0
VERTEX
  8
AM_VIS
  5
288
 10
5.02977
 20
3.91803
 30
0.000000
  70
    32
  0
VERTEX
  8
AM_VIS
  5
289
 10
5.03019
 20
3.91973
 30
0.000000
  70
    32
  0
VERTEX
  8
AM_VIS
  5
28A
 10
5.03061
 20
3.92144
 30
0.000000
  70
    32
  0
VERTEX
  8
AM_VIS
  5
28B
 10
5.03102
 20
3.92315
 30
0.000000
  70
    32
  0
VERTEX
  8
AM_VIS
  5
28C
 10
5.03142
 20
3.92486
 30
0.000000
  70
    32
  0
VERTEX
  8
AM_VIS
  5
28D
 10
5.03181
 20
3.92657
 30
0.000000
  70
    32
  0
VERTEX
  8
AM_VIS
  5
28E
 10
5.03219
 20
3.92829
 30
0.000000
  70
    32
  0
VERTEX
  8
AM_VIS
  5
28F
 10
5.03256
 20
3.93000
 30
0.000000
  70
    32
  0
VERTEX
  8
AM_VIS
  5
290
 10
5.03293
 20
3.93172
 30
0.000000
  70
    32
  0
VERTEX
  8
AM_VIS
  5
291
 10
5.03328
 20
3.93343
 30
0.000000
  70
    32
  0
VERTEX
  8
AM_VIS
  5
292
 10
5.03362
 20
3.93515
 30
0.000000
  70
    32
  0
VERTEX
  8
AM_VIS
  5
293
 10
5.03395
 20
3.93687
 30
0.000000
  70
    32
  0
VERTEX
  8
AM_VIS
  5
294
 10
5.03428
 20
3.93859
 30
0.000000
  70
    32
  0
VERTEX
  8
AM_VIS
  5
295
 10
5.03459
 20
3.94030
 30
0.000000
  70
    32
  0
VERTEX
  8
AM_VIS
  5
296
 10
5.03489
 20
3.94202
 30
0.000000
  70
    32
  0
VERTEX
  8
AM_VIS
  5
297
 10
5.03519
 20
3.94374
 30
0.000000
  70
    32
  0
VERTEX
  8
AM_VIS
  5
298
 10
5.03547
 20
3.94546
 30
0.000000
  70
    32
  0
VERTEX
  8
AM_VIS
  5
299
 10
5.03575
 20
3.94718
 30
0.000000
  70
    32
  0
VERTEX
  8
AM_VIS
  5
29A
 10
5.03602
 20
3.94890
 30
0.000000
  70
    32
  0
VERTEX
  8
AM_VIS
  5
29B
 10
5.03627
 20
3.95061
 30
0.000000
  70
    32
  0
VERTEX
  8
AM_VIS
  5
29C
 10
5.03652
 20
3.95233
 30
0.000000
  70
    32
  0
VERTEX
  8
AM_VIS
  5
29D
 10
5.03676
 20
3.95405
 30
0.000000
  70
    32
  0
VERTEX
  8
AM_VIS
  5
29E
 10
5.03698
 20
3.95577
 30
0.000000
  70
    32
  0
VERTEX
  8
AM_VIS
  5
29F
 10
5.03720
 20
3.95748
 30
0.000000
  70
    32
  0
VERTEX
  8
AM_VIS
  5
2A0
 10
5.03741
 20
3.95920
 30
0.000000
  70
    32
  0
VERTEX
  8
AM_VIS
  5
2A1
 10
5.03761
 20
3.96091
 30
0.000000
  70
    32
  0
VERTEX
  8
AM_VIS
  5
2A2
 10
5.03780
 20
3.96262
 30
0.000000
  70
    32
  0
VERTEX
  8
AM_VIS
  5
2A3
 10
5.03798
 20
3.96434
 30
0.000000
  70
    32
  0
VERTEX
  8
AM_VIS
  5
2A4
 10
5.03816
 20
3.96605
 30
0.000000
  70
    32
  0
VERTEX
  8
AM_VIS
  5
2A5
 10
5.03832
 20
3.96775
 30
0.000000
  70
    32
  0
VERTEX
  8
AM_VIS
  5
2A6
 10
5.03847
 20
3.96946
 30
0.000000
  70
    32
  0
VERTEX
  8
AM_VIS
  5
2A7
 10
5.03861
 20
3.97117
 30
0.000000
  70
    32
  0
VERTEX
  8
AM_VIS
  5
2A8
 10
5.03875
 20
3.97287
 30
0.000000
  70
    32
  0
VERTEX
  8
AM_VIS
  5
2A9
 10
5.03887
 20
3.97457
 30
0.000000
  70
    32
  0
VERTEX
  8
AM_VIS
  5
2AA
 10
5.03899
 20
3.97628
 30
0.000000
  70
    32
  0
VERTEX
  8
AM_VIS
  5
2AB
 10
5.03909
 20
3.97797
 30
0.000000
  70
    32
  0
VERTEX
  8
AM_VIS
  5
2AC
 10
5.03919
 20
3.97967
 30
0.000000
  70
    32
  0
VERTEX
  8
AM_VIS
  5
2AD
 10
5.03927
 20
3.98136
 30
0.000000
  70
    32
  0
VERTEX
  8
AM_VIS
  5
2AE
 10
5.03935
 20
3.98306
 30
0.000000
  70
    32
  0
VERTEX
  8
AM_VIS
  5
2AF
 10
5.03942
 20
3.98474
 30
0.000000
  70
    32
  0
VERTEX
  8
AM_VIS
  5
2B0
 10
5.03948
 20
3.98643
 30
0.000000
  70
    32
  0
VERTEX
  8
AM_VIS
  5
2B1
 10
5.03953
 20
3.98812
 30
0.000000
  70
    32
  0
VERTEX
  8
AM_VIS
  5
2B2
 10
5.03957
 20
3.98980
 30
0.000000
  70
    32
  0
VERTEX
  8
AM_VIS
  5
2B3
 10
5.03960
 20
3.99147
 30
0.000000
  70
    32
  0
VERTEX
  8
AM_VIS
  5
2B4
 10
5.03962
 20
3.99315
 30
0.000000
  70
    32
  0
VERTEX
  8
AM_VIS
  5
2B5
 10
5.03963
 20
3.99482
 30
0.000000
  70
    32
  0
VERTEX
  8
AM_VIS
  5
2B6
 10
5.03963
 20
3.99649
 30
0.000000
  70
    32
  0
VERTEX
  8
AM_VIS
  5
2B7
 10
5.03962
 20
3.99816
 30
0.000000
  70
    32
  0
VERTEX
  8
AM_VIS
  5
2B8
 10
5.03961
 20
3.99983
 30
0.000000
  70
    32
  0
VERTEX
  8
AM_VIS
  5
2B9
 10
5.03958
 20
4.00151
 30
0.000000
  70
    32
  0
VERTEX
  8
AM_VIS
  5
2BA
 10
5.03955
 20
4.00319
 30
0.000000
  70
    32
  0
VERTEX
  8
AM_VIS
  5
2BB
 10
5.03950
 20
4.00487
 30
0.000000
  70
    32
  0
VERTEX
  8
AM_VIS
  5
2BC
 10
5.03945
 20
4.00656
 30
0.000000
  70
    32
  0
VERTEX
  8
AM_VIS
  5
2BD
 10
5.03939
 20
4.00825
 30
0.000000
  70
    32
  0
VERTEX
  8
AM_VIS
  5
2BE
 10
5.03931
 20
4.00994
 30
0.000000
  70
    32
  0
VERTEX
  8
AM_VIS
  5
2BF
 10
5.03923
 20
4.01163
 30
0.000000
  70
    32
  0
VERTEX
  8
AM_VIS
  5
2C0
 10
5.03914
 20
4.01332
 30
0.000000
  70
    32
  0
VERTEX
  8
AM_VIS
  5
2C1
 10
5.03904
 20
4.01502
 30
0.000000
  70
    32
  0
VERTEX
  8
AM_VIS
  5
2C2
 10
5.03893
 20
4.01672
 30
0.000000
  70
    32
  0
VERTEX
  8
AM_VIS
  5
2C3
 10
5.03881
 20
4.01842
 30
0.000000
  70
    32
  0
VERTEX
  8
AM_VIS
  5
2C4
 10
5.03868
 20
4.02013
 30
0.000000
  70
    32
  0
VERTEX
  8
AM_VIS
  5
2C5
 10
5.03854
 20
4.02183
 30
0.000000
  70
    32
  0
VERTEX
  8
AM_VIS
  5
2C6
 10
5.03839
 20
4.02354
 30
0.000000
  70
    32
  0
VERTEX
  8
AM_VIS
  5
2C7
 10
5.03824
 20
4.02525
 30
0.000000
  70
    32
  0
VERTEX
  8
AM_VIS
  5
2C8
 10
5.03807
 20
4.02696
 30
0.000000
  70
    32
  0
VERTEX
  8
AM_VIS
  5
2C9
 10
5.03789
 20
4.02867
 30
0.000000
  70
    32
  0
VERTEX
  8
AM_VIS
  5
2CA
 10
5.03771
 20
4.03038
 30
0.000000
  70
    32
  0
VERTEX
  8
AM_VIS
  5
2CB
 10
5.03751
 20
4.03209
 30
0.000000
  70
    32
  0
VERTEX
  8
AM_VIS
  5
2CC
 10
5.03731
 20
4.03381
 30
0.000000
  70
    32
  0
VERTEX
  8
AM_VIS
  5
2CD
 10
5.03710
 20
4.03552
 30
0.000000
  70
    32
  0
VERTEX
  8
AM_VIS
  5
2CE
 10
5.03687
 20
4.03724
 30
0.000000
  70
    32
  0
VERTEX
  8
AM_VIS
  5
2CF
 10
5.03664
 20
4.03896
 30
0.000000
  70
    32
  0
VERTEX
  8
AM_VIS
  5
2D0
 10
5.03640
 20
4.04067
 30
0.000000
  70
    32
  0
VERTEX
  8
AM_VIS
  5
2D1
 10
5.03614
 20
4.04239
 30
0.000000
  70
    32
  0
VERTEX
  8
AM_VIS
  5
2D2
 10
5.03588
 20
4.04411
 30
0.000000
  70
    32
  0
VERTEX
  8
AM_VIS
  5
2D3
 10
5.03561
 20
4.04583
 30
0.000000
  70
    32
  0
VERTEX
  8
AM_VIS
  5
2D4
 10
5.03533
 20
4.04755
 30
0.000000
  70
    32
  0
VERTEX
  8
AM_VIS
  5
2D5
 10
5.03504
 20
4.04926
 30
0.000000
  70
    32
  0
VERTEX
  8
AM_VIS
  5
2D6
 10
5.03474
 20
4.05098
 30
0.000000
  70
    32
  0
VERTEX
  8
AM_VIS
  5
2D7
 10
5.03443
 20
4.05270
 30
0.000000
  70
    32
  0
VERTEX
  8
AM_VIS
  5
2D8
 10
5.03412
 20
4.05442
 30
0.000000
  70
    32
  0
VERTEX
  8
AM_VIS
  5
2D9
 10
5.03379
 20
4.05614
 30
0.000000
  70
    32
  0
VERTEX
  8
AM_VIS
  5
2DA
 10
5.03345
 20
4.05785
 30
0.000000
  70
    32
  0
VERTEX
  8
AM_VIS
  5
2DB
 10
5.03310
 20
4.05957
 30
0.000000
  70
    32
  0
VERTEX
  8
AM_VIS
  5
2DC
 10
5.03275
 20
4.06129
 30
0.000000
  70
    32
  0
VERTEX
  8
AM_VIS
  5
2DD
 10
5.03238
 20
4.06300
 30
0.000000
  70
    32
  0
VERTEX
  8
AM_VIS
  5
2DE
 10
5.03200
 20
4.06472
 30
0.000000
  70
    32
  0
VERTEX
  8
AM_VIS
  5
2DF
 10
5.03162
 20
4.06643
 30
0.000000
  70
    32
  0
VERTEX
  8
AM_VIS
  5
2E0
 10
5.03122
 20
4.06814
 30
0.000000
  70
    32
  0
VERTEX
  8
AM_VIS
  5
2E1
 10
5.03082
 20
4.06985
 30
0.000000
  70
    32
  0
VERTEX
  8
AM_VIS
  5
2E2
 10
5.03041
 20
4.07156
 30
0.000000
  70
    32
  0
VERTEX
  8
AM_VIS
  5
2E3
 10
5.02998
 20
4.07327
 30
0.000000
  70
    32
  0
VERTEX
  8
AM_VIS
  5
2E4
 10
5.02955
 20
4.07497
 30
0.000000
  70
    32
  0
VERTEX
  8
AM_VIS
  5
2E5
 10
5.02911
 20
4.07668
 30
0.000000
  70
    32
  0
VERTEX
  8
AM_VIS
  5
2E6
 10
5.02865
 20
4.07838
 30
0.000000
  70
    32
  0
VERTEX
  8
AM_VIS
  5
2E7
 10
5.02819
 20
4.08008
 30
0.000000
  70
    32
  0
VERTEX
  8
AM_VIS
  5
2E8
 10
5.02772
 20
4.08178
 30
0.000000
  70
    32
  0
VERTEX
  8
AM_VIS
  5
2E9
 10
5.02724
 20
4.08348
 30
0.000000
  70
    32
  0
VERTEX
  8
AM_VIS
  5
2EA
 10
5.02675
 20
4.08517
 30
0.000000
  70
    32
  0
VERTEX
  8
AM_VIS
  5
2EB
 10
5.02625
 20
4.08686
 30
0.000000
  70
    32
  0
VERTEX
  8
AM_VIS
  5
2EC
 10
5.02574
 20
4.08855
 30
0.000000
  70
    32
  0
VERTEX
  8
AM_VIS
  5
2ED
 10
5.02522
 20
4.09024
 30
0.000000
  70
    32
  0
VERTEX
  8
AM_VIS
  5
2EE
 10
5.02469
 20
4.09192
 30
0.000000
  70
    32
  0
VERTEX
  8
AM_VIS
  5
2EF
 10
5.02415
 20
4.09360
 30
0.000000
  70
    32
  0
VERTEX
  8
AM_VIS
  5
2F0
 10
5.02360
 20
4.09528
 30
0.000000
  70
    32
  0
VERTEX
  8
AM_VIS
  5
2F1
 10
5.02304
 20
4.09696
 30
0.000000
  70
    32
  0
VERTEX
  8
AM_VIS
  5
2F2
 10
5.02247
 20
4.09863
 30
0.000000
  70
    32
  0
VERTEX
  8
AM_VIS
  5
2F3
 10
5.02189
 20
4.10030
 30
0.000000
  70
    32
  0
VERTEX
  8
AM_VIS
  5
2F4
 10
5.02131
 20
4.10197
 30
0.000000
  70
    32
  0
VERTEX
  8
AM_VIS
  5
2F5
 10
5.02071
 20
4.10363
 30
0.000000
  70
    32
  0
VERTEX
  8
AM_VIS
  5
2F6
 10
5.02010
 20
4.10529
 30
0.000000
  70
    32
  0
VERTEX
  8
AM_VIS
  5
2F7
 10
5.01949
 20
4.10694
 30
0.000000
  70
    32
  0
VERTEX
  8
AM_VIS
  5
2F8
 10
5.01886
 20
4.10859
 30
0.000000
  70
    32
  0
VERTEX
  8
AM_VIS
  5
2F9
 10
5.01822
 20
4.11024
 30
0.000000
  70
    32
  0
VERTEX
  8
AM_VIS
  5
2FA
 10
5.01758
 20
4.11188
 30
0.000000
  70
    32
  0
VERTEX
  8
AM_VIS
  5
2FB
 10
5.01692
 20
4.11352
 30
0.000000
  70
    32
  0
VERTEX
  8
AM_VIS
  5
2FC
 10
5.01626
 20
4.11516
 30
0.000000
  70
    32
  0
VERTEX
  8
AM_VIS
  5
2FD
 10
5.01558
 20
4.11679
 30
0.000000
  70
    32
  0
VERTEX
  8
AM_VIS
  5
2FE
 10
5.01490
 20
4.11842
 30
0.000000
  70
    32
  0
VERTEX
  8
AM_VIS
  5
2FF
 10
5.01421
 20
4.12004
 30
0.000000
  70
    32
  0
VERTEX
  8
AM_VIS
  5
300
 10
5.01350
 20
4.12166
 30
0.000000
  70
    32
  0
VERTEX
  8
AM_VIS
  5
301
 10
5.01279
 20
4.12327
 30
0.000000
  70
    32
  0
VERTEX
  8
AM_VIS
  5
302
 10
5.01207
 20
4.12488
 30
0.000000
  70
    32
  0
VERTEX
  8
AM_VIS
  5
303
 10
5.01134
 20
4.12648
 30
0.000000
  70
    32
  0
VERTEX
  8
AM_VIS
  5
304
 10
5.01060
 20
4.12808
 30
0.000000
  70
    32
  0
VERTEX
  8
AM_VIS
  5
305
 10
5.00985
 20
4.12968
 30
0.000000
  70
    32
  0
VERTEX
  8
AM_VIS
  5
306
 10
5.00910
 20
4.13127
 30
0.000000
  70
    32
  0
VERTEX
  8
AM_VIS
  5
307
 10
5.00833
 20
4.13285
 30
0.000000
  70
    32
  0
VERTEX
  8
AM_VIS
  5
308
 10
5.00756
 20
4.13443
 30
0.000000
  70
    32
  0
VERTEX
  8
AM_VIS
  5
309
 10
5.00677
 20
4.13601
 30
0.000000
  70
    32
  0
VERTEX
  8
AM_VIS
  5
30A
 10
5.00598
 20
4.13758
 30
0.000000
  70
    32
  0
VERTEX
  8
AM_VIS
  5
30B
 10
5.00518
 20
4.13914
 30
0.000000
  70
    32
  0
VERTEX
  8
AM_VIS
  5
30C
 10
5.00437
 20
4.14070
 30
0.000000
  70
    32
  0
VERTEX
  8
AM_VIS
  5
30D
 10
5.00356
 20
4.14225
 30
0.000000
  70
    32
  0
VERTEX
  8
AM_VIS
  5
30E
 10
5.00273
 20
4.14380
 30
0.000000
  70
    32
  0
VERTEX
  8
AM_VIS
  5
30F
 10
5.00190
 20
4.14534
 30
0.000000
  70
    32
  0
VERTEX
  8
AM_VIS
  5
310
 10
5.00106
 20
4.14688
 30
0.000000
  70
    32
  0
VERTEX
  8
AM_VIS
  5
311
 10
5.00021
 20
4.14841
 30
0.000000
  70
    32
  0
VERTEX
  8
AM_VIS
  5
312
 10
4.99935
 20
4.14994
 30
0.000000
  70
    32
  0
VERTEX
  8
AM_VIS
  5
313
 10
4.99849
 20
4.15146
 30
0.000000
  70
    32
  0
VERTEX
  8
AM_VIS
  5
314
 10
4.99761
 20
4.15297
 30
0.000000
  70
    32
  0
VERTEX
  8
AM_VIS
  5
315
 10
4.99673
 20
4.15448
 30
0.000000
  70
    32
  0
VERTEX
  8
AM_VIS
  5
316
 10
4.99585
 20
4.15598
 30
0.000000
  70
    32
  0
VERTEX
  8
AM_VIS
  5
317
 10
4.99495
 20
4.15747
 30
0.000000
  70
    32
  0
VERTEX
  8
AM_VIS
  5
318
 10
4.99405
 20
4.15896
 30
0.000000
  70
    32
  0
VERTEX
  8
AM_VIS
  5
319
 10
4.99314
 20
4.16045
 30
0.000000
  70
    32
  0
VERTEX
  8
AM_VIS
  5
31A
 10
4.99222
 20
4.16192
 30
0.000000
  70
    32
  0
VERTEX
  8
AM_VIS
  5
31B
 10
4.99129
 20
4.16339
 30
0.000000
  70
    32
  0
VERTEX
  8
AM_VIS
  5
31C
 10
4.99036
 20
4.16486
 30
0.000000
  70
    32
  0
VERTEX
  8
AM_VIS
  5
31D
 10
4.98942
 20
4.16631
 30
0.000000
  70
    32
  0
VERTEX
  8
AM_VIS
  5
31E
 10
4.98847
 20
4.16777
 30
0.000000
  70
    32
  0
VERTEX
  8
AM_VIS
  5
31F
 10
4.98752
 20
4.16921
 30
0.000000
  70
    32
  0
VERTEX
  8
AM_VIS
  5
320
 10
4.98656
 20
4.17065
 30
0.000000
  70
    32
  0
VERTEX
  8
AM_VIS
  5
321
 10
4.98559
 20
4.17208
 30
0.000000
  70
    32
  0
VERTEX
  8
AM_VIS
  5
322
 10
4.98462
 20
4.17350
 30
0.000000
  70
    32
  0
VERTEX
  8
AM_VIS
  5
323
 10
4.98364
 20
4.17492
 30
0.000000
  70
    32
  0
VERTEX
  8
AM_VIS
  5
324
 10
4.98265
 20
4.17632
 30
0.000000
  70
    32
  0
VERTEX
  8
AM_VIS
  5
325
 10
4.98165
 20
4.17773
 30
0.000000
  70
    32
  0
VERTEX
  8
AM_VIS
  5
326
 10
4.98065
 20
4.17912
 30
0.000000
  70
    32
  0
VERTEX
  8
AM_VIS
  5
327
 10
4.97965
 20
4.18051
 30
0.000000
  70
    32
  0
VERTEX
  8
AM_VIS
  5
328
 10
4.97863
 20
4.18189
 30
0.000000
  70
    32
  0
VERTEX
  8
AM_VIS
  5
329
 10
4.97761
 20
4.18326
 30
0.000000
  70
    32
  0
VERTEX
  8
AM_VIS
  5
32A
 10
4.97659
 20
4.18462
 30
0.000000
  70
    32
  0
VERTEX
  8
AM_VIS
  5
32B
 10
4.97556
 20
4.18598
 30
0.000000
  70
    32
  0
VERTEX
  8
AM_VIS
  5
32C
 10
4.97452
 20
4.18733
 30
0.000000
  70
    32
  0
VERTEX
  8
AM_VIS
  5
32D
 10
4.97348
 20
4.18867
 30
0.000000
  70
    32
  0
VERTEX
  8
AM_VIS
  5
32E
 10
4.97243
 20
4.19001
 30
0.000000
  70
    32
  0
VERTEX
  8
AM_VIS
  5
32F
 10
4.97137
 20
4.19133
 30
0.000000
  70
    32
  0
VERTEX
  8
AM_VIS
  5
330
 10
4.97031
 20
4.19265
 30
0.000000
  70
    32
  0
VERTEX
  8
AM_VIS
  5
331
 10
4.96924
 20
4.19396
 30
0.000000
  70
    32
  0
VERTEX
  8
AM_VIS
  5
332
 10
4.96817
 20
4.19526
 30
0.000000
  70
    32
  0
VERTEX
  8
AM_VIS
  5
333
 10
4.96709
 20
4.19656
 30
0.000000
  70
    32
  0
VERTEX
  8
AM_VIS
  5
334
 10
4.96601
 20
4.19784
 30
0.000000
  70
    32
  0
VERTEX
  8
AM_VIS
  5
335
 10
4.96492
 20
4.19912
 30
0.000000
  70
    32
  0
VERTEX
  8
AM_VIS
  5
336
 10
4.96383
 20
4.20039
 30
0.000000
  70
    32
  0
VERTEX
  8
AM_VIS
  5
337
 10
4.96273
 20
4.20165
 30
0.000000
  70
    32
  0
VERTEX
  8
AM_VIS
  5
338
 10
4.96162
 20
4.20290
 30
0.000000
  70
    32
  0
VERTEX
  8
AM_VIS
  5
339
 10
4.96052
 20
4.20414
 30
0.000000
  70
    32
  0
VERTEX
  8
AM_VIS
  5
33A
 10
4.95940
 20
4.20537
 30
0.000000
  70
    32
  0
VERTEX
  8
AM_VIS
  5
33B
 10
4.95828
 20
4.20660
 30
0.000000
  70
    32
  0
VERTEX
  8
AM_VIS
  5
33C
 10
4.95716
 20
4.20781
 30
0.000000
  70
    32
  0
VERTEX
  8
AM_VIS
  5
33D
 10
4.95603
 20
4.20902
 30
0.000000
  70
    32
  0
VERTEX
  8
AM_VIS
  5
33E
 10
4.95489
 20
4.21022
 30
0.000000
  70
    32
  0
VERTEX
  8
AM_VIS
  5
33F
 10
4.95375
 20
4.21142
 30
0.000000
  70
    32
  0
VERTEX
  8
AM_VIS
  5
340
 10
4.95260
 20
4.21261
 30
0.000000
  70
    32
  0
VERTEX
  8
AM_VIS
  5
341
 10
4.95143
 20
4.21380
 30
0.000000
  70
    32
  0
VERTEX
  8
AM_VIS
  5
342
 10
4.95026
 20
4.21498
 30
0.000000
  70
    32
  0
VERTEX
  8
AM_VIS
  5
343
 10
4.94908
 20
4.21616
 30
0.000000
  70
    32
  0
VERTEX
  8
AM_VIS
  5
344
 10
4.94789
 20
4.21733
 30
0.000000
  70
    32
  0
VERTEX
  8
AM_VIS
  5
345
 10
4.94669
 20
4.21850
 30
0.000000
  70
    32
  0
VERTEX
  8
AM_VIS
  5
346
 10
4.94548
 20
4.21967
 30
0.000000
  70
    32
  0
VERTEX
  8
AM_VIS
  5
347
 10
4.94427
 20
4.22083
 30
0.000000
  70
    32
  0
VERTEX
  8
AM_VIS
  5
348
 10
4.94304
 20
4.22198
 30
0.000000
  70
    32
  0
VERTEX
  8
AM_VIS
  5
349
 10
4.94181
 20
4.22313
 30
0.000000
  70
    32
  0
VERTEX
  8
AM_VIS
  5
34A
 10
4.94057
 20
4.22427
 30
0.000000
  70
    32
  0
VERTEX
  8
AM_VIS
  5
34B
 10
4.93932
 20
4.22541
 30
0.000000
  70
    32
  0
VERTEX
  8
AM_VIS
  5
34C
 10
4.93806
 20
4.22654
 30
0.000000
  70
    32
  0
VERTEX
  8
AM_VIS
  5
34D
 10
4.93679
 20
4.22767
 30
0.000000
  70
    32
  0
VERTEX
  8
AM_VIS
  5
34E
 10
4.93552
 20
4.22879
 30
0.000000
  70
    32
  0
VERTEX
  8
AM_VIS
  5
34F
 10
4.93424
 20
4.22991
 30
0.000000
  70
    32
  0
VERTEX
  8
AM_VIS
  5
350
 10
4.93295
 20
4.23102
 30
0.000000
  70
    32
  0
VERTEX
  8
AM_VIS
  5
351
 10
4.93165
 20
4.23212
 30
0.000000
  70
    32
  0
VERTEX
  8
AM_VIS
  5
352
 10
4.93034
 20
4.23322
 30
0.000000
  70
    32
  0
VERTEX
  8
AM_VIS
  5
353
 10
4.92903
 20
4.23431
 30
0.000000
  70
    32
  0
VERTEX
  8
AM_VIS
  5
354
 10
4.92771
 20
4.23539
 30
0.000000
  70
    32
  0
VERTEX
  8
AM_VIS
  5
355
 10
4.92638
 20
4.23647
 30
0.000000
  70
    32
  0
VERTEX
  8
AM_VIS
  5
356
 10
4.92504
 20
4.23755
 30
0.000000
  70
    32
  0
VERTEX
  8
AM_VIS
  5
357
 10
4.92369
 20
4.23861
 30
0.000000
  70
    32
  0
VERTEX
  8
AM_VIS
  5
358
 10
4.92234
 20
4.23967
 30
0.000000
  70
    32
  0
VERTEX
  8
AM_VIS
  5
359
 10
4.92098
 20
4.24073
 30
0.000000
  70
    32
  0
VERTEX
  8
AM_VIS
  5
35A
 10
4.91961
 20
4.24177
 30
0.000000
  70
    32
  0
VERTEX
  8
AM_VIS
  5
35B
 10
4.91824
 20
4.24281
 30
0.000000
  70
    32
  0
VERTEX
  8
AM_VIS
  5
35C
 10
4.91686
 20
4.24385
 30
0.000000
  70
    32
  0
VERTEX
  8
AM_VIS
  5
35D
 10
4.91547
 20
4.24487
 30
0.000000
  70
    32
  0
VERTEX
  8
AM_VIS
  5
35E
 10
4.91407
 20
4.24589
 30
0.000000
  70
    32
  0
VERTEX
  8
AM_VIS
  5
35F
 10
4.91267
 20
4.24691
 30
0.000000
  70
    32
  0
VERTEX
  8
AM_VIS
  5
360
 10
4.91126
 20
4.24791
 30
0.000000
  70
    32
  0
VERTEX
  8
AM_VIS
  5
361
 10
4.90984
 20
4.24891
 30
0.000000
  70
    32
  0
VERTEX
  8
AM_VIS
  5
362
 10
4.90842
 20
4.24990
 30
0.000000
  70
    32
  0
VERTEX
  8
AM_VIS
  5
363
 10
4.90699
 20
4.25088
 30
0.000000
  70
    32
  0
VERTEX
  8
AM_VIS
  5
364
 10
4.90555
 20
4.25186
 30
0.000000
  70
    32
  0
VERTEX
  8
AM_VIS
  5
365
 10
4.90411
 20
4.25282
 30
0.000000
  70
    32
  0
VERTEX
  8
AM_VIS
  5
366
 10
4.90266
 20
4.25378
 30
0.000000
  70
    32
  0
VERTEX
  8
AM_VIS
  5
367
 10
4.90120
 20
4.25473
 30
0.000000
  70
    32
  0
VERTEX
  8
AM_VIS
  5
368
 10
4.89974
 20
4.25568
 30
0.000000
  70
    32
  0
VERTEX
  8
AM_VIS
  5
369
 10
4.89827
 20
4.25661
 30
0.000000
  70
    32
  0
VERTEX
  8
AM_VIS
  5
36A
 10
4.89679
 20
4.25754
 30
0.000000
  70
    32
  0
VERTEX
  8
AM_VIS
  5
36B
 10
4.89531
 20
4.25846
 30
0.000000
  70
    32
  0
VERTEX
  8
AM_VIS
  5
36C
 10
4.89382
 20
4.25937
 30
0.000000
  70
    32
  0
VERTEX
  8
AM_VIS
  5
36D
 10
4.89233
 20
4.26028
 30
0.000000
  70
    32
  0
VERTEX
  8
AM_VIS
  5
36E
 10
4.89083
 20
4.26117
 30
0.000000
  70
    32
  0
VERTEX
  8
AM_VIS
  5
36F
 10
4.88932
 20
4.26206
 30
0.000000
  70
    32
  0
VERTEX
  8
AM_VIS
  5
370
 10
4.88781
 20
4.26293
 30
0.000000
  70
    32
  0
VERTEX
  8
AM_VIS
  5
371
 10
4.88630
 20
4.26380
 30
0.000000
  70
    32
  0
VERTEX
  8
AM_VIS
  5
372
 10
4.88477
 20
4.26466
 30
0.000000
  70
    32
  0
VERTEX
  8
AM_VIS
  5
373
 10
4.88324
 20
4.26551
 30
0.000000
  70
    32
  0
VERTEX
  8
AM_VIS
  5
374
 10
4.88171
 20
4.26635
 30
0.000000
  70
    32
  0
VERTEX
  8
AM_VIS
  5
375
 10
4.88017
 20
4.26719
 30
0.000000
  70
    32
  0
VERTEX
  8
AM_VIS
  5
376
 10
4.87862
 20
4.26801
 30
0.000000
  70
    32
  0
VERTEX
  8
AM_VIS
  5
377
 10
4.87707
 20
4.26883
 30
0.000000
  70
    32
  0
VERTEX
  8
AM_VIS
  5
378
 10
4.87552
 20
4.26963
 30
0.000000
  70
    32
  0
VERTEX
  8
AM_VIS
  5
379
 10
4.87396
 20
4.27043
 30
0.000000
  70
    32
  0
VERTEX
  8
AM_VIS
  5
37A
 10
4.87239
 20
4.27121
 30
0.000000
  70
    32
  0
VERTEX
  8
AM_VIS
  5
37B
 10
4.87082
 20
4.27199
 30
0.000000
  70
    32
  0
VERTEX
  8
AM_VIS
  5
37C
 10
4.86924
 20
4.27275
 30
0.000000
  70
    32
  0
VERTEX
  8
AM_VIS
  5
37D
 10
4.86766
 20
4.27351
 30
0.000000
  70
    32
  0
VERTEX
  8
AM_VIS
  5
37E
 10
4.86607
 20
4.27426
 30
0.000000
  70
    32
  0
VERTEX
  8
AM_VIS
  5
37F
 10
4.86448
 20
4.27500
 30
0.000000
  70
    32
  0
VERTEX
  8
AM_VIS
  5
380
 10
4.86288
 20
4.27572
 30
0.000000
  70
    32
  0
VERTEX
  8
AM_VIS
  5
381
 10
4.86128
 20
4.27644
 30
0.000000
  70
    32
  0
VERTEX
  8
AM_VIS
  5
382
 10
4.85968
 20
4.27715
 30
0.000000
  70
    32
  0
VERTEX
  8
AM_VIS
  5
383
 10
4.85807
 20
4.27784
 30
0.000000
  70
    32
  0
VERTEX
  8
AM_VIS
  5
384
 10
4.85645
 20
4.27853
 30
0.000000
  70
    32
  0
VERTEX
  8
AM_VIS
  5
385
 10
4.85483
 20
4.27920
 30
0.000000
  70
    32
  0
VERTEX
  8
AM_VIS
  5
386
 10
4.85321
 20
4.27987
 30
0.000000
  70
    32
  0
VERTEX
  8
AM_VIS
  5
387
 10
4.85158
 20
4.28052
 30
0.000000
  70
    32
  0
VERTEX
  8
AM_VIS
  5
388
 10
4.84995
 20
4.28117
 30
0.000000
  70
    32
  0
VERTEX
  8
AM_VIS
  5
389
 10
4.84832
 20
4.28180
 30
0.000000
  70
    32
  0
VERTEX
  8
AM_VIS
  5
38A
 10
4.84668
 20
4.28243
 30
0.000000
  70
    32
  0
VERTEX
  8
AM_VIS
  5
38B
 10
4.84503
 20
4.28304
 30
0.000000
  70
    32
  0
VERTEX
  8
AM_VIS
  5
38C
 10
4.84339
 20
4.28365
 30
0.000000
  70
    32
  0
VERTEX
  8
AM_VIS
  5
38D
 10
4.84174
 20
4.28424
 30
0.000000
  70
    32
  0
VERTEX
  8
AM_VIS
  5
38E
 10
4.84009
 20
4.28482
 30
0.000000
  70
    32
  0
VERTEX
  8
AM_VIS
  5
38F
 10
4.83843
 20
4.28539
 30
0.000000
  70
    32
  0
VERTEX
  8
AM_VIS
  5
390
 10
4.83677
 20
4.28596
 30
0.000000
  70
    32
  0
VERTEX
  8
AM_VIS
  5
391
 10
4.83511
 20
4.28651
 30
0.000000
  70
    32
  0
VERTEX
  8
AM_VIS
  5
392
 10
4.83344
 20
4.28705
 30
0.000000
  70
    32
  0
VERTEX
  8
AM_VIS
  5
393
 10
4.83177
 20
4.28758
 30
0.000000
  70
    32
  0
VERTEX
  8
AM_VIS
  5
394
 10
4.83010
 20
4.28810
 30
0.000000
  70
    32
  0
VERTEX
  8
AM_VIS
  5
395
 10
4.82843
 20
4.28861
 30
0.000000
  70
    32
  0
VERTEX
  8
AM_VIS
  5
396
 10
4.82675
 20
4.28911
 30
0.000000
  70
    32
  0
VERTEX
  8
AM_VIS
  5
397
 10
4.82507
 20
4.28960
 30
0.000000
  70
    32
  0
VERTEX
  8
AM_VIS
  5
398
 10
4.82339
 20
4.29008
 30
0.000000
  70
    32
  0
VERTEX
  8
AM_VIS
  5
399
 10
4.82171
 20
4.29055
 30
0.000000
  70
    32
  0
VERTEX
  8
AM_VIS
  5
39A
 10
4.82002
 20
4.29101
 30
0.000000
  70
    32
  0
VERTEX
  8
AM_VIS
  5
39B
 10
4.81834
 20
4.29146
 30
0.000000
  70
    32
  0
VERTEX
  8
AM_VIS
  5
39C
 10
4.81665
 20
4.29190
 30
0.000000
  70
    32
  0
VERTEX
  8
AM_VIS
  5
39D
 10
4.81496
 20
4.29232
 30
0.000000
  70
    32
  0
VERTEX
  8
AM_VIS
  5
39E
 10
4.81326
 20
4.29274
 30
0.000000
  70
    32
  0
VERTEX
  8
AM_VIS
  5
39F
 10
4.81157
 20
4.29315
 30
0.000000
  70
    32
  0
VERTEX
  8
AM_VIS
  5
3A0
 10
4.80988
 20
4.29354
 30
0.000000
  70
    32
  0
VERTEX
  8
AM_VIS
  5
3A1
 10
4.80818
 20
4.29393
 30
0.000000
  70
    32
  0
VERTEX
  8
AM_VIS
  5
3A2
 10
4.80648
 20
4.29431
 30
0.000000
  70
    32
  0
VERTEX
  8
AM_VIS
  5
3A3
 10
4.80478
 20
4.29467
 30
0.000000
  70
    32
  0
VERTEX
  8
AM_VIS
  5
3A4
 10
4.80308
 20
4.29503
 30
0.000000
  70
    32
  0
VERTEX
  8
AM_VIS
  5
3A5
 10
4.80138
 20
4.29537
 30
0.000000
  70
    32
  0
VERTEX
  8
AM_VIS
  5
3A6
 10
4.79968
 20
4.29571
 30
0.000000
  70
    32
  0
VERTEX
  8
AM_VIS
  5
3A7
 10
4.79798
 20
4.29603
 30
0.000000
  70
    32
  0
VERTEX
  8
AM_VIS
  5
3A8
 10
4.79628
 20
4.29634
 30
0.000000
  70
    32
  0
VERTEX
  8
AM_VIS
  5
3A9
 10
4.79457
 20
4.29665
 30
0.000000
  70
    32
  0
VERTEX
  8
AM_VIS
  5
3AA
 10
4.79287
 20
4.29694
 30
0.000000
  70
    32
  0
VERTEX
  8
AM_VIS
  5
3AB
 10
4.79117
 20
4.29722
 30
0.000000
  70
    32
  0
VERTEX
  8
AM_VIS
  5
3AC
 10
4.78946
 20
4.29749
 30
0.000000
  70
    32
  0
VERTEX
  8
AM_VIS
  5
3AD
 10
4.78776
 20
4.29775
 30
0.000000
  70
    32
  0
VERTEX
  8
AM_VIS
  5
3AE
 10
4.78606
 20
4.29801
 30
0.000000
  70
    32
  0
VERTEX
  8
AM_VIS
  5
3AF
 10
4.78435
 20
4.29825
 30
0.000000
  70
    32
  0
VERTEX
  8
AM_VIS
  5
3B0
 10
4.78265
 20
4.29848
 30
0.000000
  70
    32
  0
VERTEX
  8
AM_VIS
  5
3B1
 10
4.78095
 20
4.29870
 30
0.000000
  70
    32
  0
VERTEX
  8
AM_VIS
  5
3B2
 10
4.77924
 20
4.29891
 30
0.000000
  70
    32
  0
VERTEX
  8
AM_VIS
  5
3B3
 10
4.77754
 20
4.29910
 30
0.000000
  70
    32
  0
VERTEX
  8
AM_VIS
  5
3B4
 10
4.77584
 20
4.29929
 30
0.000000
  70
    32
  0
VERTEX
  8
AM_VIS
  5
3B5
 10
4.77414
 20
4.29947
 30
0.000000
  70
    32
  0
VERTEX
  8
AM_VIS
  5
3B6
 10
4.77244
 20
4.29964
 30
0.000000
  70
    32
  0
VERTEX
  8
AM_VIS
  5
3B7
 10
4.77075
 20
4.29980
 30
0.000000
  70
    32
  0
VERTEX
  8
AM_VIS
  5
3B8
 10
4.76905
 20
4.29994
 30
0.000000
  70
    32
  0
VERTEX
  8
AM_VIS
  5
3B9
 10
4.76736
 20
4.30008
 30
0.000000
  70
    32
  0
VERTEX
  8
AM_VIS
  5
3BA
 10
4.76566
 20
4.30020
 30
0.000000
  70
    32
  0
VERTEX
  8
AM_VIS
  5
3BB
 10
4.76397
 20
4.30032
 30
0.000000
  70
    32
  0
VERTEX
  8
AM_VIS
  5
3BC
 10
4.76228
 20
4.30042
 30
0.000000
  70
    32
  0
VERTEX
  8
AM_VIS
  5
3BD
 10
4.76059
 20
4.30052
 30
0.000000
  70
    32
  0
VERTEX
  8
AM_VIS
  5
3BE
 10
4.75890
 20
4.30060
 30
0.000000
  70
    32
  0
VERTEX
  8
AM_VIS
  5
3BF
 10
4.75722
 20
4.30068
 30
0.000000
  70
    32
  0
VERTEX
  8
AM_VIS
  5
3C0
 10
4.75554
 20
4.30074
 30
0.000000
  70
    32
  0
VERTEX
  8
AM_VIS
  5
3C1
 10
4.75386
 20
4.30079
 30
0.000000
  70
    32
  0
VERTEX
  8
AM_VIS
  5
3C2
 10
4.75218
 20
4.30083
 30
0.000000
  70
    32
  0
VERTEX
  8
AM_VIS
  5
3C3
 10
4.75050
 20
4.30086
 30
0.000000
  70
    32
  0
VERTEX
  8
AM_VIS
  5
3C4
 10
4.74883
 20
4.30088
 30
0.000000
  70
    32
  0
VERTEX
  8
AM_VIS
  5
3C5
 10
4.74716
 20
4.30090
 30
0.000000
  70
    32
  0
VERTEX
  8
AM_VIS
  5
3C6
 10
4.74549
 20
4.30090
 30
0.000000
  70
    32
  0
VERTEX
  8
AM_VIS
  5
3C7
 10
4.74382
 20
4.30088
 30
0.000000
  70
    32
  0
VERTEX
  8
AM_VIS
  5
3C8
 10
4.74215
 20
4.30086
 30
0.000000
  70
    32
  0
VERTEX
  8
AM_VIS
  5
3C9
 10
4.74047
 20
4.30083
 30
0.000000
  70
    32
  0
VERTEX
  8
AM_VIS
  5
3CA
 10
4.73879
 20
4.30079
 30
0.000000
  70
    32
  0
VERTEX
  8
AM_VIS
  5
3CB
 10
4.73711
 20
4.30074
 30
0.000000
  70
    32
  0
VERTEX
  8
AM_VIS
  5
3CC
 10
4.73543
 20
4.30068
 30
0.000000
  70
    32
  0
VERTEX
  8
AM_VIS
  5
3CD
 10
4.73374
 20
4.30060
 30
0.000000
  70
    32
  0
VERTEX
  8
AM_VIS
  5
3CE
 10
4.73206
 20
4.30052
 30
0.000000
  70
    32
  0
VERTEX
  8
AM_VIS
  5
3CF
 10
4.73037
 20
4.30042
 30
0.000000
  70
    32
  0
VERTEX
  8
AM_VIS
  5
3D0
 10
4.72868
 20
4.30032
 30
0.000000
  70
    32
  0
VERTEX
  8
AM_VIS
  5
3D1
 10
4.72699
 20
4.30020
 30
0.000000
  70
    32
  0
VERTEX
  8
AM_VIS
  5
3D2
 10
4.72529
 20
4.30008
 30
0.000000
  70
    32
  0
VERTEX
  8
AM_VIS
  5
3D3
 10
4.72360
 20
4.29994
 30
0.000000
  70
    32
  0
VERTEX
  8
AM_VIS
  5
3D4
 10
4.72190
 20
4.29980
 30
0.000000
  70
    32
  0
VERTEX
  8
AM_VIS
  5
3D5
 10
4.72020
 20
4.29964
 30
0.000000
  70
    32
  0
VERTEX
  8
AM_VIS
  5
3D6
 10
4.71851
 20
4.29947
 30
0.000000
  70
    32
  0
VERTEX
  8
AM_VIS
  5
3D7
 10
4.71681
 20
4.29929
 30
0.000000
  70
    32
  0
VERTEX
  8
AM_VIS
  5
3D8
 10
4.71511
 20
4.29910
 30
0.000000
  70
    32
  0
VERTEX
  8
AM_VIS
  5
3D9
 10
4.71340
 20
4.29891
 30
0.000000
  70
    32
  0
VERTEX
  8
AM_VIS
  5
3DA
 10
4.71170
 20
4.29870
 30
0.000000
  70
    32
  0
VERTEX
  8
AM_VIS
  5
3DB
 10
4.71000
 20
4.29848
 30
0.000000
  70
    32
  0
VERTEX
  8
AM_VIS
  5
3DC
 10
4.70830
 20
4.29825
 30
0.000000
  70
    32
  0
VERTEX
  8
AM_VIS
  5
3DD
 10
4.70659
 20
4.29801
 30
0.000000
  70
    32
  0
VERTEX
  8
AM_VIS
  5
3DE
 10
4.70489
 20
4.29775
 30
0.000000
  70
    32
  0
VERTEX
  8
AM_VIS
  5
3DF
 10
4.70319
 20
4.29749
 30
0.000000
  70
    32
  0
VERTEX
  8
AM_VIS
  5
3E0
 10
4.70148
 20
4.29722
 30
0.000000
  70
    32
  0
VERTEX
  8
AM_VIS
  5
3E1
 10
4.69978
 20
4.29694
 30
0.000000
  70
    32
  0
VERTEX
  8
AM_VIS
  5
3E2
 10
4.69808
 20
4.29665
 30
0.000000
  70
    32
  0
VERTEX
  8
AM_VIS
  5
3E3
 10
4.69637
 20
4.29634
 30
0.000000
  70
    32
  0
VERTEX
  8
AM_VIS
  5
3E4
 10
4.69467
 20
4.29603
 30
0.000000
  70
    32
  0
VERTEX
  8
AM_VIS
  5
3E5
 10
4.69297
 20
4.29571
 30
0.000000
  70
    32
  0
VERTEX
  8
AM_VIS
  5
3E6
 10
4.69127
 20
4.29537
 30
0.000000
  70
    32
  0
VERTEX
  8
AM_VIS
  5
3E7
 10
4.68957
 20
4.29503
 30
0.000000
  70
    32
  0
VERTEX
  8
AM_VIS
  5
3E8
 10
4.68787
 20
4.29467
 30
0.000000
  70
    32
  0
VERTEX
  8
AM_VIS
  5
3E9
 10
4.68617
 20
4.29431
 30
0.000000
  70
    32
  0
VERTEX
  8
AM_VIS
  5
3EA
 10
4.68447
 20
4.29393
 30
0.000000
  70
    32
  0
VERTEX
  8
AM_VIS
  5
3EB
 10
4.68277
 20
4.29354
 30
0.000000
  70
    32
  0
VERTEX
  8
AM_VIS
  5
3EC
 10
4.68108
 20
4.29315
 30
0.000000
  70
    32
  0
VERTEX
  8
AM_VIS
  5
3ED
 10
4.67938
 20
4.29274
 30
0.000000
  70
    32
  0
VERTEX
  8
AM_VIS
  5
3EE
 10
4.67769
 20
4.29232
 30
0.000000
  70
    32
  0
VERTEX
  8
AM_VIS
  5
3EF
 10
4.67600
 20
4.29190
 30
0.000000
  70
    32
  0
VERTEX
  8
AM_VIS
  5
3F0
 10
4.67431
 20
4.29146
 30
0.000000
  70
    32
  0
VERTEX
  8
AM_VIS
  5
3F1
 10
4.67263
 20
4.29101
 30
0.000000
  70
    32
  0
VERTEX
  8
AM_VIS
  5
3F2
 10
4.67094
 20
4.29055
 30
0.000000
  70
    32
  0
VERTEX
  8
AM_VIS
  5
3F3
 10
4.66926
 20
4.29008
 30
0.000000
  70
    32
  0
VERTEX
  8
AM_VIS
  5
3F4
 10
4.66758
 20
4.28960
 30
0.000000
  70
    32
  0
VERTEX
  8
AM_VIS
  5
3F5
 10
4.66590
 20
4.28911
 30
0.000000
  70
    32
  0
VERTEX
  8
AM_VIS
  5
3F6
 10
4.66422
 20
4.28861
 30
0.000000
  70
    32
  0
VERTEX
  8
AM_VIS
  5
3F7
 10
4.66255
 20
4.28810
 30
0.000000
  70
    32
  0
VERTEX
  8
AM_VIS
  5
3F8
 10
4.66088
 20
4.28758
 30
0.000000
  70
    32
  0
VERTEX
  8
AM_VIS
  5
3F9
 10
4.65921
 20
4.28705
 30
0.000000
  70
    32
  0
VERTEX
  8
AM_VIS
  5
3FA
 10
4.65754
 20
4.28651
 30
0.000000
  70
    32
  0
VERTEX
  8
AM_VIS
  5
3FB
 10
4.65588
 20
4.28596
 30
0.000000
  70
    32
  0
VERTEX
  8
AM_VIS
  5
3FC
 10
4.65422
 20
4.28539
 30
0.000000
  70
    32
  0
VERTEX
  8
AM_VIS
  5
3FD
 10
4.65256
 20
4.28482
 30
0.000000
  70
    32
  0
VERTEX
  8
AM_VIS
  5
3FE
 10
4.65091
 20
4.28424
 30
0.000000
  70
    32
  0
VERTEX
  8
AM_VIS
  5
3FF
 10
4.64926
 20
4.28365
 30
0.000000
  70
    32
  0
VERTEX
  8
AM_VIS
  5
400
 10
4.64761
 20
4.28304
 30
0.000000
  70
    32
  0
VERTEX
  8
AM_VIS
  5
401
 10
4.64597
 20
4.28243
 30
0.000000
  70
    32
  0
VERTEX
  8
AM_VIS
  5
402
 10
4.64433
 20
4.28180
 30
0.000000
  70
    32
  0
VERTEX
  8
AM_VIS
  5
403
 10
4.64270
 20
4.28117
 30
0.000000
  70
    32
  0
VERTEX
  8
AM_VIS
  5
404
 10
4.64107
 20
4.28052
 30
0.000000
  70
    32
  0
VERTEX
  8
AM_VIS
  5
405
 10
4.63944
 20
4.27987
 30
0.000000
  70
    32
  0
VERTEX
  8
AM_VIS
  5
406
 10
4.63781
 20
4.27920
 30
0.000000
  70
    32
  0
VERTEX
  8
AM_VIS
  5
407
 10
4.63620
 20
4.27853
 30
0.000000
  70
    32
  0
VERTEX
  8
AM_VIS
  5
408
 10
4.63458
 20
4.27784
 30
0.000000
  70
    32
  0
VERTEX
  8
AM_VIS
  5
409
 10
4.63297
 20
4.27715
 30
0.000000
  70
    32
  0
VERTEX
  8
AM_VIS
  5
40A
 10
4.63137
 20
4.27644
 30
0.000000
  70
    32
  0
VERTEX
  8
AM_VIS
  5
40B
 10
4.62976
 20
4.27572
 30
0.000000
  70
    32
  0
VERTEX
  8
AM_VIS
  5
40C
 10
4.62817
 20
4.27500
 30
0.000000
  70
    32
  0
VERTEX
  8
AM_VIS
  5
40D
 10
4.62658
 20
4.27426
 30
0.000000
  70
    32
  0
VERTEX
  8
AM_VIS
  5
40E
 10
4.62499
 20
4.27351
 30
0.000000
  70
    32
  0
VERTEX
  8
AM_VIS
  5
40F
 10
4.62341
 20
4.27275
 30
0.000000
  70
    32
  0
VERTEX
  8
AM_VIS
  5
410
 10
4.62183
 20
4.27199
 30
0.000000
  70
    32
  0
VERTEX
  8
AM_VIS
  5
411
 10
4.62026
 20
4.27121
 30
0.000000
  70
    32
  0
VERTEX
  8
AM_VIS
  5
412
 10
4.61869
 20
4.27043
 30
0.000000
  70
    32
  0
VERTEX
  8
AM_VIS
  5
413
 10
4.61713
 20
4.26963
 30
0.000000
  70
    32
  0
VERTEX
  8
AM_VIS
  5
414
 10
4.61558
 20
4.26883
 30
0.000000
  70
    32
  0
VERTEX
  8
AM_VIS
  5
415
 10
4.61403
 20
4.26801
 30
0.000000
  70
    32
  0
VERTEX
  8
AM_VIS
  5
416
 10
4.61248
 20
4.26719
 30
0.000000
  70
    32
  0
VERTEX
  8
AM_VIS
  5
417
 10
4.61094
 20
4.26635
 30
0.000000
  70
    32
  0
VERTEX
  8
AM_VIS
  5
418
 10
4.60941
 20
4.26551
 30
0.000000
  70
    32
  0
VERTEX
  8
AM_VIS
  5
419
 10
4.60788
 20
4.26466
 30
0.000000
  70
    32
  0
VERTEX
  8
AM_VIS
  5
41A
 10
4.60635
 20
4.26380
 30
0.000000
  70
    32
  0
VERTEX
  8
AM_VIS
  5
41B
 10
4.60484
 20
4.26293
 30
0.000000
  70
    32
  0
VERTEX
  8
AM_VIS
  5
41C
 10
4.60332
 20
4.26206
 30
0.000000
  70
    32
  0
VERTEX
  8
AM_VIS
  5
41D
 10
4.60182
 20
4.26117
 30
0.000000
  70
    32
  0
VERTEX
  8
AM_VIS
  5
41E
 10
4.60032
 20
4.26028
 30
0.000000
  70
    32
  0
VERTEX
  8
AM_VIS
  5
41F
 10
4.59882
 20
4.25937
 30
0.000000
  70
    32
  0
VERTEX
  8
AM_VIS
  5
420
 10
4.59734
 20
4.25846
 30
0.000000
  70
    32
  0
VERTEX
  8
AM_VIS
  5
421
 10
4.59585
 20
4.25754
 30
0.000000
  70
    32
  0
VERTEX
  8
AM_VIS
  5
422
 10
4.59438
 20
4.25661
 30
0.000000
  70
    32
  0
VERTEX
  8
AM_VIS
  5
423
 10
4.59291
 20
4.25568
 30
0.000000
  70
    32
  0
VERTEX
  8
AM_VIS
  5
424
 10
4.59145
 20
4.25473
 30
0.000000
  70
    32
  0
VERTEX
  8
AM_VIS
  5
425
 10
4.58999
 20
4.25378
 30
0.000000
  70
    32
  0
VERTEX
  8
AM_VIS
  5
426
 10
4.58854
 20
4.25282
 30
0.000000
  70
    32
  0
VERTEX
  8
AM_VIS
  5
427
 10
4.58710
 20
4.25186
 30
0.000000
  70
    32
  0
VERTEX
  8
AM_VIS
  5
428
 10
4.58566
 20
4.25088
 30
0.000000
  70
    32
  0
VERTEX
  8
AM_VIS
  5
429
 10
4.58423
 20
4.24990
 30
0.000000
  70
    32
  0
VERTEX
  8
AM_VIS
  5
42A
 10
4.58281
 20
4.24891
 30
0.000000
  70
    32
  0
VERTEX
  8
AM_VIS
  5
42B
 10
4.58139
 20
4.24791
 30
0.000000
  70
    32
  0
VERTEX
  8
AM_VIS
  5
42C
 10
4.57998
 20
4.24691
 30
0.000000
  70
    32
  0
VERTEX
  8
AM_VIS
  5
42D
 10
4.57858
 20
4.24589
 30
0.000000
  70
    32
  0
VERTEX
  8
AM_VIS
  5
42E
 10
4.57718
 20
4.24487
 30
0.000000
  70
    32
  0
VERTEX
  8
AM_VIS
  5
42F
 10
4.57579
 20
4.24385
 30
0.000000
  70
    32
  0
VERTEX
  8
AM_VIS
  5
430
 10
4.57441
 20
4.24281
 30
0.000000
  70
    32
  0
VERTEX
  8
AM_VIS
  5
431
 10
4.57303
 20
4.24177
 30
0.000000
  70
    32
  0
VERTEX
  8
AM_VIS
  5
432
 10
4.57167
 20
4.24073
 30
0.000000
  70
    32
  0
VERTEX
  8
AM_VIS
  5
433
 10
4.57031
 20
4.23967
 30
0.000000
  70
    32
  0
VERTEX
  8
AM_VIS
  5
434
 10
4.56896
 20
4.23861
 30
0.000000
  70
    32
  0
VERTEX
  8
AM_VIS
  5
435
 10
4.56761
 20
4.23755
 30
0.000000
  70
    32
  0
VERTEX
  8
AM_VIS
  5
436
 10
4.56627
 20
4.23647
 30
0.000000
  70
    32
  0
VERTEX
  8
AM_VIS
  5
437
 10
4.56494
 20
4.23539
 30
0.000000
  70
    32
  0
VERTEX
  8
AM_VIS
  5
438
 10
4.56362
 20
4.23431
 30
0.000000
  70
    32
  0
VERTEX
  8
AM_VIS
  5
439
 10
4.56231
 20
4.23322
 30
0.000000
  70
    32
  0
VERTEX
  8
AM_VIS
  5
43A
 10
4.56100
 20
4.23212
 30
0.000000
  70
    32
  0
VERTEX
  8
AM_VIS
  5
43B
 10
4.55970
 20
4.23102
 30
0.000000
  70
    32
  0
VERTEX
  8
AM_VIS
  5
43C
 10
4.55841
 20
4.22991
 30
0.000000
  70
    32
  0
VERTEX
  8
AM_VIS
  5
43D
 10
4.55713
 20
4.22879
 30
0.000000
  70
    32
  0
VERTEX
  8
AM_VIS
  5
43E
 10
4.55585
 20
4.22767
 30
0.000000
  70
    32
  0
VERTEX
  8
AM_VIS
  5
43F
 10
4.55459
 20
4.22654
 30
0.000000
  70
    32
  0
VERTEX
  8
AM_VIS
  5
440
 10
4.55333
 20
4.22541
 30
0.000000
  70
    32
  0
VERTEX
  8
AM_VIS
  5
441
 10
4.55208
 20
4.22427
 30
0.000000
  70
    32
  0
VERTEX
  8
AM_VIS
  5
442
 10
4.55084
 20
4.22313
 30
0.000000
  70
    32
  0
VERTEX
  8
AM_VIS
  5
443
 10
4.54961
 20
4.22198
 30
0.000000
  70
    32
  0
VERTEX
  8
AM_VIS
  5
444
 10
4.54838
 20
4.22083
 30
0.000000
  70
    32
  0
VERTEX
  8
AM_VIS
  5
445
 10
4.54716
 20
4.21967
 30
0.000000
  70
    32
  0
VERTEX
  8
AM_VIS
  5
446
 10
4.54596
 20
4.21850
 30
0.000000
  70
    32
  0
VERTEX
  8
AM_VIS
  5
447
 10
4.54476
 20
4.21733
 30
0.000000
  70
    32
  0
VERTEX
  8
AM_VIS
  5
448
 10
4.54357
 20
4.21616
 30
0.000000
  70
    32
  0
VERTEX
  8
AM_VIS
  5
449
 10
4.54239
 20
4.21498
 30
0.000000
  70
    32
  0
VERTEX
  8
AM_VIS
  5
44A
 10
4.54122
 20
4.21380
 30
0.000000
  70
    32
  0
VERTEX
  8
AM_VIS
  5
44B
 10
4.54005
 20
4.21261
 30
0.000000
  70
    32
  0
VERTEX
  8
AM_VIS
  5
44C
 10
4.53890
 20
4.21142
 30
0.000000
  70
    32
  0
VERTEX
  8
AM_VIS
  5
44D
 10
4.53775
 20
4.21022
 30
0.000000
  70
    32
  0
VERTEX
  8
AM_VIS
  5
44E
 10
4.53662
 20
4.20902
 30
0.000000
  70
    32
  0
VERTEX
  8
AM_VIS
  5
44F
 10
4.53549
 20
4.20781
 30
0.000000
  70
    32
  0
VERTEX
  8
AM_VIS
  5
450
 10
4.53437
 20
4.20660
 30
0.000000
  70
    32
  0
VERTEX
  8
AM_VIS
  5
451
 10
4.53325
 20
4.20537
 30
0.000000
  70
    32
  0
VERTEX
  8
AM_VIS
  5
452
 10
4.53213
 20
4.20414
 30
0.000000
  70
    32
  0
VERTEX
  8
AM_VIS
  5
453
 10
4.53102
 20
4.20290
 30
0.000000
  70
    32
  0
VERTEX
  8
AM_VIS
  5
454
 10
4.52992
 20
4.20165
 30
0.000000
  70
    32
  0
VERTEX
  8
AM_VIS
  5
455
 10
4.52882
 20
4.20039
 30
0.000000
  70
    32
  0
VERTEX
  8
AM_VIS
  5
456
 10
4.52773
 20
4.19912
 30
0.000000
  70
    32
  0
VERTEX
  8
AM_VIS
  5
457
 10
4.52664
 20
4.19784
 30
0.000000
  70
    32
  0
VERTEX
  8
AM_VIS
  5
458
 10
4.52556
 20
4.19656
 30
0.000000
  70
    32
  0
VERTEX
  8
AM_VIS
  5
459
 10
4.52448
 20
4.19526
 30
0.000000
  70
    32
  0
VERTEX
  8
AM_VIS
  5
45A
 10
4.52341
 20
4.19396
 30
0.000000
  70
    32
  0
VERTEX
  8
AM_VIS
  5
45B
 10
4.52234
 20
4.19265
 30
0.000000
  70
    32
  0
VERTEX
  8
AM_VIS
  5
45C
 10
4.52128
 20
4.19133
 30
0.000000
  70
    32
  0
VERTEX
  8
AM_VIS
  5
45D
 10
4.52022
 20
4.19001
 30
0.000000
  70
    32
  0
VERTEX
  8
AM_VIS
  5
45E
 10
4.51917
 20
4.18867
 30
0.000000
  70
    32
  0
VERTEX
  8
AM_VIS
  5
45F
 10
4.51813
 20
4.18733
 30
0.000000
  70
    32
  0
VERTEX
  8
AM_VIS
  5
460
 10
4.51709
 20
4.18598
 30
0.000000
  70
    32
  0
VERTEX
  8
AM_VIS
  5
461
 10
4.51606
 20
4.18462
 30
0.000000
  70
    32
  0
VERTEX
  8
AM_VIS
  5
462
 10
4.51503
 20
4.18326
 30
0.000000
  70
    32
  0
VERTEX
  8
AM_VIS
  5
463
 10
4.51401
 20
4.18189
 30
0.000000
  70
    32
  0
VERTEX
  8
AM_VIS
  5
464
 10
4.51300
 20
4.18051
 30
0.000000
  70
    32
  0
VERTEX
  8
AM_VIS
  5
465
 10
4.51199
 20
4.17912
 30
0.000000
  70
    32
  0
VERTEX
  8
AM_VIS
  5
466
 10
4.51099
 20
4.17773
 30
0.000000
  70
    32
  0
VERTEX
  8
AM_VIS
  5
467
 10
4.51000
 20
4.17632
 30
0.000000
  70
    32
  0
VERTEX
  8
AM_VIS
  5
468
 10
4.50901
 20
4.17492
 30
0.000000
  70
    32
  0
VERTEX
  8
AM_VIS
  5
469
 10
4.50803
 20
4.17350
 30
0.000000
  70
    32
  0
VERTEX
  8
AM_VIS
  5
46A
 10
4.50706
 20
4.17208
 30
0.000000
  70
    32
  0
VERTEX
  8
AM_VIS
  5
46B
 10
4.50609
 20
4.17065
 30
0.000000
  70
    32
  0
VERTEX
  8
AM_VIS
  5
46C
 10
4.50513
 20
4.16921
 30
0.000000
  70
    32
  0
VERTEX
  8
AM_VIS
  5
46D
 10
4.50418
 20
4.16777
 30
0.000000
  70
    32
  0
VERTEX
  8
AM_VIS
  5
46E
 10
4.50323
 20
4.16631
 30
0.000000
  70
    32
  0
VERTEX
  8
AM_VIS
  5
46F
 10
4.50229
 20
4.16486
 30
0.000000
  70
    32
  0
VERTEX
  8
AM_VIS
  5
470
 10
4.50136
 20
4.16339
 30
0.000000
  70
    32
  0
VERTEX
  8
AM_VIS
  5
471
 10
4.50043
 20
4.16192
 30
0.000000
  70
    32
  0
VERTEX
  8
AM_VIS
  5
472
 10
4.49951
 20
4.16045
 30
0.000000
  70
    32
  0
VERTEX
  8
AM_VIS
  5
473
 10
4.49860
 20
4.15896
 30
0.000000
  70
    32
  0
VERTEX
  8
AM_VIS
  5
474
 10
4.49770
 20
4.15747
 30
0.000000
  70
    32
  0
VERTEX
  8
AM_VIS
  5
475
 10
4.49680
 20
4.15598
 30
0.000000
  70
    32
  0
VERTEX
  8
AM_VIS
  5
476
 10
4.49592
 20
4.15448
 30
0.000000
  70
    32
  0
VERTEX
  8
AM_VIS
  5
477
 10
4.49503
 20
4.15297
 30
0.000000
  70
    32
  0
VERTEX
  8
AM_VIS
  5
478
 10
4.49416
 20
4.15146
 30
0.000000
  70
    32
  0
VERTEX
  8
AM_VIS
  5
479
 10
4.49330
 20
4.14994
 30
0.000000
  70
    32
  0
VERTEX
  8
AM_VIS
  5
47A
 10
4.49244
 20
4.14841
 30
0.000000
  70
    32
  0
VERTEX
  8
AM_VIS
  5
47B
 10
4.49159
 20
4.14688
 30
0.000000
  70
    32
  0
VERTEX
  8
AM_VIS
  5
47C
 10
4.49075
 20
4.14534
 30
0.000000
  70
    32
  0
VERTEX
  8
AM_VIS
  5
47D
 10
4.48992
 20
4.14380
 30
0.000000
  70
    32
  0
VERTEX
  8
AM_VIS
  5
47E
 10
4.48909
 20
4.14225
 30
0.000000
  70
    32
  0
VERTEX
  8
AM_VIS
  5
47F
 10
4.48827
 20
4.14070
 30
0.000000
  70
    32
  0
VERTEX
  8
AM_VIS
  5
480
 10
4.48747
 20
4.13914
 30
0.000000
  70
    32
  0
VERTEX
  8
AM_VIS
  5
481
 10
4.48667
 20
4.13758
 30
0.000000
  70
    32
  0
VERTEX
  8
AM_VIS
  5
482
 10
4.48587
 20
4.13601
 30
0.000000
  70
    32
  0
VERTEX
  8
AM_VIS
  5
483
 10
4.48509
 20
4.13443
 30
0.000000
  70
    32
  0
VERTEX
  8
AM_VIS
  5
484
 10
4.48432
 20
4.13285
 30
0.000000
  70
    32
  0
VERTEX
  8
AM_VIS
  5
485
 10
4.48355
 20
4.13127
 30
0.000000
  70
    32
  0
VERTEX
  8
AM_VIS
  5
486
 10
4.48280
 20
4.12968
 30
0.000000
  70
    32
  0
VERTEX
  8
AM_VIS
  5
487
 10
4.48205
 20
4.12808
 30
0.000000
  70
    32
  0
VERTEX
  8
AM_VIS
  5
488
 10
4.48131
 20
4.12648
 30
0.000000
  70
    32
  0
VERTEX
  8
AM_VIS
  5
489
 10
4.48058
 20
4.12488
 30
0.000000
  70
    32
  0
VERTEX
  8
AM_VIS
  5
48A
 10
4.47986
 20
4.12327
 30
0.000000
  70
    32
  0
VERTEX
  8
AM_VIS
  5
48B
 10
4.47915
 20
4.12166
 30
0.000000
  70
    32
  0
VERTEX
  8
AM_VIS
  5
48C
 10
4.47844
 20
4.12004
 30
0.000000
  70
    32
  0
VERTEX
  8
AM_VIS
  5
48D
 10
4.47775
 20
4.11842
 30
0.000000
  70
    32
  0
VERTEX
  8
AM_VIS
  5
48E
 10
4.47707
 20
4.11679
 30
0.000000
  70
    32
  0
VERTEX
  8
AM_VIS
  5
48F
 10
4.47639
 20
4.11516
 30
0.000000
  70
    32
  0
VERTEX
  8
AM_VIS
  5
490
 10
4.47573
 20
4.11352
 30
0.000000
  70
    32
  0
VERTEX
  8
AM_VIS
  5
491
 10
4.47507
 20
4.11188
 30
0.000000
  70
    32
  0
VERTEX
  8
AM_VIS
  5
492
 10
4.47442
 20
4.11024
 30
0.000000
  70
    32
  0
VERTEX
  8
AM_VIS
  5
493
 10
4.47379
 20
4.10859
 30
0.000000
  70
    32
  0
VERTEX
  8
AM_VIS
  5
494
 10
4.47316
 20
4.10694
 30
0.000000
  70
    32
  0
VERTEX
  8
AM_VIS
  5
495
 10
4.47255
 20
4.10529
 30
0.000000
  70
    32
  0
VERTEX
  8
AM_VIS
  5
496
 10
4.47194
 20
4.10363
 30
0.000000
  70
    32
  0
VERTEX
  8
AM_VIS
  5
497
 10
4.47134
 20
4.10197
 30
0.000000
  70
    32
  0
VERTEX
  8
AM_VIS
  5
498
 10
4.47075
 20
4.10030
 30
0.000000
  70
    32
  0
VERTEX
  8
AM_VIS
  5
499
 10
4.47018
 20
4.09863
 30
0.000000
  70
    32
  0
VERTEX
  8
AM_VIS
  5
49A
 10
4.46961
 20
4.09696
 30
0.000000
  70
    32
  0
VERTEX
  8
AM_VIS
  5
49B
 10
4.46905
 20
4.09528
 30
0.000000
  70
    32
  0
VERTEX
  8
AM_VIS
  5
49C
 10
4.46850
 20
4.09360
 30
0.000000
  70
    32
  0
VERTEX
  8
AM_VIS
  5
49D
 10
4.46796
 20
4.09192
 30
0.000000
  70
    32
  0
VERTEX
  8
AM_VIS
  5
49E
 10
4.46743
 20
4.09024
 30
0.000000
  70
    32
  0
VERTEX
  8
AM_VIS
  5
49F
 10
4.46691
 20
4.08855
 30
0.000000
  70
    32
  0
VERTEX
  8
AM_VIS
  5
4A0
 10
4.46640
 20
4.08686
 30
0.000000
  70
    32
  0
VERTEX
  8
AM_VIS
  5
4A1
 10
4.46590
 20
4.08517
 30
0.000000
  70
    32
  0
VERTEX
  8
AM_VIS
  5
4A2
 10
4.46541
 20
4.08348
 30
0.000000
  70
    32
  0
VERTEX
  8
AM_VIS
  5
4A3
 10
4.46493
 20
4.08178
 30
0.000000
  70
    32
  0
VERTEX
  8
AM_VIS
  5
4A4
 10
4.46446
 20
4.08008
 30
0.000000
  70
    32
  0
VERTEX
  8
AM_VIS
  5
4A5
 10
4.46400
 20
4.07838
 30
0.000000
  70
    32
  0
VERTEX
  8
AM_VIS
  5
4A6
 10
4.46354
 20
4.07668
 30
0.000000
  70
    32
  0
VERTEX
  8
AM_VIS
  5
4A7
 10
4.46310
 20
4.07497
 30
0.000000
  70
    32
  0
VERTEX
  8
AM_VIS
  5
4A8
 10
4.46267
 20
4.07327
 30
0.000000
  70
    32
  0
VERTEX
  8
AM_VIS
  5
4A9
 10
4.46224
 20
4.07156
 30
0.000000
  70
    32
  0
VERTEX
  8
AM_VIS
  5
4AA
 10
4.46183
 20
4.06985
 30
0.000000
  70
    32
  0
VERTEX
  8
AM_VIS
  5
4AB
 10
4.46142
 20
4.06814
 30
0.000000
  70
    32
  0
VERTEX
  8
AM_VIS
  5
4AC
 10
4.46103
 20
4.06643
 30
0.000000
  70
    32
  0
VERTEX
  8
AM_VIS
  5
4AD
 10
4.46064
 20
4.06472
 30
0.000000
  70
    32
  0
VERTEX
  8
AM_VIS
  5
4AE
 10
4.46027
 20
4.06300
 30
0.000000
  70
    32
  0
VERTEX
  8
AM_VIS
  5
4AF
 10
4.45990
 20
4.06129
 30
0.000000
  70
    32
  0
VERTEX
  8
AM_VIS
  5
4B0
 10
4.45955
 20
4.05957
 30
0.000000
  70
    32
  0
VERTEX
  8
AM_VIS
  5
4B1
 10
4.45920
 20
4.05785
 30
0.000000
  70
    32
  0
VERTEX
  8
AM_VIS
  5
4B2
 10
4.45886
 20
4.05614
 30
0.000000
  70
    32
  0
VERTEX
  8
AM_VIS
  5
4B3
 10
4.45853
 20
4.05442
 30
0.000000
  70
    32
  0
VERTEX
  8
AM_VIS
  5
4B4
 10
4.45821
 20
4.05270
 30
0.000000
  70
    32
  0
VERTEX
  8
AM_VIS
  5
4B5
 10
4.45791
 20
4.05098
 30
0.000000
  70
    32
  0
VERTEX
  8
AM_VIS
  5
4B6
 10
4.45761
 20
4.04926
 30
0.000000
  70
    32
  0
VERTEX
  8
AM_VIS
  5
4B7
 10
4.45732
 20
4.04755
 30
0.000000
  70
    32
  0
VERTEX
  8
AM_VIS
  5
4B8
 10
4.45704
 20
4.04583
 30
0.000000
  70
    32
  0
VERTEX
  8
AM_VIS
  5
4B9
 10
4.45677
 20
4.04411
 30
0.000000
  70
    32
  0
VERTEX
  8
AM_VIS
  5
4BA
 10
4.45650
 20
4.04239
 30
0.000000
  70
    32
  0
VERTEX
  8
AM_VIS
  5
4BB
 10
4.45625
 20
4.04067
 30
0.000000
  70
    32
  0
VERTEX
  8
AM_VIS
  5
4BC
 10
4.45601
 20
4.03896
 30
0.000000
  70
    32
  0
VERTEX
  8
AM_VIS
  5
4BD
 10
4.45578
 20
4.03724
 30
0.000000
  70
    32
  0
VERTEX
  8
AM_VIS
  5
4BE
 10
4.45555
 20
4.03552
 30
0.000000
  70
    32
  0
VERTEX
  8
AM_VIS
  5
4BF
 10
4.45534
 20
4.03381
 30
0.000000
  70
    32
  0
VERTEX
  8
AM_VIS
  5
4C0
 10
4.45513
 20
4.03209
 30
0.000000
  70
    32
  0
VERTEX
  8
AM_VIS
  5
4C1
 10
4.45494
 20
4.03038
 30
0.000000
  70
    32
  0
VERTEX
  8
AM_VIS
  5
4C2
 10
4.45475
 20
4.02867
 30
0.000000
  70
    32
  0
VERTEX
  8
AM_VIS
  5
4C3
 10
4.45458
 20
4.02696
 30
0.000000
  70
    32
  0
VERTEX
  8
AM_VIS
  5
4C4
 10
4.45441
 20
4.02525
 30
0.000000
  70
    32
  0
VERTEX
  8
AM_VIS
  5
4C5
 10
4.45425
 20
4.02354
 30
0.000000
  70
    32
  0
VERTEX
  8
AM_VIS
  5
4C6
 10
4.45411
 20
4.02183
 30
0.000000
  70
    32
  0
VERTEX
  8
AM_VIS
  5
4C7
 10
4.45397
 20
4.02013
 30
0.000000
  70
    32
  0
VERTEX
  8
AM_VIS
  5
4C8
 10
4.45384
 20
4.01842
 30
0.000000
  70
    32
  0
VERTEX
  8
AM_VIS
  5
4C9
 10
4.45372
 20
4.01672
 30
0.000000
  70
    32
  0
VERTEX
  8
AM_VIS
  5
4CA
 10
4.45361
 20
4.01502
 30
0.000000
  70
    32
  0
VERTEX
  8
AM_VIS
  5
4CB
 10
4.45351
 20
4.01332
 30
0.000000
  70
    32
  0
VERTEX
  8
AM_VIS
  5
4CC
 10
4.45342
 20
4.01163
 30
0.000000
  70
    32
  0
VERTEX
  8
AM_VIS
  5
4CD
 10
4.45334
 20
4.00994
 30
0.000000
  70
    32
  0
VERTEX
  8
AM_VIS
  5
4CE
 10
4.45326
 20
4.00825
 30
0.000000
  70
    32
  0
VERTEX
  8
AM_VIS
  5
4CF
 10
4.45320
 20
4.00656
 30
0.000000
  70
    32
  0
VERTEX
  8
AM_VIS
  5
4D0
 10
4.45315
 20
4.00487
 30
0.000000
  70
    32
  0
VERTEX
  8
AM_VIS
  5
4D1
 10
4.45310
 20
4.00319
 30
0.000000
  70
    32
  0
VERTEX
  8
AM_VIS
  5
4D2
 10
4.45307
 20
4.00151
 30
0.000000
  70
    32
  0
VERTEX
  8
AM_VIS
  5
4D3
 10
4.45304
 20
3.99983
 30
0.000000
  70
    32
  0
VERTEX
  8
AM_VIS
  5
4D4
 10
4.45302
 20
3.99816
 30
0.000000
  70
    32
  0
VERTEX
  8
AM_VIS
  5
4D5
 10
4.45302
 20
3.99649
 30
0.000000
  70
    32
  0
VERTEX
  8
AM_VIS
  5
4D6
 10
4.45302
 20
3.99482
 30
0.000000
  70
    32
  0
VERTEX
  8
AM_VIS
  5
4D7
 10
4.45303
 20
3.99315
 30
0.000000
  70
    32
  0
VERTEX
  8
AM_VIS
  5
4D8
 10
4.45305
 20
3.99147
 30
0.000000
  70
    32
  0
VERTEX
  8
AM_VIS
  5
4D9
 10
4.45308
 20
3.98980
 30
0.000000
  70
    32
  0
VERTEX
  8
AM_VIS
  5
4DA
 10
4.45312
 20
3.98812
 30
0.000000
  70
    32
  0
VERTEX
  8
AM_VIS
  5
4DB
 10
4.45317
 20
3.98643
 30
0.000000
  70
    32
  0
VERTEX
  8
AM_VIS
  5
4DC
 10
4.45323
 20
3.98474
 30
0.000000
  70
    32
  0
VERTEX
  8
AM_VIS
  5
4DD
 10
4.45330
 20
3.98306
 30
0.000000
  70
    32
  0
VERTEX
  8
AM_VIS
  5
4DE
 10
4.45337
 20
3.98136
 30
0.000000
  70
    32
  0
VERTEX
  8
AM_VIS
  5
4DF
 10
4.45346
 20
3.97967
 30
0.000000
  70
    32
  0
VERTEX
  8
AM_VIS
  5
4E0
 10
4.45356
 20
3.97797
 30
0.000000
  70
    32
  0
VERTEX
  8
AM_VIS
  5
4E1
 10
4.45366
 20
3.97628
 30
0.000000
  70
    32
  0
VERTEX
  8
AM_VIS
  5
4E2
 10
4.45378
 20
3.97457
 30
0.000000
  70
    32
  0
VERTEX
  8
AM_VIS
  5
4E3
 10
4.45390
 20
3.97287
 30
0.000000
  70
    32
  0
VERTEX
  8
AM_VIS
  5
4E4
 10
4.45404
 20
3.97117
 30
0.000000
  70
    32
  0
VERTEX
  8
AM_VIS
  5
4E5
 10
4.45418
 20
3.96946
 30
0.000000
  70
    32
  0
VERTEX
  8
AM_VIS
  5
4E6
 10
4.45433
 20
3.96775
 30
0.000000
  70
    32
  0
VERTEX
  8
AM_VIS
  5
4E7
 10
4.45449
 20
3.96605
 30
0.000000
  70
    32
  0
VERTEX
  8
AM_VIS
  5
4E8
 10
4.45466
 20
3.96434
 30
0.000000
  70
    32
  0
VERTEX
  8
AM_VIS
  5
4E9
 10
4.45485
 20
3.96262
 30
0.000000
  70
    32
  0
VERTEX
  8
AM_VIS
  5
4EA
 10
4.45504
 20
3.96091
 30
0.000000
  70
    32
  0
VERTEX
  8
AM_VIS
  5
4EB
 10
4.45524
 20
3.95920
 30
0.000000
  70
    32
  0
VERTEX
  8
AM_VIS
  5
4EC
 10
4.45544
 20
3.95748
 30
0.000000
  70
    32
  0
VERTEX
  8
AM_VIS
  5
4ED
 10
4.45566
 20
3.95577
 30
0.000000
  70
    32
  0
VERTEX
  8
AM_VIS
  5
4EE
 10
4.45589
 20
3.95405
 30
0.000000
  70
    32
  0
VERTEX
  8
AM_VIS
  5
4EF
 10
4.45613
 20
3.95233
 30
0.000000
  70
    32
  0
VERTEX
  8
AM_VIS
  5
4F0
 10
4.45638
 20
3.95061
 30
0.000000
  70
    32
  0
VERTEX
  8
AM_VIS
  5
4F1
 10
4.45663
 20
3.94890
 30
0.000000
  70
    32
  0
VERTEX
  8
AM_VIS
  5
4F2
 10
4.45690
 20
3.94718
 30
0.000000
  70
    32
  0
VERTEX
  8
AM_VIS
  5
4F3
 10
4.45718
 20
3.94546
 30
0.000000
  70
    32
  0
VERTEX
  8
AM_VIS
  5
4F4
 10
4.45746
 20
3.94374
 30
0.000000
  70
    32
  0
VERTEX
  8
AM_VIS
  5
4F5
 10
4.45775
 20
3.94202
 30
0.000000
  70
    32
  0
VERTEX
  8
AM_VIS
  5
4F6
 10
4.45806
 20
3.94030
 30
0.000000
  70
    32
  0
VERTEX
  8
AM_VIS
  5
4F7
 10
4.45837
 20
3.93859
 30
0.000000
  70
    32
  0
VERTEX
  8
AM_VIS
  5
4F8
 10
4.45870
 20
3.93687
 30
0.000000
  70
    32
  0
VERTEX
  8
AM_VIS
  5
4F9
 10
4.45903
 20
3.93515
 30
0.000000
  70
    32
  0
VERTEX
  8
AM_VIS
  5
4FA
 10
4.45937
 20
3.93343
 30
0.000000
  70
    32
  0
VERTEX
  8
AM_VIS
  5
4FB
 10
4.45972
 20
3.93172
 30
0.000000
  70
    32
  0
VERTEX
  8
AM_VIS
  5
4FC
 10
4.46008
 20
3.93000
 30
0.000000
  70
    32
  0
VERTEX
  8
AM_VIS
  5
4FD
 10
4.46046
 20
3.92829
 30
0.000000
  70
    32
  0
VERTEX
  8
AM_VIS
  5
4FE
 10
4.46084
 20
3.92657
 30
0.000000
  70
    32
  0
VERTEX
  8
AM_VIS
  5
4FF
 10
4.46123
 20
3.92486
 30
0.000000
  70
    32
  0
VERTEX
  8
AM_VIS
  5
500
 10
4.46163
 20
3.92315
 30
0.000000
  70
    32
  0
VERTEX
  8
AM_VIS
  5
501
 10
4.46203
 20
3.92144
 30
0.000000
  70
    32
  0
VERTEX
  8
AM_VIS
  5
502
 10
4.46245
 20
3.91973
 30
0.000000
  70
    32
  0
VERTEX
  8
AM_VIS
  5
503
 10
4.46288
 20
3.91803
 30
0.000000
  70
    32
  0
VERTEX
  8
AM_VIS
  5
504
 10
4.46332
 20
3.91632
 30
0.000000
  70
    32
  0
VERTEX
  8
AM_VIS
  5
505
 10
4.46377
 20
3.91462
 30
0.000000
  70
    32
  0
VERTEX
  8
AM_VIS
  5
506
 10
4.46423
 20
3.91291
 30
0.000000
  70
    32
  0
VERTEX
  8
AM_VIS
  5
507
 10
4.46469
 20
3.91122
 30
0.000000
  70
    32
  0
VERTEX
  8
AM_VIS
  5
508
 10
4.46517
 20
3.90952
 30
0.000000
  70
    32
  0
VERTEX
  8
AM_VIS
  5
509
 10
4.46565
 20
3.90782
 30
0.000000
  70
    32
  0
VERTEX
  8
AM_VIS
  5
50A
 10
4.46615
 20
3.90613
 30
0.000000
  70
    32
  0
VERTEX
  8
AM_VIS
  5
50B
 10
4.46666
 20
3.90444
 30
0.000000
  70
    32
  0
VERTEX
  8
AM_VIS
  5
50C
 10
4.46717
 20
3.90275
 30
0.000000
  70
    32
  0
VERTEX
  8
AM_VIS
  5
50D
 10
4.46770
 20
3.90106
 30
0.000000
  70
    32
  0
VERTEX
  8
AM_VIS
  5
50E
 10
4.46823
 20
3.89938
 30
0.000000
  70
    32
  0
VERTEX
  8
AM_VIS
  5
50F
 10
4.46877
 20
3.89770
 30
0.000000
  70
    32
  0
VERTEX
  8
AM_VIS
  5
510
 10
4.46933
 20
3.89603
 30
0.000000
  70
    32
  0
VERTEX
  8
AM_VIS
  5
511
 10
4.46989
 20
3.89435
 30
0.000000
  70
    32
  0
VERTEX
  8
AM_VIS
  5
512
 10
4.47046
 20
3.89268
 30
0.000000
  70
    32
  0
VERTEX
  8
AM_VIS
  5
513
 10
4.47105
 20
3.89101
 30
0.000000
  70
    32
  0
VERTEX
  8
AM_VIS
  5
514
 10
4.47164
 20
3.88935
 30
0.000000
  70
    32
  0
VERTEX
  8
AM_VIS
  5
515
 10
4.47224
 20
3.88769
 30
0.000000
  70
    32
  0
VERTEX
  8
AM_VIS
  5
516
 10
4.47285
 20
3.88603
 30
0.000000
  70
    32
  0
VERTEX
  8
AM_VIS
  5
517
 10
4.47347
 20
3.88438
 30
0.000000
  70
    32
  0
VERTEX
  8
AM_VIS
  5
518
 10
4.47411
 20
3.88273
 30
0.000000
  70
    32
  0
VERTEX
  8
AM_VIS
  5
519
 10
4.47475
 20
3.88108
 30
0.000000
  70
    32
  0
VERTEX
  8
AM_VIS
  5
51A
 10
4.47540
 20
3.87944
 30
0.000000
  70
    32
  0
VERTEX
  8
AM_VIS
  5
51B
 10
4.47606
 20
3.87781
 30
0.000000
  70
    32
  0
VERTEX
  8
AM_VIS
  5
51C
 10
4.47673
 20
3.87617
 30
0.000000
  70
    32
  0
VERTEX
  8
AM_VIS
  5
51D
 10
4.47741
 20
3.87454
 30
0.000000
  70
    32
  0
VERTEX
  8
AM_VIS
  5
51E
 10
4.47809
 20
3.87292
 30
0.000000
  70
    32
  0
VERTEX
  8
AM_VIS
  5
51F
 10
4.47879
 20
3.87130
 30
0.000000
  70
    32
  0
VERTEX
  8
AM_VIS
  5
520
 10
4.47950
 20
3.86968
 30
0.000000
  70
    32
  0
VERTEX
  8
AM_VIS
  5
521
 10
4.48022
 20
3.86807
 30
0.000000
  70
    32
  0
VERTEX
  8
AM_VIS
  5
522
 10
4.48094
 20
3.86647
 30
0.000000
  70
    32
  0
VERTEX
  8
AM_VIS
  5
523
 10
4.48168
 20
3.86486
 30
0.000000
  70
    32
  0
VERTEX
  8
AM_VIS
  5
524
 10
4.48242
 20
3.86327
 30
0.000000
  70
    32
  0
VERTEX
  8
AM_VIS
  5
525
 10
4.48317
 20
3.86167
 30
0.000000
  70
    32
  0
VERTEX
  8
AM_VIS
  5
526
 10
4.48393
 20
3.86009
 30
0.000000
  70
    32
  0
VERTEX
  8
AM_VIS
  5
527
 10
4.48470
 20
3.85850
 30
0.000000
  70
    32
  0
VERTEX
  8
AM_VIS
  5
528
 10
4.48548
 20
3.85693
 30
0.000000
  70
    32
  0
VERTEX
  8
AM_VIS
  5
529
 10
4.48627
 20
3.85535
 30
0.000000
  70
    32
  0
VERTEX
  8
AM_VIS
  5
52A
 10
4.48707
 20
3.85379
 30
0.000000
  70
    32
  0
VERTEX
  8
AM_VIS
  5
52B
 10
4.48787
 20
3.85223
 30
0.000000
  70
    32
  0
VERTEX
  8
AM_VIS
  5
52C
 10
4.48868
 20
3.85067
 30
0.000000
  70
    32
  0
VERTEX
  8
AM_VIS
  5
52D
 10
4.48950
 20
3.84912
 30
0.000000
  70
    32
  0
VERTEX
  8
AM_VIS
  5
52E
 10
4.49033
 20
3.84757
 30
0.000000
  70
    32
  0
VERTEX
  8
AM_VIS
  5
52F
 10
4.49117
 20
3.84603
 30
0.000000
  70
    32
  0
VERTEX
  8
AM_VIS
  5
530
 10
4.49201
 20
3.84450
 30
0.000000
  70
    32
  0
VERTEX
  8
AM_VIS
  5
531
 10
4.49287
 20
3.84297
 30
0.000000
  70
    32
  0
VERTEX
  8
AM_VIS
  5
532
 10
4.49373
 20
3.84145
 30
0.000000
  70
    32
  0
VERTEX
  8
AM_VIS
  5
533
 10
4.49460
 20
3.83993
 30
0.000000
  70
    32
  0
VERTEX
  8
AM_VIS
  5
534
 10
4.49547
 20
3.83842
 30
0.000000
  70
    32
  0
VERTEX
  8
AM_VIS
  5
535
 10
4.49636
 20
3.83692
 30
0.000000
  70
    32
  0
VERTEX
  8
AM_VIS
  5
536
 10
4.49725
 20
3.83542
 30
0.000000
  70
    32
  0
VERTEX
  8
AM_VIS
  5
537
 10
4.49815
 20
3.83393
 30
0.000000
  70
    32
  0
VERTEX
  8
AM_VIS
  5
538
 10
4.49906
 20
3.83244
 30
0.000000
  70
    32
  0
VERTEX
  8
AM_VIS
  5
539
 10
4.49997
 20
3.83096
 30
0.000000
  70
    32
  0
VERTEX
  8
AM_VIS
  5
53A
 10
4.50089
 20
3.82949
 30
0.000000
  70
    32
  0
VERTEX
  8
AM_VIS
  5
53B
 10
4.50182
 20
3.82802
 30
0.000000
  70
    32
  0
VERTEX
  8
AM_VIS
  5
53C
 10
4.50276
 20
3.82656
 30
0.000000
  70
    32
  0
VERTEX
  8
AM_VIS
  5
53D
 10
4.50370
 20
3.82511
 30
0.000000
  70
    32
  0
VERTEX
  8
AM_VIS
  5
53E
 10
4.50465
 20
3.82366
 30
0.000000
  70
    32
  0
VERTEX
  8
AM_VIS
  5
53F
 10
4.50561
 20
3.82222
 30
0.000000
  70
    32
  0
VERTEX
  8
AM_VIS
  5
540
 10
4.50657
 20
3.82078
 30
0.000000
  70
    32
  0
VERTEX
  8
AM_VIS
  5
541
 10
4.50754
 20
3.81936
 30
0.000000
  70
    32
  0
VERTEX
  8
AM_VIS
  5
542
 10
4.50852
 20
3.81794
 30
0.000000
  70
    32
  0
VERTEX
  8
AM_VIS
  5
543
 10
4.50951
 20
3.81653
 30
0.000000
  70
    32
  0
VERTEX
  8
AM_VIS
  5
544
 10
4.51050
 20
3.81512
 30
0.000000
  70
    32
  0
VERTEX
  8
AM_VIS
  5
545
 10
4.51149
 20
3.81372
 30
0.000000
  70
    32
  0
VERTEX
  8
AM_VIS
  5
546
 10
4.51250
 20
3.81233
 30
0.000000
  70
    32
  0
VERTEX
  8
AM_VIS
  5
547
 10
4.51351
 20
3.81095
 30
0.000000
  70
    32
  0
VERTEX
  8
AM_VIS
  5
548
 10
4.51452
 20
3.80957
 30
0.000000
  70
    32
  0
VERTEX
  8
AM_VIS
  5
549
 10
4.51555
 20
3.80820
 30
0.000000
  70
    32
  0
VERTEX
  8
AM_VIS
  5
54A
 10
4.51657
 20
3.80684
 30
0.000000
  70
    32
  0
VERTEX
  8
AM_VIS
  5
54B
 10
4.51761
 20
3.80549
 30
0.000000
  70
    32
  0
VERTEX
  8
AM_VIS
  5
54C
 10
4.51865
 20
3.80414
 30
0.000000
  70
    32
  0
VERTEX
  8
AM_VIS
  5
54D
 10
4.51970
 20
3.80281
 30
0.000000
  70
    32
  0
VERTEX
  8
AM_VIS
  5
54E
 10
4.52075
 20
3.80148
 30
0.000000
  70
    32
  0
VERTEX
  8
AM_VIS
  5
54F
 10
4.52181
 20
3.80015
 30
0.000000
  70
    32
  0
VERTEX
  8
AM_VIS
  5
550
 10
4.52287
 20
3.79884
 30
0.000000
  70
    32
  0
VERTEX
  8
AM_VIS
  5
551
 10
4.52394
 20
3.79753
 30
0.000000
  70
    32
  0
VERTEX
  8
AM_VIS
  5
552
 10
4.52502
 20
3.79624
 30
0.000000
  70
    32
  0
VERTEX
  8
AM_VIS
  5
553
 10
4.52610
 20
3.79495
 30
0.000000
  70
    32
  0
VERTEX
  8
AM_VIS
  5
554
 10
4.52718
 20
3.79367
 30
0.000000
  70
    32
  0
VERTEX
  8
AM_VIS
  5
555
 10
4.52827
 20
3.79239
 30
0.000000
  70
    32
  0
VERTEX
  8
AM_VIS
  5
556
 10
4.52937
 20
3.79113
 30
0.000000
  70
    32
  0
VERTEX
  8
AM_VIS
  5
557
 10
4.53047
 20
3.78987
 30
0.000000
  70
    32
  0
VERTEX
  8
AM_VIS
  5
558
 10
4.53158
 20
3.78863
 30
0.000000
  70
    32
  0
VERTEX
  8
AM_VIS
  5
559
 10
4.53269
 20
3.78739
 30
0.000000
  70
    32
  0
VERTEX
  8
AM_VIS
  5
55A
 10
4.53381
 20
3.78616
 30
0.000000
  70
    32
  0
VERTEX
  8
AM_VIS
  5
55B
 10
4.53493
 20
3.78494
 30
0.000000
  70
    32
  0
VERTEX
  8
AM_VIS
  5
55C
 10
4.53605
 20
3.78373
 30
0.000000
  70
    32
  0
VERTEX
  8
AM_VIS
  5
55D
 10
4.53719
 20
3.78252
 30
0.000000
  70
    32
  0
VERTEX
  8
AM_VIS
  5
55E
 10
4.53833
 20
3.78132
 30
0.000000
  70
    32
  0
VERTEX
  8
AM_VIS
  5
55F
 10
4.53948
 20
3.78013
 30
0.000000
  70
    32
  0
VERTEX
  8
AM_VIS
  5
560
 10
4.54063
 20
3.77894
 30
0.000000
  70
    32
  0
VERTEX
  8
AM_VIS
  5
561
 10
4.54180
 20
3.77776
 30
0.000000
  70
    32
  0
VERTEX
  8
AM_VIS
  5
562
 10
4.54298
 20
3.77657
 30
0.000000
  70
    32
  0
VERTEX
  8
AM_VIS
  5
563
 10
4.54416
 20
3.77540
 30
0.000000
  70
    32
  0
VERTEX
  8
AM_VIS
  5
564
 10
4.54536
 20
3.77423
 30
0.000000
  70
    32
  0
VERTEX
  8
AM_VIS
  5
565
 10
4.54656
 20
3.77306
 30
0.000000
  70
    32
  0
VERTEX
  8
AM_VIS
  5
566
 10
4.54777
 20
3.77190
 30
0.000000
  70
    32
  0
VERTEX
  8
AM_VIS
  5
567
 10
4.54899
 20
3.77074
 30
0.000000
  70
    32
  0
VERTEX
  8
AM_VIS
  5
568
 10
4.55022
 20
3.76959
 30
0.000000
  70
    32
  0
VERTEX
  8
AM_VIS
  5
569
 10
4.55146
 20
3.76845
 30
0.000000
  70
    32
  0
VERTEX
  8
AM_VIS
  5
56A
 10
4.55270
 20
3.76731
 30
0.000000
  70
    32
  0
VERTEX
  8
AM_VIS
  5
56B
 10
4.55396
 20
3.76617
 30
0.000000
  70
    32
  0
VERTEX
  8
AM_VIS
  5
56C
 10
4.55522
 20
3.76504
 30
0.000000
  70
    32
  0
VERTEX
  8
AM_VIS
  5
56D
 10
4.55649
 20
3.76392
 30
0.000000
  70
    32
  0
VERTEX
  8
AM_VIS
  5
56E
 10
4.55777
 20
3.76280
 30
0.000000
  70
    32
  0
VERTEX
  8
AM_VIS
  5
56F
 10
4.55906
 20
3.76169
 30
0.000000
  70
    32
  0
VERTEX
  8
AM_VIS
  5
570
 10
4.56035
 20
3.76058
 30
0.000000
  70
    32
  0
VERTEX
  8
AM_VIS
  5
571
 10
4.56165
 20
3.75948
 30
0.000000
  70
    32
  0
VERTEX
  8
AM_VIS
  5
572
 10
4.56296
 20
3.75838
 30
0.000000
  70
    32
  0
VERTEX
  8
AM_VIS
  5
573
 10
4.56428
 20
3.75729
 30
0.000000
  70
    32
  0
VERTEX
  8
AM_VIS
  5
574
 10
4.56561
 20
3.75621
 30
0.000000
  70
    32
  0
VERTEX
  8
AM_VIS
  5
575
 10
4.56694
 20
3.75514
 30
0.000000
  70
    32
  0
VERTEX
  8
AM_VIS
  5
576
 10
4.56828
 20
3.75407
 30
0.000000
  70
    32
  0
VERTEX
  8
AM_VIS
  5
577
 10
4.56963
 20
3.75300
 30
0.000000
  70
    32
  0
VERTEX
  8
AM_VIS
  5
578
 10
4.57099
 20
3.75194
 30
0.000000
  70
    32
  0
VERTEX
  8
AM_VIS
  5
579
 10
4.57235
 20
3.75089
 30
0.000000
  70
    32
  0
VERTEX
  8
AM_VIS
  5
57A
 10
4.57372
 20
3.74985
 30
0.000000
  70
    32
  0
VERTEX
  8
AM_VIS
  5
57B
 10
4.57510
 20
3.74881
 30
0.000000
  70
    32
  0
VERTEX
  8
AM_VIS
  5
57C
 10
4.57648
 20
3.74778
 30
0.000000
  70
    32
  0
VERTEX
  8
AM_VIS
  5
57D
 10
4.57788
 20
3.74676
 30
0.000000
  70
    32
  0
VERTEX
  8
AM_VIS
  5
57E
 10
4.57928
 20
3.74575
 30
0.000000
  70
    32
  0
VERTEX
  8
AM_VIS
  5
57F
 10
4.58068
 20
3.74474
 30
0.000000
  70
    32
  0
VERTEX
  8
AM_VIS
  5
580
 10
4.58210
 20
3.74374
 30
0.000000
  70
    32
  0
VERTEX
  8
AM_VIS
  5
581
 10
4.58352
 20
3.74274
 30
0.000000
  70
    32
  0
VERTEX
  8
AM_VIS
  5
582
 10
4.58494
 20
3.74176
 30
0.000000
  70
    32
  0
VERTEX
  8
AM_VIS
  5
583
 10
4.58638
 20
3.74078
 30
0.000000
  70
    32
  0
VERTEX
  8
AM_VIS
  5
584
 10
4.58782
 20
3.73981
 30
0.000000
  70
    32
  0
VERTEX
  8
AM_VIS
  5
585
 10
4.58926
 20
3.73884
 30
0.000000
  70
    32
  0
VERTEX
  8
AM_VIS
  5
586
 10
4.59072
 20
3.73789
 30
0.000000
  70
    32
  0
VERTEX
  8
AM_VIS
  5
587
 10
4.59218
 20
3.73694
 30
0.000000
  70
    32
  0
VERTEX
  8
AM_VIS
  5
588
 10
4.59364
 20
3.73600
 30
0.000000
  70
    32
  0
VERTEX
  8
AM_VIS
  5
589
 10
4.59512
 20
3.73507
 30
0.000000
  70
    32
  0
VERTEX
  8
AM_VIS
  5
58A
 10
4.59659
 20
3.73414
 30
0.000000
  70
    32
  0
VERTEX
  8
AM_VIS
  5
58B
 10
4.59808
 20
3.73323
 30
0.000000
  70
    32
  0
VERTEX
  8
AM_VIS
  5
58C
 10
4.59957
 20
3.73232
 30
0.000000
  70
    32
  0
VERTEX
  8
AM_VIS
  5
58D
 10
4.60107
 20
3.73142
 30
0.000000
  70
    32
  0
VERTEX
  8
AM_VIS
  5
58E
 10
4.60257
 20
3.73053
 30
0.000000
  70
    32
  0
VERTEX
  8
AM_VIS
  5
58F
 10
4.60408
 20
3.72965
 30
0.000000
  70
    32
  0
VERTEX
  8
AM_VIS
  5
590
 10
4.60559
 20
3.72878
 30
0.000000
  70
    32
  0
VERTEX
  8
AM_VIS
  5
591
 10
4.60711
 20
3.72791
 30
0.000000
  70
    32
  0
VERTEX
  8
AM_VIS
  5
592
 10
4.60864
 20
3.72706
 30
0.000000
  70
    32
  0
VERTEX
  8
AM_VIS
  5
593
 10
4.61017
 20
3.72621
 30
0.000000
  70
    32
  0
VERTEX
  8
AM_VIS
  5
594
 10
4.61171
 20
3.72537
 30
0.000000
  70
    32
  0
VERTEX
  8
AM_VIS
  5
595
 10
4.61325
 20
3.72455
 30
0.000000
  70
    32
  0
VERTEX
  8
AM_VIS
  5
596
 10
4.61480
 20
3.72373
 30
0.000000
  70
    32
  0
VERTEX
  8
AM_VIS
  5
597
 10
4.61635
 20
3.72292
 30
0.000000
  70
    32
  0
VERTEX
  8
AM_VIS
  5
598
 10
4.61791
 20
3.72212
 30
0.000000
  70
    32
  0
VERTEX
  8
AM_VIS
  5
599
 10
4.61948
 20
3.72133
 30
0.000000
  70
    32
  0
VERTEX
  8
AM_VIS
  5
59A
 10
4.62105
 20
3.72055
 30
0.000000
  70
    32
  0
VERTEX
  8
AM_VIS
  5
59B
 10
4.62262
 20
3.71977
 30
0.000000
  70
    32
  0
VERTEX
  8
AM_VIS
  5
59C
 10
4.62420
 20
3.71901
 30
0.000000
  70
    32
  0
VERTEX
  8
AM_VIS
  5
59D
 10
4.62578
 20
3.71826
 30
0.000000
  70
    32
  0
VERTEX
  8
AM_VIS
  5
59E
 10
4.62737
 20
3.71752
 30
0.000000
  70
    32
  0
VERTEX
  8
AM_VIS
  5
59F
 10
4.62897
 20
3.71679
 30
0.000000
  70
    32
  0
VERTEX
  8
AM_VIS
  5
5A0
 10
4.63056
 20
3.71606
 30
0.000000
  70
    32
  0
VERTEX
  8
AM_VIS
  5
5A1
 10
4.63217
 20
3.71535
 30
0.000000
  70
    32
  0
VERTEX
  8
AM_VIS
  5
5A2
 10
4.63378
 20
3.71465
 30
0.000000
  70
    32
  0
VERTEX
  8
AM_VIS
  5
5A3
 10
4.63539
 20
3.71396
 30
0.000000
  70
    32
  0
VERTEX
  8
AM_VIS
  5
5A4
 10
4.63700
 20
3.71328
 30
0.000000
  70
    32
  0
VERTEX
  8
AM_VIS
  5
5A5
 10
4.63863
 20
3.71261
 30
0.000000
  70
    32
  0
VERTEX
  8
AM_VIS
  5
5A6
 10
4.64025
 20
3.71195
 30
0.000000
  70
    32
  0
VERTEX
  8
AM_VIS
  5
5A7
 10
4.64188
 20
3.71130
 30
0.000000
  70
    32
  0
VERTEX
  8
AM_VIS
  5
5A8
 10
4.64351
 20
3.71066
 30
0.000000
  70
    32
  0
VERTEX
  8
AM_VIS
  5
5A9
 10
4.64515
 20
3.71003
 30
0.000000
  70
    32
  0
VERTEX
  8
AM_VIS
  5
5AA
 10
4.64679
 20
3.70941
 30
0.000000
  70
    32
  0
VERTEX
  8
AM_VIS
  5
5AB
 10
4.64844
 20
3.70880
 30
0.000000
  70
    32
  0
VERTEX
  8
AM_VIS
  5
5AC
 10
4.65008
 20
3.70820
 30
0.000000
  70
    32
  0
VERTEX
  8
AM_VIS
  5
5AD
 10
4.65174
 20
3.70762
 30
0.000000
  70
    32
  0
VERTEX
  8
AM_VIS
  5
5AE
 10
4.65339
 20
3.70704
 30
0.000000
  70
    32
  0
VERTEX
  8
AM_VIS
  5
5AF
 10
4.65505
 20
3.70647
 30
0.000000
  70
    32
  0
VERTEX
  8
AM_VIS
  5
5B0
 10
4.65671
 20
3.70591
 30
0.000000
  70
    32
  0
VERTEX
  8
AM_VIS
  5
5B1
 10
4.65837
 20
3.70537
 30
0.000000
  70
    32
  0
VERTEX
  8
AM_VIS
  5
5B2
 10
4.66004
 20
3.70483
 30
0.000000
  70
    32
  0
VERTEX
  8
AM_VIS
  5
5B3
 10
4.66171
 20
3.70430
 30
0.000000
  70
    32
  0
VERTEX
  8
AM_VIS
  5
5B4
 10
4.66338
 20
3.70379
 30
0.000000
  70
    32
  0
VERTEX
  8
AM_VIS
  5
5B5
 10
4.66506
 20
3.70328
 30
0.000000
  70
    32
  0
VERTEX
  8
AM_VIS
  5
5B6
 10
4.66674
 20
3.70279
 30
0.000000
  70
    32
  0
VERTEX
  8
AM_VIS
  5
5B7
 10
4.66842
 20
3.70230
 30
0.000000
  70
    32
  0
VERTEX
  8
AM_VIS
  5
5B8
 10
4.67010
 20
3.70183
 30
0.000000
  70
    32
  0
VERTEX
  8
AM_VIS
  5
5B9
 10
4.67178
 20
3.70136
 30
0.000000
  70
    32
  0
VERTEX
  8
AM_VIS
  5
5BA
 10
4.67347
 20
3.70091
 30
0.000000
  70
    32
  0
VERTEX
  8
AM_VIS
  5
5BB
 10
4.67516
 20
3.70047
 30
0.000000
  70
    32
  0
VERTEX
  8
AM_VIS
  5
5BC
 10
4.67685
 20
3.70003
 30
0.000000
  70
    32
  0
VERTEX
  8
AM_VIS
  5
5BD
 10
4.67854
 20
3.69961
 30
0.000000
  70
    32
  0
VERTEX
  8
AM_VIS
  5
5BE
 10
4.68023
 20
3.69920
 30
0.000000
  70
    32
  0
VERTEX
  8
AM_VIS
  5
5BF
 10
4.68193
 20
3.69880
 30
0.000000
  70
    32
  0
VERTEX
  8
AM_VIS
  5
5C0
 10
4.68362
 20
3.69841
 30
0.000000
  70
    32
  0
VERTEX
  8
AM_VIS
  5
5C1
 10
4.68532
 20
3.69803
 30
0.000000
  70
    32
  0
VERTEX
  8
AM_VIS
  5
5C2
 10
4.68702
 20
3.69766
 30
0.000000
  70
    32
  0
VERTEX
  8
AM_VIS
  5
5C3
 10
4.68872
 20
3.69730
 30
0.000000
  70
    32
  0
VERTEX
  8
AM_VIS
  5
5C4
 10
4.69042
 20
3.69695
 30
0.000000
  70
    32
  0
VERTEX
  8
AM_VIS
  5
5C5
 10
4.69212
 20
3.69661
 30
0.000000
  70
    32
  0
VERTEX
  8
AM_VIS
  5
5C6
 10
4.69382
 20
3.69628
 30
0.000000
  70
    32
  0
VERTEX
  8
AM_VIS
  5
5C7
 10
4.69552
 20
3.69596
 30
0.000000
  70
    32
  0
VERTEX
  8
AM_VIS
  5
5C8
 10
4.69722
 20
3.69565
 30
0.000000
  70
    32
  0
VERTEX
  8
AM_VIS
  5
5C9
 10
4.69893
 20
3.69535
 30
0.000000
  70
    32
  0
VERTEX
  8
AM_VIS
  5
5CA
 10
4.70063
 20
3.69506
 30
0.000000
  70
    32
  0
VERTEX
  8
AM_VIS
  5
5CB
 10
4.70233
 20
3.69479
 30
0.000000
  70
    32
  0
VERTEX
  8
AM_VIS
  5
5CC
 10
4.70404
 20
3.69452
 30
0.000000
  70
    32
  0
VERTEX
  8
AM_VIS
  5
5CD
 10
4.70574
 20
3.69427
 30
0.000000
  70
    32
  0
VERTEX
  8
AM_VIS
  5
5CE
 10
4.70745
 20
3.69402
 30
0.000000
  70
    32
  0
VERTEX
  8
AM_VIS
  5
5CF
 10
4.70915
 20
3.69378
 30
0.000000
  70
    32
  0
VERTEX
  8
AM_VIS
  5
5D0
 10
4.71085
 20
3.69356
 30
0.000000
  70
    32
  0
VERTEX
  8
AM_VIS
  5
5D1
 10
4.71255
 20
3.69334
 30
0.000000
  70
    32
  0
VERTEX
  8
AM_VIS
  5
5D2
 10
4.71425
 20
3.69314
 30
0.000000
  70
    32
  0
VERTEX
  8
AM_VIS
  5
5D3
 10
4.71596
 20
3.69295
 30
0.000000
  70
    32
  0
VERTEX
  8
AM_VIS
  5
5D4
 10
4.71766
 20
3.69276
 30
0.000000
  70
    32
  0
VERTEX
  8
AM_VIS
  5
5D5
 10
4.71935
 20
3.69259
 30
0.000000
  70
    32
  0
VERTEX
  8
AM_VIS
  5
5D6
 10
4.72105
 20
3.69243
 30
0.000000
  70
    32
  0
VERTEX
  8
AM_VIS
  5
5D7
 10
4.72275
 20
3.69228
 30
0.000000
  70
    32
  0
VERTEX
  8
AM_VIS
  5
5D8
 10
4.72445
 20
3.69214
 30
0.000000
  70
    32
  0
VERTEX
  8
AM_VIS
  5
5D9
 10
4.72614
 20
3.69200
 30
0.000000
  70
    32
  0
VERTEX
  8
AM_VIS
  5
5DA
 10
4.72783
 20
3.69188
 30
0.000000
  70
    32
  0
VERTEX
  8
AM_VIS
  5
5DB
 10
4.72952
 20
3.69177
 30
0.000000
  70
    32
  0
VERTEX
  8
AM_VIS
  5
5DC
 10
4.73121
 20
3.69167
 30
0.000000
  70
    32
  0
VERTEX
  8
AM_VIS
  5
5DD
 10
4.73290
 20
3.69159
 30
0.000000
  70
    32
  0
VERTEX
  8
AM_VIS
  5
5DE
 10
4.73459
 20
3.69151
 30
0.000000
  70
    32
  0
VERTEX
  8
AM_VIS
  5
5DF
 10
4.73627
 20
3.69144
 30
0.000000
  70
    32
  0
VERTEX
  8
AM_VIS
  5
5E0
 10
4.73795
 20
3.69138
 30
0.000000
  70
    32
  0
VERTEX
  8
AM_VIS
  5
5E1
 10
4.73963
 20
3.69133
 30
0.000000
  70
    32
  0
VERTEX
  8
AM_VIS
  5
5E2
 10
4.74131
 20
3.69130
 30
0.000000
  70
    32
  0
VERTEX
  8
AM_VIS
  5
5E3
 10
4.74298
 20
3.69127
 30
0.000000
  70
    32
  0
VERTEX
  8
AM_VIS
  5
5E4
 10
4.74466
 20
3.69126
 30
0.000000
  70
    32
  0
VERTEX
  8
AM_VIS
  5
5E5
 10
4.74632
 20
3.69125
 30
0.000000
  70
    32
  0
SEQEND
  8
AM_VIS
  5
5E6
  0
CIRCLE
  5
48
  8
AM_VIS
 10
4.7463243335086647
 20
3.9960732476762342
 30
0.0
 40
0.28125
  0
POLYLINE
  8
AM_VIS
  5
5E7
  66
     1
 10
0.000000
 20
0.000000
 30
0.000000
  70
     8
  0
VERTEX
  8
AM_VIS
  5
5E8
 10
6.09632
 20
3.69125
 30
0.000000
  70
    32
  0
VERTEX
  8
AM_VIS
  5
5E9
 10
6.09799
 20
3.69126
 30
0.000000
  70
    32
  0
VERTEX
  8
AM_VIS
  5
5EA
 10
6.09967
 20
3.69127
 30
0.000000
  70
    32
  0
VERTEX
  8
AM_VIS
  5
5EB
 10
6.10134
 20
3.69130
 30
0.000000
  70
    32
  0
VERTEX
  8
AM_VIS
  5
5EC
 10
6.10302
 20
3.69133
 30
0.000000
  70
    32
  0
VERTEX
  8
AM_VIS
  5
5ED
 10
6.10470
 20
3.69138
 30
0.000000
  70
    32
  0
VERTEX
  8
AM_VIS
  5
5EE
 10
6.10638
 20
3.69144
 30
0.000000
  70
    32
  0
VERTEX
  8
AM_VIS
  5
5EF
 10
6.10806
 20
3.69151
 30
0.000000
  70
    32
  0
VERTEX
  8
AM_VIS
  5
5F0
 10
6.10975
 20
3.69159
 30
0.000000
  70
    32
  0
VERTEX
  8
AM_VIS
  5
5F1
 10
6.11144
 20
3.69167
 30
0.000000
  70
    32
  0
VERTEX
  8
AM_VIS
  5
5F2
 10
6.11312
 20
3.69177
 30
0.000000
  70
    32
  0
VERTEX
  8
AM_VIS
  5
5F3
 10
6.11482
 20
3.69188
 30
0.000000
  70
    32
  0
VERTEX
  8
AM_VIS
  5
5F4
 10
6.11651
 20
3.69200
 30
0.000000
  70
    32
  0
VERTEX
  8
AM_VIS
  5
5F5
 10
6.11820
 20
3.69214
 30
0.000000
  70
    32
  0
VERTEX
  8
AM_VIS
  5
5F6
 10
6.11990
 20
3.69228
 30
0.000000
  70
    32
  0
VERTEX
  8
AM_VIS
  5
5F7
 10
6.12160
 20
3.69243
 30
0.000000
  70
    32
  0
VERTEX
  8
AM_VIS
  5
5F8
 10
6.12329
 20
3.69259
 30
0.000000
  70
    32
  0
VERTEX
  8
AM_VIS
  5
5F9
 10
6.12499
 20
3.69276
 30
0.000000
  70
    32
  0
VERTEX
  8
AM_VIS
  5
5FA
 10
6.12669
 20
3.69295
 30
0.000000
  70
    32
  0
VERTEX
  8
AM_VIS
  5
5FB
 10
6.12839
 20
3.69314
 30
0.000000
  70
    32
  0
VERTEX
  8
AM_VIS
  5
5FC
 10
6.13010
 20
3.69334
 30
0.000000
  70
    32
  0
VERTEX
  8
AM_VIS
  5
5FD
 10
6.13180
 20
3.69356
 30
0.000000
  70
    32
  0
VERTEX
  8
AM_VIS
  5
5FE
 10
6.13350
 20
3.69378
 30
0.000000
  70
    32
  0
VERTEX
  8
AM_VIS
  5
5FF
 10
6.13520
 20
3.69402
 30
0.000000
  70
    32
  0
VERTEX
  8
AM_VIS
  5
600
 10
6.13691
 20
3.69427
 30
0.000000
  70
    32
  0
VERTEX
  8
AM_VIS
  5
601
 10
6.13861
 20
3.69452
 30
0.000000
  70
    32
  0
VERTEX
  8
AM_VIS
  5
602
 10
6.14031
 20
3.69479
 30
0.000000
  70
    32
  0
VERTEX
  8
AM_VIS
  5
603
 10
6.14202
 20
3.69506
 30
0.000000
  70
    32
  0
VERTEX
  8
AM_VIS
  5
604
 10
6.14372
 20
3.69535
 30
0.000000
  70
    32
  0
VERTEX
  8
AM_VIS
  5
605
 10
6.14542
 20
3.69565
 30
0.000000
  70
    32
  0
VERTEX
  8
AM_VIS
  5
606
 10
6.14713
 20
3.69596
 30
0.000000
  70
    32
  0
VERTEX
  8
AM_VIS
  5
607
 10
6.14883
 20
3.69628
 30
0.000000
  70
    32
  0
VERTEX
  8
AM_VIS
  5
608
 10
6.15053
 20
3.69661
 30
0.000000
  70
    32
  0
VERTEX
  8
AM_VIS
  5
609
 10
6.15223
 20
3.69695
 30
0.000000
  70
    32
  0
VERTEX
  8
AM_VIS
  5
60A
 10
6.15393
 20
3.69730
 30
0.000000
  70
    32
  0
VERTEX
  8
AM_VIS
  5
60B
 10
6.15563
 20
3.69766
 30
0.000000
  70
    32
  0
VERTEX
  8
AM_VIS
  5
60C
 10
6.15733
 20
3.69803
 30
0.000000
  70
    32
  0
VERTEX
  8
AM_VIS
  5
60D
 10
6.15903
 20
3.69841
 30
0.000000
  70
    32
  0
VERTEX
  8
AM_VIS
  5
60E
 10
6.16072
 20
3.69880
 30
0.000000
  70
    32
  0
VERTEX
  8
AM_VIS
  5
60F
 10
6.16242
 20
3.69920
 30
0.000000
  70
    32
  0
VERTEX
  8
AM_VIS
  5
610
 10
6.16411
 20
3.69961
 30
0.000000
  70
    32
  0
VERTEX
  8
AM_VIS
  5
611
 10
6.16580
 20
3.70003
 30
0.000000
  70
    32
  0
VERTEX
  8
AM_VIS
  5
612
 10
6.16749
 20
3.70047
 30
0.000000
  70
    32
  0
VERTEX
  8
AM_VIS
  5
613
 10
6.16918
 20
3.70091
 30
0.000000
  70
    32
  0
VERTEX
  8
AM_VIS
  5
614
 10
6.17087
 20
3.70136
 30
0.000000
  70
    32
  0
VERTEX
  8
AM_VIS
  5
615
 10
6.17255
 20
3.70183
 30
0.000000
  70
    32
  0
VERTEX
  8
AM_VIS
  5
616
 10
6.17423
 20
3.70230
 30
0.000000
  70
    32
  0
VERTEX
  8
AM_VIS
  5
617
 10
6.17591
 20
3.70279
 30
0.000000
  70
    32
  0
VERTEX
  8
AM_VIS
  5
618
 10
6.17759
 20
3.70328
 30
0.000000
  70
    32
  0
VERTEX
  8
AM_VIS
  5
619
 10
6.17926
 20
3.70379
 30
0.000000
  70
    32
  0
VERTEX
  8
AM_VIS
  5
61A
 10
6.18094
 20
3.70430
 30
0.000000
  70
    32
  0
VERTEX
  8
AM_VIS
  5
61B
 10
6.18261
 20
3.70483
 30
0.000000
  70
    32
  0
VERTEX
  8
AM_VIS
  5
61C
 10
6.18427
 20
3.70537
 30
0.000000
  70
    32
  0
VERTEX
  8
AM_VIS
  5
61D
 10
6.18594
 20
3.70591
 30
0.000000
  70
    32
  0
VERTEX
  8
AM_VIS
  5
61E
 10
6.18760
 20
3.70647
 30
0.000000
  70
    32
  0
VERTEX
  8
AM_VIS
  5
61F
 10
6.18926
 20
3.70704
 30
0.000000
  70
    32
  0
VERTEX
  8
AM_VIS
  5
620
 10
6.19091
 20
3.70762
 30
0.000000
  70
    32
  0
VERTEX
  8
AM_VIS
  5
621
 10
6.19256
 20
3.70820
 30
0.000000
  70
    32
  0
VERTEX
  8
AM_VIS
  5
622
 10
6.19421
 20
3.70880
 30
0.000000
  70
    32
  0
VERTEX
  8
AM_VIS
  5
623
 10
6.19586
 20
3.70941
 30
0.000000
  70
    32
  0
VERTEX
  8
AM_VIS
  5
624
 10
6.19750
 20
3.71003
 30
0.000000
  70
    32
  0
VERTEX
  8
AM_VIS
  5
625
 10
6.19913
 20
3.71066
 30
0.000000
  70
    32
  0
VERTEX
  8
AM_VIS
  5
626
 10
6.20077
 20
3.71130
 30
0.000000
  70
    32
  0
VERTEX
  8
AM_VIS
  5
627
 10
6.20240
 20
3.71195
 30
0.000000
  70
    32
  0
VERTEX
  8
AM_VIS
  5
628
 10
6.20402
 20
3.71261
 30
0.000000
  70
    32
  0
VERTEX
  8
AM_VIS
  5
629
 10
6.20564
 20
3.71328
 30
0.000000
  70
    32
  0
VERTEX
  8
AM_VIS
  5
62A
 10
6.20726
 20
3.71396
 30
0.000000
  70
    32
  0
VERTEX
  8
AM_VIS
  5
62B
 10
6.20887
 20
3.71465
 30
0.000000
  70
    32
  0
VERTEX
  8
AM_VIS
  5
62C
 10
6.21048
 20
3.71535
 30
0.000000
  70
    32
  0
VERTEX
  8
AM_VIS
  5
62D
 10
6.21208
 20
3.71606
 30
0.000000
  70
    32
  0
VERTEX
  8
AM_VIS
  5
62E
 10
6.21368
 20
3.71679
 30
0.000000
  70
    32
  0
VERTEX
  8
AM_VIS
  5
62F
 10
6.21528
 20
3.71752
 30
0.000000
  70
    32
  0
VERTEX
  8
AM_VIS
  5
630
 10
6.21687
 20
3.71826
 30
0.000000
  70
    32
  0
VERTEX
  8
AM_VIS
  5
631
 10
6.21845
 20
3.71901
 30
0.000000
  70
    32
  0
VERTEX
  8
AM_VIS
  5
632
 10
6.22003
 20
3.71977
 30
0.000000
  70
    32
  0
VERTEX
  8
AM_VIS
  5
633
 10
6.22160
 20
3.72055
 30
0.000000
  70
    32
  0
VERTEX
  8
AM_VIS
  5
634
 10
6.22317
 20
3.72133
 30
0.000000
  70
    32
  0
VERTEX
  8
AM_VIS
  5
635
 10
6.22474
 20
3.72212
 30
0.000000
  70
    32
  0
VERTEX
  8
AM_VIS
  5
636
 10
6.22630
 20
3.72292
 30
0.000000
  70
    32
  0
VERTEX
  8
AM_VIS
  5
637
 10
6.22785
 20
3.72373
 30
0.000000
  70
    32
  0
VERTEX
  8
AM_VIS
  5
638
 10
6.22940
 20
3.72455
 30
0.000000
  70
    32
  0
VERTEX
  8
AM_VIS
  5
639
 10
6.23094
 20
3.72537
 30
0.000000
  70
    32
  0
VERTEX
  8
AM_VIS
  5
63A
 10
6.23248
 20
3.72621
 30
0.000000
  70
    32
  0
VERTEX
  8
AM_VIS
  5
63B
 10
6.23401
 20
3.72706
 30
0.000000
  70
    32
  0
VERTEX
  8
AM_VIS
  5
63C
 10
6.23553
 20
3.72791
 30
0.000000
  70
    32
  0
VERTEX
  8
AM_VIS
  5
63D
 10
6.23706
 20
3.72878
 30
0.000000
  70
    32
  0
VERTEX
  8
AM_VIS
  5
63E
 10
6.23857
 20
3.72965
 30
0.000000
  70
    32
  0
VERTEX
  8
AM_VIS
  5
63F
 10
6.24008
 20
3.73053
 30
0.000000
  70
    32
  0
VERTEX
  8
AM_VIS
  5
640
 10
6.24158
 20
3.73142
 30
0.000000
  70
    32
  0
VERTEX
  8
AM_VIS
  5
641
 10
6.24308
 20
3.73232
 30
0.000000
  70
    32
  0
VERTEX
  8
AM_VIS
  5
642
 10
6.24457
 20
3.73323
 30
0.000000
  70
    32
  0
VERTEX
  8
AM_VIS
  5
643
 10
6.24605
 20
3.73414
 30
0.000000
  70
    32
  0
VERTEX
  8
AM_VIS
  5
644
 10
6.24753
 20
3.73507
 30
0.000000
  70
    32
  0
VERTEX
  8
AM_VIS
  5
645
 10
6.24901
 20
3.73600
 30
0.000000
  70
    32
  0
VERTEX
  8
AM_VIS
  5
646
 10
6.25047
 20
3.73694
 30
0.000000
  70
    32
  0
VERTEX
  8
AM_VIS
  5
647
 10
6.25193
 20
3.73789
 30
0.000000
  70
    32
  0
VERTEX
  8
AM_VIS
  5
648
 10
6.25338
 20
3.73884
 30
0.000000
  70
    32
  0
VERTEX
  8
AM_VIS
  5
649
 10
6.25483
 20
3.73981
 30
0.000000
  70
    32
  0
VERTEX
  8
AM_VIS
  5
64A
 10
6.25627
 20
3.74078
 30
0.000000
  70
    32
  0
VERTEX
  8
AM_VIS
  5
64B
 10
6.25771
 20
3.74176
 30
0.000000
  70
    32
  0
VERTEX
  8
AM_VIS
  5
64C
 10
6.25913
 20
3.74274
 30
0.000000
  70
    32
  0
VERTEX
  8
AM_VIS
  5
64D
 10
6.26055
 20
3.74374
 30
0.000000
  70
    32
  0
VERTEX
  8
AM_VIS
  5
64E
 10
6.26197
 20
3.74474
 30
0.000000
  70
    32
  0
VERTEX
  8
AM_VIS
  5
64F
 10
6.26337
 20
3.74575
 30
0.000000
  70
    32
  0
VERTEX
  8
AM_VIS
  5
650
 10
6.26477
 20
3.74676
 30
0.000000
  70
    32
  0
VERTEX
  8
AM_VIS
  5
651
 10
6.26616
 20
3.74778
 30
0.000000
  70
    32
  0
VERTEX
  8
AM_VIS
  5
652
 10
6.26755
 20
3.74881
 30
0.000000
  70
    32
  0
VERTEX
  8
AM_VIS
  5
653
 10
6.26893
 20
3.74985
 30
0.000000
  70
    32
  0
VERTEX
  8
AM_VIS
  5
654
 10
6.27030
 20
3.75089
 30
0.000000
  70
    32
  0
VERTEX
  8
AM_VIS
  5
655
 10
6.27166
 20
3.75194
 30
0.000000
  70
    32
  0
VERTEX
  8
AM_VIS
  5
656
 10
6.27302
 20
3.75300
 30
0.000000
  70
    32
  0
VERTEX
  8
AM_VIS
  5
657
 10
6.27437
 20
3.75407
 30
0.000000
  70
    32
  0
VERTEX
  8
AM_VIS
  5
658
 10
6.27571
 20
3.75514
 30
0.000000
  70
    32
  0
VERTEX
  8
AM_VIS
  5
659
 10
6.27704
 20
3.75621
 30
0.000000
  70
    32
  0
VERTEX
  8
AM_VIS
  5
65A
 10
6.27837
 20
3.75729
 30
0.000000
  70
    32
  0
VERTEX
  8
AM_VIS
  5
65B
 10
6.27969
 20
3.75838
 30
0.000000
  70
    32
  0
VERTEX
  8
AM_VIS
  5
65C
 10
6.28100
 20
3.75948
 30
0.000000
  70
    32
  0
VERTEX
  8
AM_VIS
  5
65D
 10
6.28230
 20
3.76058
 30
0.000000
  70
    32
  0
VERTEX
  8
AM_VIS
  5
65E
 10
6.28359
 20
3.76169
 30
0.000000
  70
    32
  0
VERTEX
  8
AM_VIS
  5
65F
 10
6.28488
 20
3.76280
 30
0.000000
  70
    32
  0
VERTEX
  8
AM_VIS
  5
660
 10
6.28616
 20
3.76392
 30
0.000000
  70
    32
  0
VERTEX
  8
AM_VIS
  5
661
 10
6.28743
 20
3.76504
 30
0.000000
  70
    32
  0
VERTEX
  8
AM_VIS
  5
662
 10
6.28869
 20
3.76617
 30
0.000000
  70
    32
  0
VERTEX
  8
AM_VIS
  5
663
 10
6.28995
 20
3.76731
 30
0.000000
  70
    32
  0
VERTEX
  8
AM_VIS
  5
664
 10
6.29119
 20
3.76845
 30
0.000000
  70
    32
  0
VERTEX
  8
AM_VIS
  5
665
 10
6.29243
 20
3.76959
 30
0.000000
  70
    32
  0
VERTEX
  8
AM_VIS
  5
666
 10
6.29366
 20
3.77074
 30
0.000000
  70
    32
  0
VERTEX
  8
AM_VIS
  5
667
 10
6.29488
 20
3.77190
 30
0.000000
  70
    32
  0
VERTEX
  8
AM_VIS
  5
668
 10
6.29609
 20
3.77306
 30
0.000000
  70
    32
  0
VERTEX
  8
AM_VIS
  5
669
 10
6.29729
 20
3.77423
 30
0.000000
  70
    32
  0
VERTEX
  8
AM_VIS
  5
66A
 10
6.29849
 20
3.77540
 30
0.000000
  70
    32
  0
VERTEX
  8
AM_VIS
  5
66B
 10
6.29967
 20
3.77657
 30
0.000000
  70
    32
  0
VERTEX
  8
AM_VIS
  5
66C
 10
6.30085
 20
3.77776
 30
0.000000
  70
    32
  0
VERTEX
  8
AM_VIS
  5
66D
 10
6.30202
 20
3.77894
 30
0.000000
  70
    32
  0
VERTEX
  8
AM_VIS
  5
66E
 10
6.30317
 20
3.78013
 30
0.000000
  70
    32
  0
VERTEX
  8
AM_VIS
  5
66F
 10
6.30432
 20
3.78132
 30
0.000000
  70
    32
  0
VERTEX
  8
AM_VIS
  5
670
 10
6.30546
 20
3.78252
 30
0.000000
  70
    32
  0
VERTEX
  8
AM_VIS
  5
671
 10
6.30659
 20
3.78373
 30
0.000000
  70
    32
  0
VERTEX
  8
AM_VIS
  5
672
 10
6.30772
 20
3.78494
 30
0.000000
  70
    32
  0
VERTEX
  8
AM_VIS
  5
673
 10
6.30884
 20
3.78616
 30
0.000000
  70
    32
  0
VERTEX
  8
AM_VIS
  5
674
 10
6.30996
 20
3.78739
 30
0.000000
  70
    32
  0
VERTEX
  8
AM_VIS
  5
675
 10
6.31107
 20
3.78863
 30
0.000000
  70
    32
  0
VERTEX
  8
AM_VIS
  5
676
 10
6.31218
 20
3.78987
 30
0.000000
  70
    32
  0
VERTEX
  8
AM_VIS
  5
677
 10
6.31328
 20
3.79113
 30
0.000000
  70
    32
  0
VERTEX
  8
AM_VIS
  5
678
 10
6.31438
 20
3.79239
 30
0.000000
  70
    32
  0
VERTEX
  8
AM_VIS
  5
679
 10
6.31547
 20
3.79367
 30
0.000000
  70
    32
  0
VERTEX
  8
AM_VIS
  5
67A
 10
6.31655
 20
3.79495
 30
0.000000
  70
    32
  0
VERTEX
  8
AM_VIS
  5
67B
 10
6.31763
 20
3.79624
 30
0.000000
  70
    32
  0
VERTEX
  8
AM_VIS
  5
67C
 10
6.31871
 20
3.79753
 30
0.000000
  70
    32
  0
VERTEX
  8
AM_VIS
  5
67D
 10
6.31978
 20
3.79884
 30
0.000000
  70
    32
  0
VERTEX
  8
AM_VIS
  5
67E
 10
6.32084
 20
3.80015
 30
0.000000
  70
    32
  0
VERTEX
  8
AM_VIS
  5
67F
 10
6.32190
 20
3.80148
 30
0.000000
  70
    32
  0
VERTEX
  8
AM_VIS
  5
680
 10
6.32295
 20
3.80281
 30
0.000000
  70
    32
  0
VERTEX
  8
AM_VIS
  5
681
 10
6.32400
 20
3.80414
 30
0.000000
  70
    32
  0
VERTEX
  8
AM_VIS
  5
682
 10
6.32504
 20
3.80549
 30
0.000000
  70
    32
  0
VERTEX
  8
AM_VIS
  5
683
 10
6.32607
 20
3.80684
 30
0.000000
  70
    32
  0
VERTEX
  8
AM_VIS
  5
684
 10
6.32710
 20
3.80820
 30
0.000000
  70
    32
  0
VERTEX
  8
AM_VIS
  5
685
 10
6.32812
 20
3.80957
 30
0.000000
  70
    32
  0
VERTEX
  8
AM_VIS
  5
686
 10
6.32914
 20
3.81095
 30
0.000000
  70
    32
  0
VERTEX
  8
AM_VIS
  5
687
 10
6.33015
 20
3.81233
 30
0.000000
  70
    32
  0
VERTEX
  8
AM_VIS
  5
688
 10
6.33116
 20
3.81372
 30
0.000000
  70
    32
  0
VERTEX
  8
AM_VIS
  5
689
 10
6.33215
 20
3.81512
 30
0.000000
  70
    32
  0
VERTEX
  8
AM_VIS
  5
68A
 10
6.33314
 20
3.81653
 30
0.000000
  70
    32
  0
VERTEX
  8
AM_VIS
  5
68B
 10
6.33413
 20
3.81794
 30
0.000000
  70
    32
  0
VERTEX
  8
AM_VIS
  5
68C
 10
6.33511
 20
3.81936
 30
0.000000
  70
    32
  0
VERTEX
  8
AM_VIS
  5
68D
 10
6.33608
 20
3.82078
 30
0.000000
  70
    32
  0
VERTEX
  8
AM_VIS
  5
68E
 10
6.33704
 20
3.82222
 30
0.000000
  70
    32
  0
VERTEX
  8
AM_VIS
  5
68F
 10
6.33800
 20
3.82366
 30
0.000000
  70
    32
  0
VERTEX
  8
AM_VIS
  5
690
 10
6.33895
 20
3.82511
 30
0.000000
  70
    32
  0
VERTEX
  8
AM_VIS
  5
691
 10
6.33989
 20
3.82656
 30
0.000000
  70
    32
  0
VERTEX
  8
AM_VIS
  5
692
 10
6.34083
 20
3.82802
 30
0.000000
  70
    32
  0
VERTEX
  8
AM_VIS
  5
693
 10
6.34176
 20
3.82949
 30
0.000000
  70
    32
  0
VERTEX
  8
AM_VIS
  5
694
 10
6.34268
 20
3.83096
 30
0.000000
  70
    32
  0
VERTEX
  8
AM_VIS
  5
695
 10
6.34359
 20
3.83244
 30
0.000000
  70
    32
  0
VERTEX
  8
AM_VIS
  5
696
 10
6.34450
 20
3.83393
 30
0.000000
  70
    32
  0
VERTEX
  8
AM_VIS
  5
697
 10
6.34540
 20
3.83542
 30
0.000000
  70
    32
  0
VERTEX
  8
AM_VIS
  5
698
 10
6.34629
 20
3.83692
 30
0.000000
  70
    32
  0
VERTEX
  8
AM_VIS
  5
699
 10
6.34717
 20
3.83842
 30
0.000000
  70
    32
  0
VERTEX
  8
AM_VIS
  5
69A
 10
6.34805
 20
3.83993
 30
0.000000
  70
    32
  0
VERTEX
  8
AM_VIS
  5
69B
 10
6.34892
 20
3.84145
 30
0.000000
  70
    32
  0
VERTEX
  8
AM_VIS
  5
69C
 10
6.34978
 20
3.84297
 30
0.000000
  70
    32
  0
VERTEX
  8
AM_VIS
  5
69D
 10
6.35063
 20
3.84450
 30
0.000000
  70
    32
  0
VERTEX
  8
AM_VIS
  5
69E
 10
6.35148
 20
3.84603
 30
0.000000
  70
    32
  0
VERTEX
  8
AM_VIS
  5
69F
 10
6.35232
 20
3.84757
 30
0.000000
  70
    32
  0
VERTEX
  8
AM_VIS
  5
6A0
 10
6.35315
 20
3.84912
 30
0.000000
  70
    32
  0
VERTEX
  8
AM_VIS
  5
6A1
 10
6.35397
 20
3.85067
 30
0.000000
  70
    32
  0
VERTEX
  8
AM_VIS
  5
6A2
 10
6.35478
 20
3.85223
 30
0.000000
  70
    32
  0
VERTEX
  8
AM_VIS
  5
6A3
 10
6.35558
 20
3.85379
 30
0.000000
  70
    32
  0
VERTEX
  8
AM_VIS
  5
6A4
 10
6.35638
 20
3.85535
 30
0.000000
  70
    32
  0
VERTEX
  8
AM_VIS
  5
6A5
 10
6.35717
 20
3.85693
 30
0.000000
  70
    32
  0
VERTEX
  8
AM_VIS
  5
6A6
 10
6.35794
 20
3.85850
 30
0.000000
  70
    32
  0
VERTEX
  8
AM_VIS
  5
6A7
 10
6.35871
 20
3.86009
 30
0.000000
  70
    32
  0
VERTEX
  8
AM_VIS
  5
6A8
 10
6.35948
 20
3.86167
 30
0.000000
  70
    32
  0
VERTEX
  8
AM_VIS
  5
6A9
 10
6.36023
 20
3.86327
 30
0.000000
  70
    32
  0
VERTEX
  8
AM_VIS
  5
6AA
 10
6.36097
 20
3.86486
 30
0.000000
  70
    32
  0
VERTEX
  8
AM_VIS
  5
6AB
 10
6.36171
 20
3.86647
 30
0.000000
  70
    32
  0
VERTEX
  8
AM_VIS
  5
6AC
 10
6.36243
 20
3.86807
 30
0.000000
  70
    32
  0
VERTEX
  8
AM_VIS
  5
6AD
 10
6.36315
 20
3.86968
 30
0.000000
  70
    32
  0
VERTEX
  8
AM_VIS
  5
6AE
 10
6.36386
 20
3.87130
 30
0.000000
  70
    32
  0
VERTEX
  8
AM_VIS
  5
6AF
 10
6.36455
 20
3.87292
 30
0.000000
  70
    32
  0
VERTEX
  8
AM_VIS
  5
6B0
 10
6.36524
 20
3.87454
 30
0.000000
  70
    32
  0
VERTEX
  8
AM_VIS
  5
6B1
 10
6.36592
 20
3.87617
 30
0.000000
  70
    32
  0
VERTEX
  8
AM_VIS
  5
6B2
 10
6.36659
 20
3.87781
 30
0.000000
  70
    32
  0
VERTEX
  8
AM_VIS
  5
6B3
 10
6.36725
 20
3.87944
 30
0.000000
  70
    32
  0
VERTEX
  8
AM_VIS
  5
6B4
 10
6.36790
 20
3.88108
 30
0.000000
  70
    32
  0
VERTEX
  8
AM_VIS
  5
6B5
 10
6.36854
 20
3.88273
 30
0.000000
  70
    32
  0
VERTEX
  8
AM_VIS
  5
6B6
 10
6.36917
 20
3.88438
 30
0.000000
  70
    32
  0
VERTEX
  8
AM_VIS
  5
6B7
 10
6.36980
 20
3.88603
 30
0.000000
  70
    32
  0
VERTEX
  8
AM_VIS
  5
6B8
 10
6.37041
 20
3.88769
 30
0.000000
  70
    32
  0
VERTEX
  8
AM_VIS
  5
6B9
 10
6.37101
 20
3.88935
 30
0.000000
  70
    32
  0
VERTEX
  8
AM_VIS
  5
6BA
 10
6.37160
 20
3.89101
 30
0.000000
  70
    32
  0
VERTEX
  8
AM_VIS
  5
6BB
 10
6.37218
 20
3.89268
 30
0.000000
  70
    32
  0
VERTEX
  8
AM_VIS
  5
6BC
 10
6.37276
 20
3.89435
 30
0.000000
  70
    32
  0
VERTEX
  8
AM_VIS
  5
6BD
 10
6.37332
 20
3.89603
 30
0.000000
  70
    32
  0
VERTEX
  8
AM_VIS
  5
6BE
 10
6.37387
 20
3.89770
 30
0.000000
  70
    32
  0
VERTEX
  8
AM_VIS
  5
6BF
 10
6.37442
 20
3.89938
 30
0.000000
  70
    32
  0
VERTEX
  8
AM_VIS
  5
6C0
 10
6.37495
 20
3.90106
 30
0.000000
  70
    32
  0
VERTEX
  8
AM_VIS
  5
6C1
 10
6.37548
 20
3.90275
 30
0.000000
  70
    32
  0
VERTEX
  8
AM_VIS
  5
6C2
 10
6.37599
 20
3.90444
 30
0.000000
  70
    32
  0
VERTEX
  8
AM_VIS
  5
6C3
 10
6.37650
 20
3.90613
 30
0.000000
  70
    32
  0
VERTEX
  8
AM_VIS
  5
6C4
 10
6.37699
 20
3.90782
 30
0.000000
  70
    32
  0
VERTEX
  8
AM_VIS
  5
6C5
 10
6.37748
 20
3.90952
 30
0.000000
  70
    32
  0
VERTEX
  8
AM_VIS
  5
6C6
 10
6.37796
 20
3.91122
 30
0.000000
  70
    32
  0
VERTEX
  8
AM_VIS
  5
6C7
 10
6.37842
 20
3.91291
 30
0.000000
  70
    32
  0
VERTEX
  8
AM_VIS
  5
6C8
 10
6.37888
 20
3.91462
 30
0.000000
  70
    32
  0
VERTEX
  8
AM_VIS
  5
6C9
 10
6.37933
 20
3.91632
 30
0.000000
  70
    32
  0
VERTEX
  8
AM_VIS
  5
6CA
 10
6.37977
 20
3.91803
 30
0.000000
  70
    32
  0
VERTEX
  8
AM_VIS
  5
6CB
 10
6.38019
 20
3.91973
 30
0.000000
  70
    32
  0
VERTEX
  8
AM_VIS
  5
6CC
 10
6.38061
 20
3.92144
 30
0.000000
  70
    32
  0
VERTEX
  8
AM_VIS
  5
6CD
 10
6.38102
 20
3.92315
 30
0.000000
  70
    32
  0
VERTEX
  8
AM_VIS
  5
6CE
 10
6.38142
 20
3.92486
 30
0.000000
  70
    32
  0
VERTEX
  8
AM_VIS
  5
6CF
 10
6.38181
 20
3.92657
 30
0.000000
  70
    32
  0
VERTEX
  8
AM_VIS
  5
6D0
 10
6.38219
 20
3.92829
 30
0.000000
  70
    32
  0
VERTEX
  8
AM_VIS
  5
6D1
 10
6.38256
 20
3.93000
 30
0.000000
  70
    32
  0
VERTEX
  8
AM_VIS
  5
6D2
 10
6.38293
 20
3.93172
 30
0.000000
  70
    32
  0
VERTEX
  8
AM_VIS
  5
6D3
 10
6.38328
 20
3.93343
 30
0.000000
  70
    32
  0
VERTEX
  8
AM_VIS
  5
6D4
 10
6.38362
 20
3.93515
 30
0.000000
  70
    32
  0
VERTEX
  8
AM_VIS
  5
6D5
 10
6.38395
 20
3.93687
 30
0.000000
  70
    32
  0
VERTEX
  8
AM_VIS
  5
6D6
 10
6.38428
 20
3.93859
 30
0.000000
  70
    32
  0
VERTEX
  8
AM_VIS
  5
6D7
 10
6.38459
 20
3.94030
 30
0.000000
  70
    32
  0
VERTEX
  8
AM_VIS
  5
6D8
 10
6.38489
 20
3.94202
 30
0.000000
  70
    32
  0
VERTEX
  8
AM_VIS
  5
6D9
 10
6.38519
 20
3.94374
 30
0.000000
  70
    32
  0
VERTEX
  8
AM_VIS
  5
6DA
 10
6.38547
 20
3.94546
 30
0.000000
  70
    32
  0
VERTEX
  8
AM_VIS
  5
6DB
 10
6.38575
 20
3.94718
 30
0.000000
  70
    32
  0
VERTEX
  8
AM_VIS
  5
6DC
 10
6.38602
 20
3.94890
 30
0.000000
  70
    32
  0
VERTEX
  8
AM_VIS
  5
6DD
 10
6.38627
 20
3.95061
 30
0.000000
  70
    32
  0
VERTEX
  8
AM_VIS
  5
6DE
 10
6.38652
 20
3.95233
 30
0.000000
  70
    32
  0
VERTEX
  8
AM_VIS
  5
6DF
 10
6.38676
 20
3.95405
 30
0.000000
  70
    32
  0
VERTEX
  8
AM_VIS
  5
6E0
 10
6.38698
 20
3.95577
 30
0.000000
  70
    32
  0
VERTEX
  8
AM_VIS
  5
6E1
 10
6.38720
 20
3.95748
 30
0.000000
  70
    32
  0
VERTEX
  8
AM_VIS
  5
6E2
 10
6.38741
 20
3.95920
 30
0.000000
  70
    32
  0
VERTEX
  8
AM_VIS
  5
6E3
 10
6.38761
 20
3.96091
 30
0.000000
  70
    32
  0
VERTEX
  8
AM_VIS
  5
6E4
 10
6.38780
 20
3.96262
 30
0.000000
  70
    32
  0
VERTEX
  8
AM_VIS
  5
6E5
 10
6.38798
 20
3.96434
 30
0.000000
  70
    32
  0
VERTEX
  8
AM_VIS
  5
6E6
 10
6.38816
 20
3.96605
 30
0.000000
  70
    32
  0
VERTEX
  8
AM_VIS
  5
6E7
 10
6.38832
 20
3.96775
 30
0.000000
  70
    32
  0
VERTEX
  8
AM_VIS
  5
6E8
 10
6.38847
 20
3.96946
 30
0.000000
  70
    32
  0
VERTEX
  8
AM_VIS
  5
6E9
 10
6.38861
 20
3.97117
 30
0.000000
  70
    32
  0
VERTEX
  8
AM_VIS
  5
6EA
 10
6.38875
 20
3.97287
 30
0.000000
  70
    32
  0
VERTEX
  8
AM_VIS
  5
6EB
 10
6.38887
 20
3.97457
 30
0.000000
  70
    32
  0
VERTEX
  8
AM_VIS
  5
6EC
 10
6.38899
 20
3.97628
 30
0.000000
  70
    32
  0
VERTEX
  8
AM_VIS
  5
6ED
 10
6.38909
 20
3.97797
 30
0.000000
  70
    32
  0
VERTEX
  8
AM_VIS
  5
6EE
 10
6.38919
 20
3.97967
 30
0.000000
  70
    32
  0
VERTEX
  8
AM_VIS
  5
6EF
 10
6.38927
 20
3.98136
 30
0.000000
  70
    32
  0
VERTEX
  8
AM_VIS
  5
6F0
 10
6.38935
 20
3.98306
 30
0.000000
  70
    32
  0
VERTEX
  8
AM_VIS
  5
6F1
 10
6.38942
 20
3.98474
 30
0.000000
  70
    32
  0
VERTEX
  8
AM_VIS
  5
6F2
 10
6.38948
 20
3.98643
 30
0.000000
  70
    32
  0
VERTEX
  8
AM_VIS
  5
6F3
 10
6.38953
 20
3.98812
 30
0.000000
  70
    32
  0
VERTEX
  8
AM_VIS
  5
6F4
 10
6.38957
 20
3.98980
 30
0.000000
  70
    32
  0
VERTEX
  8
AM_VIS
  5
6F5
 10
6.38960
 20
3.99147
 30
0.000000
  70
    32
  0
VERTEX
  8
AM_VIS
  5
6F6
 10
6.38962
 20
3.99315
 30
0.000000
  70
    32
  0
VERTEX
  8
AM_VIS
  5
6F7
 10
6.38963
 20
3.99482
 30
0.000000
  70
    32
  0
VERTEX
  8
AM_VIS
  5
6F8
 10
6.38963
 20
3.99649
 30
0.000000
  70
    32
  0
VERTEX
  8
AM_VIS
  5
6F9
 10
6.38962
 20
3.99816
 30
0.000000
  70
    32
  0
VERTEX
  8
AM_VIS
  5
6FA
 10
6.38961
 20
3.99983
 30
0.000000
  70
    32
  0
VERTEX
  8
AM_VIS
  5
6FB
 10
6.38958
 20
4.00151
 30
0.000000
  70
    32
  0
VERTEX
  8
AM_VIS
  5
6FC
 10
6.38955
 20
4.00319
 30
0.000000
  70
    32
  0
VERTEX
  8
AM_VIS
  5
6FD
 10
6.38950
 20
4.00487
 30
0.000000
  70
    32
  0
VERTEX
  8
AM_VIS
  5
6FE
 10
6.38945
 20
4.00656
 30
0.000000
  70
    32
  0
VERTEX
  8
AM_VIS
  5
6FF
 10
6.38939
 20
4.00825
 30
0.000000
  70
    32
  0
VERTEX
  8
AM_VIS
  5
700
 10
6.38931
 20
4.00994
 30
0.000000
  70
    32
  0
VERTEX
  8
AM_VIS
  5
701
 10
6.38923
 20
4.01163
 30
0.000000
  70
    32
  0
VERTEX
  8
AM_VIS
  5
702
 10
6.38914
 20
4.01332
 30
0.000000
  70
    32
  0
VERTEX
  8
AM_VIS
  5
703
 10
6.38904
 20
4.01502
 30
0.000000
  70
    32
  0
VERTEX
  8
AM_VIS
  5
704
 10
6.38893
 20
4.01672
 30
0.000000
  70
    32
  0
VERTEX
  8
AM_VIS
  5
705
 10
6.38881
 20
4.01842
 30
0.000000
  70
    32
  0
VERTEX
  8
AM_VIS
  5
706
 10
6.38868
 20
4.02013
 30
0.000000
  70
    32
  0
VERTEX
  8
AM_VIS
  5
707
 10
6.38854
 20
4.02183
 30
0.000000
  70
    32
  0
VERTEX
  8
AM_VIS
  5
708
 10
6.38839
 20
4.02354
 30
0.000000
  70
    32
  0
VERTEX
  8
AM_VIS
  5
709
 10
6.38824
 20
4.02525
 30
0.000000
  70
    32
  0
VERTEX
  8
AM_VIS
  5
70A
 10
6.38807
 20
4.02696
 30
0.000000
  70
    32
  0
VERTEX
  8
AM_VIS
  5
70B
 10
6.38789
 20
4.02867
 30
0.000000
  70
    32
  0
VERTEX
  8
AM_VIS
  5
70C
 10
6.38771
 20
4.03038
 30
0.000000
  70
    32
  0
VERTEX
  8
AM_VIS
  5
70D
 10
6.38751
 20
4.03209
 30
0.000000
  70
    32
  0
VERTEX
  8
AM_VIS
  5
70E
 10
6.38731
 20
4.03381
 30
0.000000
  70
    32
  0
VERTEX
  8
AM_VIS
  5
70F
 10
6.38710
 20
4.03552
 30
0.000000
  70
    32
  0
VERTEX
  8
AM_VIS
  5
710
 10
6.38687
 20
4.03724
 30
0.000000
  70
    32
  0
VERTEX
  8
AM_VIS
  5
711
 10
6.38664
 20
4.03896
 30
0.000000
  70
    32
  0
VERTEX
  8
AM_VIS
  5
712
 10
6.38640
 20
4.04067
 30
0.000000
  70
    32
  0
VERTEX
  8
AM_VIS
  5
713
 10
6.38614
 20
4.04239
 30
0.000000
  70
    32
  0
VERTEX
  8
AM_VIS
  5
714
 10
6.38588
 20
4.04411
 30
0.000000
  70
    32
  0
VERTEX
  8
AM_VIS
  5
715
 10
6.38561
 20
4.04583
 30
0.000000
  70
    32
  0
VERTEX
  8
AM_VIS
  5
716
 10
6.38533
 20
4.04755
 30
0.000000
  70
    32
  0
VERTEX
  8
AM_VIS
  5
717
 10
6.38504
 20
4.04926
 30
0.000000
  70
    32
  0
VERTEX
  8
AM_VIS
  5
718
 10
6.38474
 20
4.05098
 30
0.000000
  70
    32
  0
VERTEX
  8
AM_VIS
  5
719
 10
6.38443
 20
4.05270
 30
0.000000
  70
    32
  0
VERTEX
  8
AM_VIS
  5
71A
 10
6.38412
 20
4.05442
 30
0.000000
  70
    32
  0
VERTEX
  8
AM_VIS
  5
71B
 10
6.38379
 20
4.05614
 30
0.000000
  70
    32
  0
VERTEX
  8
AM_VIS
  5
71C
 10
6.38345
 20
4.05785
 30
0.000000
  70
    32
  0
VERTEX
  8
AM_VIS
  5
71D
 10
6.38310
 20
4.05957
 30
0.000000
  70
    32
  0
VERTEX
  8
AM_VIS
  5
71E
 10
6.38275
 20
4.06129
 30
0.000000
  70
    32
  0
VERTEX
  8
AM_VIS
  5
71F
 10
6.38238
 20
4.06300
 30
0.000000
  70
    32
  0
VERTEX
  8
AM_VIS
  5
720
 10
6.38200
 20
4.06472
 30
0.000000
  70
    32
  0
VERTEX
  8
AM_VIS
  5
721
 10
6.38162
 20
4.06643
 30
0.000000
  70
    32
  0
VERTEX
  8
AM_VIS
  5
722
 10
6.38122
 20
4.06814
 30
0.000000
  70
    32
  0
VERTEX
  8
AM_VIS
  5
723
 10
6.38082
 20
4.06985
 30
0.000000
  70
    32
  0
VERTEX
  8
AM_VIS
  5
724
 10
6.38041
 20
4.07156
 30
0.000000
  70
    32
  0
VERTEX
  8
AM_VIS
  5
725
 10
6.37998
 20
4.07327
 30
0.000000
  70
    32
  0
VERTEX
  8
AM_VIS
  5
726
 10
6.37955
 20
4.07497
 30
0.000000
  70
    32
  0
VERTEX
  8
AM_VIS
  5
727
 10
6.37911
 20
4.07668
 30
0.000000
  70
    32
  0
VERTEX
  8
AM_VIS
  5
728
 10
6.37865
 20
4.07838
 30
0.000000
  70
    32
  0
VERTEX
  8
AM_VIS
  5
729
 10
6.37819
 20
4.08008
 30
0.000000
  70
    32
  0
VERTEX
  8
AM_VIS
  5
72A
 10
6.37772
 20
4.08178
 30
0.000000
  70
    32
  0
VERTEX
  8
AM_VIS
  5
72B
 10
6.37724
 20
4.08348
 30
0.000000
  70
    32
  0
VERTEX
  8
AM_VIS
  5
72C
 10
6.37675
 20
4.08517
 30
0.000000
  70
    32
  0
VERTEX
  8
AM_VIS
  5
72D
 10
6.37625
 20
4.08686
 30
0.000000
  70
    32
  0
VERTEX
  8
AM_VIS
  5
72E
 10
6.37574
 20
4.08855
 30
0.000000
  70
    32
  0
VERTEX
  8
AM_VIS
  5
72F
 10
6.37522
 20
4.09024
 30
0.000000
  70
    32
  0
VERTEX
  8
AM_VIS
  5
730
 10
6.37469
 20
4.09192
 30
0.000000
  70
    32
  0
VERTEX
  8
AM_VIS
  5
731
 10
6.37415
 20
4.09360
 30
0.000000
  70
    32
  0
VERTEX
  8
AM_VIS
  5
732
 10
6.37360
 20
4.09528
 30
0.000000
  70
    32
  0
VERTEX
  8
AM_VIS
  5
733
 10
6.37304
 20
4.09696
 30
0.000000
  70
    32
  0
VERTEX
  8
AM_VIS
  5
734
 10
6.37247
 20
4.09863
 30
0.000000
  70
    32
  0
VERTEX
  8
AM_VIS
  5
735
 10
6.37189
 20
4.10030
 30
0.000000
  70
    32
  0
VERTEX
  8
AM_VIS
  5
736
 10
6.37131
 20
4.10197
 30
0.000000
  70
    32
  0
VERTEX
  8
AM_VIS
  5
737
 10
6.37071
 20
4.10363
 30
0.000000
  70
    32
  0
VERTEX
  8
AM_VIS
  5
738
 10
6.37010
 20
4.10529
 30
0.000000
  70
    32
  0
VERTEX
  8
AM_VIS
  5
739
 10
6.36949
 20
4.10694
 30
0.000000
  70
    32
  0
VERTEX
  8
AM_VIS
  5
73A
 10
6.36886
 20
4.10859
 30
0.000000
  70
    32
  0
VERTEX
  8
AM_VIS
  5
73B
 10
6.36822
 20
4.11024
 30
0.000000
  70
    32
  0
VERTEX
  8
AM_VIS
  5
73C
 10
6.36758
 20
4.11188
 30
0.000000
  70
    32
  0
VERTEX
  8
AM_VIS
  5
73D
 10
6.36692
 20
4.11352
 30
0.000000
  70
    32
  0
VERTEX
  8
AM_VIS
  5
73E
 10
6.36626
 20
4.11516
 30
0.000000
  70
    32
  0
VERTEX
  8
AM_VIS
  5
73F
 10
6.36558
 20
4.11679
 30
0.000000
  70
    32
  0
VERTEX
  8
AM_VIS
  5
740
 10
6.36490
 20
4.11842
 30
0.000000
  70
    32
  0
VERTEX
  8
AM_VIS
  5
741
 10
6.36421
 20
4.12004
 30
0.000000
  70
    32
  0
VERTEX
  8
AM_VIS
  5
742
 10
6.36350
 20
4.12166
 30
0.000000
  70
    32
  0
VERTEX
  8
AM_VIS
  5
743
 10
6.36279
 20
4.12327
 30
0.000000
  70
    32
  0
VERTEX
  8
AM_VIS
  5
744
 10
6.36207
 20
4.12488
 30
0.000000
  70
    32
  0
VERTEX
  8
AM_VIS
  5
745
 10
6.36134
 20
4.12648
 30
0.000000
  70
    32
  0
VERTEX
  8
AM_VIS
  5
746
 10
6.36060
 20
4.12808
 30
0.000000
  70
    32
  0
VERTEX
  8
AM_VIS
  5
747
 10
6.35985
 20
4.12968
 30
0.000000
  70
    32
  0
VERTEX
  8
AM_VIS
  5
748
 10
6.35910
 20
4.13127
 30
0.000000
  70
    32
  0
VERTEX
  8
AM_VIS
  5
749
 10
6.35833
 20
4.13285
 30
0.000000
  70
    32
  0
VERTEX
  8
AM_VIS
  5
74A
 10
6.35756
 20
4.13443
 30
0.000000
  70
    32
  0
VERTEX
  8
AM_VIS
  5
74B
 10
6.35677
 20
4.13601
 30
0.000000
  70
    32
  0
VERTEX
  8
AM_VIS
  5
74C
 10
6.35598
 20
4.13758
 30
0.000000
  70
    32
  0
VERTEX
  8
AM_VIS
  5
74D
 10
6.35518
 20
4.13914
 30
0.000000
  70
    32
  0
VERTEX
  8
AM_VIS
  5
74E
 10
6.35437
 20
4.14070
 30
0.000000
  70
    32
  0
VERTEX
  8
AM_VIS
  5
74F
 10
6.35356
 20
4.14225
 30
0.000000
  70
    32
  0
VERTEX
  8
AM_VIS
  5
750
 10
6.35273
 20
4.14380
 30
0.000000
  70
    32
  0
VERTEX
  8
AM_VIS
  5
751
 10
6.35190
 20
4.14534
 30
0.000000
  70
    32
  0
VERTEX
  8
AM_VIS
  5
752
 10
6.35106
 20
4.14688
 30
0.000000
  70
    32
  0
VERTEX
  8
AM_VIS
  5
753
 10
6.35021
 20
4.14841
 30
0.000000
  70
    32
  0
VERTEX
  8
AM_VIS
  5
754
 10
6.34935
 20
4.14994
 30
0.000000
  70
    32
  0
VERTEX
  8
AM_VIS
  5
755
 10
6.34849
 20
4.15146
 30
0.000000
  70
    32
  0
VERTEX
  8
AM_VIS
  5
756
 10
6.34761
 20
4.15297
 30
0.000000
  70
    32
  0
VERTEX
  8
AM_VIS
  5
757
 10
6.34673
 20
4.15448
 30
0.000000
  70
    32
  0
VERTEX
  8
AM_VIS
  5
758
 10
6.34585
 20
4.15598
 30
0.000000
  70
    32
  0
VERTEX
  8
AM_VIS
  5
759
 10
6.34495
 20
4.15747
 30
0.000000
  70
    32
  0
VERTEX
  8
AM_VIS
  5
75A
 10
6.34405
 20
4.15896
 30
0.000000
  70
    32
  0
VERTEX
  8
AM_VIS
  5
75B
 10
6.34314
 20
4.16045
 30
0.000000
  70
    32
  0
VERTEX
  8
AM_VIS
  5
75C
 10
6.34222
 20
4.16192
 30
0.000000
  70
    32
  0
VERTEX
  8
AM_VIS
  5
75D
 10
6.34129
 20
4.16339
 30
0.000000
  70
    32
  0
VERTEX
  8
AM_VIS
  5
75E
 10
6.34036
 20
4.16486
 30
0.000000
  70
    32
  0
VERTEX
  8
AM_VIS
  5
75F
 10
6.33942
 20
4.16631
 30
0.000000
  70
    32
  0
VERTEX
  8
AM_VIS
  5
760
 10
6.33847
 20
4.16777
 30
0.000000
  70
    32
  0
VERTEX
  8
AM_VIS
  5
761
 10
6.33752
 20
4.16921
 30
0.000000
  70
    32
  0
VERTEX
  8
AM_VIS
  5
762
 10
6.33656
 20
4.17065
 30
0.000000
  70
    32
  0
VERTEX
  8
AM_VIS
  5
763
 10
6.33559
 20
4.17208
 30
0.000000
  70
    32
  0
VERTEX
  8
AM_VIS
  5
764
 10
6.33462
 20
4.17350
 30
0.000000
  70
    32
  0
VERTEX
  8
AM_VIS
  5
765
 10
6.33364
 20
4.17492
 30
0.000000
  70
    32
  0
VERTEX
  8
AM_VIS
  5
766
 10
6.33265
 20
4.17632
 30
0.000000
  70
    32
  0
VERTEX
  8
AM_VIS
  5
767
 10
6.33165
 20
4.17773
 30
0.000000
  70
    32
  0
VERTEX
  8
AM_VIS
  5
768
 10
6.33065
 20
4.17912
 30
0.000000
  70
    32
  0
VERTEX
  8
AM_VIS
  5
769
 10
6.32965
 20
4.18051
 30
0.000000
  70
    32
  0
VERTEX
  8
AM_VIS
  5
76A
 10
6.32863
 20
4.18189
 30
0.000000
  70
    32
  0
VERTEX
  8
AM_VIS
  5
76B
 10
6.32761
 20
4.18326
 30
0.000000
  70
    32
  0
VERTEX
  8
AM_VIS
  5
76C
 10
6.32659
 20
4.18462
 30
0.000000
  70
    32
  0
VERTEX
  8
AM_VIS
  5
76D
 10
6.32556
 20
4.18598
 30
0.000000
  70
    32
  0
VERTEX
  8
AM_VIS
  5
76E
 10
6.32452
 20
4.18733
 30
0.000000
  70
    32
  0
VERTEX
  8
AM_VIS
  5
76F
 10
6.32348
 20
4.18867
 30
0.000000
  70
    32
  0
VERTEX
  8
AM_VIS
  5
770
 10
6.32243
 20
4.19001
 30
0.000000
  70
    32
  0
VERTEX
  8
AM_VIS
  5
771
 10
6.32137
 20
4.19133
 30
0.000000
  70
    32
  0
VERTEX
  8
AM_VIS
  5
772
 10
6.32031
 20
4.19265
 30
0.000000
  70
    32
  0
VERTEX
  8
AM_VIS
  5
773
 10
6.31924
 20
4.19396
 30
0.000000
  70
    32
  0
VERTEX
  8
AM_VIS
  5
774
 10
6.31817
 20
4.19526
 30
0.000000
  70
    32
  0
VERTEX
  8
AM_VIS
  5
775
 10
6.31709
 20
4.19656
 30
0.000000
  70
    32
  0
VERTEX
  8
AM_VIS
  5
776
 10
6.31601
 20
4.19784
 30
0.000000
  70
    32
  0
VERTEX
  8
AM_VIS
  5
777
 10
6.31492
 20
4.19912
 30
0.000000
  70
    32
  0
VERTEX
  8
AM_VIS
  5
778
 10
6.31383
 20
4.20039
 30
0.000000
  70
    32
  0
VERTEX
  8
AM_VIS
  5
779
 10
6.31273
 20
4.20165
 30
0.000000
  70
    32
  0
VERTEX
  8
AM_VIS
  5
77A
 10
6.31162
 20
4.20290
 30
0.000000
  70
    32
  0
VERTEX
  8
AM_VIS
  5
77B
 10
6.31052
 20
4.20414
 30
0.000000
  70
    32
  0
VERTEX
  8
AM_VIS
  5
77C
 10
6.30940
 20
4.20537
 30
0.000000
  70
    32
  0
VERTEX
  8
AM_VIS
  5
77D
 10
6.30828
 20
4.20660
 30
0.000000
  70
    32
  0
VERTEX
  8
AM_VIS
  5
77E
 10
6.30716
 20
4.20781
 30
0.000000
  70
    32
  0
VERTEX
  8
AM_VIS
  5
77F
 10
6.30603
 20
4.20902
 30
0.000000
  70
    32
  0
VERTEX
  8
AM_VIS
  5
780
 10
6.30489
 20
4.21022
 30
0.000000
  70
    32
  0
VERTEX
  8
AM_VIS
  5
781
 10
6.30375
 20
4.21142
 30
0.000000
  70
    32
  0
VERTEX
  8
AM_VIS
  5
782
 10
6.30260
 20
4.21261
 30
0.000000
  70
    32
  0
VERTEX
  8
AM_VIS
  5
783
 10
6.30143
 20
4.21380
 30
0.000000
  70
    32
  0
VERTEX
  8
AM_VIS
  5
784
 10
6.30026
 20
4.21498
 30
0.000000
  70
    32
  0
VERTEX
  8
AM_VIS
  5
785
 10
6.29908
 20
4.21616
 30
0.000000
  70
    32
  0
VERTEX
  8
AM_VIS
  5
786
 10
6.29789
 20
4.21733
 30
0.000000
  70
    32
  0
VERTEX
  8
AM_VIS
  5
787
 10
6.29669
 20
4.21850
 30
0.000000
  70
    32
  0
VERTEX
  8
AM_VIS
  5
788
 10
6.29548
 20
4.21967
 30
0.000000
  70
    32
  0
VERTEX
  8
AM_VIS
  5
789
 10
6.29427
 20
4.22083
 30
0.000000
  70
    32
  0
VERTEX
  8
AM_VIS
  5
78A
 10
6.29304
 20
4.22198
 30
0.000000
  70
    32
  0
VERTEX
  8
AM_VIS
  5
78B
 10
6.29181
 20
4.22313
 30
0.000000
  70
    32
  0
VERTEX
  8
AM_VIS
  5
78C
 10
6.29057
 20
4.22427
 30
0.000000
  70
    32
  0
VERTEX
  8
AM_VIS
  5
78D
 10
6.28932
 20
4.22541
 30
0.000000
  70
    32
  0
VERTEX
  8
AM_VIS
  5
78E
 10
6.28806
 20
4.22654
 30
0.000000
  70
    32
  0
VERTEX
  8
AM_VIS
  5
78F
 10
6.28679
 20
4.22767
 30
0.000000
  70
    32
  0
VERTEX
  8
AM_VIS
  5
790
 10
6.28552
 20
4.22879
 30
0.000000
  70
    32
  0
VERTEX
  8
AM_VIS
  5
791
 10
6.28424
 20
4.22991
 30
0.000000
  70
    32
  0
VERTEX
  8
AM_VIS
  5
792
 10
6.28295
 20
4.23102
 30
0.000000
  70
    32
  0
VERTEX
  8
AM_VIS
  5
793
 10
6.28165
 20
4.23212
 30
0.000000
  70
    32
  0
VERTEX
  8
AM_VIS
  5
794
 10
6.28034
 20
4.23322
 30
0.000000
  70
    32
  0
VERTEX
  8
AM_VIS
  5
795
 10
6.27903
 20
4.23431
 30
0.000000
  70
    32
  0
VERTEX
  8
AM_VIS
  5
796
 10
6.27771
 20
4.23539
 30
0.000000
  70
    32
  0
VERTEX
  8
AM_VIS
  5
797
 10
6.27638
 20
4.23647
 30
0.000000
  70
    32
  0
VERTEX
  8
AM_VIS
  5
798
 10
6.27504
 20
4.23755
 30
0.000000
  70
    32
  0
VERTEX
  8
AM_VIS
  5
799
 10
6.27369
 20
4.23861
 30
0.000000
  70
    32
  0
VERTEX
  8
AM_VIS
  5
79A
 10
6.27234
 20
4.23967
 30
0.000000
  70
    32
  0
VERTEX
  8
AM_VIS
  5
79B
 10
6.27098
 20
4.24073
 30
0.000000
  70
    32
  0
VERTEX
  8
AM_VIS
  5
79C
 10
6.26961
 20
4.24177
 30
0.000000
  70
    32
  0
VERTEX
  8
AM_VIS
  5
79D
 10
6.26824
 20
4.24281
 30
0.000000
  70
    32
  0
VERTEX
  8
AM_VIS
  5
79E
 10
6.26686
 20
4.24385
 30
0.000000
  70
    32
  0
VERTEX
  8
AM_VIS
  5
79F
 10
6.26547
 20
4.24487
 30
0.000000
  70
    32
  0
VERTEX
  8
AM_VIS
  5
7A0
 10
6.26407
 20
4.24589
 30
0.000000
  70
    32
  0
VERTEX
  8
AM_VIS
  5
7A1
 10
6.26267
 20
4.24691
 30
0.000000
  70
    32
  0
VERTEX
  8
AM_VIS
  5
7A2
 10
6.26126
 20
4.24791
 30
0.000000
  70
    32
  0
VERTEX
  8
AM_VIS
  5
7A3
 10
6.25984
 20
4.24891
 30
0.000000
  70
    32
  0
VERTEX
  8
AM_VIS
  5
7A4
 10
6.25842
 20
4.24990
 30
0.000000
  70
    32
  0
VERTEX
  8
AM_VIS
  5
7A5
 10
6.25699
 20
4.25088
 30
0.000000
  70
    32
  0
VERTEX
  8
AM_VIS
  5
7A6
 10
6.25555
 20
4.25186
 30
0.000000
  70
    32
  0
VERTEX
  8
AM_VIS
  5
7A7
 10
6.25411
 20
4.25282
 30
0.000000
  70
    32
  0
VERTEX
  8
AM_VIS
  5
7A8
 10
6.25266
 20
4.25378
 30
0.000000
  70
    32
  0
VERTEX
  8
AM_VIS
  5
7A9
 10
6.25120
 20
4.25473
 30
0.000000
  70
    32
  0
VERTEX
  8
AM_VIS
  5
7AA
 10
6.24974
 20
4.25568
 30
0.000000
  70
    32
  0
VERTEX
  8
AM_VIS
  5
7AB
 10
6.24827
 20
4.25661
 30
0.000000
  70
    32
  0
VERTEX
  8
AM_VIS
  5
7AC
 10
6.24679
 20
4.25754
 30
0.000000
  70
    32
  0
VERTEX
  8
AM_VIS
  5
7AD
 10
6.24531
 20
4.25846
 30
0.000000
  70
    32
  0
VERTEX
  8
AM_VIS
  5
7AE
 10
6.24382
 20
4.25937
 30
0.000000
  70
    32
  0
VERTEX
  8
AM_VIS
  5
7AF
 10
6.24233
 20
4.26028
 30
0.000000
  70
    32
  0
VERTEX
  8
AM_VIS
  5
7B0
 10
6.24083
 20
4.26117
 30
0.000000
  70
    32
  0
VERTEX
  8
AM_VIS
  5
7B1
 10
6.23932
 20
4.26206
 30
0.000000
  70
    32
  0
VERTEX
  8
AM_VIS
  5
7B2
 10
6.23781
 20
4.26293
 30
0.000000
  70
    32
  0
VERTEX
  8
AM_VIS
  5
7B3
 10
6.23630
 20
4.26380
 30
0.000000
  70
    32
  0
VERTEX
  8
AM_VIS
  5
7B4
 10
6.23477
 20
4.26466
 30
0.000000
  70
    32
  0
VERTEX
  8
AM_VIS
  5
7B5
 10
6.23324
 20
4.26551
 30
0.000000
  70
    32
  0
VERTEX
  8
AM_VIS
  5
7B6
 10
6.23171
 20
4.26635
 30
0.000000
  70
    32
  0
VERTEX
  8
AM_VIS
  5
7B7
 10
6.23017
 20
4.26719
 30
0.000000
  70
    32
  0
VERTEX
  8
AM_VIS
  5
7B8
 10
6.22862
 20
4.26801
 30
0.000000
  70
    32
  0
VERTEX
  8
AM_VIS
  5
7B9
 10
6.22707
 20
4.26883
 30
0.000000
  70
    32
  0
VERTEX
  8
AM_VIS
  5
7BA
 10
6.22552
 20
4.26963
 30
0.000000
  70
    32
  0
VERTEX
  8
AM_VIS
  5
7BB
 10
6.22396
 20
4.27043
 30
0.000000
  70
    32
  0
VERTEX
  8
AM_VIS
  5
7BC
 10
6.22239
 20
4.27121
 30
0.000000
  70
    32
  0
VERTEX
  8
AM_VIS
  5
7BD
 10
6.22082
 20
4.27199
 30
0.000000
  70
    32
  0
VERTEX
  8
AM_VIS
  5
7BE
 10
6.21924
 20
4.27275
 30
0.000000
  70
    32
  0
VERTEX
  8
AM_VIS
  5
7BF
 10
6.21766
 20
4.27351
 30
0.000000
  70
    32
  0
VERTEX
  8
AM_VIS
  5
7C0
 10
6.21607
 20
4.27426
 30
0.000000
  70
    32
  0
VERTEX
  8
AM_VIS
  5
7C1
 10
6.21448
 20
4.27500
 30
0.000000
  70
    32
  0
VERTEX
  8
AM_VIS
  5
7C2
 10
6.21288
 20
4.27572
 30
0.000000
  70
    32
  0
VERTEX
  8
AM_VIS
  5
7C3
 10
6.21128
 20
4.27644
 30
0.000000
  70
    32
  0
VERTEX
  8
AM_VIS
  5
7C4
 10
6.20968
 20
4.27715
 30
0.000000
  70
    32
  0
VERTEX
  8
AM_VIS
  5
7C5
 10
6.20807
 20
4.27784
 30
0.000000
  70
    32
  0
VERTEX
  8
AM_VIS
  5
7C6
 10
6.20645
 20
4.27853
 30
0.000000
  70
    32
  0
VERTEX
  8
AM_VIS
  5
7C7
 10
6.20483
 20
4.27920
 30
0.000000
  70
    32
  0
VERTEX
  8
AM_VIS
  5
7C8
 10
6.20321
 20
4.27987
 30
0.000000
  70
    32
  0
VERTEX
  8
AM_VIS
  5
7C9
 10
6.20158
 20
4.28052
 30
0.000000
  70
    32
  0
VERTEX
  8
AM_VIS
  5
7CA
 10
6.19995
 20
4.28117
 30
0.000000
  70
    32
  0
VERTEX
  8
AM_VIS
  5
7CB
 10
6.19832
 20
4.28180
 30
0.000000
  70
    32
  0
VERTEX
  8
AM_VIS
  5
7CC
 10
6.19668
 20
4.28243
 30
0.000000
  70
    32
  0
VERTEX
  8
AM_VIS
  5
7CD
 10
6.19503
 20
4.28304
 30
0.000000
  70
    32
  0
VERTEX
  8
AM_VIS
  5
7CE
 10
6.19339
 20
4.28365
 30
0.000000
  70
    32
  0
VERTEX
  8
AM_VIS
  5
7CF
 10
6.19174
 20
4.28424
 30
0.000000
  70
    32
  0
VERTEX
  8
AM_VIS
  5
7D0
 10
6.19009
 20
4.28482
 30
0.000000
  70
    32
  0
VERTEX
  8
AM_VIS
  5
7D1
 10
6.18843
 20
4.28539
 30
0.000000
  70
    32
  0
VERTEX
  8
AM_VIS
  5
7D2
 10
6.18677
 20
4.28596
 30
0.000000
  70
    32
  0
VERTEX
  8
AM_VIS
  5
7D3
 10
6.18511
 20
4.28651
 30
0.000000
  70
    32
  0
VERTEX
  8
AM_VIS
  5
7D4
 10
6.18344
 20
4.28705
 30
0.000000
  70
    32
  0
VERTEX
  8
AM_VIS
  5
7D5
 10
6.18177
 20
4.28758
 30
0.000000
  70
    32
  0
VERTEX
  8
AM_VIS
  5
7D6
 10
6.18010
 20
4.28810
 30
0.000000
  70
    32
  0
VERTEX
  8
AM_VIS
  5
7D7
 10
6.17843
 20
4.28861
 30
0.000000
  70
    32
  0
VERTEX
  8
AM_VIS
  5
7D8
 10
6.17675
 20
4.28911
 30
0.000000
  70
    32
  0
VERTEX
  8
AM_VIS
  5
7D9
 10
6.17507
 20
4.28960
 30
0.000000
  70
    32
  0
VERTEX
  8
AM_VIS
  5
7DA
 10
6.17339
 20
4.29008
 30
0.000000
  70
    32
  0
VERTEX
  8
AM_VIS
  5
7DB
 10
6.17171
 20
4.29055
 30
0.000000
  70
    32
  0
VERTEX
  8
AM_VIS
  5
7DC
 10
6.17002
 20
4.29101
 30
0.000000
  70
    32
  0
VERTEX
  8
AM_VIS
  5
7DD
 10
6.16834
 20
4.29146
 30
0.000000
  70
    32
  0
VERTEX
  8
AM_VIS
  5
7DE
 10
6.16665
 20
4.29190
 30
0.000000
  70
    32
  0
VERTEX
  8
AM_VIS
  5
7DF
 10
6.16496
 20
4.29232
 30
0.000000
  70
    32
  0
VERTEX
  8
AM_VIS
  5
7E0
 10
6.16326
 20
4.29274
 30
0.000000
  70
    32
  0
VERTEX
  8
AM_VIS
  5
7E1
 10
6.16157
 20
4.29315
 30
0.000000
  70
    32
  0
VERTEX
  8
AM_VIS
  5
7E2
 10
6.15988
 20
4.29354
 30
0.000000
  70
    32
  0
VERTEX
  8
AM_VIS
  5
7E3
 10
6.15818
 20
4.29393
 30
0.000000
  70
    32
  0
VERTEX
  8
AM_VIS
  5
7E4
 10
6.15648
 20
4.29431
 30
0.000000
  70
    32
  0
VERTEX
  8
AM_VIS
  5
7E5
 10
6.15478
 20
4.29467
 30
0.000000
  70
    32
  0
VERTEX
  8
AM_VIS
  5
7E6
 10
6.15308
 20
4.29503
 30
0.000000
  70
    32
  0
VERTEX
  8
AM_VIS
  5
7E7
 10
6.15138
 20
4.29537
 30
0.000000
  70
    32
  0
VERTEX
  8
AM_VIS
  5
7E8
 10
6.14968
 20
4.29571
 30
0.000000
  70
    32
  0
VERTEX
  8
AM_VIS
  5
7E9
 10
6.14798
 20
4.29603
 30
0.000000
  70
    32
  0
VERTEX
  8
AM_VIS
  5
7EA
 10
6.14628
 20
4.29634
 30
0.000000
  70
    32
  0
VERTEX
  8
AM_VIS
  5
7EB
 10
6.14457
 20
4.29665
 30
0.000000
  70
    32
  0
VERTEX
  8
AM_VIS
  5
7EC
 10
6.14287
 20
4.29694
 30
0.000000
  70
    32
  0
VERTEX
  8
AM_VIS
  5
7ED
 10
6.14117
 20
4.29722
 30
0.000000
  70
    32
  0
VERTEX
  8
AM_VIS
  5
7EE
 10
6.13946
 20
4.29749
 30
0.000000
  70
    32
  0
VERTEX
  8
AM_VIS
  5
7EF
 10
6.13776
 20
4.29775
 30
0.000000
  70
    32
  0
VERTEX
  8
AM_VIS
  5
7F0
 10
6.13606
 20
4.29801
 30
0.000000
  70
    32
  0
VERTEX
  8
AM_VIS
  5
7F1
 10
6.13435
 20
4.29825
 30
0.000000
  70
    32
  0
VERTEX
  8
AM_VIS
  5
7F2
 10
6.13265
 20
4.29848
 30
0.000000
  70
    32
  0
VERTEX
  8
AM_VIS
  5
7F3
 10
6.13095
 20
4.29870
 30
0.000000
  70
    32
  0
VERTEX
  8
AM_VIS
  5
7F4
 10
6.12924
 20
4.29891
 30
0.000000
  70
    32
  0
VERTEX
  8
AM_VIS
  5
7F5
 10
6.12754
 20
4.29910
 30
0.000000
  70
    32
  0
VERTEX
  8
AM_VIS
  5
7F6
 10
6.12584
 20
4.29929
 30
0.000000
  70
    32
  0
VERTEX
  8
AM_VIS
  5
7F7
 10
6.12414
 20
4.29947
 30
0.000000
  70
    32
  0
VERTEX
  8
AM_VIS
  5
7F8
 10
6.12244
 20
4.29964
 30
0.000000
  70
    32
  0
VERTEX
  8
AM_VIS
  5
7F9
 10
6.12075
 20
4.29980
 30
0.000000
  70
    32
  0
VERTEX
  8
AM_VIS
  5
7FA
 10
6.11905
 20
4.29994
 30
0.000000
  70
    32
  0
VERTEX
  8
AM_VIS
  5
7FB
 10
6.11736
 20
4.30008
 30
0.000000
  70
    32
  0
VERTEX
  8
AM_VIS
  5
7FC
 10
6.11566
 20
4.30020
 30
0.000000
  70
    32
  0
VERTEX
  8
AM_VIS
  5
7FD
 10
6.11397
 20
4.30032
 30
0.000000
  70
    32
  0
VERTEX
  8
AM_VIS
  5
7FE
 10
6.11228
 20
4.30042
 30
0.000000
  70
    32
  0
VERTEX
  8
AM_VIS
  5
7FF
 10
6.11059
 20
4.30052
 30
0.000000
  70
    32
  0
VERTEX
  8
AM_VIS
  5
800
 10
6.10890
 20
4.30060
 30
0.000000
  70
    32
  0
VERTEX
  8
AM_VIS
  5
801
 10
6.10722
 20
4.30068
 30
0.000000
  70
    32
  0
VERTEX
  8
AM_VIS
  5
802
 10
6.10554
 20
4.30074
 30
0.000000
  70
    32
  0
VERTEX
  8
AM_VIS
  5
803
 10
6.10386
 20
4.30079
 30
0.000000
  70
    32
  0
VERTEX
  8
AM_VIS
  5
804
 10
6.10218
 20
4.30083
 30
0.000000
  70
    32
  0
VERTEX
  8
AM_VIS
  5
805
 10
6.10050
 20
4.30086
 30
0.000000
  70
    32
  0
VERTEX
  8
AM_VIS
  5
806
 10
6.09883
 20
4.30088
 30
0.000000
  70
    32
  0
VERTEX
  8
AM_VIS
  5
807
 10
6.09716
 20
4.30090
 30
0.000000
  70
    32
  0
VERTEX
  8
AM_VIS
  5
808
 10
6.09549
 20
4.30090
 30
0.000000
  70
    32
  0
VERTEX
  8
AM_VIS
  5
809
 10
6.09382
 20
4.30088
 30
0.000000
  70
    32
  0
VERTEX
  8
AM_VIS
  5
80A
 10
6.09215
 20
4.30086
 30
0.000000
  70
    32
  0
VERTEX
  8
AM_VIS
  5
80B
 10
6.09047
 20
4.30083
 30
0.000000
  70
    32
  0
VERTEX
  8
AM_VIS
  5
80C
 10
6.08879
 20
4.30079
 30
0.000000
  70
    32
  0
VERTEX
  8
AM_VIS
  5
80D
 10
6.08711
 20
4.30074
 30
0.000000
  70
    32
  0
VERTEX
  8
AM_VIS
  5
80E
 10
6.08543
 20
4.30068
 30
0.000000
  70
    32
  0
VERTEX
  8
AM_VIS
  5
80F
 10
6.08374
 20
4.30060
 30
0.000000
  70
    32
  0
VERTEX
  8
AM_VIS
  5
810
 10
6.08206
 20
4.30052
 30
0.000000
  70
    32
  0
VERTEX
  8
AM_VIS
  5
811
 10
6.08037
 20
4.30042
 30
0.000000
  70
    32
  0
VERTEX
  8
AM_VIS
  5
812
 10
6.07868
 20
4.30032
 30
0.000000
  70
    32
  0
VERTEX
  8
AM_VIS
  5
813
 10
6.07699
 20
4.30020
 30
0.000000
  70
    32
  0
VERTEX
  8
AM_VIS
  5
814
 10
6.07529
 20
4.30008
 30
0.000000
  70
    32
  0
VERTEX
  8
AM_VIS
  5
815
 10
6.07360
 20
4.29994
 30
0.000000
  70
    32
  0
VERTEX
  8
AM_VIS
  5
816
 10
6.07190
 20
4.29980
 30
0.000000
  70
    32
  0
VERTEX
  8
AM_VIS
  5
817
 10
6.07020
 20
4.29964
 30
0.000000
  70
    32
  0
VERTEX
  8
AM_VIS
  5
818
 10
6.06851
 20
4.29947
 30
0.000000
  70
    32
  0
VERTEX
  8
AM_VIS
  5
819
 10
6.06681
 20
4.29929
 30
0.000000
  70
    32
  0
VERTEX
  8
AM_VIS
  5
81A
 10
6.06511
 20
4.29910
 30
0.000000
  70
    32
  0
VERTEX
  8
AM_VIS
  5
81B
 10
6.06340
 20
4.29891
 30
0.000000
  70
    32
  0
VERTEX
  8
AM_VIS
  5
81C
 10
6.06170
 20
4.29870
 30
0.000000
  70
    32
  0
VERTEX
  8
AM_VIS
  5
81D
 10
6.06000
 20
4.29848
 30
0.000000
  70
    32
  0
VERTEX
  8
AM_VIS
  5
81E
 10
6.05830
 20
4.29825
 30
0.000000
  70
    32
  0
VERTEX
  8
AM_VIS
  5
81F
 10
6.05659
 20
4.29801
 30
0.000000
  70
    32
  0
VERTEX
  8
AM_VIS
  5
820
 10
6.05489
 20
4.29775
 30
0.000000
  70
    32
  0
VERTEX
  8
AM_VIS
  5
821
 10
6.05319
 20
4.29749
 30
0.000000
  70
    32
  0
VERTEX
  8
AM_VIS
  5
822
 10
6.05148
 20
4.29722
 30
0.000000
  70
    32
  0
VERTEX
  8
AM_VIS
  5
823
 10
6.04978
 20
4.29694
 30
0.000000
  70
    32
  0
VERTEX
  8
AM_VIS
  5
824
 10
6.04808
 20
4.29665
 30
0.000000
  70
    32
  0
VERTEX
  8
AM_VIS
  5
825
 10
6.04637
 20
4.29634
 30
0.000000
  70
    32
  0
VERTEX
  8
AM_VIS
  5
826
 10
6.04467
 20
4.29603
 30
0.000000
  70
    32
  0
VERTEX
  8
AM_VIS
  5
827
 10
6.04297
 20
4.29571
 30
0.000000
  70
    32
  0
VERTEX
  8
AM_VIS
  5
828
 10
6.04127
 20
4.29537
 30
0.000000
  70
    32
  0
VERTEX
  8
AM_VIS
  5
829
 10
6.03957
 20
4.29503
 30
0.000000
  70
    32
  0
VERTEX
  8
AM_VIS
  5
82A
 10
6.03787
 20
4.29467
 30
0.000000
  70
    32
  0
VERTEX
  8
AM_VIS
  5
82B
 10
6.03617
 20
4.29431
 30
0.000000
  70
    32
  0
VERTEX
  8
AM_VIS
  5
82C
 10
6.03447
 20
4.29393
 30
0.000000
  70
    32
  0
VERTEX
  8
AM_VIS
  5
82D
 10
6.03277
 20
4.29354
 30
0.000000
  70
    32
  0
VERTEX
  8
AM_VIS
  5
82E
 10
6.03108
 20
4.29315
 30
0.000000
  70
    32
  0
VERTEX
  8
AM_VIS
  5
82F
 10
6.02938
 20
4.29274
 30
0.000000
  70
    32
  0
VERTEX
  8
AM_VIS
  5
830
 10
6.02769
 20
4.29232
 30
0.000000
  70
    32
  0
VERTEX
  8
AM_VIS
  5
831
 10
6.02600
 20
4.29190
 30
0.000000
  70
    32
  0
VERTEX
  8
AM_VIS
  5
832
 10
6.02431
 20
4.29146
 30
0.000000
  70
    32
  0
VERTEX
  8
AM_VIS
  5
833
 10
6.02263
 20
4.29101
 30
0.000000
  70
    32
  0
VERTEX
  8
AM_VIS
  5
834
 10
6.02094
 20
4.29055
 30
0.000000
  70
    32
  0
VERTEX
  8
AM_VIS
  5
835
 10
6.01926
 20
4.29008
 30
0.000000
  70
    32
  0
VERTEX
  8
AM_VIS
  5
836
 10
6.01758
 20
4.28960
 30
0.000000
  70
    32
  0
VERTEX
  8
AM_VIS
  5
837
 10
6.01590
 20
4.28911
 30
0.000000
  70
    32
  0
VERTEX
  8
AM_VIS
  5
838
 10
6.01422
 20
4.28861
 30
0.000000
  70
    32
  0
VERTEX
  8
AM_VIS
  5
839
 10
6.01255
 20
4.28810
 30
0.000000
  70
    32
  0
VERTEX
  8
AM_VIS
  5
83A
 10
6.01088
 20
4.28758
 30
0.000000
  70
    32
  0
VERTEX
  8
AM_VIS
  5
83B
 10
6.00921
 20
4.28705
 30
0.000000
  70
    32
  0
VERTEX
  8
AM_VIS
  5
83C
 10
6.00754
 20
4.28651
 30
0.000000
  70
    32
  0
VERTEX
  8
AM_VIS
  5
83D
 10
6.00588
 20
4.28596
 30
0.000000
  70
    32
  0
VERTEX
  8
AM_VIS
  5
83E
 10
6.00422
 20
4.28539
 30
0.000000
  70
    32
  0
VERTEX
  8
AM_VIS
  5
83F
 10
6.00256
 20
4.28482
 30
0.000000
  70
    32
  0
VERTEX
  8
AM_VIS
  5
840
 10
6.00091
 20
4.28424
 30
0.000000
  70
    32
  0
VERTEX
  8
AM_VIS
  5
841
 10
5.99926
 20
4.28365
 30
0.000000
  70
    32
  0
VERTEX
  8
AM_VIS
  5
842
 10
5.99761
 20
4.28304
 30
0.000000
  70
    32
  0
VERTEX
  8
AM_VIS
  5
843
 10
5.99597
 20
4.28243
 30
0.000000
  70
    32
  0
VERTEX
  8
AM_VIS
  5
844
 10
5.99433
 20
4.28180
 30
0.000000
  70
    32
  0
VERTEX
  8
AM_VIS
  5
845
 10
5.99270
 20
4.28117
 30
0.000000
  70
    32
  0
VERTEX
  8
AM_VIS
  5
846
 10
5.99107
 20
4.28052
 30
0.000000
  70
    32
  0
VERTEX
  8
AM_VIS
  5
847
 10
5.98944
 20
4.27987
 30
0.000000
  70
    32
  0
VERTEX
  8
AM_VIS
  5
848
 10
5.98781
 20
4.27920
 30
0.000000
  70
    32
  0
VERTEX
  8
AM_VIS
  5
849
 10
5.98620
 20
4.27853
 30
0.000000
  70
    32
  0
VERTEX
  8
AM_VIS
  5
84A
 10
5.98458
 20
4.27784
 30
0.000000
  70
    32
  0
VERTEX
  8
AM_VIS
  5
84B
 10
5.98297
 20
4.27715
 30
0.000000
  70
    32
  0
VERTEX
  8
AM_VIS
  5
84C
 10
5.98137
 20
4.27644
 30
0.000000
  70
    32
  0
VERTEX
  8
AM_VIS
  5
84D
 10
5.97976
 20
4.27572
 30
0.000000
  70
    32
  0
VERTEX
  8
AM_VIS
  5
84E
 10
5.97817
 20
4.27500
 30
0.000000
  70
    32
  0
VERTEX
  8
AM_VIS
  5
84F
 10
5.97658
 20
4.27426
 30
0.000000
  70
    32
  0
VERTEX
  8
AM_VIS
  5
850
 10
5.97499
 20
4.27351
 30
0.000000
  70
    32
  0
VERTEX
  8
AM_VIS
  5
851
 10
5.97341
 20
4.27275
 30
0.000000
  70
    32
  0
VERTEX
  8
AM_VIS
  5
852
 10
5.97183
 20
4.27199
 30
0.000000
  70
    32
  0
VERTEX
  8
AM_VIS
  5
853
 10
5.97026
 20
4.27121
 30
0.000000
  70
    32
  0
VERTEX
  8
AM_VIS
  5
854
 10
5.96869
 20
4.27043
 30
0.000000
  70
    32
  0
VERTEX
  8
AM_VIS
  5
855
 10
5.96713
 20
4.26963
 30
0.000000
  70
    32
  0
VERTEX
  8
AM_VIS
  5
856
 10
5.96558
 20
4.26883
 30
0.000000
  70
    32
  0
VERTEX
  8
AM_VIS
  5
857
 10
5.96403
 20
4.26801
 30
0.000000
  70
    32
  0
VERTEX
  8
AM_VIS
  5
858
 10
5.96248
 20
4.26719
 30
0.000000
  70
    32
  0
VERTEX
  8
AM_VIS
  5
859
 10
5.96094
 20
4.26635
 30
0.000000
  70
    32
  0
VERTEX
  8
AM_VIS
  5
85A
 10
5.95941
 20
4.26551
 30
0.000000
  70
    32
  0
VERTEX
  8
AM_VIS
  5
85B
 10
5.95788
 20
4.26466
 30
0.000000
  70
    32
  0
VERTEX
  8
AM_VIS
  5
85C
 10
5.95635
 20
4.26380
 30
0.000000
  70
    32
  0
VERTEX
  8
AM_VIS
  5
85D
 10
5.95484
 20
4.26293
 30
0.000000
  70
    32
  0
VERTEX
  8
AM_VIS
  5
85E
 10
5.95332
 20
4.26206
 30
0.000000
  70
    32
  0
VERTEX
  8
AM_VIS
  5
85F
 10
5.95182
 20
4.26117
 30
0.000000
  70
    32
  0
VERTEX
  8
AM_VIS
  5
860
 10
5.95032
 20
4.26028
 30
0.000000
  70
    32
  0
VERTEX
  8
AM_VIS
  5
861
 10
5.94882
 20
4.25937
 30
0.000000
  70
    32
  0
VERTEX
  8
AM_VIS
  5
862
 10
5.94734
 20
4.25846
 30
0.000000
  70
    32
  0
VERTEX
  8
AM_VIS
  5
863
 10
5.94585
 20
4.25754
 30
0.000000
  70
    32
  0
VERTEX
  8
AM_VIS
  5
864
 10
5.94438
 20
4.25661
 30
0.000000
  70
    32
  0
VERTEX
  8
AM_VIS
  5
865
 10
5.94291
 20
4.25568
 30
0.000000
  70
    32
  0
VERTEX
  8
AM_VIS
  5
866
 10
5.94145
 20
4.25473
 30
0.000000
  70
    32
  0
VERTEX
  8
AM_VIS
  5
867
 10
5.93999
 20
4.25378
 30
0.000000
  70
    32
  0
VERTEX
  8
AM_VIS
  5
868
 10
5.93854
 20
4.25282
 30
0.000000
  70
    32
  0
VERTEX
  8
AM_VIS
  5
869
 10
5.93710
 20
4.25186
 30
0.000000
  70
    32
  0
VERTEX
  8
AM_VIS
  5
86A
 10
5.93566
 20
4.25088
 30
0.000000
  70
    32
  0
VERTEX
  8
AM_VIS
  5
86B
 10
5.93423
 20
4.24990
 30
0.000000
  70
    32
  0
VERTEX
  8
AM_VIS
  5
86C
 10
5.93281
 20
4.24891
 30
0.000000
  70
    32
  0
VERTEX
  8
AM_VIS
  5
86D
 10
5.93139
 20
4.24791
 30
0.000000
  70
    32
  0
VERTEX
  8
AM_VIS
  5
86E
 10
5.92998
 20
4.24691
 30
0.000000
  70
    32
  0
VERTEX
  8
AM_VIS
  5
86F
 10
5.92858
 20
4.24589
 30
0.000000
  70
    32
  0
VERTEX
  8
AM_VIS
  5
870
 10
5.92718
 20
4.24487
 30
0.000000
  70
    32
  0
VERTEX
  8
AM_VIS
  5
871
 10
5.92579
 20
4.24385
 30
0.000000
  70
    32
  0
VERTEX
  8
AM_VIS
  5
872
 10
5.92441
 20
4.24281
 30
0.000000
  70
    32
  0
VERTEX
  8
AM_VIS
  5
873
 10
5.92303
 20
4.24177
 30
0.000000
  70
    32
  0
VERTEX
  8
AM_VIS
  5
874
 10
5.92167
 20
4.24073
 30
0.000000
  70
    32
  0
VERTEX
  8
AM_VIS
  5
875
 10
5.92031
 20
4.23967
 30
0.000000
  70
    32
  0
VERTEX
  8
AM_VIS
  5
876
 10
5.91896
 20
4.23861
 30
0.000000
  70
    32
  0
VERTEX
  8
AM_VIS
  5
877
 10
5.91761
 20
4.23755
 30
0.000000
  70
    32
  0
VERTEX
  8
AM_VIS
  5
878
 10
5.91627
 20
4.23647
 30
0.000000
  70
    32
  0
VERTEX
  8
AM_VIS
  5
879
 10
5.91494
 20
4.23539
 30
0.000000
  70
    32
  0
VERTEX
  8
AM_VIS
  5
87A
 10
5.91362
 20
4.23431
 30
0.000000
  70
    32
  0
VERTEX
  8
AM_VIS
  5
87B
 10
5.91231
 20
4.23322
 30
0.000000
  70
    32
  0
VERTEX
  8
AM_VIS
  5
87C
 10
5.91100
 20
4.23212
 30
0.000000
  70
    32
  0
VERTEX
  8
AM_VIS
  5
87D
 10
5.90970
 20
4.23102
 30
0.000000
  70
    32
  0
VERTEX
  8
AM_VIS
  5
87E
 10
5.90841
 20
4.22991
 30
0.000000
  70
    32
  0
VERTEX
  8
AM_VIS
  5
87F
 10
5.90713
 20
4.22879
 30
0.000000
  70
    32
  0
VERTEX
  8
AM_VIS
  5
880
 10
5.90585
 20
4.22767
 30
0.000000
  70
    32
  0
VERTEX
  8
AM_VIS
  5
881
 10
5.90459
 20
4.22654
 30
0.000000
  70
    32
  0
VERTEX
  8
AM_VIS
  5
882
 10
5.90333
 20
4.22541
 30
0.000000
  70
    32
  0
VERTEX
  8
AM_VIS
  5
883
 10
5.90208
 20
4.22427
 30
0.000000
  70
    32
  0
VERTEX
  8
AM_VIS
  5
884
 10
5.90084
 20
4.22313
 30
0.000000
  70
    32
  0
VERTEX
  8
AM_VIS
  5
885
 10
5.89961
 20
4.22198
 30
0.000000
  70
    32
  0
VERTEX
  8
AM_VIS
  5
886
 10
5.89838
 20
4.22083
 30
0.000000
  70
    32
  0
VERTEX
  8
AM_VIS
  5
887
 10
5.89716
 20
4.21967
 30
0.000000
  70
    32
  0
VERTEX
  8
AM_VIS
  5
888
 10
5.89596
 20
4.21850
 30
0.000000
  70
    32
  0
VERTEX
  8
AM_VIS
  5
889
 10
5.89476
 20
4.21733
 30
0.000000
  70
    32
  0
VERTEX
  8
AM_VIS
  5
88A
 10
5.89357
 20
4.21616
 30
0.000000
  70
    32
  0
VERTEX
  8
AM_VIS
  5
88B
 10
5.89239
 20
4.21498
 30
0.000000
  70
    32
  0
VERTEX
  8
AM_VIS
  5
88C
 10
5.89122
 20
4.21380
 30
0.000000
  70
    32
  0
VERTEX
  8
AM_VIS
  5
88D
 10
5.89005
 20
4.21261
 30
0.000000
  70
    32
  0
VERTEX
  8
AM_VIS
  5
88E
 10
5.88890
 20
4.21142
 30
0.000000
  70
    32
  0
VERTEX
  8
AM_VIS
  5
88F
 10
5.88775
 20
4.21022
 30
0.000000
  70
    32
  0
VERTEX
  8
AM_VIS
  5
890
 10
5.88662
 20
4.20902
 30
0.000000
  70
    32
  0
VERTEX
  8
AM_VIS
  5
891
 10
5.88549
 20
4.20781
 30
0.000000
  70
    32
  0
VERTEX
  8
AM_VIS
  5
892
 10
5.88437
 20
4.20660
 30
0.000000
  70
    32
  0
VERTEX
  8
AM_VIS
  5
893
 10
5.88325
 20
4.20537
 30
0.000000
  70
    32
  0
VERTEX
  8
AM_VIS
  5
894
 10
5.88213
 20
4.20414
 30
0.000000
  70
    32
  0
VERTEX
  8
AM_VIS
  5
895
 10
5.88102
 20
4.20290
 30
0.000000
  70
    32
  0
VERTEX
  8
AM_VIS
  5
896
 10
5.87992
 20
4.20165
 30
0.000000
  70
    32
  0
VERTEX
  8
AM_VIS
  5
897
 10
5.87882
 20
4.20039
 30
0.000000
  70
    32
  0
VERTEX
  8
AM_VIS
  5
898
 10
5.87773
 20
4.19912
 30
0.000000
  70
    32
  0
VERTEX
  8
AM_VIS
  5
899
 10
5.87664
 20
4.19784
 30
0.000000
  70
    32
  0
VERTEX
  8
AM_VIS
  5
89A
 10
5.87556
 20
4.19656
 30
0.000000
  70
    32
  0
VERTEX
  8
AM_VIS
  5
89B
 10
5.87448
 20
4.19526
 30
0.000000
  70
    32
  0
VERTEX
  8
AM_VIS
  5
89C
 10
5.87341
 20
4.19396
 30
0.000000
  70
    32
  0
VERTEX
  8
AM_VIS
  5
89D
 10
5.87234
 20
4.19265
 30
0.000000
  70
    32
  0
VERTEX
  8
AM_VIS
  5
89E
 10
5.87128
 20
4.19133
 30
0.000000
  70
    32
  0
VERTEX
  8
AM_VIS
  5
89F
 10
5.87022
 20
4.19001
 30
0.000000
  70
    32
  0
VERTEX
  8
AM_VIS
  5
8A0
 10
5.86917
 20
4.18867
 30
0.000000
  70
    32
  0
VERTEX
  8
AM_VIS
  5
8A1
 10
5.86813
 20
4.18733
 30
0.000000
  70
    32
  0
VERTEX
  8
AM_VIS
  5
8A2
 10
5.86709
 20
4.18598
 30
0.000000
  70
    32
  0
VERTEX
  8
AM_VIS
  5
8A3
 10
5.86606
 20
4.18462
 30
0.000000
  70
    32
  0
VERTEX
  8
AM_VIS
  5
8A4
 10
5.86503
 20
4.18326
 30
0.000000
  70
    32
  0
VERTEX
  8
AM_VIS
  5
8A5
 10
5.86401
 20
4.18189
 30
0.000000
  70
    32
  0
VERTEX
  8
AM_VIS
  5
8A6
 10
5.86300
 20
4.18051
 30
0.000000
  70
    32
  0
VERTEX
  8
AM_VIS
  5
8A7
 10
5.86199
 20
4.17912
 30
0.000000
  70
    32
  0
VERTEX
  8
AM_VIS
  5
8A8
 10
5.86099
 20
4.17773
 30
0.000000
  70
    32
  0
VERTEX
  8
AM_VIS
  5
8A9
 10
5.86000
 20
4.17632
 30
0.000000
  70
    32
  0
VERTEX
  8
AM_VIS
  5
8AA
 10
5.85901
 20
4.17492
 30
0.000000
  70
    32
  0
VERTEX
  8
AM_VIS
  5
8AB
 10
5.85803
 20
4.17350
 30
0.000000
  70
    32
  0
VERTEX
  8
AM_VIS
  5
8AC
 10
5.85706
 20
4.17208
 30
0.000000
  70
    32
  0
VERTEX
  8
AM_VIS
  5
8AD
 10
5.85609
 20
4.17065
 30
0.000000
  70
    32
  0
VERTEX
  8
AM_VIS
  5
8AE
 10
5.85513
 20
4.16921
 30
0.000000
  70
    32
  0
VERTEX
  8
AM_VIS
  5
8AF
 10
5.85418
 20
4.16777
 30
0.000000
  70
    32
  0
VERTEX
  8
AM_VIS
  5
8B0
 10
5.85323
 20
4.16631
 30
0.000000
  70
    32
  0
VERTEX
  8
AM_VIS
  5
8B1
 10
5.85229
 20
4.16486
 30
0.000000
  70
    32
  0
VERTEX
  8
AM_VIS
  5
8B2
 10
5.85136
 20
4.16339
 30
0.000000
  70
    32
  0
VERTEX
  8
AM_VIS
  5
8B3
 10
5.85043
 20
4.16192
 30
0.000000
  70
    32
  0
VERTEX
  8
AM_VIS
  5
8B4
 10
5.84951
 20
4.16045
 30
0.000000
  70
    32
  0
VERTEX
  8
AM_VIS
  5
8B5
 10
5.84860
 20
4.15896
 30
0.000000
  70
    32
  0
VERTEX
  8
AM_VIS
  5
8B6
 10
5.84770
 20
4.15747
 30
0.000000
  70
    32
  0
VERTEX
  8
AM_VIS
  5
8B7
 10
5.84680
 20
4.15598
 30
0.000000
  70
    32
  0
VERTEX
  8
AM_VIS
  5
8B8
 10
5.84592
 20
4.15448
 30
0.000000
  70
    32
  0
VERTEX
  8
AM_VIS
  5
8B9
 10
5.84503
 20
4.15297
 30
0.000000
  70
    32
  0
VERTEX
  8
AM_VIS
  5
8BA
 10
5.84416
 20
4.15146
 30
0.000000
  70
    32
  0
VERTEX
  8
AM_VIS
  5
8BB
 10
5.84330
 20
4.14994
 30
0.000000
  70
    32
  0
VERTEX
  8
AM_VIS
  5
8BC
 10
5.84244
 20
4.14841
 30
0.000000
  70
    32
  0
VERTEX
  8
AM_VIS
  5
8BD
 10
5.84159
 20
4.14688
 30
0.000000
  70
    32
  0
VERTEX
  8
AM_VIS
  5
8BE
 10
5.84075
 20
4.14534
 30
0.000000
  70
    32
  0
VERTEX
  8
AM_VIS
  5
8BF
 10
5.83992
 20
4.14380
 30
0.000000
  70
    32
  0
VERTEX
  8
AM_VIS
  5
8C0
 10
5.83909
 20
4.14225
 30
0.000000
  70
    32
  0
VERTEX
  8
AM_VIS
  5
8C1
 10
5.83827
 20
4.14070
 30
0.000000
  70
    32
  0
VERTEX
  8
AM_VIS
  5
8C2
 10
5.83747
 20
4.13914
 30
0.000000
  70
    32
  0
VERTEX
  8
AM_VIS
  5
8C3
 10
5.83667
 20
4.13758
 30
0.000000
  70
    32
  0
VERTEX
  8
AM_VIS
  5
8C4
 10
5.83587
 20
4.13601
 30
0.000000
  70
    32
  0
VERTEX
  8
AM_VIS
  5
8C5
 10
5.83509
 20
4.13443
 30
0.000000
  70
    32
  0
VERTEX
  8
AM_VIS
  5
8C6
 10
5.83432
 20
4.13285
 30
0.000000
  70
    32
  0
VERTEX
  8
AM_VIS
  5
8C7
 10
5.83355
 20
4.13127
 30
0.000000
  70
    32
  0
VERTEX
  8
AM_VIS
  5
8C8
 10
5.83280
 20
4.12968
 30
0.000000
  70
    32
  0
VERTEX
  8
AM_VIS
  5
8C9
 10
5.83205
 20
4.12808
 30
0.000000
  70
    32
  0
VERTEX
  8
AM_VIS
  5
8CA
 10
5.83131
 20
4.12648
 30
0.000000
  70
    32
  0
VERTEX
  8
AM_VIS
  5
8CB
 10
5.83058
 20
4.12488
 30
0.000000
  70
    32
  0
VERTEX
  8
AM_VIS
  5
8CC
 10
5.82986
 20
4.12327
 30
0.000000
  70
    32
  0
VERTEX
  8
AM_VIS
  5
8CD
 10
5.82915
 20
4.12166
 30
0.000000
  70
    32
  0
VERTEX
  8
AM_VIS
  5
8CE
 10
5.82844
 20
4.12004
 30
0.000000
  70
    32
  0
VERTEX
  8
AM_VIS
  5
8CF
 10
5.82775
 20
4.11842
 30
0.000000
  70
    32
  0
VERTEX
  8
AM_VIS
  5
8D0
 10
5.82707
 20
4.11679
 30
0.000000
  70
    32
  0
VERTEX
  8
AM_VIS
  5
8D1
 10
5.82639
 20
4.11516
 30
0.000000
  70
    32
  0
VERTEX
  8
AM_VIS
  5
8D2
 10
5.82573
 20
4.11352
 30
0.000000
  70
    32
  0
VERTEX
  8
AM_VIS
  5
8D3
 10
5.82507
 20
4.11188
 30
0.000000
  70
    32
  0
VERTEX
  8
AM_VIS
  5
8D4
 10
5.82442
 20
4.11024
 30
0.000000
  70
    32
  0
VERTEX
  8
AM_VIS
  5
8D5
 10
5.82379
 20
4.10859
 30
0.000000
  70
    32
  0
VERTEX
  8
AM_VIS
  5
8D6
 10
5.82316
 20
4.10694
 30
0.000000
  70
    32
  0
VERTEX
  8
AM_VIS
  5
8D7
 10
5.82255
 20
4.10529
 30
0.000000
  70
    32
  0
VERTEX
  8
AM_VIS
  5
8D8
 10
5.82194
 20
4.10363
 30
0.000000
  70
    32
  0
VERTEX
  8
AM_VIS
  5
8D9
 10
5.82134
 20
4.10197
 30
0.000000
  70
    32
  0
VERTEX
  8
AM_VIS
  5
8DA
 10
5.82075
 20
4.10030
 30
0.000000
  70
    32
  0
VERTEX
  8
AM_VIS
  5
8DB
 10
5.82018
 20
4.09863
 30
0.000000
  70
    32
  0
VERTEX
  8
AM_VIS
  5
8DC
 10
5.81961
 20
4.09696
 30
0.000000
  70
    32
  0
VERTEX
  8
AM_VIS
  5
8DD
 10
5.81905
 20
4.09528
 30
0.000000
  70
    32
  0
VERTEX
  8
AM_VIS
  5
8DE
 10
5.81850
 20
4.09360
 30
0.000000
  70
    32
  0
VERTEX
  8
AM_VIS
  5
8DF
 10
5.81796
 20
4.09192
 30
0.000000
  70
    32
  0
VERTEX
  8
AM_VIS
  5
8E0
 10
5.81743
 20
4.09024
 30
0.000000
  70
    32
  0
VERTEX
  8
AM_VIS
  5
8E1
 10
5.81691
 20
4.08855
 30
0.000000
  70
    32
  0
VERTEX
  8
AM_VIS
  5
8E2
 10
5.81640
 20
4.08686
 30
0.000000
  70
    32
  0
VERTEX
  8
AM_VIS
  5
8E3
 10
5.81590
 20
4.08517
 30
0.000000
  70
    32
  0
VERTEX
  8
AM_VIS
  5
8E4
 10
5.81541
 20
4.08348
 30
0.000000
  70
    32
  0
VERTEX
  8
AM_VIS
  5
8E5
 10
5.81493
 20
4.08178
 30
0.000000
  70
    32
  0
VERTEX
  8
AM_VIS
  5
8E6
 10
5.81446
 20
4.08008
 30
0.000000
  70
    32
  0
VERTEX
  8
AM_VIS
  5
8E7
 10
5.81400
 20
4.07838
 30
0.000000
  70
    32
  0
VERTEX
  8
AM_VIS
  5
8E8
 10
5.81354
 20
4.07668
 30
0.000000
  70
    32
  0
VERTEX
  8
AM_VIS
  5
8E9
 10
5.81310
 20
4.07497
 30
0.000000
  70
    32
  0
VERTEX
  8
AM_VIS
  5
8EA
 10
5.81267
 20
4.07327
 30
0.000000
  70
    32
  0
VERTEX
  8
AM_VIS
  5
8EB
 10
5.81224
 20
4.07156
 30
0.000000
  70
    32
  0
VERTEX
  8
AM_VIS
  5
8EC
 10
5.81183
 20
4.06985
 30
0.000000
  70
    32
  0
VERTEX
  8
AM_VIS
  5
8ED
 10
5.81142
 20
4.06814
 30
0.000000
  70
    32
  0
VERTEX
  8
AM_VIS
  5
8EE
 10
5.81103
 20
4.06643
 30
0.000000
  70
    32
  0
VERTEX
  8
AM_VIS
  5
8EF
 10
5.81064
 20
4.06472
 30
0.000000
  70
    32
  0
VERTEX
  8
AM_VIS
  5
8F0
 10
5.81027
 20
4.06300
 30
0.000000
  70
    32
  0
VERTEX
  8
AM_VIS
  5
8F1
 10
5.80990
 20
4.06129
 30
0.000000
  70
    32
  0
VERTEX
  8
AM_VIS
  5
8F2
 10
5.80955
 20
4.05957
 30
0.000000
  70
    32
  0
VERTEX
  8
AM_VIS
  5
8F3
 10
5.80920
 20
4.05785
 30
0.000000
  70
    32
  0
VERTEX
  8
AM_VIS
  5
8F4
 10
5.80886
 20
4.05614
 30
0.000000
  70
    32
  0
VERTEX
  8
AM_VIS
  5
8F5
 10
5.80853
 20
4.05442
 30
0.000000
  70
    32
  0
VERTEX
  8
AM_VIS
  5
8F6
 10
5.80821
 20
4.05270
 30
0.000000
  70
    32
  0
VERTEX
  8
AM_VIS
  5
8F7
 10
5.80791
 20
4.05098
 30
0.000000
  70
    32
  0
VERTEX
  8
AM_VIS
  5
8F8
 10
5.80761
 20
4.04926
 30
0.000000
  70
    32
  0
VERTEX
  8
AM_VIS
  5
8F9
 10
5.80732
 20
4.04755
 30
0.000000
  70
    32
  0
VERTEX
  8
AM_VIS
  5
8FA
 10
5.80704
 20
4.04583
 30
0.000000
  70
    32
  0
VERTEX
  8
AM_VIS
  5
8FB
 10
5.80677
 20
4.04411
 30
0.000000
  70
    32
  0
VERTEX
  8
AM_VIS
  5
8FC
 10
5.80650
 20
4.04239
 30
0.000000
  70
    32
  0
VERTEX
  8
AM_VIS
  5
8FD
 10
5.80625
 20
4.04067
 30
0.000000
  70
    32
  0
VERTEX
  8
AM_VIS
  5
8FE
 10
5.80601
 20
4.03896
 30
0.000000
  70
    32
  0
VERTEX
  8
AM_VIS
  5
8FF
 10
5.80578
 20
4.03724
 30
0.000000
  70
    32
  0
VERTEX
  8
AM_VIS
  5
900
 10
5.80555
 20
4.03552
 30
0.000000
  70
    32
  0
VERTEX
  8
AM_VIS
  5
901
 10
5.80534
 20
4.03381
 30
0.000000
  70
    32
  0
VERTEX
  8
AM_VIS
  5
902
 10
5.80513
 20
4.03209
 30
0.000000
  70
    32
  0
VERTEX
  8
AM_VIS
  5
903
 10
5.80494
 20
4.03038
 30
0.000000
  70
    32
  0
VERTEX
  8
AM_VIS
  5
904
 10
5.80475
 20
4.02867
 30
0.000000
  70
    32
  0
VERTEX
  8
AM_VIS
  5
905
 10
5.80458
 20
4.02696
 30
0.000000
  70
    32
  0
VERTEX
  8
AM_VIS
  5
906
 10
5.80441
 20
4.02525
 30
0.000000
  70
    32
  0
VERTEX
  8
AM_VIS
  5
907
 10
5.80425
 20
4.02354
 30
0.000000
  70
    32
  0
VERTEX
  8
AM_VIS
  5
908
 10
5.80411
 20
4.02183
 30
0.000000
  70
    32
  0
VERTEX
  8
AM_VIS
  5
909
 10
5.80397
 20
4.02013
 30
0.000000
  70
    32
  0
VERTEX
  8
AM_VIS
  5
90A
 10
5.80384
 20
4.01842
 30
0.000000
  70
    32
  0
VERTEX
  8
AM_VIS
  5
90B
 10
5.80372
 20
4.01672
 30
0.000000
  70
    32
  0
VERTEX
  8
AM_VIS
  5
90C
 10
5.80361
 20
4.01502
 30
0.000000
  70
    32
  0
VERTEX
  8
AM_VIS
  5
90D
 10
5.80351
 20
4.01332
 30
0.000000
  70
    32
  0
VERTEX
  8
AM_VIS
  5
90E
 10
5.80342
 20
4.01163
 30
0.000000
  70
    32
  0
VERTEX
  8
AM_VIS
  5
90F
 10
5.80334
 20
4.00994
 30
0.000000
  70
    32
  0
VERTEX
  8
AM_VIS
  5
910
 10
5.80326
 20
4.00825
 30
0.000000
  70
    32
  0
VERTEX
  8
AM_VIS
  5
911
 10
5.80320
 20
4.00656
 30
0.000000
  70
    32
  0
VERTEX
  8
AM_VIS
  5
912
 10
5.80315
 20
4.00487
 30
0.000000
  70
    32
  0
VERTEX
  8
AM_VIS
  5
913
 10
5.80310
 20
4.00319
 30
0.000000
  70
    32
  0
VERTEX
  8
AM_VIS
  5
914
 10
5.80307
 20
4.00151
 30
0.000000
  70
    32
  0
VERTEX
  8
AM_VIS
  5
915
 10
5.80304
 20
3.99983
 30
0.000000
  70
    32
  0
VERTEX
  8
AM_VIS
  5
916
 10
5.80302
 20
3.99816
 30
0.000000
  70
    32
  0
VERTEX
  8
AM_VIS
  5
917
 10
5.80302
 20
3.99649
 30
0.000000
  70
    32
  0
VERTEX
  8
AM_VIS
  5
918
 10
5.80302
 20
3.99482
 30
0.000000
  70
    32
  0
VERTEX
  8
AM_VIS
  5
919
 10
5.80303
 20
3.99315
 30
0.000000
  70
    32
  0
VERTEX
  8
AM_VIS
  5
91A
 10
5.80305
 20
3.99147
 30
0.000000
  70
    32
  0
VERTEX
  8
AM_VIS
  5
91B
 10
5.80308
 20
3.98980
 30
0.000000
  70
    32
  0
VERTEX
  8
AM_VIS
  5
91C
 10
5.80312
 20
3.98812
 30
0.000000
  70
    32
  0
VERTEX
  8
AM_VIS
  5
91D
 10
5.80317
 20
3.98643
 30
0.000000
  70
    32
  0
VERTEX
  8
AM_VIS
  5
91E
 10
5.80323
 20
3.98474
 30
0.000000
  70
    32
  0
VERTEX
  8
AM_VIS
  5
91F
 10
5.80330
 20
3.98306
 30
0.000000
  70
    32
  0
VERTEX
  8
AM_VIS
  5
920
 10
5.80337
 20
3.98136
 30
0.000000
  70
    32
  0
VERTEX
  8
AM_VIS
  5
921
 10
5.80346
 20
3.97967
 30
0.000000
  70
    32
  0
VERTEX
  8
AM_VIS
  5
922
 10
5.80356
 20
3.97797
 30
0.000000
  70
    32
  0
VERTEX
  8
AM_VIS
  5
923
 10
5.80366
 20
3.97628
 30
0.000000
  70
    32
  0
VERTEX
  8
AM_VIS
  5
924
 10
5.80378
 20
3.97457
 30
0.000000
  70
    32
  0
VERTEX
  8
AM_VIS
  5
925
 10
5.80390
 20
3.97287
 30
0.000000
  70
    32
  0
VERTEX
  8
AM_VIS
  5
926
 10
5.80404
 20
3.97117
 30
0.000000
  70
    32
  0
VERTEX
  8
AM_VIS
  5
927
 10
5.80418
 20
3.96946
 30
0.000000
  70
    32
  0
VERTEX
  8
AM_VIS
  5
928
 10
5.80433
 20
3.96775
 30
0.000000
  70
    32
  0
VERTEX
  8
AM_VIS
  5
929
 10
5.80449
 20
3.96605
 30
0.000000
  70
    32
  0
VERTEX
  8
AM_VIS
  5
92A
 10
5.80466
 20
3.96434
 30
0.000000
  70
    32
  0
VERTEX
  8
AM_VIS
  5
92B
 10
5.80485
 20
3.96262
 30
0.000000
  70
    32
  0
VERTEX
  8
AM_VIS
  5
92C
 10
5.80504
 20
3.96091
 30
0.000000
  70
    32
  0
VERTEX
  8
AM_VIS
  5
92D
 10
5.80524
 20
3.95920
 30
0.000000
  70
    32
  0
VERTEX
  8
AM_VIS
  5
92E
 10
5.80544
 20
3.95748
 30
0.000000
  70
    32
  0
VERTEX
  8
AM_VIS
  5
92F
 10
5.80566
 20
3.95577
 30
0.000000
  70
    32
  0
VERTEX
  8
AM_VIS
  5
930
 10
5.80589
 20
3.95405
 30
0.000000
  70
    32
  0
VERTEX
  8
AM_VIS
  5
931
 10
5.80613
 20
3.95233
 30
0.000000
  70
    32
  0
VERTEX
  8
AM_VIS
  5
932
 10
5.80638
 20
3.95061
 30
0.000000
  70
    32
  0
VERTEX
  8
AM_VIS
  5
933
 10
5.80663
 20
3.94890
 30
0.000000
  70
    32
  0
VERTEX
  8
AM_VIS
  5
934
 10
5.80690
 20
3.94718
 30
0.000000
  70
    32
  0
VERTEX
  8
AM_VIS
  5
935
 10
5.80718
 20
3.94546
 30
0.000000
  70
    32
  0
VERTEX
  8
AM_VIS
  5
936
 10
5.80746
 20
3.94374
 30
0.000000
  70
    32
  0
VERTEX
  8
AM_VIS
  5
937
 10
5.80775
 20
3.94202
 30
0.000000
  70
    32
  0
VERTEX
  8
AM_VIS
  5
938
 10
5.80806
 20
3.94030
 30
0.000000
  70
    32
  0
VERTEX
  8
AM_VIS
  5
939
 10
5.80837
 20
3.93859
 30
0.000000
  70
    32
  0
VERTEX
  8
AM_VIS
  5
93A
 10
5.80870
 20
3.93687
 30
0.000000
  70
    32
  0
VERTEX
  8
AM_VIS
  5
93B
 10
5.80903
 20
3.93515
 30
0.000000
  70
    32
  0
VERTEX
  8
AM_VIS
  5
93C
 10
5.80937
 20
3.93343
 30
0.000000
  70
    32
  0
VERTEX
  8
AM_VIS
  5
93D
 10
5.80972
 20
3.93172
 30
0.000000
  70
    32
  0
VERTEX
  8
AM_VIS
  5
93E
 10
5.81008
 20
3.93000
 30
0.000000
  70
    32
  0
VERTEX
  8
AM_VIS
  5
93F
 10
5.81046
 20
3.92829
 30
0.000000
  70
    32
  0
VERTEX
  8
AM_VIS
  5
940
 10
5.81084
 20
3.92657
 30
0.000000
  70
    32
  0
VERTEX
  8
AM_VIS
  5
941
 10
5.81123
 20
3.92486
 30
0.000000
  70
    32
  0
VERTEX
  8
AM_VIS
  5
942
 10
5.81163
 20
3.92315
 30
0.000000
  70
    32
  0
VERTEX
  8
AM_VIS
  5
943
 10
5.81203
 20
3.92144
 30
0.000000
  70
    32
  0
VERTEX
  8
AM_VIS
  5
944
 10
5.81245
 20
3.91973
 30
0.000000
  70
    32
  0
VERTEX
  8
AM_VIS
  5
945
 10
5.81288
 20
3.91803
 30
0.000000
  70
    32
  0
VERTEX
  8
AM_VIS
  5
946
 10
5.81332
 20
3.91632
 30
0.000000
  70
    32
  0
VERTEX
  8
AM_VIS
  5
947
 10
5.81377
 20
3.91462
 30
0.000000
  70
    32
  0
VERTEX
  8
AM_VIS
  5
948
 10
5.81423
 20
3.91291
 30
0.000000
  70
    32
  0
VERTEX
  8
AM_VIS
  5
949
 10
5.81469
 20
3.91122
 30
0.000000
  70
    32
  0
VERTEX
  8
AM_VIS
  5
94A
 10
5.81517
 20
3.90952
 30
0.000000
  70
    32
  0
VERTEX
  8
AM_VIS
  5
94B
 10
5.81565
 20
3.90782
 30
0.000000
  70
    32
  0
VERTEX
  8
AM_VIS
  5
94C
 10
5.81615
 20
3.90613
 30
0.000000
  70
    32
  0
VERTEX
  8
AM_VIS
  5
94D
 10
5.81666
 20
3.90444
 30
0.000000
  70
    32
  0
VERTEX
  8
AM_VIS
  5
94E
 10
5.81717
 20
3.90275
 30
0.000000
  70
    32
  0
VERTEX
  8
AM_VIS
  5
94F
 10
5.81770
 20
3.90106
 30
0.000000
  70
    32
  0
VERTEX
  8
AM_VIS
  5
950
 10
5.81823
 20
3.89938
 30
0.000000
  70
    32
  0
VERTEX
  8
AM_VIS
  5
951
 10
5.81877
 20
3.89770
 30
0.000000
  70
    32
  0
VERTEX
  8
AM_VIS
  5
952
 10
5.81933
 20
3.89603
 30
0.000000
  70
    32
  0
VERTEX
  8
AM_VIS
  5
953
 10
5.81989
 20
3.89435
 30
0.000000
  70
    32
  0
VERTEX
  8
AM_VIS
  5
954
 10
5.82046
 20
3.89268
 30
0.000000
  70
    32
  0
VERTEX
  8
AM_VIS
  5
955
 10
5.82105
 20
3.89101
 30
0.000000
  70
    32
  0
VERTEX
  8
AM_VIS
  5
956
 10
5.82164
 20
3.88935
 30
0.000000
  70
    32
  0
VERTEX
  8
AM_VIS
  5
957
 10
5.82224
 20
3.88769
 30
0.000000
  70
    32
  0
VERTEX
  8
AM_VIS
  5
958
 10
5.82285
 20
3.88603
 30
0.000000
  70
    32
  0
VERTEX
  8
AM_VIS
  5
959
 10
5.82347
 20
3.88438
 30
0.000000
  70
    32
  0
VERTEX
  8
AM_VIS
  5
95A
 10
5.82411
 20
3.88273
 30
0.000000
  70
    32
  0
VERTEX
  8
AM_VIS
  5
95B
 10
5.82475
 20
3.88108
 30
0.000000
  70
    32
  0
VERTEX
  8
AM_VIS
  5
95C
 10
5.82540
 20
3.87944
 30
0.000000
  70
    32
  0
VERTEX
  8
AM_VIS
  5
95D
 10
5.82606
 20
3.87781
 30
0.000000
  70
    32
  0
VERTEX
  8
AM_VIS
  5
95E
 10
5.82673
 20
3.87617
 30
0.000000
  70
    32
  0
VERTEX
  8
AM_VIS
  5
95F
 10
5.82741
 20
3.87454
 30
0.000000
  70
    32
  0
VERTEX
  8
AM_VIS
  5
960
 10
5.82809
 20
3.87292
 30
0.000000
  70
    32
  0
VERTEX
  8
AM_VIS
  5
961
 10
5.82879
 20
3.87130
 30
0.000000
  70
    32
  0
VERTEX
  8
AM_VIS
  5
962
 10
5.82950
 20
3.86968
 30
0.000000
  70
    32
  0
VERTEX
  8
AM_VIS
  5
963
 10
5.83022
 20
3.86807
 30
0.000000
  70
    32
  0
VERTEX
  8
AM_VIS
  5
964
 10
5.83094
 20
3.86647
 30
0.000000
  70
    32
  0
VERTEX
  8
AM_VIS
  5
965
 10
5.83168
 20
3.86486
 30
0.000000
  70
    32
  0
VERTEX
  8
AM_VIS
  5
966
 10
5.83242
 20
3.86327
 30
0.000000
  70
    32
  0
VERTEX
  8
AM_VIS
  5
967
 10
5.83317
 20
3.86167
 30
0.000000
  70
    32
  0
VERTEX
  8
AM_VIS
  5
968
 10
5.83393
 20
3.86009
 30
0.000000
  70
    32
  0
VERTEX
  8
AM_VIS
  5
969
 10
5.83470
 20
3.85850
 30
0.000000
  70
    32
  0
VERTEX
  8
AM_VIS
  5
96A
 10
5.83548
 20
3.85693
 30
0.000000
  70
    32
  0
VERTEX
  8
AM_VIS
  5
96B
 10
5.83627
 20
3.85535
 30
0.000000
  70
    32
  0
VERTEX
  8
AM_VIS
  5
96C
 10
5.83707
 20
3.85379
 30
0.000000
  70
    32
  0
VERTEX
  8
AM_VIS
  5
96D
 10
5.83787
 20
3.85223
 30
0.000000
  70
    32
  0
VERTEX
  8
AM_VIS
  5
96E
 10
5.83868
 20
3.85067
 30
0.000000
  70
    32
  0
VERTEX
  8
AM_VIS
  5
96F
 10
5.83950
 20
3.84912
 30
0.000000
  70
    32
  0
VERTEX
  8
AM_VIS
  5
970
 10
5.84033
 20
3.84757
 30
0.000000
  70
    32
  0
VERTEX
  8
AM_VIS
  5
971
 10
5.84117
 20
3.84603
 30
0.000000
  70
    32
  0
VERTEX
  8
AM_VIS
  5
972
 10
5.84201
 20
3.84450
 30
0.000000
  70
    32
  0
VERTEX
  8
AM_VIS
  5
973
 10
5.84287
 20
3.84297
 30
0.000000
  70
    32
  0
VERTEX
  8
AM_VIS
  5
974
 10
5.84373
 20
3.84145
 30
0.000000
  70
    32
  0
VERTEX
  8
AM_VIS
  5
975
 10
5.84460
 20
3.83993
 30
0.000000
  70
    32
  0
VERTEX
  8
AM_VIS
  5
976
 10
5.84547
 20
3.83842
 30
0.000000
  70
    32
  0
VERTEX
  8
AM_VIS
  5
977
 10
5.84636
 20
3.83692
 30
0.000000
  70
    32
  0
VERTEX
  8
AM_VIS
  5
978
 10
5.84725
 20
3.83542
 30
0.000000
  70
    32
  0
VERTEX
  8
AM_VIS
  5
979
 10
5.84815
 20
3.83393
 30
0.000000
  70
    32
  0
VERTEX
  8
AM_VIS
  5
97A
 10
5.84906
 20
3.83244
 30
0.000000
  70
    32
  0
VERTEX
  8
AM_VIS
  5
97B
 10
5.84997
 20
3.83096
 30
0.000000
  70
    32
  0
VERTEX
  8
AM_VIS
  5
97C
 10
5.85089
 20
3.82949
 30
0.000000
  70
    32
  0
VERTEX
  8
AM_VIS
  5
97D
 10
5.85182
 20
3.82802
 30
0.000000
  70
    32
  0
VERTEX
  8
AM_VIS
  5
97E
 10
5.85276
 20
3.82656
 30
0.000000
  70
    32
  0
VERTEX
  8
AM_VIS
  5
97F
 10
5.85370
 20
3.82511
 30
0.000000
  70
    32
  0
VERTEX
  8
AM_VIS
  5
980
 10
5.85465
 20
3.82366
 30
0.000000
  70
    32
  0
VERTEX
  8
AM_VIS
  5
981
 10
5.85561
 20
3.82222
 30
0.000000
  70
    32
  0
VERTEX
  8
AM_VIS
  5
982
 10
5.85657
 20
3.82078
 30
0.000000
  70
    32
  0
VERTEX
  8
AM_VIS
  5
983
 10
5.85754
 20
3.81936
 30
0.000000
  70
    32
  0
VERTEX
  8
AM_VIS
  5
984
 10
5.85852
 20
3.81794
 30
0.000000
  70
    32
  0
VERTEX
  8
AM_VIS
  5
985
 10
5.85951
 20
3.81653
 30
0.000000
  70
    32
  0
VERTEX
  8
AM_VIS
  5
986
 10
5.86050
 20
3.81512
 30
0.000000
  70
    32
  0
VERTEX
  8
AM_VIS
  5
987
 10
5.86149
 20
3.81372
 30
0.000000
  70
    32
  0
VERTEX
  8
AM_VIS
  5
988
 10
5.86250
 20
3.81233
 30
0.000000
  70
    32
  0
VERTEX
  8
AM_VIS
  5
989
 10
5.86351
 20
3.81095
 30
0.000000
  70
    32
  0
VERTEX
  8
AM_VIS
  5
98A
 10
5.86452
 20
3.80957
 30
0.000000
  70
    32
  0
VERTEX
  8
AM_VIS
  5
98B
 10
5.86555
 20
3.80820
 30
0.000000
  70
    32
  0
VERTEX
  8
AM_VIS
  5
98C
 10
5.86657
 20
3.80684
 30
0.000000
  70
    32
  0
VERTEX
  8
AM_VIS
  5
98D
 10
5.86761
 20
3.80549
 30
0.000000
  70
    32
  0
VERTEX
  8
AM_VIS
  5
98E
 10
5.86865
 20
3.80414
 30
0.000000
  70
    32
  0
VERTEX
  8
AM_VIS
  5
98F
 10
5.86970
 20
3.80281
 30
0.000000
  70
    32
  0
VERTEX
  8
AM_VIS
  5
990
 10
5.87075
 20
3.80148
 30
0.000000
  70
    32
  0
VERTEX
  8
AM_VIS
  5
991
 10
5.87181
 20
3.80015
 30
0.000000
  70
    32
  0
VERTEX
  8
AM_VIS
  5
992
 10
5.87287
 20
3.79884
 30
0.000000
  70
    32
  0
VERTEX
  8
AM_VIS
  5
993
 10
5.87394
 20
3.79753
 30
0.000000
  70
    32
  0
VERTEX
  8
AM_VIS
  5
994
 10
5.87502
 20
3.79624
 30
0.000000
  70
    32
  0
VERTEX
  8
AM_VIS
  5
995
 10
5.87610
 20
3.79495
 30
0.000000
  70
    32
  0
VERTEX
  8
AM_VIS
  5
996
 10
5.87718
 20
3.79367
 30
0.000000
  70
    32
  0
VERTEX
  8
AM_VIS
  5
997
 10
5.87827
 20
3.79239
 30
0.000000
  70
    32
  0
VERTEX
  8
AM_VIS
  5
998
 10
5.87937
 20
3.79113
 30
0.000000
  70
    32
  0
VERTEX
  8
AM_VIS
  5
999
 10
5.88047
 20
3.78987
 30
0.000000
  70
    32
  0
VERTEX
  8
AM_VIS
  5
99A
 10
5.88158
 20
3.78863
 30
0.000000
  70
    32
  0
VERTEX
  8
AM_VIS
  5
99B
 10
5.88269
 20
3.78739
 30
0.000000
  70
    32
  0
VERTEX
  8
AM_VIS
  5
99C
 10
5.88381
 20
3.78616
 30
0.000000
  70
    32
  0
VERTEX
  8
AM_VIS
  5
99D
 10
5.88493
 20
3.78494
 30
0.000000
  70
    32
  0
VERTEX
  8
AM_VIS
  5
99E
 10
5.88605
 20
3.78373
 30
0.000000
  70
    32
  0
VERTEX
  8
AM_VIS
  5
99F
 10
5.88719
 20
3.78252
 30
0.000000
  70
    32
  0
VERTEX
  8
AM_VIS
  5
9A0
 10
5.88833
 20
3.78132
 30
0.000000
  70
    32
  0
VERTEX
  8
AM_VIS
  5
9A1
 10
5.88948
 20
3.78013
 30
0.000000
  70
    32
  0
VERTEX
  8
AM_VIS
  5
9A2
 10
5.89063
 20
3.77894
 30
0.000000
  70
    32
  0
VERTEX
  8
AM_VIS
  5
9A3
 10
5.89180
 20
3.77776
 30
0.000000
  70
    32
  0
VERTEX
  8
AM_VIS
  5
9A4
 10
5.89298
 20
3.77657
 30
0.000000
  70
    32
  0
VERTEX
  8
AM_VIS
  5
9A5
 10
5.89416
 20
3.77540
 30
0.000000
  70
    32
  0
VERTEX
  8
AM_VIS
  5
9A6
 10
5.89536
 20
3.77423
 30
0.000000
  70
    32
  0
VERTEX
  8
AM_VIS
  5
9A7
 10
5.89656
 20
3.77306
 30
0.000000
  70
    32
  0
VERTEX
  8
AM_VIS
  5
9A8
 10
5.89777
 20
3.77190
 30
0.000000
  70
    32
  0
VERTEX
  8
AM_VIS
  5
9A9
 10
5.89899
 20
3.77074
 30
0.000000
  70
    32
  0
VERTEX
  8
AM_VIS
  5
9AA
 10
5.90022
 20
3.76959
 30
0.000000
  70
    32
  0
VERTEX
  8
AM_VIS
  5
9AB
 10
5.90146
 20
3.76845
 30
0.000000
  70
    32
  0
VERTEX
  8
AM_VIS
  5
9AC
 10
5.90270
 20
3.76731
 30
0.000000
  70
    32
  0
VERTEX
  8
AM_VIS
  5
9AD
 10
5.90396
 20
3.76617
 30
0.000000
  70
    32
  0
VERTEX
  8
AM_VIS
  5
9AE
 10
5.90522
 20
3.76504
 30
0.000000
  70
    32
  0
VERTEX
  8
AM_VIS
  5
9AF
 10
5.90649
 20
3.76392
 30
0.000000
  70
    32
  0
VERTEX
  8
AM_VIS
  5
9B0
 10
5.90777
 20
3.76280
 30
0.000000
  70
    32
  0
VERTEX
  8
AM_VIS
  5
9B1
 10
5.90906
 20
3.76169
 30
0.000000
  70
    32
  0
VERTEX
  8
AM_VIS
  5
9B2
 10
5.91035
 20
3.76058
 30
0.000000
  70
    32
  0
VERTEX
  8
AM_VIS
  5
9B3
 10
5.91165
 20
3.75948
 30
0.000000
  70
    32
  0
VERTEX
  8
AM_VIS
  5
9B4
 10
5.91296
 20
3.75838
 30
0.000000
  70
    32
  0
VERTEX
  8
AM_VIS
  5
9B5
 10
5.91428
 20
3.75729
 30
0.000000
  70
    32
  0
VERTEX
  8
AM_VIS
  5
9B6
 10
5.91561
 20
3.75621
 30
0.000000
  70
    32
  0
VERTEX
  8
AM_VIS
  5
9B7
 10
5.91694
 20
3.75514
 30
0.000000
  70
    32
  0
VERTEX
  8
AM_VIS
  5
9B8
 10
5.91828
 20
3.75407
 30
0.000000
  70
    32
  0
VERTEX
  8
AM_VIS
  5
9B9
 10
5.91963
 20
3.75300
 30
0.000000
  70
    32
  0
VERTEX
  8
AM_VIS
  5
9BA
 10
5.92099
 20
3.75194
 30
0.000000
  70
    32
  0
VERTEX
  8
AM_VIS
  5
9BB
 10
5.92235
 20
3.75089
 30
0.000000
  70
    32
  0
VERTEX
  8
AM_VIS
  5
9BC
 10
5.92372
 20
3.74985
 30
0.000000
  70
    32
  0
VERTEX
  8
AM_VIS
  5
9BD
 10
5.92510
 20
3.74881
 30
0.000000
  70
    32
  0
VERTEX
  8
AM_VIS
  5
9BE
 10
5.92648
 20
3.74778
 30
0.000000
  70
    32
  0
VERTEX
  8
AM_VIS
  5
9BF
 10
5.92788
 20
3.74676
 30
0.000000
  70
    32
  0
VERTEX
  8
AM_VIS
  5
9C0
 10
5.92928
 20
3.74575
 30
0.000000
  70
    32
  0
VERTEX
  8
AM_VIS
  5
9C1
 10
5.93068
 20
3.74474
 30
0.000000
  70
    32
  0
VERTEX
  8
AM_VIS
  5
9C2
 10
5.93210
 20
3.74374
 30
0.000000
  70
    32
  0
VERTEX
  8
AM_VIS
  5
9C3
 10
5.93352
 20
3.74274
 30
0.000000
  70
    32
  0
VERTEX
  8
AM_VIS
  5
9C4
 10
5.93494
 20
3.74176
 30
0.000000
  70
    32
  0
VERTEX
  8
AM_VIS
  5
9C5
 10
5.93638
 20
3.74078
 30
0.000000
  70
    32
  0
VERTEX
  8
AM_VIS
  5
9C6
 10
5.93782
 20
3.73981
 30
0.000000
  70
    32
  0
VERTEX
  8
AM_VIS
  5
9C7
 10
5.93926
 20
3.73884
 30
0.000000
  70
    32
  0
VERTEX
  8
AM_VIS
  5
9C8
 10
5.94072
 20
3.73789
 30
0.000000
  70
    32
  0
VERTEX
  8
AM_VIS
  5
9C9
 10
5.94218
 20
3.73694
 30
0.000000
  70
    32
  0
VERTEX
  8
AM_VIS
  5
9CA
 10
5.94364
 20
3.73600
 30
0.000000
  70
    32
  0
VERTEX
  8
AM_VIS
  5
9CB
 10
5.94512
 20
3.73507
 30
0.000000
  70
    32
  0
VERTEX
  8
AM_VIS
  5
9CC
 10
5.94659
 20
3.73414
 30
0.000000
  70
    32
  0
VERTEX
  8
AM_VIS
  5
9CD
 10
5.94808
 20
3.73323
 30
0.000000
  70
    32
  0
VERTEX
  8
AM_VIS
  5
9CE
 10
5.94957
 20
3.73232
 30
0.000000
  70
    32
  0
VERTEX
  8
AM_VIS
  5
9CF
 10
5.95107
 20
3.73142
 30
0.000000
  70
    32
  0
VERTEX
  8
AM_VIS
  5
9D0
 10
5.95257
 20
3.73053
 30
0.000000
  70
    32
  0
VERTEX
  8
AM_VIS
  5
9D1
 10
5.95408
 20
3.72965
 30
0.000000
  70
    32
  0
VERTEX
  8
AM_VIS
  5
9D2
 10
5.95559
 20
3.72878
 30
0.000000
  70
    32
  0
VERTEX
  8
AM_VIS
  5
9D3
 10
5.95711
 20
3.72791
 30
0.000000
  70
    32
  0
VERTEX
  8
AM_VIS
  5
9D4
 10
5.95864
 20
3.72706
 30
0.000000
  70
    32
  0
VERTEX
  8
AM_VIS
  5
9D5
 10
5.96017
 20
3.72621
 30
0.000000
  70
    32
  0
VERTEX
  8
AM_VIS
  5
9D6
 10
5.96171
 20
3.72537
 30
0.000000
  70
    32
  0
VERTEX
  8
AM_VIS
  5
9D7
 10
5.96325
 20
3.72455
 30
0.000000
  70
    32
  0
VERTEX
  8
AM_VIS
  5
9D8
 10
5.96480
 20
3.72373
 30
0.000000
  70
    32
  0
VERTEX
  8
AM_VIS
  5
9D9
 10
5.96635
 20
3.72292
 30
0.000000
  70
    32
  0
VERTEX
  8
AM_VIS
  5
9DA
 10
5.96791
 20
3.72212
 30
0.000000
  70
    32
  0
VERTEX
  8
AM_VIS
  5
9DB
 10
5.96948
 20
3.72133
 30
0.000000
  70
    32
  0
VERTEX
  8
AM_VIS
  5
9DC
 10
5.97105
 20
3.72055
 30
0.000000
  70
    32
  0
VERTEX
  8
AM_VIS
  5
9DD
 10
5.97262
 20
3.71977
 30
0.000000
  70
    32
  0
VERTEX
  8
AM_VIS
  5
9DE
 10
5.97420
 20
3.71901
 30
0.000000
  70
    32
  0
VERTEX
  8
AM_VIS
  5
9DF
 10
5.97578
 20
3.71826
 30
0.000000
  70
    32
  0
VERTEX
  8
AM_VIS
  5
9E0
 10
5.97737
 20
3.71752
 30
0.000000
  70
    32
  0
VERTEX
  8
AM_VIS
  5
9E1
 10
5.97897
 20
3.71679
 30
0.000000
  70
    32
  0
VERTEX
  8
AM_VIS
  5
9E2
 10
5.98056
 20
3.71606
 30
0.000000
  70
    32
  0
VERTEX
  8
AM_VIS
  5
9E3
 10
5.98217
 20
3.71535
 30
0.000000
  70
    32
  0
VERTEX
  8
AM_VIS
  5
9E4
 10
5.98378
 20
3.71465
 30
0.000000
  70
    32
  0
VERTEX
  8
AM_VIS
  5
9E5
 10
5.98539
 20
3.71396
 30
0.000000
  70
    32
  0
VERTEX
  8
AM_VIS
  5
9E6
 10
5.98700
 20
3.71328
 30
0.000000
  70
    32
  0
VERTEX
  8
AM_VIS
  5
9E7
 10
5.98863
 20
3.71261
 30
0.000000
  70
    32
  0
VERTEX
  8
AM_VIS
  5
9E8
 10
5.99025
 20
3.71195
 30
0.000000
  70
    32
  0
VERTEX
  8
AM_VIS
  5
9E9
 10
5.99188
 20
3.71130
 30
0.000000
  70
    32
  0
VERTEX
  8
AM_VIS
  5
9EA
 10
5.99351
 20
3.71066
 30
0.000000
  70
    32
  0
VERTEX
  8
AM_VIS
  5
9EB
 10
5.99515
 20
3.71003
 30
0.000000
  70
    32
  0
VERTEX
  8
AM_VIS
  5
9EC
 10
5.99679
 20
3.70941
 30
0.000000
  70
    32
  0
VERTEX
  8
AM_VIS
  5
9ED
 10
5.99844
 20
3.70880
 30
0.000000
  70
    32
  0
VERTEX
  8
AM_VIS
  5
9EE
 10
6.00008
 20
3.70820
 30
0.000000
  70
    32
  0
VERTEX
  8
AM_VIS
  5
9EF
 10
6.00174
 20
3.70762
 30
0.000000
  70
    32
  0
VERTEX
  8
AM_VIS
  5
9F0
 10
6.00339
 20
3.70704
 30
0.000000
  70
    32
  0
VERTEX
  8
AM_VIS
  5
9F1
 10
6.00505
 20
3.70647
 30
0.000000
  70
    32
  0
VERTEX
  8
AM_VIS
  5
9F2
 10
6.00671
 20
3.70591
 30
0.000000
  70
    32
  0
VERTEX
  8
AM_VIS
  5
9F3
 10
6.00837
 20
3.70537
 30
0.000000
  70
    32
  0
VERTEX
  8
AM_VIS
  5
9F4
 10
6.01004
 20
3.70483
 30
0.000000
  70
    32
  0
VERTEX
  8
AM_VIS
  5
9F5
 10
6.01171
 20
3.70430
 30
0.000000
  70
    32
  0
VERTEX
  8
AM_VIS
  5
9F6
 10
6.01338
 20
3.70379
 30
0.000000
  70
    32
  0
VERTEX
  8
AM_VIS
  5
9F7
 10
6.01506
 20
3.70328
 30
0.000000
  70
    32
  0
VERTEX
  8
AM_VIS
  5
9F8
 10
6.01674
 20
3.70279
 30
0.000000
  70
    32
  0
VERTEX
  8
AM_VIS
  5
9F9
 10
6.01842
 20
3.70230
 30
0.000000
  70
    32
  0
VERTEX
  8
AM_VIS
  5
9FA
 10
6.02010
 20
3.70183
 30
0.000000
  70
    32
  0
VERTEX
  8
AM_VIS
  5
9FB
 10
6.02178
 20
3.70136
 30
0.000000
  70
    32
  0
VERTEX
  8
AM_VIS
  5
9FC
 10
6.02347
 20
3.70091
 30
0.000000
  70
    32
  0
VERTEX
  8
AM_VIS
  5
9FD
 10
6.02516
 20
3.70047
 30
0.000000
  70
    32
  0
VERTEX
  8
AM_VIS
  5
9FE
 10
6.02685
 20
3.70003
 30
0.000000
  70
    32
  0
VERTEX
  8
AM_VIS
  5
9FF
 10
6.02854
 20
3.69961
 30
0.000000
  70
    32
  0
VERTEX
  8
AM_VIS
  5
A00
 10
6.03023
 20
3.69920
 30
0.000000
  70
    32
  0
VERTEX
  8
AM_VIS
  5
A01
 10
6.03193
 20
3.69880
 30
0.000000
  70
    32
  0
VERTEX
  8
AM_VIS
  5
A02
 10
6.03362
 20
3.69841
 30
0.000000
  70
    32
  0
VERTEX
  8
AM_VIS
  5
A03
 10
6.03532
 20
3.69803
 30
0.000000
  70
    32
  0
VERTEX
  8
AM_VIS
  5
A04
 10
6.03702
 20
3.69766
 30
0.000000
  70
    32
  0
VERTEX
  8
AM_VIS
  5
A05
 10
6.03872
 20
3.69730
 30
0.000000
  70
    32
  0
VERTEX
  8
AM_VIS
  5
A06
 10
6.04042
 20
3.69695
 30
0.000000
  70
    32
  0
VERTEX
  8
AM_VIS
  5
A07
 10
6.04212
 20
3.69661
 30
0.000000
  70
    32
  0
VERTEX
  8
AM_VIS
  5
A08
 10
6.04382
 20
3.69628
 30
0.000000
  70
    32
  0
VERTEX
  8
AM_VIS
  5
A09
 10
6.04552
 20
3.69596
 30
0.000000
  70
    32
  0
VERTEX
  8
AM_VIS
  5
A0A
 10
6.04722
 20
3.69565
 30
0.000000
  70
    32
  0
VERTEX
  8
AM_VIS
  5
A0B
 10
6.04893
 20
3.69535
 30
0.000000
  70
    32
  0
VERTEX
  8
AM_VIS
  5
A0C
 10
6.05063
 20
3.69506
 30
0.000000
  70
    32
  0
VERTEX
  8
AM_VIS
  5
A0D
 10
6.05233
 20
3.69479
 30
0.000000
  70
    32
  0
VERTEX
  8
AM_VIS
  5
A0E
 10
6.05404
 20
3.69452
 30
0.000000
  70
    32
  0
VERTEX
  8
AM_VIS
  5
A0F
 10
6.05574
 20
3.69427
 30
0.000000
  70
    32
  0
VERTEX
  8
AM_VIS
  5
A10
 10
6.05745
 20
3.69402
 30
0.000000
  70
    32
  0
VERTEX
  8
AM_VIS
  5
A11
 10
6.05915
 20
3.69378
 30
0.000000
  70
    32
  0
VERTEX
  8
AM_VIS
  5
A12
 10
6.06085
 20
3.69356
 30
0.000000
  70
    32
  0
VERTEX
  8
AM_VIS
  5
A13
 10
6.06255
 20
3.69334
 30
0.000000
  70
    32
  0
VERTEX
  8
AM_VIS
  5
A14
 10
6.06425
 20
3.69314
 30
0.000000
  70
    32
  0
VERTEX
  8
AM_VIS
  5
A15
 10
6.06596
 20
3.69295
 30
0.000000
  70
    32
  0
VERTEX
  8
AM_VIS
  5
A16
 10
6.06766
 20
3.69276
 30
0.000000
  70
    32
  0
VERTEX
  8
AM_VIS
  5
A17
 10
6.06935
 20
3.69259
 30
0.000000
  70
    32
  0
VERTEX
  8
AM_VIS
  5
A18
 10
6.07105
 20
3.69243
 30
0.000000
  70
    32
  0
VERTEX
  8
AM_VIS
  5
A19
 10
6.07275
 20
3.69228
 30
0.000000
  70
    32
  0
VERTEX
  8
AM_VIS
  5
A1A
 10
6.07445
 20
3.69214
 30
0.000000
  70
    32
  0
VERTEX
  8
AM_VIS
  5
A1B
 10
6.07614
 20
3.69200
 30
0.000000
  70
    32
  0
VERTEX
  8
AM_VIS
  5
A1C
 10
6.07783
 20
3.69188
 30
0.000000
  70
    32
  0
VERTEX
  8
AM_VIS
  5
A1D
 10
6.07952
 20
3.69177
 30
0.000000
  70
    32
  0
VERTEX
  8
AM_VIS
  5
A1E
 10
6.08121
 20
3.69167
 30
0.000000
  70
    32
  0
VERTEX
  8
AM_VIS
  5
A1F
 10
6.08290
 20
3.69159
 30
0.000000
  70
    32
  0
VERTEX
  8
AM_VIS
  5
A20
 10
6.08459
 20
3.69151
 30
0.000000
  70
    32
  0
VERTEX
  8
AM_VIS
  5
A21
 10
6.08627
 20
3.69144
 30
0.000000
  70
    32
  0
VERTEX
  8
AM_VIS
  5
A22
 10
6.08795
 20
3.69138
 30
0.000000
  70
    32
  0
VERTEX
  8
AM_VIS
  5
A23
 10
6.08963
 20
3.69133
 30
0.000000
  70
    32
  0
VERTEX
  8
AM_VIS
  5
A24
 10
6.09131
 20
3.69130
 30
0.000000
  70
    32
  0
VERTEX
  8
AM_VIS
  5
A25
 10
6.09298
 20
3.69127
 30
0.000000
  70
    32
  0
VERTEX
  8
AM_VIS
  5
A26
 10
6.09466
 20
3.69126
 30
0.000000
  70
    32
  0
VERTEX
  8
AM_VIS
  5
A27
 10
6.09632
 20
3.69125
 30
0.000000
  70
    32
  0
SEQEND
  8
AM_VIS
  5
A28
  0
LINE
  5
4A
  8
AM_VIS
 10
6.0128006952188624
 20
4.1407404328271786
 30
0.0
 11
6.1798479717984689
 21
4.1407404328271786
 31
0.0
  0
LINE
  5
4B
  8
AM_VIS
 10
6.1798479717984689
 20
4.1407404328271804
 30
0.0
 11
6.2633716100882717
 21
3.9960732476762351
 31
0.0
  0
LINE
  5
4C
  8
AM_VIS
 10
6.2633716100882726
 20
3.9960732476762342
 30
0.0
 11
6.1798479717984689
 21
3.8514060625252902
 31
0.0
  0
LINE
  5
4D
  8
AM_VIS
 10
6.1798479717984689
 20
3.8514060625252902
 30
0.0
 11
6.0128006952188624
 21
3.8514060625252902
 31
0.0
  0
LINE
  5
4E
  8
AM_VIS
 10
5.9292770569290578
 20
3.9960732476762342
 30
0.0
 11
6.0128006952188624
 21
4.1407404328271804
 31
0.0
  0
LINE
  5
4F
  8
AM_VIS
 10
6.0128006952188624
 20
3.8514060625252902
 30
0.0
 11
5.9292770569290587
 21
3.9960732476762351
 31
0.0
  0
CIRCLE
  5
50
  8
AM_VIS
 10
6.0963243335086652
 20
3.9960732476762342
 30
0.0
 40
0.28125
  0
LINE
  5
51
  8
AM_HID
 10
7.0809891247704142
 20
5.7679482476762338
 30
0.0
 11
6.630989124770414
 21
5.7679482476762338
 31
0.0
  0
LINE
  5
52
  8
AM_HID
 10
7.0809891247704142
 20
6.2741982476762352
 30
0.0
 11
6.630989124770414
 21
6.2741982476762352
 31
0.0
  0
LINE
  5
53
  8
AM_HID
 10
7.0809891247704142
 20
1.717948247676234
 30
0.0
 11
6.630989124770414
 21
1.717948247676234
 31
0.0
  0
LINE
  5
54
  8
AM_HID
 10
7.0809891247704142
 20
2.2241982476762341
 30
0.0
 11
6.630989124770414
 21
2.2241982476762341
 31
0.0
  0
LINE
  5
55
  8
AM_VIS
 10
7.0809891247704142
 20
1.2398232476762341
 30
0.0
 11
6.630989124770414
 21
1.2398232476762341
 31
0.0
  0
LINE
  5
56
  8
AM_VIS
 10
7.0809891247704142
 20
6.7523232476762347
 30
0.0
 11
6.630989124770414
 21
6.7523232476762347
 31
0.0
  0
LINE
  5
57
  8
AM_VIS
 10
6.630989124770414
 20
2.8935732476762341
 30
0.0
 11
3.930989124770413
 21
2.8935732476762341
 31
0.0
  0
LINE
  5
58
  8
AM_VIS
 10
6.630989124770414
 20
5.0985732476762342
 30
0.0
 11
3.930989124770413
 21
5.0985732476762342
 31
0.0
  0
LINE
  5
59
  8
AM_HID
 10
3.930989124770413
 20
4.8735732476762337
 30
0.0
 11
7.0809891247704142
 21
4.8735732476762337
 31
0.0
  0
LINE
  5
5A
  8
AM_HID
 10
3.930989124770413
 20
3.1185732476762338
 30
0.0
 11
7.0809891247704142
 21
3.1185732476762338
 31
0.0
  0
LINE
  5
15D
  8
0
 10
7.1372391247704128
 20
6.7523232476762347
 30
0.0
 11
8.683666167394211
 21
6.7523232476762347
 31
0.0
  0
LINE
  5
15E
  8
0
 10
7.1372391247704128
 20
1.2398232476762341
 30
0.0
 11
8.6836661673942075
 21
1.239823247676233
 31
0.0
  0
LINE
  5
15F
  8
0
 10
8.5216661673942102
 20
6.6398232476762349
 30
0.0
 11
8.5216661673942102
 21
4.3101089619619479
 31
0.0
  0
LINE
  5
160
  8
0
 10
8.5216661673942085
 20
1.352323247676233
 30
0.0
 11
8.5216661673942085
 21
3.68203753339052
 31
0.0
  0
SOLID
  5
161
  8
0
 10
8.5029161673942095
 20
6.6398232476762349
 30
0.0
 11
8.5404161673942092
 21
6.6398232476762349
 31
0.0
 12
8.5216661673942102
 22
6.7523232476762347
 32
0.0
 13
8.5216661673942102
 23
6.7523232476762347
 33
0.0
  0
SOLID
  5
162
  8
0
 10
8.5029161673942077
 20
1.352323247676233
 30
0.0
 11
8.5404161673942092
 21
1.352323247676233
 31
0.0
 12
8.5216661673942085
 22
1.239823247676233
 32
0.0
 13
8.5216661673942085
 23
1.239823247676233
 33
0.0
  0
INSERT
  5
163
  8
0
  2
*U2
 10
0.0
 20
0.0
 30
0.0
  0
ENDSEC
  0
EOF
