  0
SECTION
  2
HEADER
  9
$ACADVER
  1
AC1009
  9
$INSBASE
 10
0.0
 20
0.0
 30
0.0
  9
$EXTMIN
 10
-0.1612654972088272
 20
1.4992766837003879
 30
0.0
  9
$EXTMAX
 10
8.1828356234292396
 20
6.4654879337003903
 30
0.0
  9
$LIMMIN
 10
0.0
 20
0.0
  9
$LIMMAX
 10
12.0
 20
9.0
  9
$ORTHOMODE
 70
     1
  9
$REGENMODE
 70
     0
  9
$FILLMODE
 70
     1
  9
$QTEXTMODE
 70
     0
  9
$MIRRTEXT
 70
     0
  9
$DRAGMODE
 70
     2
  9
$LTSCALE
 40
1.0
  9
$OSMODE
 70
    55
  9
$ATTMODE
 70
     1
  9
$TEXTSIZE
 40
0.12
  9
$TRACEWID
 40
0.05
  9
$TEXTSTYLE
  7
ADESK1
  9
$CLAYER
  8
0
  9
$CELTYPE
  6
BYLAYER
  9
$CECOLOR
 62
   256
  9
$DIMSCALE
 40
1.0
  9
$DIMASZ
 40
0.125
  9
$DIMEXO
 40
0.0625
  9
$DIMDLI
 40
0.38
  9
$DIMRND
 40
0.0
  9
$DIMDLE
 40
0.0
  9
$DIMEXE
 40
0.18
  9
$DIMTP
 40
0.0
  9
$DIMTM
 40
0.0
  9
$DIMTXT
 40
0.09375
  9
$DIMCEN
 40
-0.125
  9
$DIMTSZ
 40
0.0
  9
$DIMTOL
 70
     0
  9
$DIMLIM
 70
     0
  9
$DIMTIH
 70
     0
  9
$DIMTOH
 70
     0
  9
$DIMSE1
 70
     0
  9
$DIMSE2
 70
     0
  9
$DIMTAD
 70
     0
  9
$DIMZIN
 70
     3
  9
$DIMBLK
  1

  9
$DIMASO
 70
     0
  9
$DIMSHO
 70
     1
  9
$DIMPOST
  1

  9
$DIMAPOST
  1

  9
$DIMALT
 70
     0
  9
$DIMALTD
 70
     2
  9
$DIMALTF
 40
25.399999999999999
  9
$DIMLFAC
 40
1.0
  9
$DIMTOFL
 70
     1
  9
$DIMTVP
 40
0.0
  9
$DIMTIX
 70
     0
  9
$DIMSOXD
 70
     0
  9
$DIMSAH
 70
     0
  9
$DIMBLK1
  1

  9
$DIMBLK2
  1

  9
$DIMSTYLE
  2
STANDARD
  9
$DIMCLRD
 70
     0
  9
$DIMCLRE
 70
     0
  9
$DIMCLRT
 70
     0
  9
$DIMTFAC
 40
1.0
  9
$DIMGAP
 40
0.09
  9
$LUNITS
 70
     4
  9
$LUPREC
 70
     4
  9
$SKETCHINC
 40
0.1
  9
$FILLETRAD
 40
0.0
  9
$AUNITS
 70
     0
  9
$AUPREC
 70
     4
  9
$MENU
  1
.
  9
$ELEVATION
 40
0.0
  9
$PELEVATION
 40
0.0
  9
$THICKNESS
 40
0.0
  9
$LIMCHECK
 70
     0
  9
$BLIPMODE
 70
     0
  9
$CHAMFERA
 40
0.5
  9
$CHAMFERB
 40
0.5
  9
$SKPOLY
 70
     0
  9
$TDCREATE
 40
2451065.3838062501
  9
$TDUPDATE
 40
2453913.5783395371
  9
$TDINDWG
 40
0.0447368403
  9
$TDUSRTIMER
 40
0.0447368403
  9
$USRTIMER
 70
     1
  9
$ANGBASE
 50
0.0
  9
$ANGDIR
 70
     0
  9
$PDMODE
 70
    34
  9
$PDSIZE
 40
3.0
  9
$PLINEWID
 40
0.0
  9
$COORDS
 70
     1
  9
$SPLFRAME
 70
     0
  9
$SPLINETYPE
 70
     6
  9
$SPLINESEGS
 70
     8
  9
$ATTDIA
 70
     0
  9
$ATTREQ
 70
     1
  9
$HANDLING
 70
     1
  9
$HANDSEED
  5
A4D
  9
$SURFTAB1
 70
     6
  9
$SURFTAB2
 70
     6
  9
$SURFTYPE
 70
     6
  9
$SURFU
 70
     6
  9
$SURFV
 70
     6
  9
$UCSNAME
  2

  9
$UCSORG
 10
0.0
 20
0.0
 30
0.0
  9
$UCSXDIR
 10
1.0
 20
0.0
 30
0.0
  9
$UCSYDIR
 10
0.0
 20
1.0
 30
0.0
  9
$PUCSNAME
  2

  9
$PUCSORG
 10
0.0
 20
0.0
 30
0.0
  9
$PUCSXDIR
 10
1.0
 20
0.0
 30
0.0
  9
$PUCSYDIR
 10
0.0
 20
1.0
 30
0.0
  9
$USERI1
 70
     0
  9
$USERI2
 70
     0
  9
$USERI3
 70
     0
  9
$USERI4
 70
     0
  9
$USERI5
 70
     0
  9
$USERR1
 40
0.0
  9
$USERR2
 40
0.0
  9
$USERR3
 40
0.0
  9
$USERR4
 40
0.0
  9
$USERR5
 40
0.0
  9
$WORLDVIEW
 70
     1
  9
$SHADEDGE
 70
     3
  9
$SHADEDIF
 70
    70
  9
$TILEMODE
 70
     1
  9
$MAXACTVP
 70
    48
  9
$PLIMCHECK
 70
     0
  9
$PEXTMIN
 10
-1.1446599331660541
 20
0.4295024061808679
 30
0.0
  9
$PEXTMAX
 10
8.1156561371072335
 20
7.5670024061808698
 30
0.0
  9
$PLIMMIN
 10
-0.1579164520023376
 20
-0.2812499887361301
  9
$PLIMMAX
 10
10.84208330770177
 20
8.2187497709679782
  9
$UNITMODE
 70
     0
  9
$VISRETAIN
 70
     1
  9
$PLINEGEN
 70
     0
  9
$PSLTSCALE
 70
     1
  0
ENDSEC
  0
SECTION
  2
TABLES
  0
TABLE
  2
VPORT
 70
     2
  0
VPORT
  2
*ACTIVE
 70
     0
 10
0.0
 20
0.0
 11
1.0
 21
1.0
 12
2.9738474232497492
 22
0.9696237919095654
 13
0.0
 23
0.0
 14
0.5
 24
0.5
 15
0.5
 25
0.5
 16
0.0
 26
0.0
 36
1.0
 17
5.497749504904605
 27
3.5303762080904351
 37
0.0
 40
9.3364485981308416
 41
2.38716814159292
 42
50.0
 43
0.0
 44
0.0
 50
0.0
 51
0.0
 71
     0
 72
   100
 73
     1
 74
     1
 75
     0
 76
     0
 77
     0
 78
     0
  0
ENDTAB
  0
TABLE
  2
LTYPE
 70
    18
  0
LTYPE
  2
CONTINUOUS
 70
     0
  3
Solid line
 72
    65
 73
     0
 40
0.0
  0
LTYPE
  2
HIDDEN
 70
     0
  3
__ __ __ __ __ __ __ __ __ __ __ __ __ __ __ __
 72
    65
 73
     2
 40
0.375
 49
0.25
 49
-0.125
  0
LTYPE
  2
PHANTOM2
 70
     0
  3
Phantom (.5x) ___ _ _ ___ _ _ ___ _ _ ___ _ _
 72
    65
 73
     6
 40
1.25
 49
0.625
 49
-0.125
 49
0.125
 49
-0.125
 49
0.125
 49
-0.125
  0
LTYPE
  2
CENTER
 70
     0
  3
Center ____ _ ____ _ ____ _ ____ _ ____ _ ____
 72
    65
 73
     4
 40
2.0
 49
1.25
 49
-0.25
 49
0.25
 49
-0.25
  0
LTYPE
  2
ASULTYPE
 70
     0
  3
Solid line
 72
    65
 73
     2
 40
3.0
 49
2.5
 49
0.5
  0
LTYPE
  2
ASVLTYPE
 70
     0
  3
__ __ __ __ __ __ __ __ __ __ __ __ __ __ __ __ __ __ __ __ __
 72
    65
 73
     2
 40
0.75
 49
0.5
 49
-0.25
  0
LTYPE
  2
AM_ISO02W050
 70
     0
  3
__ __ __ __ __ __ __ __ __ __ __ __ __ __ __
 72
    65
 73
     2
 40
7.5
 49
6.0
 49
-1.5
  0
LTYPE
  2
AM_ISO08W050
 70
     0
  3
____ . ____ . ____ . ____ . ____ . ____ . ____
 72
    65
 73
     4
 40
18.0
 49
12.0
 49
-1.5
 49
3.0
 49
-1.5
  0
LTYPE
  2
AM_ISO09W050
 70
     0
  3
_____ . . _____ . . _____ . . ____ .. ____
 72
    65
 73
     6
 40
22.5
 49
12.0
 49
-1.5
 49
3.0
 49
-1.5
 49
3.0
 49
-1.5
  0
LTYPE
  2
AMCONSTR
 70
     0
  3
_______________________
 72
    65
 73
     2
 40
9999.0
 49
9999.0
 49
0.0
  0
LTYPE
  2
AM_ISO08W050X2
 70
     0
  3
__ . __ . __ . __ . __ . __
 72
    65
 73
     4
 40
9.0
 49
6.0
 49
-0.75
 49
1.5
 49
-0.75
  0
LTYPE
  2
AM_ISO02W050X2
 70
     0
  3
 _ _ _ _ _ _ _ _ _ _ _ _
 72
    65
 73
     2
 40
3.75
 49
3.0
 49
-0.75
  0
LTYPE
  2
AMZIGZAG
 70
     0
  3
/\/-/\/-/\/-/\/-/\/-/\/
 72
    65
 73
     2
 40
11.0001
 49
0.0001
 49
-11.0
  0
LTYPE
  2
CENTER2
 70
     0
  3
Center (.5x) ___ _ ___ _ ___ _ ___ _ ___ _ ___
 72
    65
 73
     4
 40
1.125
 49
0.75
 49
-0.125
 49
0.125
 49
-0.125
  0
LTYPE
  2
HIDDEN2
 70
     0
  3
Hidden (.5x) _ _ _ _ _ _ _ _ _ _ _ _ _ _ _ _ _
 72
    65
 73
     2
 40
0.1875
 49
0.125
 49
-0.0625
  0
LTYPE
  2
AMZIGZAG2
 70
     0
  3
/\/-/\/-/\/-/\/-/\/-/\/
 72
    65
 73
     2
 40
0.4401
 49
0.0001
 49
-0.4400000000000001
  0
LTYPE
  2
ACANSTGB
 70
     0
  3
__ . . __ . .
 72
    65
 73
     6
 40
0.35433070866
 49
0.15748031496
 49
-0.03937007874
 49
0.03937007874
 49
-0.03937007874
 49
0.03937007874
 49
-0.03937007874
  0
LTYPE
  2
ACANSTGL
 70
     0
  3
_ _ _ _ _
 72
    65
 73
     2
 40
0.11811023622
 49
0.07874015748
 49
-0.03937007874
  0
ENDTAB
  0
TABLE
  2
LAYER
 70
     3
  0
LAYER
  2
0
 70
     0
 62
     7
  6
CONTINUOUS
  0
LAYER
  2
AM_VIS
 70
     0
 62
     7
  6
CONTINUOUS
  0
LAYER
  2
AM_HID
 70
     0
 62
     7
  6
HIDDEN
  0
ENDTAB
  0
TABLE
  2
STYLE
 70
     5
  0
STYLE
  2
STANDARD
 70
     0
 40
0.0
 41
1.0
 50
0.0
 71
     0
 42
0.2
  3
txt
  4

  0
STYLE
  2
ADESK1
 70
     0
 40
0.0
 41
1.0
 50
0.0
 71
     0
 42
0.12
  3
romans.shx
  4

  0
STYLE
  2

 70
     1
 40
0.0
 41
1.0
 50
0.0
 71
     0
 42
0.12
  3
ltypeshp.shx
  4

  0
STYLE
  2
ACANSTS
 70
     0
 40
1.0
 41
1.0
 50
0.0
 71
     0
 42
0.12
  3
romans.shx
  4

  0
STYLE
  2
ACANSGDT
 70
     0
 40
0.0
 41
1.0
 50
0.0
 71
     0
 42
0.12
  3
amgdtans.shx
  4

  0
ENDTAB
  0
TABLE
  2
VIEW
 70
     0
  0
ENDTAB
  0
TABLE
  2
UCS
 70
     0
  0
ENDTAB
  0
TABLE
  2
APPID
 70
    13
  0
APPID
  2
ACAD
 70
     0
  0
APPID
  2
GENIUS_GENDIM_13
 70
     0
  0
APPID
  2
GENIUS_GENDTOL_13
 70
     0
  0
APPID
  2
GENIUS_GE3DTOL_13
 70
     0
  0
APPID
  2
MCAD_NO_VIS
 70
     0
  0
APPID
  2
ACAD_TEMP_GRAPHIC
 70
     0
  0
APPID
  2
AD_DRAW
 70
     0
  0
APPID
  2
ACATTRIBSERVICES
 70
     0
  0
APPID
  2
ASURF_PCURVE_APPNAME
 70
     0
  0
APPID
  2
AMG_3D2D_5_0
 70
     0
  0
APPID
  2
DESIGNERASSEMBLIES
 70
     0
  0
APPID
  2
ACADM_DIM_EDIT
 70
     0
  0
APPID
  2
AMDT_DM_ADJ
 70
     0
  0
ENDTAB
  0
TABLE
  2
DIMSTYLE
 70
     7
  0
DIMSTYLE
  2
STANDARD
 70
     0
  3

  4

  5

  6

  7

 40
1.0
 41
0.18
 42
0.0625
 43
0.38
 44
0.18
 45
0.0
 46
0.0
 47
0.0
 48
0.0
140
0.18
141
0.09
142
0.0
143
25.399999999999999
144
1.0
145
0.0
146
1.0
147
0.09
 71
     0
 72
     0
 73
     1
 74
     1
 75
     0
 76
     0
 77
     0
 78
     0
170
     0
171
     2
172
     0
173
     0
174
     0
175
     0
176
     0
177
     0
178
     0
  0
DIMSTYLE
  2
AM_ANSI
 70
     0
  3

  4
mm
  5

  6

  7

 40
1.0
 41
0.1
 42
0.05
 43
0.5
 44
0.1
 45
0.0
 46
0.0
 47
0.1
 48
0.1
140
0.12
141
0.0
142
0.0
143
25.399999999999999
144
1.0
145
0.0
146
0.71
147
0.06
 71
     0
 72
     0
 73
     1
 74
     1
 75
     0
 76
     0
 77
     0
 78
     7
170
     0
171
     2
172
     0
173
     0
174
     0
175
     0
176
   256
177
   256
178
     2
  0
DIMSTYLE
  2
AM_ANSI$3
 70
     0
  3

  4
mm
  5

  6

  7

 40
1.0
 41
0.1
 42
0.05
 43
0.5
 44
0.1
 45
0.0
 46
0.0
 47
0.1
 48
0.1
140
0.12
141
0.0
142
0.0
143
25.399999999999999
144
1.0
145
0.0
146
0.71
147
0.06
 71
     0
 72
     0
 73
     1
 74
     1
 75
     0
 76
     0
 77
     0
 78
     7
170
     0
171
     2
172
     0
173
     0
174
     0
175
     0
176
   256
177
   256
178
     2
  0
DIMSTYLE
  2
AM_ANSI$4
 70
     0
  3

  4
mm
  5

  6

  7

 40
1.0
 41
0.1
 42
0.05
 43
0.5
 44
0.1
 45
0.0
 46
0.0
 47
0.1
 48
0.1
140
0.12
141
0.0
142
0.0
143
25.399999999999999
144
1.0
145
0.0
146
0.71
147
0.06
 71
     0
 72
     0
 73
     1
 74
     1
 75
     0
 76
     0
 77
     0
 78
     7
170
     0
171
     2
172
     0
173
     0
174
     0
175
     0
176
   256
177
   256
178
     2
  0
DIMSTYLE
  2
AM_ANSI$7
 70
     0
  3

  4
mm
  5

  6

  7

 40
1.0
 41
0.1
 42
0.05
 43
0.5
 44
0.1
 45
0.0
 46
0.0
 47
0.1
 48
0.1
140
0.24
141
0.0
142
0.0
143
25.399999999999999
144
1.0
145
0.0
146
0.71
147
0.06
 71
     0
 72
     0
 73
     1
 74
     1
 75
     0
 76
     0
 77
     0
 78
     7
170
     0
171
     2
172
     0
173
     0
174
     0
175
     0
176
   256
177
   256
178
     2
  0
DIMSTYLE
  2
AM_ANSI$SF
 70
     0
  3

  4
mm
  5

  6

  7

 40
1.0
 41
0.1
 42
0.05
 43
0.5
 44
0.1
 45
0.0
 46
0.0
 47
0.1
 48
0.1
140
0.12
141
0.0
142
0.0
143
25.399999999999999
144
1.0
145
0.0
146
0.71
147
0.06
 71
     0
 72
     0
 73
     1
 74
     1
 75
     1
 76
     1
 77
     0
 78
     7
170
     0
171
     2
172
     0
173
     0
174
     0
175
     0
176
   256
177
   256
178
     2
  0
DIMSTYLE
  2
AM_ANSI$SH
 70
     0
  3

  4
mm
  5

  6
GENAXEH
  7

 40
1.0
 41
0.1
 42
0.05
 43
0.5
 44
0.1
 45
0.0
 46
0.0
 47
0.1
 48
0.1
140
0.12
141
0.0
142
0.0
143
25.399999999999999
144
1.0
145
0.0
146
0.71
147
0.06
 71
     0
 72
     0
 73
     1
 74
     1
 75
     1
 76
     1
 77
     0
 78
     7
170
     0
171
     2
172
     0
173
     1
174
     0
175
     0
176
   256
177
   256
178
     2
  0
ENDTAB
  0
ENDSEC
  0
SECTION
  2
BLOCKS
  0
BLOCK
  8
0
  2
$MODEL_SPACE
 70
     0
 10
0.0
 20
0.0
 30
0.0
  3
$MODEL_SPACE
  1

  0
ENDBLK
  5
A
  8
0
  0
BLOCK
 67
     1
  8
0
  2
$PAPER_SPACE
 70
     0
 10
0.0
 20
0.0
 30
0.0
  3
$PAPER_SPACE
  1

  0
ENDBLK
  5
F
 67
     1
  8
0
  0
BLOCK
  8
0
  2
*U0
 70
     1
 10
0.0
 20
0.0
 30
0.0
  3
*U0
  1

  0
ENDBLK
  5
117
  8
0
  0
BLOCK
  8
0
  2
GENAXEH
 70
     0
 10
0.0
 20
0.0
 30
0.0
  3
GENAXEH
  1

  0
LINE
  5
154
  8
0
 10
-1.0
 20
0.0
 30
0.0
 11
1.0
 21
0.0
 31
0.0
  0
ENDBLK
  5
156
  8
0
  0
BLOCK
  8
0
  2
*U2
 70
     1
 10
0.0
 20
0.0
 30
0.0
  3
*U2
  1

  0
TEXT
  5
1C6
  8
0
 10
8.0821359171792366
 20
3.9190377774503902
 30
0.0
 40
0.0760134375
  1
5"
 50
90.0
  7
ADESK1
  0
ENDBLK
  5
1C8
  8
0
  0
ENDSEC
  0
SECTION
  2
ENTITIES
  0
POINT
  5
26
  8
0
 10
0.0
 20
0.0
 30
0.0
  0
POINT
  5
27
  8
0
 10
0.0
 20
0.0
 30
0.0
  0
LINE
  5
28
  8
AM_VIS
 10
2.6765695027911729
 20
5.0465704337003903
 30
0.0
 11
2.6765695027911729
 21
2.9181941837003871
 31
0.0
  0
ARC
  5
2A
  8
AM_VIS
 10
1.2576520027911731
 20
5.0465704337003903
 30
0.0
 40
1.4189175000000001
 50
0.0
 51
180.0
  0
LINE
  5
2B
  8
AM_VIS
 10
-0.1612654972088272
 20
2.918194183700388
 30
0.0
 11
-0.1612654972088263
 21
5.0465704337003903
 31
0.0
  0
ARC
  5
2C
  8
AM_VIS
 10
1.2576520027911731
 20
2.918194183700388
 30
0.0
 40
1.4189175000000001
 50
180.0
 51
0.0
  0
CIRCLE
  5
2D
  8
AM_VIS
 10
1.2576520027911731
 20
2.158059808700389
 30
0.0
 40
0.2280403125
  0
CIRCLE
  5
2E
  8
AM_VIS
 10
1.2576520027911731
 20
5.8067048087003901
 30
0.0
 40
0.2280403125
  0
CIRCLE
  5
2F
  8
AM_VIS
 10
1.2576520027911731
 20
3.98238230870039
 30
0.0
 40
0.79053975
  0
CIRCLE
  5
30
  8
AM_VIS
 10
1.2576520027911731
 20
3.98238230870039
 30
0.0
 40
0.9932422500000001
  0
LINE
  5
31
  8
AM_HID
 10
2.291434752791174
 20
4.112712975802876
 30
0.0
 11
2.2423062996881522
 21
4.112712975802876
 31
0.0
  0
LINE
  5
34
  8
AM_HID
 10
2.2914347527911731
 20
3.8520516415979031
 30
0.0
 11
2.2423062996881522
 21
3.8520516415979031
 31
0.0
  0
LINE
  5
35
  8
AM_HID
 10
2.291434752791174
 20
3.98238230870039
 30
0.0
 11
2.2508942527911731
 21
3.98238230870039
 31
0.0
  0
LINE
  5
36
  8
AM_VIS
 10
2.2914347527911731
 20
3.7290041837003889
 30
0.0
 11
2.2914347527911731
 21
3.98238230870039
 31
0.0
  0
LINE
  5
37
  8
AM_VIS
 10
2.2914347527911731
 20
3.98238230870039
 30
0.0
 11
2.2914347527911731
 21
4.2357604337003902
 31
0.0
  0
LINE
  5
38
  8
AM_VIS
 10
2.2914347527911731
 20
3.7290041837003889
 30
0.0
 11
2.2121762633332289
 21
3.7077669354568221
 31
0.0
  0
LINE
  5
39
  8
AM_VIS
 10
2.2914347527911731
 20
4.2357604337003902
 30
0.0
 11
2.2121762633332311
 21
4.2569976819439548
 31
0.0
  0
LINE
  5
3A
  8
AM_VIS
 10
6.333578875729458
 20
5.0465704337003903
 30
0.0
 11
6.333578875729458
 21
2.9181941837003871
 31
0.0
  0
LINE
  5
3B
  8
AM_VIS
 10
6.333578875729458
 20
5.0465704337003903
 30
0.0
 11
6.333578875729458
 21
6.4654879337003894
 31
0.0
  0
LINE
  5
3C
  8
AM_VIS
 10
6.333578875729458
 20
1.499276683700389
 30
0.0
 11
6.333578875729458
 21
2.9181941837003889
 31
0.0
  0
LINE
  5
3D
  8
AM_VIS
 10
6.7389838757294589
 20
2.918194183700388
 30
0.0
 11
6.7389838757294589
 21
5.0465704337003903
 31
0.0
  0
LINE
  5
3E
  8
AM_VIS
 10
6.7389838757294589
 20
2.918194183700388
 30
0.0
 11
6.7389838757294589
 21
1.499276683700389
 31
0.0
  0
LINE
  5
3F
  8
AM_VIS
 10
6.7389838757294589
 20
6.4654879337003894
 30
0.0
 11
6.7389838757294589
 21
5.0465704337003903
 31
0.0
  0
LINE
  5
41
  8
AM_VIS
 10
3.9491432164830931
 20
4.1127129758028751
 30
0.0
 11
4.0996361079536623
 21
4.1127129758028751
 31
0.0
  0
LINE
  5
42
  8
AM_VIS
 10
4.0996361079536623
 20
4.112712975802876
 30
0.0
 11
4.1748825536889447
 21
3.98238230870039
 31
0.0
  0
LINE
  5
43
  8
AM_VIS
 10
4.1748825536889447
 20
3.98238230870039
 30
0.0
 11
4.0996361079536623
 21
3.8520516415979031
 31
0.0
  0
LINE
  5
44
  8
AM_VIS
 10
4.0996361079536623
 20
3.8520516415979031
 30
0.0
 11
3.9491432164830931
 21
3.8520516415979031
 31
0.0
  0
LINE
  5
45
  8
AM_VIS
 10
3.873896770747808
 20
3.98238230870039
 30
0.0
 11
3.9491432164830931
 21
4.112712975802876
 31
0.0
  0
LINE
  5
46
  8
AM_VIS
 10
3.9491432164830931
 20
3.8520516415979031
 30
0.0
 11
3.8738967707478098
 21
3.98238230870039
 31
0.0
  0
POLYLINE
  8
AM_VIS
  5
1C9
  66
     1
 10
0.000000
 20
0.000000
 30
0.000000
  70
     8
  0
VERTEX
  8
AM_VIS
  5
1CA
 10
4.02439
 20
3.70777
 30
0.000000
  70
    32
  0
VERTEX
  8
AM_VIS
  5
1CB
 10
4.02589
 20
3.70777
 30
0.000000
  70
    32
  0
VERTEX
  8
AM_VIS
  5
1CC
 10
4.02740
 20
3.70779
 30
0.000000
  70
    32
  0
VERTEX
  8
AM_VIS
  5
1CD
 10
4.02891
 20
3.70781
 30
0.000000
  70
    32
  0
VERTEX
  8
AM_VIS
  5
1CE
 10
4.03042
 20
3.70784
 30
0.000000
  70
    32
  0
VERTEX
  8
AM_VIS
  5
1CF
 10
4.03193
 20
3.70789
 30
0.000000
  70
    32
  0
VERTEX
  8
AM_VIS
  5
1D0
 10
4.03345
 20
3.70794
 30
0.000000
  70
    32
  0
VERTEX
  8
AM_VIS
  5
1D1
 10
4.03496
 20
3.70800
 30
0.000000
  70
    32
  0
VERTEX
  8
AM_VIS
  5
1D2
 10
4.03648
 20
3.70807
 30
0.000000
  70
    32
  0
VERTEX
  8
AM_VIS
  5
1D3
 10
4.03800
 20
3.70815
 30
0.000000
  70
    32
  0
VERTEX
  8
AM_VIS
  5
1D4
 10
4.03953
 20
3.70824
 30
0.000000
  70
    32
  0
VERTEX
  8
AM_VIS
  5
1D5
 10
4.04105
 20
3.70834
 30
0.000000
  70
    32
  0
VERTEX
  8
AM_VIS
  5
1D6
 10
4.04257
 20
3.70845
 30
0.000000
  70
    32
  0
VERTEX
  8
AM_VIS
  5
1D7
 10
4.04410
 20
3.70856
 30
0.000000
  70
    32
  0
VERTEX
  8
AM_VIS
  5
1D8
 10
4.04563
 20
3.70869
 30
0.000000
  70
    32
  0
VERTEX
  8
AM_VIS
  5
1D9
 10
4.04716
 20
3.70883
 30
0.000000
  70
    32
  0
VERTEX
  8
AM_VIS
  5
1DA
 10
4.04869
 20
3.70898
 30
0.000000
  70
    32
  0
VERTEX
  8
AM_VIS
  5
1DB
 10
4.05022
 20
3.70913
 30
0.000000
  70
    32
  0
VERTEX
  8
AM_VIS
  5
1DC
 10
4.05175
 20
3.70930
 30
0.000000
  70
    32
  0
VERTEX
  8
AM_VIS
  5
1DD
 10
4.05328
 20
3.70947
 30
0.000000
  70
    32
  0
VERTEX
  8
AM_VIS
  5
1DE
 10
4.05481
 20
3.70965
 30
0.000000
  70
    32
  0
VERTEX
  8
AM_VIS
  5
1DF
 10
4.05635
 20
3.70985
 30
0.000000
  70
    32
  0
VERTEX
  8
AM_VIS
  5
1E0
 10
4.05788
 20
3.71005
 30
0.000000
  70
    32
  0
VERTEX
  8
AM_VIS
  5
1E1
 10
4.05942
 20
3.71026
 30
0.000000
  70
    32
  0
VERTEX
  8
AM_VIS
  5
1E2
 10
4.06095
 20
3.71048
 30
0.000000
  70
    32
  0
VERTEX
  8
AM_VIS
  5
1E3
 10
4.06249
 20
3.71071
 30
0.000000
  70
    32
  0
VERTEX
  8
AM_VIS
  5
1E4
 10
4.06402
 20
3.71095
 30
0.000000
  70
    32
  0
VERTEX
  8
AM_VIS
  5
1E5
 10
4.06555
 20
3.71120
 30
0.000000
  70
    32
  0
VERTEX
  8
AM_VIS
  5
1E6
 10
4.06709
 20
3.71146
 30
0.000000
  70
    32
  0
VERTEX
  8
AM_VIS
  5
1E7
 10
4.06862
 20
3.71173
 30
0.000000
  70
    32
  0
VERTEX
  8
AM_VIS
  5
1E8
 10
4.07016
 20
3.71201
 30
0.000000
  70
    32
  0
VERTEX
  8
AM_VIS
  5
1E9
 10
4.07169
 20
3.71230
 30
0.000000
  70
    32
  0
VERTEX
  8
AM_VIS
  5
1EA
 10
4.07322
 20
3.71259
 30
0.000000
  70
    32
  0
VERTEX
  8
AM_VIS
  5
1EB
 10
4.07476
 20
3.71290
 30
0.000000
  70
    32
  0
VERTEX
  8
AM_VIS
  5
1EC
 10
4.07629
 20
3.71321
 30
0.000000
  70
    32
  0
VERTEX
  8
AM_VIS
  5
1ED
 10
4.07782
 20
3.71354
 30
0.000000
  70
    32
  0
VERTEX
  8
AM_VIS
  5
1EE
 10
4.07935
 20
3.71387
 30
0.000000
  70
    32
  0
VERTEX
  8
AM_VIS
  5
1EF
 10
4.08088
 20
3.71421
 30
0.000000
  70
    32
  0
VERTEX
  8
AM_VIS
  5
1F0
 10
4.08241
 20
3.71457
 30
0.000000
  70
    32
  0
VERTEX
  8
AM_VIS
  5
1F1
 10
4.08393
 20
3.71493
 30
0.000000
  70
    32
  0
VERTEX
  8
AM_VIS
  5
1F2
 10
4.08546
 20
3.71530
 30
0.000000
  70
    32
  0
VERTEX
  8
AM_VIS
  5
1F3
 10
4.08698
 20
3.71568
 30
0.000000
  70
    32
  0
VERTEX
  8
AM_VIS
  5
1F4
 10
4.08850
 20
3.71607
 30
0.000000
  70
    32
  0
VERTEX
  8
AM_VIS
  5
1F5
 10
4.09003
 20
3.71647
 30
0.000000
  70
    32
  0
VERTEX
  8
AM_VIS
  5
1F6
 10
4.09154
 20
3.71688
 30
0.000000
  70
    32
  0
VERTEX
  8
AM_VIS
  5
1F7
 10
4.09306
 20
3.71730
 30
0.000000
  70
    32
  0
VERTEX
  8
AM_VIS
  5
1F8
 10
4.09458
 20
3.71772
 30
0.000000
  70
    32
  0
VERTEX
  8
AM_VIS
  5
1F9
 10
4.09609
 20
3.71816
 30
0.000000
  70
    32
  0
VERTEX
  8
AM_VIS
  5
1FA
 10
4.09760
 20
3.71861
 30
0.000000
  70
    32
  0
VERTEX
  8
AM_VIS
  5
1FB
 10
4.09911
 20
3.71906
 30
0.000000
  70
    32
  0
VERTEX
  8
AM_VIS
  5
1FC
 10
4.10062
 20
3.71953
 30
0.000000
  70
    32
  0
VERTEX
  8
AM_VIS
  5
1FD
 10
4.10212
 20
3.72000
 30
0.000000
  70
    32
  0
VERTEX
  8
AM_VIS
  5
1FE
 10
4.10362
 20
3.72048
 30
0.000000
  70
    32
  0
VERTEX
  8
AM_VIS
  5
1FF
 10
4.10512
 20
3.72098
 30
0.000000
  70
    32
  0
VERTEX
  8
AM_VIS
  5
200
 10
4.10662
 20
3.72148
 30
0.000000
  70
    32
  0
VERTEX
  8
AM_VIS
  5
201
 10
4.10811
 20
3.72199
 30
0.000000
  70
    32
  0
VERTEX
  8
AM_VIS
  5
202
 10
4.10960
 20
3.72251
 30
0.000000
  70
    32
  0
VERTEX
  8
AM_VIS
  5
203
 10
4.11109
 20
3.72304
 30
0.000000
  70
    32
  0
VERTEX
  8
AM_VIS
  5
204
 10
4.11258
 20
3.72358
 30
0.000000
  70
    32
  0
VERTEX
  8
AM_VIS
  5
205
 10
4.11406
 20
3.72413
 30
0.000000
  70
    32
  0
VERTEX
  8
AM_VIS
  5
206
 10
4.11554
 20
3.72469
 30
0.000000
  70
    32
  0
VERTEX
  8
AM_VIS
  5
207
 10
4.11701
 20
3.72525
 30
0.000000
  70
    32
  0
VERTEX
  8
AM_VIS
  5
208
 10
4.11848
 20
3.72583
 30
0.000000
  70
    32
  0
VERTEX
  8
AM_VIS
  5
209
 10
4.11995
 20
3.72641
 30
0.000000
  70
    32
  0
VERTEX
  8
AM_VIS
  5
20A
 10
4.12142
 20
3.72701
 30
0.000000
  70
    32
  0
VERTEX
  8
AM_VIS
  5
20B
 10
4.12288
 20
3.72761
 30
0.000000
  70
    32
  0
VERTEX
  8
AM_VIS
  5
20C
 10
4.12433
 20
3.72823
 30
0.000000
  70
    32
  0
VERTEX
  8
AM_VIS
  5
20D
 10
4.12578
 20
3.72885
 30
0.000000
  70
    32
  0
VERTEX
  8
AM_VIS
  5
20E
 10
4.12723
 20
3.72948
 30
0.000000
  70
    32
  0
VERTEX
  8
AM_VIS
  5
20F
 10
4.12868
 20
3.73012
 30
0.000000
  70
    32
  0
VERTEX
  8
AM_VIS
  5
210
 10
4.13012
 20
3.73077
 30
0.000000
  70
    32
  0
VERTEX
  8
AM_VIS
  5
211
 10
4.13155
 20
3.73143
 30
0.000000
  70
    32
  0
VERTEX
  8
AM_VIS
  5
212
 10
4.13299
 20
3.73210
 30
0.000000
  70
    32
  0
VERTEX
  8
AM_VIS
  5
213
 10
4.13441
 20
3.73278
 30
0.000000
  70
    32
  0
VERTEX
  8
AM_VIS
  5
214
 10
4.13584
 20
3.73346
 30
0.000000
  70
    32
  0
VERTEX
  8
AM_VIS
  5
215
 10
4.13725
 20
3.73416
 30
0.000000
  70
    32
  0
VERTEX
  8
AM_VIS
  5
216
 10
4.13867
 20
3.73486
 30
0.000000
  70
    32
  0
VERTEX
  8
AM_VIS
  5
217
 10
4.14008
 20
3.73558
 30
0.000000
  70
    32
  0
VERTEX
  8
AM_VIS
  5
218
 10
4.14148
 20
3.73630
 30
0.000000
  70
    32
  0
VERTEX
  8
AM_VIS
  5
219
 10
4.14288
 20
3.73703
 30
0.000000
  70
    32
  0
VERTEX
  8
AM_VIS
  5
21A
 10
4.14427
 20
3.73776
 30
0.000000
  70
    32
  0
VERTEX
  8
AM_VIS
  5
21B
 10
4.14566
 20
3.73851
 30
0.000000
  70
    32
  0
VERTEX
  8
AM_VIS
  5
21C
 10
4.14705
 20
3.73926
 30
0.000000
  70
    32
  0
VERTEX
  8
AM_VIS
  5
21D
 10
4.14843
 20
3.74003
 30
0.000000
  70
    32
  0
VERTEX
  8
AM_VIS
  5
21E
 10
4.14980
 20
3.74080
 30
0.000000
  70
    32
  0
VERTEX
  8
AM_VIS
  5
21F
 10
4.15117
 20
3.74158
 30
0.000000
  70
    32
  0
VERTEX
  8
AM_VIS
  5
220
 10
4.15254
 20
3.74236
 30
0.000000
  70
    32
  0
VERTEX
  8
AM_VIS
  5
221
 10
4.15390
 20
3.74316
 30
0.000000
  70
    32
  0
VERTEX
  8
AM_VIS
  5
222
 10
4.15525
 20
3.74396
 30
0.000000
  70
    32
  0
VERTEX
  8
AM_VIS
  5
223
 10
4.15660
 20
3.74477
 30
0.000000
  70
    32
  0
VERTEX
  8
AM_VIS
  5
224
 10
4.15794
 20
3.74558
 30
0.000000
  70
    32
  0
VERTEX
  8
AM_VIS
  5
225
 10
4.15928
 20
3.74641
 30
0.000000
  70
    32
  0
VERTEX
  8
AM_VIS
  5
226
 10
4.16061
 20
3.74724
 30
0.000000
  70
    32
  0
VERTEX
  8
AM_VIS
  5
227
 10
4.16194
 20
3.74808
 30
0.000000
  70
    32
  0
VERTEX
  8
AM_VIS
  5
228
 10
4.16326
 20
3.74893
 30
0.000000
  70
    32
  0
VERTEX
  8
AM_VIS
  5
229
 10
4.16458
 20
3.74978
 30
0.000000
  70
    32
  0
VERTEX
  8
AM_VIS
  5
22A
 10
4.16589
 20
3.75064
 30
0.000000
  70
    32
  0
VERTEX
  8
AM_VIS
  5
22B
 10
4.16719
 20
3.75151
 30
0.000000
  70
    32
  0
VERTEX
  8
AM_VIS
  5
22C
 10
4.16849
 20
3.75239
 30
0.000000
  70
    32
  0
VERTEX
  8
AM_VIS
  5
22D
 10
4.16978
 20
3.75327
 30
0.000000
  70
    32
  0
VERTEX
  8
AM_VIS
  5
22E
 10
4.17106
 20
3.75416
 30
0.000000
  70
    32
  0
VERTEX
  8
AM_VIS
  5
22F
 10
4.17234
 20
3.75505
 30
0.000000
  70
    32
  0
VERTEX
  8
AM_VIS
  5
230
 10
4.17362
 20
3.75595
 30
0.000000
  70
    32
  0
VERTEX
  8
AM_VIS
  5
231
 10
4.17488
 20
3.75686
 30
0.000000
  70
    32
  0
VERTEX
  8
AM_VIS
  5
232
 10
4.17614
 20
3.75778
 30
0.000000
  70
    32
  0
VERTEX
  8
AM_VIS
  5
233
 10
4.17740
 20
3.75870
 30
0.000000
  70
    32
  0
VERTEX
  8
AM_VIS
  5
234
 10
4.17865
 20
3.75963
 30
0.000000
  70
    32
  0
VERTEX
  8
AM_VIS
  5
235
 10
4.17989
 20
3.76056
 30
0.000000
  70
    32
  0
VERTEX
  8
AM_VIS
  5
236
 10
4.18112
 20
3.76150
 30
0.000000
  70
    32
  0
VERTEX
  8
AM_VIS
  5
237
 10
4.18235
 20
3.76245
 30
0.000000
  70
    32
  0
VERTEX
  8
AM_VIS
  5
238
 10
4.18357
 20
3.76340
 30
0.000000
  70
    32
  0
VERTEX
  8
AM_VIS
  5
239
 10
4.18479
 20
3.76436
 30
0.000000
  70
    32
  0
VERTEX
  8
AM_VIS
  5
23A
 10
4.18600
 20
3.76532
 30
0.000000
  70
    32
  0
VERTEX
  8
AM_VIS
  5
23B
 10
4.18720
 20
3.76629
 30
0.000000
  70
    32
  0
VERTEX
  8
AM_VIS
  5
23C
 10
4.18839
 20
3.76727
 30
0.000000
  70
    32
  0
VERTEX
  8
AM_VIS
  5
23D
 10
4.18958
 20
3.76825
 30
0.000000
  70
    32
  0
VERTEX
  8
AM_VIS
  5
23E
 10
4.19076
 20
3.76923
 30
0.000000
  70
    32
  0
VERTEX
  8
AM_VIS
  5
23F
 10
4.19193
 20
3.77023
 30
0.000000
  70
    32
  0
VERTEX
  8
AM_VIS
  5
240
 10
4.19310
 20
3.77122
 30
0.000000
  70
    32
  0
VERTEX
  8
AM_VIS
  5
241
 10
4.19426
 20
3.77222
 30
0.000000
  70
    32
  0
VERTEX
  8
AM_VIS
  5
242
 10
4.19541
 20
3.77323
 30
0.000000
  70
    32
  0
VERTEX
  8
AM_VIS
  5
243
 10
4.19656
 20
3.77425
 30
0.000000
  70
    32
  0
VERTEX
  8
AM_VIS
  5
244
 10
4.19769
 20
3.77526
 30
0.000000
  70
    32
  0
VERTEX
  8
AM_VIS
  5
245
 10
4.19882
 20
3.77629
 30
0.000000
  70
    32
  0
VERTEX
  8
AM_VIS
  5
246
 10
4.19994
 20
3.77731
 30
0.000000
  70
    32
  0
VERTEX
  8
AM_VIS
  5
247
 10
4.20106
 20
3.77835
 30
0.000000
  70
    32
  0
VERTEX
  8
AM_VIS
  5
248
 10
4.20217
 20
3.77938
 30
0.000000
  70
    32
  0
VERTEX
  8
AM_VIS
  5
249
 10
4.20327
 20
3.78042
 30
0.000000
  70
    32
  0
VERTEX
  8
AM_VIS
  5
24A
 10
4.20436
 20
3.78147
 30
0.000000
  70
    32
  0
VERTEX
  8
AM_VIS
  5
24B
 10
4.20544
 20
3.78252
 30
0.000000
  70
    32
  0
VERTEX
  8
AM_VIS
  5
24C
 10
4.20652
 20
3.78358
 30
0.000000
  70
    32
  0
VERTEX
  8
AM_VIS
  5
24D
 10
4.20758
 20
3.78464
 30
0.000000
  70
    32
  0
VERTEX
  8
AM_VIS
  5
24E
 10
4.20864
 20
3.78570
 30
0.000000
  70
    32
  0
VERTEX
  8
AM_VIS
  5
24F
 10
4.20970
 20
3.78677
 30
0.000000
  70
    32
  0
VERTEX
  8
AM_VIS
  5
250
 10
4.21074
 20
3.78784
 30
0.000000
  70
    32
  0
VERTEX
  8
AM_VIS
  5
251
 10
4.21178
 20
3.78892
 30
0.000000
  70
    32
  0
VERTEX
  8
AM_VIS
  5
252
 10
4.21280
 20
3.79000
 30
0.000000
  70
    32
  0
VERTEX
  8
AM_VIS
  5
253
 10
4.21382
 20
3.79108
 30
0.000000
  70
    32
  0
VERTEX
  8
AM_VIS
  5
254
 10
4.21484
 20
3.79217
 30
0.000000
  70
    32
  0
VERTEX
  8
AM_VIS
  5
255
 10
4.21585
 20
3.79327
 30
0.000000
  70
    32
  0
VERTEX
  8
AM_VIS
  5
256
 10
4.21685
 20
3.79438
 30
0.000000
  70
    32
  0
VERTEX
  8
AM_VIS
  5
257
 10
4.21785
 20
3.79549
 30
0.000000
  70
    32
  0
VERTEX
  8
AM_VIS
  5
258
 10
4.21885
 20
3.79662
 30
0.000000
  70
    32
  0
VERTEX
  8
AM_VIS
  5
259
 10
4.21984
 20
3.79775
 30
0.000000
  70
    32
  0
VERTEX
  8
AM_VIS
  5
25A
 10
4.22083
 20
3.79889
 30
0.000000
  70
    32
  0
VERTEX
  8
AM_VIS
  5
25B
 10
4.22181
 20
3.80003
 30
0.000000
  70
    32
  0
VERTEX
  8
AM_VIS
  5
25C
 10
4.22279
 20
3.80119
 30
0.000000
  70
    32
  0
VERTEX
  8
AM_VIS
  5
25D
 10
4.22377
 20
3.80235
 30
0.000000
  70
    32
  0
VERTEX
  8
AM_VIS
  5
25E
 10
4.22473
 20
3.80352
 30
0.000000
  70
    32
  0
VERTEX
  8
AM_VIS
  5
25F
 10
4.22570
 20
3.80469
 30
0.000000
  70
    32
  0
VERTEX
  8
AM_VIS
  5
260
 10
4.22666
 20
3.80588
 30
0.000000
  70
    32
  0
VERTEX
  8
AM_VIS
  5
261
 10
4.22761
 20
3.80707
 30
0.000000
  70
    32
  0
VERTEX
  8
AM_VIS
  5
262
 10
4.22856
 20
3.80827
 30
0.000000
  70
    32
  0
VERTEX
  8
AM_VIS
  5
263
 10
4.22950
 20
3.80947
 30
0.000000
  70
    32
  0
VERTEX
  8
AM_VIS
  5
264
 10
4.23044
 20
3.81069
 30
0.000000
  70
    32
  0
VERTEX
  8
AM_VIS
  5
265
 10
4.23137
 20
3.81190
 30
0.000000
  70
    32
  0
VERTEX
  8
AM_VIS
  5
266
 10
4.23230
 20
3.81313
 30
0.000000
  70
    32
  0
VERTEX
  8
AM_VIS
  5
267
 10
4.23322
 20
3.81436
 30
0.000000
  70
    32
  0
VERTEX
  8
AM_VIS
  5
268
 10
4.23413
 20
3.81560
 30
0.000000
  70
    32
  0
VERTEX
  8
AM_VIS
  5
269
 10
4.23504
 20
3.81685
 30
0.000000
  70
    32
  0
VERTEX
  8
AM_VIS
  5
26A
 10
4.23595
 20
3.81810
 30
0.000000
  70
    32
  0
VERTEX
  8
AM_VIS
  5
26B
 10
4.23685
 20
3.81936
 30
0.000000
  70
    32
  0
VERTEX
  8
AM_VIS
  5
26C
 10
4.23774
 20
3.82063
 30
0.000000
  70
    32
  0
VERTEX
  8
AM_VIS
  5
26D
 10
4.23863
 20
3.82190
 30
0.000000
  70
    32
  0
VERTEX
  8
AM_VIS
  5
26E
 10
4.23951
 20
3.82318
 30
0.000000
  70
    32
  0
VERTEX
  8
AM_VIS
  5
26F
 10
4.24038
 20
3.82446
 30
0.000000
  70
    32
  0
VERTEX
  8
AM_VIS
  5
270
 10
4.24125
 20
3.82576
 30
0.000000
  70
    32
  0
VERTEX
  8
AM_VIS
  5
271
 10
4.24211
 20
3.82705
 30
0.000000
  70
    32
  0
VERTEX
  8
AM_VIS
  5
272
 10
4.24297
 20
3.82836
 30
0.000000
  70
    32
  0
VERTEX
  8
AM_VIS
  5
273
 10
4.24382
 20
3.82967
 30
0.000000
  70
    32
  0
VERTEX
  8
AM_VIS
  5
274
 10
4.24466
 20
3.83098
 30
0.000000
  70
    32
  0
VERTEX
  8
AM_VIS
  5
275
 10
4.24550
 20
3.83230
 30
0.000000
  70
    32
  0
VERTEX
  8
AM_VIS
  5
276
 10
4.24633
 20
3.83363
 30
0.000000
  70
    32
  0
VERTEX
  8
AM_VIS
  5
277
 10
4.24715
 20
3.83497
 30
0.000000
  70
    32
  0
VERTEX
  8
AM_VIS
  5
278
 10
4.24797
 20
3.83630
 30
0.000000
  70
    32
  0
VERTEX
  8
AM_VIS
  5
279
 10
4.24878
 20
3.83765
 30
0.000000
  70
    32
  0
VERTEX
  8
AM_VIS
  5
27A
 10
4.24958
 20
3.83900
 30
0.000000
  70
    32
  0
VERTEX
  8
AM_VIS
  5
27B
 10
4.25038
 20
3.84035
 30
0.000000
  70
    32
  0
VERTEX
  8
AM_VIS
  5
27C
 10
4.25117
 20
3.84172
 30
0.000000
  70
    32
  0
VERTEX
  8
AM_VIS
  5
27D
 10
4.25195
 20
3.84308
 30
0.000000
  70
    32
  0
VERTEX
  8
AM_VIS
  5
27E
 10
4.25273
 20
3.84445
 30
0.000000
  70
    32
  0
VERTEX
  8
AM_VIS
  5
27F
 10
4.25350
 20
3.84583
 30
0.000000
  70
    32
  0
VERTEX
  8
AM_VIS
  5
280
 10
4.25426
 20
3.84721
 30
0.000000
  70
    32
  0
VERTEX
  8
AM_VIS
  5
281
 10
4.25501
 20
3.84860
 30
0.000000
  70
    32
  0
VERTEX
  8
AM_VIS
  5
282
 10
4.25576
 20
3.84999
 30
0.000000
  70
    32
  0
VERTEX
  8
AM_VIS
  5
283
 10
4.25650
 20
3.85139
 30
0.000000
  70
    32
  0
VERTEX
  8
AM_VIS
  5
284
 10
4.25723
 20
3.85279
 30
0.000000
  70
    32
  0
VERTEX
  8
AM_VIS
  5
285
 10
4.25796
 20
3.85420
 30
0.000000
  70
    32
  0
VERTEX
  8
AM_VIS
  5
286
 10
4.25867
 20
3.85561
 30
0.000000
  70
    32
  0
VERTEX
  8
AM_VIS
  5
287
 10
4.25938
 20
3.85703
 30
0.000000
  70
    32
  0
VERTEX
  8
AM_VIS
  5
288
 10
4.26008
 20
3.85845
 30
0.000000
  70
    32
  0
VERTEX
  8
AM_VIS
  5
289
 10
4.26078
 20
3.85987
 30
0.000000
  70
    32
  0
VERTEX
  8
AM_VIS
  5
28A
 10
4.26146
 20
3.86130
 30
0.000000
  70
    32
  0
VERTEX
  8
AM_VIS
  5
28B
 10
4.26214
 20
3.86274
 30
0.000000
  70
    32
  0
VERTEX
  8
AM_VIS
  5
28C
 10
4.26281
 20
3.86418
 30
0.000000
  70
    32
  0
VERTEX
  8
AM_VIS
  5
28D
 10
4.26347
 20
3.86562
 30
0.000000
  70
    32
  0
VERTEX
  8
AM_VIS
  5
28E
 10
4.26413
 20
3.86707
 30
0.000000
  70
    32
  0
VERTEX
  8
AM_VIS
  5
28F
 10
4.26477
 20
3.86852
 30
0.000000
  70
    32
  0
VERTEX
  8
AM_VIS
  5
290
 10
4.26541
 20
3.86997
 30
0.000000
  70
    32
  0
VERTEX
  8
AM_VIS
  5
291
 10
4.26604
 20
3.87143
 30
0.000000
  70
    32
  0
VERTEX
  8
AM_VIS
  5
292
 10
4.26666
 20
3.87290
 30
0.000000
  70
    32
  0
VERTEX
  8
AM_VIS
  5
293
 10
4.26727
 20
3.87436
 30
0.000000
  70
    32
  0
VERTEX
  8
AM_VIS
  5
294
 10
4.26787
 20
3.87583
 30
0.000000
  70
    32
  0
VERTEX
  8
AM_VIS
  5
295
 10
4.26847
 20
3.87731
 30
0.000000
  70
    32
  0
VERTEX
  8
AM_VIS
  5
296
 10
4.26905
 20
3.87879
 30
0.000000
  70
    32
  0
VERTEX
  8
AM_VIS
  5
297
 10
4.26963
 20
3.88027
 30
0.000000
  70
    32
  0
VERTEX
  8
AM_VIS
  5
298
 10
4.27020
 20
3.88176
 30
0.000000
  70
    32
  0
VERTEX
  8
AM_VIS
  5
299
 10
4.27076
 20
3.88325
 30
0.000000
  70
    32
  0
VERTEX
  8
AM_VIS
  5
29A
 10
4.27131
 20
3.88474
 30
0.000000
  70
    32
  0
VERTEX
  8
AM_VIS
  5
29B
 10
4.27185
 20
3.88623
 30
0.000000
  70
    32
  0
VERTEX
  8
AM_VIS
  5
29C
 10
4.27239
 20
3.88773
 30
0.000000
  70
    32
  0
VERTEX
  8
AM_VIS
  5
29D
 10
4.27291
 20
3.88924
 30
0.000000
  70
    32
  0
VERTEX
  8
AM_VIS
  5
29E
 10
4.27343
 20
3.89074
 30
0.000000
  70
    32
  0
VERTEX
  8
AM_VIS
  5
29F
 10
4.27394
 20
3.89225
 30
0.000000
  70
    32
  0
VERTEX
  8
AM_VIS
  5
2A0
 10
4.27443
 20
3.89376
 30
0.000000
  70
    32
  0
VERTEX
  8
AM_VIS
  5
2A1
 10
4.27493
 20
3.89527
 30
0.000000
  70
    32
  0
VERTEX
  8
AM_VIS
  5
2A2
 10
4.27541
 20
3.89679
 30
0.000000
  70
    32
  0
VERTEX
  8
AM_VIS
  5
2A3
 10
4.27588
 20
3.89831
 30
0.000000
  70
    32
  0
VERTEX
  8
AM_VIS
  5
2A4
 10
4.27634
 20
3.89983
 30
0.000000
  70
    32
  0
VERTEX
  8
AM_VIS
  5
2A5
 10
4.27680
 20
3.90135
 30
0.000000
  70
    32
  0
VERTEX
  8
AM_VIS
  5
2A6
 10
4.27725
 20
3.90288
 30
0.000000
  70
    32
  0
VERTEX
  8
AM_VIS
  5
2A7
 10
4.27768
 20
3.90440
 30
0.000000
  70
    32
  0
VERTEX
  8
AM_VIS
  5
2A8
 10
4.27811
 20
3.90593
 30
0.000000
  70
    32
  0
VERTEX
  8
AM_VIS
  5
2A9
 10
4.27853
 20
3.90746
 30
0.000000
  70
    32
  0
VERTEX
  8
AM_VIS
  5
2AA
 10
4.27894
 20
3.90900
 30
0.000000
  70
    32
  0
VERTEX
  8
AM_VIS
  5
2AB
 10
4.27935
 20
3.91053
 30
0.000000
  70
    32
  0
VERTEX
  8
AM_VIS
  5
2AC
 10
4.27974
 20
3.91207
 30
0.000000
  70
    32
  0
VERTEX
  8
AM_VIS
  5
2AD
 10
4.28013
 20
3.91361
 30
0.000000
  70
    32
  0
VERTEX
  8
AM_VIS
  5
2AE
 10
4.28051
 20
3.91515
 30
0.000000
  70
    32
  0
VERTEX
  8
AM_VIS
  5
2AF
 10
4.28087
 20
3.91669
 30
0.000000
  70
    32
  0
VERTEX
  8
AM_VIS
  5
2B0
 10
4.28123
 20
3.91823
 30
0.000000
  70
    32
  0
VERTEX
  8
AM_VIS
  5
2B1
 10
4.28159
 20
3.91977
 30
0.000000
  70
    32
  0
VERTEX
  8
AM_VIS
  5
2B2
 10
4.28193
 20
3.92131
 30
0.000000
  70
    32
  0
VERTEX
  8
AM_VIS
  5
2B3
 10
4.28226
 20
3.92286
 30
0.000000
  70
    32
  0
VERTEX
  8
AM_VIS
  5
2B4
 10
4.28259
 20
3.92440
 30
0.000000
  70
    32
  0
VERTEX
  8
AM_VIS
  5
2B5
 10
4.28291
 20
3.92595
 30
0.000000
  70
    32
  0
VERTEX
  8
AM_VIS
  5
2B6
 10
4.28321
 20
3.92750
 30
0.000000
  70
    32
  0
VERTEX
  8
AM_VIS
  5
2B7
 10
4.28351
 20
3.92904
 30
0.000000
  70
    32
  0
VERTEX
  8
AM_VIS
  5
2B8
 10
4.28381
 20
3.93059
 30
0.000000
  70
    32
  0
VERTEX
  8
AM_VIS
  5
2B9
 10
4.28409
 20
3.93214
 30
0.000000
  70
    32
  0
VERTEX
  8
AM_VIS
  5
2BA
 10
4.28436
 20
3.93369
 30
0.000000
  70
    32
  0
VERTEX
  8
AM_VIS
  5
2BB
 10
4.28463
 20
3.93524
 30
0.000000
  70
    32
  0
VERTEX
  8
AM_VIS
  5
2BC
 10
4.28488
 20
3.93678
 30
0.000000
  70
    32
  0
VERTEX
  8
AM_VIS
  5
2BD
 10
4.28513
 20
3.93833
 30
0.000000
  70
    32
  0
VERTEX
  8
AM_VIS
  5
2BE
 10
4.28537
 20
3.93988
 30
0.000000
  70
    32
  0
VERTEX
  8
AM_VIS
  5
2BF
 10
4.28560
 20
3.94143
 30
0.000000
  70
    32
  0
VERTEX
  8
AM_VIS
  5
2C0
 10
4.28583
 20
3.94298
 30
0.000000
  70
    32
  0
VERTEX
  8
AM_VIS
  5
2C1
 10
4.28604
 20
3.94452
 30
0.000000
  70
    32
  0
VERTEX
  8
AM_VIS
  5
2C2
 10
4.28625
 20
3.94607
 30
0.000000
  70
    32
  0
VERTEX
  8
AM_VIS
  5
2C3
 10
4.28644
 20
3.94762
 30
0.000000
  70
    32
  0
VERTEX
  8
AM_VIS
  5
2C4
 10
4.28663
 20
3.94916
 30
0.000000
  70
    32
  0
VERTEX
  8
AM_VIS
  5
2C5
 10
4.28681
 20
3.95070
 30
0.000000
  70
    32
  0
VERTEX
  8
AM_VIS
  5
2C6
 10
4.28698
 20
3.95225
 30
0.000000
  70
    32
  0
VERTEX
  8
AM_VIS
  5
2C7
 10
4.28715
 20
3.95379
 30
0.000000
  70
    32
  0
VERTEX
  8
AM_VIS
  5
2C8
 10
4.28730
 20
3.95533
 30
0.000000
  70
    32
  0
VERTEX
  8
AM_VIS
  5
2C9
 10
4.28745
 20
3.95687
 30
0.000000
  70
    32
  0
VERTEX
  8
AM_VIS
  5
2CA
 10
4.28758
 20
3.95841
 30
0.000000
  70
    32
  0
VERTEX
  8
AM_VIS
  5
2CB
 10
4.28771
 20
3.95995
 30
0.000000
  70
    32
  0
VERTEX
  8
AM_VIS
  5
2CC
 10
4.28783
 20
3.96148
 30
0.000000
  70
    32
  0
VERTEX
  8
AM_VIS
  5
2CD
 10
4.28794
 20
3.96301
 30
0.000000
  70
    32
  0
VERTEX
  8
AM_VIS
  5
2CE
 10
4.28805
 20
3.96455
 30
0.000000
  70
    32
  0
VERTEX
  8
AM_VIS
  5
2CF
 10
4.28814
 20
3.96608
 30
0.000000
  70
    32
  0
VERTEX
  8
AM_VIS
  5
2D0
 10
4.28823
 20
3.96760
 30
0.000000
  70
    32
  0
VERTEX
  8
AM_VIS
  5
2D1
 10
4.28831
 20
3.96913
 30
0.000000
  70
    32
  0
VERTEX
  8
AM_VIS
  5
2D2
 10
4.28838
 20
3.97065
 30
0.000000
  70
    32
  0
VERTEX
  8
AM_VIS
  5
2D3
 10
4.28844
 20
3.97218
 30
0.000000
  70
    32
  0
VERTEX
  8
AM_VIS
  5
2D4
 10
4.28849
 20
3.97370
 30
0.000000
  70
    32
  0
VERTEX
  8
AM_VIS
  5
2D5
 10
4.28854
 20
3.97521
 30
0.000000
  70
    32
  0
VERTEX
  8
AM_VIS
  5
2D6
 10
4.28857
 20
3.97673
 30
0.000000
  70
    32
  0
VERTEX
  8
AM_VIS
  5
2D7
 10
4.28860
 20
3.97824
 30
0.000000
  70
    32
  0
VERTEX
  8
AM_VIS
  5
2D8
 10
4.28862
 20
3.97975
 30
0.000000
  70
    32
  0
VERTEX
  8
AM_VIS
  5
2D9
 10
4.28863
 20
3.98125
 30
0.000000
  70
    32
  0
VERTEX
  8
AM_VIS
  5
2DA
 10
4.28863
 20
3.98276
 30
0.000000
  70
    32
  0
VERTEX
  8
AM_VIS
  5
2DB
 10
4.28862
 20
3.98426
 30
0.000000
  70
    32
  0
VERTEX
  8
AM_VIS
  5
2DC
 10
4.28861
 20
3.98577
 30
0.000000
  70
    32
  0
VERTEX
  8
AM_VIS
  5
2DD
 10
4.28859
 20
3.98728
 30
0.000000
  70
    32
  0
VERTEX
  8
AM_VIS
  5
2DE
 10
4.28855
 20
3.98879
 30
0.000000
  70
    32
  0
VERTEX
  8
AM_VIS
  5
2DF
 10
4.28851
 20
3.99031
 30
0.000000
  70
    32
  0
VERTEX
  8
AM_VIS
  5
2E0
 10
4.28847
 20
3.99183
 30
0.000000
  70
    32
  0
VERTEX
  8
AM_VIS
  5
2E1
 10
4.28841
 20
3.99335
 30
0.000000
  70
    32
  0
VERTEX
  8
AM_VIS
  5
2E2
 10
4.28834
 20
3.99487
 30
0.000000
  70
    32
  0
VERTEX
  8
AM_VIS
  5
2E3
 10
4.28827
 20
3.99640
 30
0.000000
  70
    32
  0
VERTEX
  8
AM_VIS
  5
2E4
 10
4.28819
 20
3.99792
 30
0.000000
  70
    32
  0
VERTEX
  8
AM_VIS
  5
2E5
 10
4.28810
 20
3.99945
 30
0.000000
  70
    32
  0
VERTEX
  8
AM_VIS
  5
2E6
 10
4.28800
 20
4.00098
 30
0.000000
  70
    32
  0
VERTEX
  8
AM_VIS
  5
2E7
 10
4.28789
 20
4.00252
 30
0.000000
  70
    32
  0
VERTEX
  8
AM_VIS
  5
2E8
 10
4.28777
 20
4.00405
 30
0.000000
  70
    32
  0
VERTEX
  8
AM_VIS
  5
2E9
 10
4.28765
 20
4.00559
 30
0.000000
  70
    32
  0
VERTEX
  8
AM_VIS
  5
2EA
 10
4.28752
 20
4.00713
 30
0.000000
  70
    32
  0
VERTEX
  8
AM_VIS
  5
2EB
 10
4.28737
 20
4.00866
 30
0.000000
  70
    32
  0
VERTEX
  8
AM_VIS
  5
2EC
 10
4.28722
 20
4.01020
 30
0.000000
  70
    32
  0
VERTEX
  8
AM_VIS
  5
2ED
 10
4.28707
 20
4.01175
 30
0.000000
  70
    32
  0
VERTEX
  8
AM_VIS
  5
2EE
 10
4.28690
 20
4.01329
 30
0.000000
  70
    32
  0
VERTEX
  8
AM_VIS
  5
2EF
 10
4.28672
 20
4.01483
 30
0.000000
  70
    32
  0
VERTEX
  8
AM_VIS
  5
2F0
 10
4.28654
 20
4.01638
 30
0.000000
  70
    32
  0
VERTEX
  8
AM_VIS
  5
2F1
 10
4.28635
 20
4.01792
 30
0.000000
  70
    32
  0
VERTEX
  8
AM_VIS
  5
2F2
 10
4.28614
 20
4.01947
 30
0.000000
  70
    32
  0
VERTEX
  8
AM_VIS
  5
2F3
 10
4.28593
 20
4.02101
 30
0.000000
  70
    32
  0
VERTEX
  8
AM_VIS
  5
2F4
 10
4.28572
 20
4.02256
 30
0.000000
  70
    32
  0
VERTEX
  8
AM_VIS
  5
2F5
 10
4.28549
 20
4.02411
 30
0.000000
  70
    32
  0
VERTEX
  8
AM_VIS
  5
2F6
 10
4.28525
 20
4.02566
 30
0.000000
  70
    32
  0
VERTEX
  8
AM_VIS
  5
2F7
 10
4.28501
 20
4.02721
 30
0.000000
  70
    32
  0
VERTEX
  8
AM_VIS
  5
2F8
 10
4.28476
 20
4.02875
 30
0.000000
  70
    32
  0
VERTEX
  8
AM_VIS
  5
2F9
 10
4.28450
 20
4.03030
 30
0.000000
  70
    32
  0
VERTEX
  8
AM_VIS
  5
2FA
 10
4.28423
 20
4.03185
 30
0.000000
  70
    32
  0
VERTEX
  8
AM_VIS
  5
2FB
 10
4.28395
 20
4.03340
 30
0.000000
  70
    32
  0
VERTEX
  8
AM_VIS
  5
2FC
 10
4.28366
 20
4.03495
 30
0.000000
  70
    32
  0
VERTEX
  8
AM_VIS
  5
2FD
 10
4.28337
 20
4.03649
 30
0.000000
  70
    32
  0
VERTEX
  8
AM_VIS
  5
2FE
 10
4.28306
 20
4.03804
 30
0.000000
  70
    32
  0
VERTEX
  8
AM_VIS
  5
2FF
 10
4.28275
 20
4.03959
 30
0.000000
  70
    32
  0
VERTEX
  8
AM_VIS
  5
300
 10
4.28243
 20
4.04113
 30
0.000000
  70
    32
  0
VERTEX
  8
AM_VIS
  5
301
 10
4.28210
 20
4.04268
 30
0.000000
  70
    32
  0
VERTEX
  8
AM_VIS
  5
302
 10
4.28176
 20
4.04422
 30
0.000000
  70
    32
  0
VERTEX
  8
AM_VIS
  5
303
 10
4.28141
 20
4.04577
 30
0.000000
  70
    32
  0
VERTEX
  8
AM_VIS
  5
304
 10
4.28106
 20
4.04731
 30
0.000000
  70
    32
  0
VERTEX
  8
AM_VIS
  5
305
 10
4.28069
 20
4.04885
 30
0.000000
  70
    32
  0
VERTEX
  8
AM_VIS
  5
306
 10
4.28032
 20
4.05039
 30
0.000000
  70
    32
  0
VERTEX
  8
AM_VIS
  5
307
 10
4.27994
 20
4.05193
 30
0.000000
  70
    32
  0
VERTEX
  8
AM_VIS
  5
308
 10
4.27955
 20
4.05346
 30
0.000000
  70
    32
  0
VERTEX
  8
AM_VIS
  5
309
 10
4.27915
 20
4.05500
 30
0.000000
  70
    32
  0
VERTEX
  8
AM_VIS
  5
30A
 10
4.27874
 20
4.05653
 30
0.000000
  70
    32
  0
VERTEX
  8
AM_VIS
  5
30B
 10
4.27832
 20
4.05807
 30
0.000000
  70
    32
  0
VERTEX
  8
AM_VIS
  5
30C
 10
4.27790
 20
4.05960
 30
0.000000
  70
    32
  0
VERTEX
  8
AM_VIS
  5
30D
 10
4.27747
 20
4.06112
 30
0.000000
  70
    32
  0
VERTEX
  8
AM_VIS
  5
30E
 10
4.27702
 20
4.06265
 30
0.000000
  70
    32
  0
VERTEX
  8
AM_VIS
  5
30F
 10
4.27657
 20
4.06417
 30
0.000000
  70
    32
  0
VERTEX
  8
AM_VIS
  5
310
 10
4.27611
 20
4.06570
 30
0.000000
  70
    32
  0
VERTEX
  8
AM_VIS
  5
311
 10
4.27564
 20
4.06722
 30
0.000000
  70
    32
  0
VERTEX
  8
AM_VIS
  5
312
 10
4.27517
 20
4.06873
 30
0.000000
  70
    32
  0
VERTEX
  8
AM_VIS
  5
313
 10
4.27468
 20
4.07025
 30
0.000000
  70
    32
  0
VERTEX
  8
AM_VIS
  5
314
 10
4.27419
 20
4.07176
 30
0.000000
  70
    32
  0
VERTEX
  8
AM_VIS
  5
315
 10
4.27368
 20
4.07327
 30
0.000000
  70
    32
  0
VERTEX
  8
AM_VIS
  5
316
 10
4.27317
 20
4.07478
 30
0.000000
  70
    32
  0
VERTEX
  8
AM_VIS
  5
317
 10
4.27265
 20
4.07628
 30
0.000000
  70
    32
  0
VERTEX
  8
AM_VIS
  5
318
 10
4.27212
 20
4.07778
 30
0.000000
  70
    32
  0
VERTEX
  8
AM_VIS
  5
319
 10
4.27158
 20
4.07928
 30
0.000000
  70
    32
  0
VERTEX
  8
AM_VIS
  5
31A
 10
4.27104
 20
4.08077
 30
0.000000
  70
    32
  0
VERTEX
  8
AM_VIS
  5
31B
 10
4.27048
 20
4.08226
 30
0.000000
  70
    32
  0
VERTEX
  8
AM_VIS
  5
31C
 10
4.26992
 20
4.08375
 30
0.000000
  70
    32
  0
VERTEX
  8
AM_VIS
  5
31D
 10
4.26934
 20
4.08524
 30
0.000000
  70
    32
  0
VERTEX
  8
AM_VIS
  5
31E
 10
4.26876
 20
4.08672
 30
0.000000
  70
    32
  0
VERTEX
  8
AM_VIS
  5
31F
 10
4.26817
 20
4.08819
 30
0.000000
  70
    32
  0
VERTEX
  8
AM_VIS
  5
320
 10
4.26757
 20
4.08967
 30
0.000000
  70
    32
  0
VERTEX
  8
AM_VIS
  5
321
 10
4.26697
 20
4.09114
 30
0.000000
  70
    32
  0
VERTEX
  8
AM_VIS
  5
322
 10
4.26635
 20
4.09260
 30
0.000000
  70
    32
  0
VERTEX
  8
AM_VIS
  5
323
 10
4.26572
 20
4.09406
 30
0.000000
  70
    32
  0
VERTEX
  8
AM_VIS
  5
324
 10
4.26509
 20
4.09552
 30
0.000000
  70
    32
  0
VERTEX
  8
AM_VIS
  5
325
 10
4.26445
 20
4.09697
 30
0.000000
  70
    32
  0
VERTEX
  8
AM_VIS
  5
326
 10
4.26380
 20
4.09842
 30
0.000000
  70
    32
  0
VERTEX
  8
AM_VIS
  5
327
 10
4.26314
 20
4.09987
 30
0.000000
  70
    32
  0
VERTEX
  8
AM_VIS
  5
328
 10
4.26248
 20
4.10131
 30
0.000000
  70
    32
  0
VERTEX
  8
AM_VIS
  5
329
 10
4.26180
 20
4.10275
 30
0.000000
  70
    32
  0
VERTEX
  8
AM_VIS
  5
32A
 10
4.26112
 20
4.10418
 30
0.000000
  70
    32
  0
VERTEX
  8
AM_VIS
  5
32B
 10
4.26043
 20
4.10561
 30
0.000000
  70
    32
  0
VERTEX
  8
AM_VIS
  5
32C
 10
4.25973
 20
4.10703
 30
0.000000
  70
    32
  0
VERTEX
  8
AM_VIS
  5
32D
 10
4.25903
 20
4.10845
 30
0.000000
  70
    32
  0
VERTEX
  8
AM_VIS
  5
32E
 10
4.25832
 20
4.10986
 30
0.000000
  70
    32
  0
VERTEX
  8
AM_VIS
  5
32F
 10
4.25759
 20
4.11127
 30
0.000000
  70
    32
  0
VERTEX
  8
AM_VIS
  5
330
 10
4.25687
 20
4.11268
 30
0.000000
  70
    32
  0
VERTEX
  8
AM_VIS
  5
331
 10
4.25613
 20
4.11408
 30
0.000000
  70
    32
  0
VERTEX
  8
AM_VIS
  5
332
 10
4.25539
 20
4.11547
 30
0.000000
  70
    32
  0
VERTEX
  8
AM_VIS
  5
333
 10
4.25464
 20
4.11686
 30
0.000000
  70
    32
  0
VERTEX
  8
AM_VIS
  5
334
 10
4.25388
 20
4.11824
 30
0.000000
  70
    32
  0
VERTEX
  8
AM_VIS
  5
335
 10
4.25311
 20
4.11962
 30
0.000000
  70
    32
  0
VERTEX
  8
AM_VIS
  5
336
 10
4.25234
 20
4.12100
 30
0.000000
  70
    32
  0
VERTEX
  8
AM_VIS
  5
337
 10
4.25156
 20
4.12237
 30
0.000000
  70
    32
  0
VERTEX
  8
AM_VIS
  5
338
 10
4.25078
 20
4.12373
 30
0.000000
  70
    32
  0
VERTEX
  8
AM_VIS
  5
339
 10
4.24998
 20
4.12509
 30
0.000000
  70
    32
  0
VERTEX
  8
AM_VIS
  5
33A
 10
4.24918
 20
4.12644
 30
0.000000
  70
    32
  0
VERTEX
  8
AM_VIS
  5
33B
 10
4.24838
 20
4.12779
 30
0.000000
  70
    32
  0
VERTEX
  8
AM_VIS
  5
33C
 10
4.24756
 20
4.12913
 30
0.000000
  70
    32
  0
VERTEX
  8
AM_VIS
  5
33D
 10
4.24674
 20
4.13047
 30
0.000000
  70
    32
  0
VERTEX
  8
AM_VIS
  5
33E
 10
4.24591
 20
4.13180
 30
0.000000
  70
    32
  0
VERTEX
  8
AM_VIS
  5
33F
 10
4.24508
 20
4.13312
 30
0.000000
  70
    32
  0
VERTEX
  8
AM_VIS
  5
340
 10
4.24424
 20
4.13444
 30
0.000000
  70
    32
  0
VERTEX
  8
AM_VIS
  5
341
 10
4.24339
 20
4.13575
 30
0.000000
  70
    32
  0
VERTEX
  8
AM_VIS
  5
342
 10
4.24254
 20
4.13706
 30
0.000000
  70
    32
  0
VERTEX
  8
AM_VIS
  5
343
 10
4.24168
 20
4.13836
 30
0.000000
  70
    32
  0
VERTEX
  8
AM_VIS
  5
344
 10
4.24082
 20
4.13965
 30
0.000000
  70
    32
  0
VERTEX
  8
AM_VIS
  5
345
 10
4.23995
 20
4.14094
 30
0.000000
  70
    32
  0
VERTEX
  8
AM_VIS
  5
346
 10
4.23907
 20
4.14223
 30
0.000000
  70
    32
  0
VERTEX
  8
AM_VIS
  5
347
 10
4.23818
 20
4.14350
 30
0.000000
  70
    32
  0
VERTEX
  8
AM_VIS
  5
348
 10
4.23729
 20
4.14477
 30
0.000000
  70
    32
  0
VERTEX
  8
AM_VIS
  5
349
 10
4.23640
 20
4.14603
 30
0.000000
  70
    32
  0
VERTEX
  8
AM_VIS
  5
34A
 10
4.23550
 20
4.14729
 30
0.000000
  70
    32
  0
VERTEX
  8
AM_VIS
  5
34B
 10
4.23459
 20
4.14854
 30
0.000000
  70
    32
  0
VERTEX
  8
AM_VIS
  5
34C
 10
4.23368
 20
4.14978
 30
0.000000
  70
    32
  0
VERTEX
  8
AM_VIS
  5
34D
 10
4.23276
 20
4.15102
 30
0.000000
  70
    32
  0
VERTEX
  8
AM_VIS
  5
34E
 10
4.23183
 20
4.15225
 30
0.000000
  70
    32
  0
VERTEX
  8
AM_VIS
  5
34F
 10
4.23091
 20
4.15347
 30
0.000000
  70
    32
  0
VERTEX
  8
AM_VIS
  5
350
 10
4.22997
 20
4.15469
 30
0.000000
  70
    32
  0
VERTEX
  8
AM_VIS
  5
351
 10
4.22903
 20
4.15590
 30
0.000000
  70
    32
  0
VERTEX
  8
AM_VIS
  5
352
 10
4.22808
 20
4.15710
 30
0.000000
  70
    32
  0
VERTEX
  8
AM_VIS
  5
353
 10
4.22713
 20
4.15829
 30
0.000000
  70
    32
  0
VERTEX
  8
AM_VIS
  5
354
 10
4.22618
 20
4.15948
 30
0.000000
  70
    32
  0
VERTEX
  8
AM_VIS
  5
355
 10
4.22522
 20
4.16066
 30
0.000000
  70
    32
  0
VERTEX
  8
AM_VIS
  5
356
 10
4.22425
 20
4.16183
 30
0.000000
  70
    32
  0
VERTEX
  8
AM_VIS
  5
357
 10
4.22328
 20
4.16300
 30
0.000000
  70
    32
  0
VERTEX
  8
AM_VIS
  5
358
 10
4.22230
 20
4.16415
 30
0.000000
  70
    32
  0
VERTEX
  8
AM_VIS
  5
359
 10
4.22132
 20
4.16530
 30
0.000000
  70
    32
  0
VERTEX
  8
AM_VIS
  5
35A
 10
4.22034
 20
4.16645
 30
0.000000
  70
    32
  0
VERTEX
  8
AM_VIS
  5
35B
 10
4.21935
 20
4.16758
 30
0.000000
  70
    32
  0
VERTEX
  8
AM_VIS
  5
35C
 10
4.21835
 20
4.16871
 30
0.000000
  70
    32
  0
VERTEX
  8
AM_VIS
  5
35D
 10
4.21735
 20
4.16983
 30
0.000000
  70
    32
  0
VERTEX
  8
AM_VIS
  5
35E
 10
4.21635
 20
4.17094
 30
0.000000
  70
    32
  0
VERTEX
  8
AM_VIS
  5
35F
 10
4.21534
 20
4.17204
 30
0.000000
  70
    32
  0
VERTEX
  8
AM_VIS
  5
360
 10
4.21433
 20
4.17314
 30
0.000000
  70
    32
  0
VERTEX
  8
AM_VIS
  5
361
 10
4.21331
 20
4.17423
 30
0.000000
  70
    32
  0
VERTEX
  8
AM_VIS
  5
362
 10
4.21229
 20
4.17531
 30
0.000000
  70
    32
  0
VERTEX
  8
AM_VIS
  5
363
 10
4.21126
 20
4.17639
 30
0.000000
  70
    32
  0
VERTEX
  8
AM_VIS
  5
364
 10
4.21022
 20
4.17746
 30
0.000000
  70
    32
  0
VERTEX
  8
AM_VIS
  5
365
 10
4.20917
 20
4.17853
 30
0.000000
  70
    32
  0
VERTEX
  8
AM_VIS
  5
366
 10
4.20812
 20
4.17960
 30
0.000000
  70
    32
  0
VERTEX
  8
AM_VIS
  5
367
 10
4.20705
 20
4.18066
 30
0.000000
  70
    32
  0
VERTEX
  8
AM_VIS
  5
368
 10
4.20598
 20
4.18172
 30
0.000000
  70
    32
  0
VERTEX
  8
AM_VIS
  5
369
 10
4.20490
 20
4.18277
 30
0.000000
  70
    32
  0
VERTEX
  8
AM_VIS
  5
36A
 10
4.20381
 20
4.18382
 30
0.000000
  70
    32
  0
VERTEX
  8
AM_VIS
  5
36B
 10
4.20272
 20
4.18486
 30
0.000000
  70
    32
  0
VERTEX
  8
AM_VIS
  5
36C
 10
4.20161
 20
4.18590
 30
0.000000
  70
    32
  0
VERTEX
  8
AM_VIS
  5
36D
 10
4.20050
 20
4.18694
 30
0.000000
  70
    32
  0
VERTEX
  8
AM_VIS
  5
36E
 10
4.19938
 20
4.18797
 30
0.000000
  70
    32
  0
VERTEX
  8
AM_VIS
  5
36F
 10
4.19826
 20
4.18899
 30
0.000000
  70
    32
  0
VERTEX
  8
AM_VIS
  5
370
 10
4.19713
 20
4.19001
 30
0.000000
  70
    32
  0
VERTEX
  8
AM_VIS
  5
371
 10
4.19598
 20
4.19103
 30
0.000000
  70
    32
  0
VERTEX
  8
AM_VIS
  5
372
 10
4.19484
 20
4.19204
 30
0.000000
  70
    32
  0
VERTEX
  8
AM_VIS
  5
373
 10
4.19368
 20
4.19304
 30
0.000000
  70
    32
  0
VERTEX
  8
AM_VIS
  5
374
 10
4.19252
 20
4.19404
 30
0.000000
  70
    32
  0
VERTEX
  8
AM_VIS
  5
375
 10
4.19135
 20
4.19504
 30
0.000000
  70
    32
  0
VERTEX
  8
AM_VIS
  5
376
 10
4.19017
 20
4.19603
 30
0.000000
  70
    32
  0
VERTEX
  8
AM_VIS
  5
377
 10
4.18899
 20
4.19701
 30
0.000000
  70
    32
  0
VERTEX
  8
AM_VIS
  5
378
 10
4.18780
 20
4.19799
 30
0.000000
  70
    32
  0
VERTEX
  8
AM_VIS
  5
379
 10
4.18660
 20
4.19896
 30
0.000000
  70
    32
  0
VERTEX
  8
AM_VIS
  5
37A
 10
4.18539
 20
4.19993
 30
0.000000
  70
    32
  0
VERTEX
  8
AM_VIS
  5
37B
 10
4.18418
 20
4.20089
 30
0.000000
  70
    32
  0
VERTEX
  8
AM_VIS
  5
37C
 10
4.18296
 20
4.20184
 30
0.000000
  70
    32
  0
VERTEX
  8
AM_VIS
  5
37D
 10
4.18174
 20
4.20279
 30
0.000000
  70
    32
  0
VERTEX
  8
AM_VIS
  5
37E
 10
4.18051
 20
4.20373
 30
0.000000
  70
    32
  0
VERTEX
  8
AM_VIS
  5
37F
 10
4.17927
 20
4.20467
 30
0.000000
  70
    32
  0
VERTEX
  8
AM_VIS
  5
380
 10
4.17802
 20
4.20560
 30
0.000000
  70
    32
  0
VERTEX
  8
AM_VIS
  5
381
 10
4.17677
 20
4.20653
 30
0.000000
  70
    32
  0
VERTEX
  8
AM_VIS
  5
382
 10
4.17551
 20
4.20745
 30
0.000000
  70
    32
  0
VERTEX
  8
AM_VIS
  5
383
 10
4.17425
 20
4.20836
 30
0.000000
  70
    32
  0
VERTEX
  8
AM_VIS
  5
384
 10
4.17298
 20
4.20926
 30
0.000000
  70
    32
  0
VERTEX
  8
AM_VIS
  5
385
 10
4.17170
 20
4.21016
 30
0.000000
  70
    32
  0
VERTEX
  8
AM_VIS
  5
386
 10
4.17042
 20
4.21105
 30
0.000000
  70
    32
  0
VERTEX
  8
AM_VIS
  5
387
 10
4.16913
 20
4.21194
 30
0.000000
  70
    32
  0
VERTEX
  8
AM_VIS
  5
388
 10
4.16784
 20
4.21282
 30
0.000000
  70
    32
  0
VERTEX
  8
AM_VIS
  5
389
 10
4.16654
 20
4.21369
 30
0.000000
  70
    32
  0
VERTEX
  8
AM_VIS
  5
38A
 10
4.16523
 20
4.21455
 30
0.000000
  70
    32
  0
VERTEX
  8
AM_VIS
  5
38B
 10
4.16392
 20
4.21541
 30
0.000000
  70
    32
  0
VERTEX
  8
AM_VIS
  5
38C
 10
4.16260
 20
4.21626
 30
0.000000
  70
    32
  0
VERTEX
  8
AM_VIS
  5
38D
 10
4.16128
 20
4.21710
 30
0.000000
  70
    32
  0
VERTEX
  8
AM_VIS
  5
38E
 10
4.15995
 20
4.21794
 30
0.000000
  70
    32
  0
VERTEX
  8
AM_VIS
  5
38F
 10
4.15861
 20
4.21877
 30
0.000000
  70
    32
  0
VERTEX
  8
AM_VIS
  5
390
 10
4.15727
 20
4.21959
 30
0.000000
  70
    32
  0
VERTEX
  8
AM_VIS
  5
391
 10
4.15593
 20
4.22040
 30
0.000000
  70
    32
  0
VERTEX
  8
AM_VIS
  5
392
 10
4.15458
 20
4.22121
 30
0.000000
  70
    32
  0
VERTEX
  8
AM_VIS
  5
393
 10
4.15322
 20
4.22201
 30
0.000000
  70
    32
  0
VERTEX
  8
AM_VIS
  5
394
 10
4.15186
 20
4.22280
 30
0.000000
  70
    32
  0
VERTEX
  8
AM_VIS
  5
395
 10
4.15049
 20
4.22358
 30
0.000000
  70
    32
  0
VERTEX
  8
AM_VIS
  5
396
 10
4.14912
 20
4.22435
 30
0.000000
  70
    32
  0
VERTEX
  8
AM_VIS
  5
397
 10
4.14774
 20
4.22512
 30
0.000000
  70
    32
  0
VERTEX
  8
AM_VIS
  5
398
 10
4.14636
 20
4.22588
 30
0.000000
  70
    32
  0
VERTEX
  8
AM_VIS
  5
399
 10
4.14497
 20
4.22663
 30
0.000000
  70
    32
  0
VERTEX
  8
AM_VIS
  5
39A
 10
4.14358
 20
4.22737
 30
0.000000
  70
    32
  0
VERTEX
  8
AM_VIS
  5
39B
 10
4.14218
 20
4.22810
 30
0.000000
  70
    32
  0
VERTEX
  8
AM_VIS
  5
39C
 10
4.14078
 20
4.22883
 30
0.000000
  70
    32
  0
VERTEX
  8
AM_VIS
  5
39D
 10
4.13937
 20
4.22955
 30
0.000000
  70
    32
  0
VERTEX
  8
AM_VIS
  5
39E
 10
4.13796
 20
4.23025
 30
0.000000
  70
    32
  0
VERTEX
  8
AM_VIS
  5
39F
 10
4.13654
 20
4.23095
 30
0.000000
  70
    32
  0
VERTEX
  8
AM_VIS
  5
3A0
 10
4.13512
 20
4.23164
 30
0.000000
  70
    32
  0
VERTEX
  8
AM_VIS
  5
3A1
 10
4.13370
 20
4.23233
 30
0.000000
  70
    32
  0
VERTEX
  8
AM_VIS
  5
3A2
 10
4.13227
 20
4.23300
 30
0.000000
  70
    32
  0
VERTEX
  8
AM_VIS
  5
3A3
 10
4.13084
 20
4.23366
 30
0.000000
  70
    32
  0
VERTEX
  8
AM_VIS
  5
3A4
 10
4.12940
 20
4.23432
 30
0.000000
  70
    32
  0
VERTEX
  8
AM_VIS
  5
3A5
 10
4.12796
 20
4.23496
 30
0.000000
  70
    32
  0
VERTEX
  8
AM_VIS
  5
3A6
 10
4.12651
 20
4.23560
 30
0.000000
  70
    32
  0
VERTEX
  8
AM_VIS
  5
3A7
 10
4.12506
 20
4.23623
 30
0.000000
  70
    32
  0
VERTEX
  8
AM_VIS
  5
3A8
 10
4.12360
 20
4.23685
 30
0.000000
  70
    32
  0
VERTEX
  8
AM_VIS
  5
3A9
 10
4.12215
 20
4.23745
 30
0.000000
  70
    32
  0
VERTEX
  8
AM_VIS
  5
3AA
 10
4.12068
 20
4.23805
 30
0.000000
  70
    32
  0
VERTEX
  8
AM_VIS
  5
3AB
 10
4.11922
 20
4.23864
 30
0.000000
  70
    32
  0
VERTEX
  8
AM_VIS
  5
3AC
 10
4.11775
 20
4.23923
 30
0.000000
  70
    32
  0
VERTEX
  8
AM_VIS
  5
3AD
 10
4.11627
 20
4.23980
 30
0.000000
  70
    32
  0
VERTEX
  8
AM_VIS
  5
3AE
 10
4.11480
 20
4.24036
 30
0.000000
  70
    32
  0
VERTEX
  8
AM_VIS
  5
3AF
 10
4.11332
 20
4.24091
 30
0.000000
  70
    32
  0
VERTEX
  8
AM_VIS
  5
3B0
 10
4.11183
 20
4.24146
 30
0.000000
  70
    32
  0
VERTEX
  8
AM_VIS
  5
3B1
 10
4.11035
 20
4.24199
 30
0.000000
  70
    32
  0
VERTEX
  8
AM_VIS
  5
3B2
 10
4.10886
 20
4.24252
 30
0.000000
  70
    32
  0
VERTEX
  8
AM_VIS
  5
3B3
 10
4.10737
 20
4.24303
 30
0.000000
  70
    32
  0
VERTEX
  8
AM_VIS
  5
3B4
 10
4.10587
 20
4.24354
 30
0.000000
  70
    32
  0
VERTEX
  8
AM_VIS
  5
3B5
 10
4.10437
 20
4.24404
 30
0.000000
  70
    32
  0
VERTEX
  8
AM_VIS
  5
3B6
 10
4.10287
 20
4.24452
 30
0.000000
  70
    32
  0
VERTEX
  8
AM_VIS
  5
3B7
 10
4.10137
 20
4.24500
 30
0.000000
  70
    32
  0
VERTEX
  8
AM_VIS
  5
3B8
 10
4.09986
 20
4.24547
 30
0.000000
  70
    32
  0
VERTEX
  8
AM_VIS
  5
3B9
 10
4.09836
 20
4.24593
 30
0.000000
  70
    32
  0
VERTEX
  8
AM_VIS
  5
3BA
 10
4.09685
 20
4.24638
 30
0.000000
  70
    32
  0
VERTEX
  8
AM_VIS
  5
3BB
 10
4.09533
 20
4.24682
 30
0.000000
  70
    32
  0
VERTEX
  8
AM_VIS
  5
3BC
 10
4.09382
 20
4.24725
 30
0.000000
  70
    32
  0
VERTEX
  8
AM_VIS
  5
3BD
 10
4.09230
 20
4.24768
 30
0.000000
  70
    32
  0
VERTEX
  8
AM_VIS
  5
3BE
 10
4.09079
 20
4.24809
 30
0.000000
  70
    32
  0
VERTEX
  8
AM_VIS
  5
3BF
 10
4.08927
 20
4.24849
 30
0.000000
  70
    32
  0
VERTEX
  8
AM_VIS
  5
3C0
 10
4.08774
 20
4.24889
 30
0.000000
  70
    32
  0
VERTEX
  8
AM_VIS
  5
3C1
 10
4.08622
 20
4.24927
 30
0.000000
  70
    32
  0
VERTEX
  8
AM_VIS
  5
3C2
 10
4.08470
 20
4.24965
 30
0.000000
  70
    32
  0
VERTEX
  8
AM_VIS
  5
3C3
 10
4.08317
 20
4.25002
 30
0.000000
  70
    32
  0
VERTEX
  8
AM_VIS
  5
3C4
 10
4.08164
 20
4.25037
 30
0.000000
  70
    32
  0
VERTEX
  8
AM_VIS
  5
3C5
 10
4.08011
 20
4.25072
 30
0.000000
  70
    32
  0
VERTEX
  8
AM_VIS
  5
3C6
 10
4.07858
 20
4.25106
 30
0.000000
  70
    32
  0
VERTEX
  8
AM_VIS
  5
3C7
 10
4.07705
 20
4.25139
 30
0.000000
  70
    32
  0
VERTEX
  8
AM_VIS
  5
3C8
 10
4.07552
 20
4.25171
 30
0.000000
  70
    32
  0
VERTEX
  8
AM_VIS
  5
3C9
 10
4.07399
 20
4.25202
 30
0.000000
  70
    32
  0
VERTEX
  8
AM_VIS
  5
3CA
 10
4.07246
 20
4.25232
 30
0.000000
  70
    32
  0
VERTEX
  8
AM_VIS
  5
3CB
 10
4.07092
 20
4.25261
 30
0.000000
  70
    32
  0
VERTEX
  8
AM_VIS
  5
3CC
 10
4.06939
 20
4.25290
 30
0.000000
  70
    32
  0
VERTEX
  8
AM_VIS
  5
3CD
 10
4.06786
 20
4.25317
 30
0.000000
  70
    32
  0
VERTEX
  8
AM_VIS
  5
3CE
 10
4.06632
 20
4.25343
 30
0.000000
  70
    32
  0
VERTEX
  8
AM_VIS
  5
3CF
 10
4.06479
 20
4.25369
 30
0.000000
  70
    32
  0
VERTEX
  8
AM_VIS
  5
3D0
 10
4.06325
 20
4.25393
 30
0.000000
  70
    32
  0
VERTEX
  8
AM_VIS
  5
3D1
 10
4.06172
 20
4.25417
 30
0.000000
  70
    32
  0
VERTEX
  8
AM_VIS
  5
3D2
 10
4.06018
 20
4.25439
 30
0.000000
  70
    32
  0
VERTEX
  8
AM_VIS
  5
3D3
 10
4.05865
 20
4.25461
 30
0.000000
  70
    32
  0
VERTEX
  8
AM_VIS
  5
3D4
 10
4.05711
 20
4.25482
 30
0.000000
  70
    32
  0
VERTEX
  8
AM_VIS
  5
3D5
 10
4.05558
 20
4.25502
 30
0.000000
  70
    32
  0
VERTEX
  8
AM_VIS
  5
3D6
 10
4.05405
 20
4.25520
 30
0.000000
  70
    32
  0
VERTEX
  8
AM_VIS
  5
3D7
 10
4.05251
 20
4.25538
 30
0.000000
  70
    32
  0
VERTEX
  8
AM_VIS
  5
3D8
 10
4.05098
 20
4.25555
 30
0.000000
  70
    32
  0
VERTEX
  8
AM_VIS
  5
3D9
 10
4.04945
 20
4.25571
 30
0.000000
  70
    32
  0
VERTEX
  8
AM_VIS
  5
3DA
 10
4.04792
 20
4.25586
 30
0.000000
  70
    32
  0
VERTEX
  8
AM_VIS
  5
3DB
 10
4.04639
 20
4.25601
 30
0.000000
  70
    32
  0
VERTEX
  8
AM_VIS
  5
3DC
 10
4.04486
 20
4.25614
 30
0.000000
  70
    32
  0
VERTEX
  8
AM_VIS
  5
3DD
 10
4.04334
 20
4.25626
 30
0.000000
  70
    32
  0
VERTEX
  8
AM_VIS
  5
3DE
 10
4.04181
 20
4.25637
 30
0.000000
  70
    32
  0
VERTEX
  8
AM_VIS
  5
3DF
 10
4.04029
 20
4.25648
 30
0.000000
  70
    32
  0
VERTEX
  8
AM_VIS
  5
3E0
 10
4.03876
 20
4.25657
 30
0.000000
  70
    32
  0
VERTEX
  8
AM_VIS
  5
3E1
 10
4.03724
 20
4.25666
 30
0.000000
  70
    32
  0
VERTEX
  8
AM_VIS
  5
3E2
 10
4.03572
 20
4.25673
 30
0.000000
  70
    32
  0
VERTEX
  8
AM_VIS
  5
3E3
 10
4.03421
 20
4.25680
 30
0.000000
  70
    32
  0
VERTEX
  8
AM_VIS
  5
3E4
 10
4.03269
 20
4.25685
 30
0.000000
  70
    32
  0
VERTEX
  8
AM_VIS
  5
3E5
 10
4.03118
 20
4.25690
 30
0.000000
  70
    32
  0
VERTEX
  8
AM_VIS
  5
3E6
 10
4.02966
 20
4.25694
 30
0.000000
  70
    32
  0
VERTEX
  8
AM_VIS
  5
3E7
 10
4.02815
 20
4.25697
 30
0.000000
  70
    32
  0
VERTEX
  8
AM_VIS
  5
3E8
 10
4.02665
 20
4.25699
 30
0.000000
  70
    32
  0
VERTEX
  8
AM_VIS
  5
3E9
 10
4.02514
 20
4.25700
 30
0.000000
  70
    32
  0
VERTEX
  8
AM_VIS
  5
3EA
 10
4.02364
 20
4.25700
 30
0.000000
  70
    32
  0
VERTEX
  8
AM_VIS
  5
3EB
 10
4.02213
 20
4.25699
 30
0.000000
  70
    32
  0
VERTEX
  8
AM_VIS
  5
3EC
 10
4.02063
 20
4.25697
 30
0.000000
  70
    32
  0
VERTEX
  8
AM_VIS
  5
3ED
 10
4.01912
 20
4.25694
 30
0.000000
  70
    32
  0
VERTEX
  8
AM_VIS
  5
3EE
 10
4.01760
 20
4.25690
 30
0.000000
  70
    32
  0
VERTEX
  8
AM_VIS
  5
3EF
 10
4.01609
 20
4.25685
 30
0.000000
  70
    32
  0
VERTEX
  8
AM_VIS
  5
3F0
 10
4.01457
 20
4.25680
 30
0.000000
  70
    32
  0
VERTEX
  8
AM_VIS
  5
3F1
 10
4.01306
 20
4.25673
 30
0.000000
  70
    32
  0
VERTEX
  8
AM_VIS
  5
3F2
 10
4.01154
 20
4.25666
 30
0.000000
  70
    32
  0
VERTEX
  8
AM_VIS
  5
3F3
 10
4.01002
 20
4.25657
 30
0.000000
  70
    32
  0
VERTEX
  8
AM_VIS
  5
3F4
 10
4.00849
 20
4.25648
 30
0.000000
  70
    32
  0
VERTEX
  8
AM_VIS
  5
3F5
 10
4.00697
 20
4.25637
 30
0.000000
  70
    32
  0
VERTEX
  8
AM_VIS
  5
3F6
 10
4.00544
 20
4.25626
 30
0.000000
  70
    32
  0
VERTEX
  8
AM_VIS
  5
3F7
 10
4.00392
 20
4.25614
 30
0.000000
  70
    32
  0
VERTEX
  8
AM_VIS
  5
3F8
 10
4.00239
 20
4.25601
 30
0.000000
  70
    32
  0
VERTEX
  8
AM_VIS
  5
3F9
 10
4.00086
 20
4.25586
 30
0.000000
  70
    32
  0
VERTEX
  8
AM_VIS
  5
3FA
 10
3.99933
 20
4.25571
 30
0.000000
  70
    32
  0
VERTEX
  8
AM_VIS
  5
3FB
 10
3.99780
 20
4.25555
 30
0.000000
  70
    32
  0
VERTEX
  8
AM_VIS
  5
3FC
 10
3.99626
 20
4.25538
 30
0.000000
  70
    32
  0
VERTEX
  8
AM_VIS
  5
3FD
 10
3.99473
 20
4.25520
 30
0.000000
  70
    32
  0
VERTEX
  8
AM_VIS
  5
3FE
 10
3.99320
 20
4.25502
 30
0.000000
  70
    32
  0
VERTEX
  8
AM_VIS
  5
3FF
 10
3.99166
 20
4.25482
 30
0.000000
  70
    32
  0
VERTEX
  8
AM_VIS
  5
400
 10
3.99013
 20
4.25461
 30
0.000000
  70
    32
  0
VERTEX
  8
AM_VIS
  5
401
 10
3.98860
 20
4.25439
 30
0.000000
  70
    32
  0
VERTEX
  8
AM_VIS
  5
402
 10
3.98706
 20
4.25417
 30
0.000000
  70
    32
  0
VERTEX
  8
AM_VIS
  5
403
 10
3.98553
 20
4.25393
 30
0.000000
  70
    32
  0
VERTEX
  8
AM_VIS
  5
404
 10
3.98399
 20
4.25369
 30
0.000000
  70
    32
  0
VERTEX
  8
AM_VIS
  5
405
 10
3.98246
 20
4.25343
 30
0.000000
  70
    32
  0
VERTEX
  8
AM_VIS
  5
406
 10
3.98092
 20
4.25317
 30
0.000000
  70
    32
  0
VERTEX
  8
AM_VIS
  5
407
 10
3.97939
 20
4.25290
 30
0.000000
  70
    32
  0
VERTEX
  8
AM_VIS
  5
408
 10
3.97785
 20
4.25261
 30
0.000000
  70
    32
  0
VERTEX
  8
AM_VIS
  5
409
 10
3.97632
 20
4.25232
 30
0.000000
  70
    32
  0
VERTEX
  8
AM_VIS
  5
40A
 10
3.97479
 20
4.25202
 30
0.000000
  70
    32
  0
VERTEX
  8
AM_VIS
  5
40B
 10
3.97326
 20
4.25171
 30
0.000000
  70
    32
  0
VERTEX
  8
AM_VIS
  5
40C
 10
3.97172
 20
4.25139
 30
0.000000
  70
    32
  0
VERTEX
  8
AM_VIS
  5
40D
 10
3.97019
 20
4.25106
 30
0.000000
  70
    32
  0
VERTEX
  8
AM_VIS
  5
40E
 10
3.96866
 20
4.25072
 30
0.000000
  70
    32
  0
VERTEX
  8
AM_VIS
  5
40F
 10
3.96714
 20
4.25037
 30
0.000000
  70
    32
  0
VERTEX
  8
AM_VIS
  5
410
 10
3.96561
 20
4.25002
 30
0.000000
  70
    32
  0
VERTEX
  8
AM_VIS
  5
411
 10
3.96408
 20
4.24965
 30
0.000000
  70
    32
  0
VERTEX
  8
AM_VIS
  5
412
 10
3.96256
 20
4.24927
 30
0.000000
  70
    32
  0
VERTEX
  8
AM_VIS
  5
413
 10
3.96104
 20
4.24889
 30
0.000000
  70
    32
  0
VERTEX
  8
AM_VIS
  5
414
 10
3.95951
 20
4.24849
 30
0.000000
  70
    32
  0
VERTEX
  8
AM_VIS
  5
415
 10
3.95799
 20
4.24809
 30
0.000000
  70
    32
  0
VERTEX
  8
AM_VIS
  5
416
 10
3.95648
 20
4.24768
 30
0.000000
  70
    32
  0
VERTEX
  8
AM_VIS
  5
417
 10
3.95496
 20
4.24725
 30
0.000000
  70
    32
  0
VERTEX
  8
AM_VIS
  5
418
 10
3.95345
 20
4.24682
 30
0.000000
  70
    32
  0
VERTEX
  8
AM_VIS
  5
419
 10
3.95193
 20
4.24638
 30
0.000000
  70
    32
  0
VERTEX
  8
AM_VIS
  5
41A
 10
3.95042
 20
4.24593
 30
0.000000
  70
    32
  0
VERTEX
  8
AM_VIS
  5
41B
 10
3.94891
 20
4.24547
 30
0.000000
  70
    32
  0
VERTEX
  8
AM_VIS
  5
41C
 10
3.94741
 20
4.24500
 30
0.000000
  70
    32
  0
VERTEX
  8
AM_VIS
  5
41D
 10
3.94591
 20
4.24452
 30
0.000000
  70
    32
  0
VERTEX
  8
AM_VIS
  5
41E
 10
3.94441
 20
4.24404
 30
0.000000
  70
    32
  0
VERTEX
  8
AM_VIS
  5
41F
 10
3.94291
 20
4.24354
 30
0.000000
  70
    32
  0
VERTEX
  8
AM_VIS
  5
420
 10
3.94141
 20
4.24303
 30
0.000000
  70
    32
  0
VERTEX
  8
AM_VIS
  5
421
 10
3.93992
 20
4.24252
 30
0.000000
  70
    32
  0
VERTEX
  8
AM_VIS
  5
422
 10
3.93843
 20
4.24199
 30
0.000000
  70
    32
  0
VERTEX
  8
AM_VIS
  5
423
 10
3.93694
 20
4.24146
 30
0.000000
  70
    32
  0
VERTEX
  8
AM_VIS
  5
424
 10
3.93546
 20
4.24091
 30
0.000000
  70
    32
  0
VERTEX
  8
AM_VIS
  5
425
 10
3.93398
 20
4.24036
 30
0.000000
  70
    32
  0
VERTEX
  8
AM_VIS
  5
426
 10
3.93250
 20
4.23980
 30
0.000000
  70
    32
  0
VERTEX
  8
AM_VIS
  5
427
 10
3.93103
 20
4.23923
 30
0.000000
  70
    32
  0
VERTEX
  8
AM_VIS
  5
428
 10
3.92956
 20
4.23864
 30
0.000000
  70
    32
  0
VERTEX
  8
AM_VIS
  5
429
 10
3.92810
 20
4.23805
 30
0.000000
  70
    32
  0
VERTEX
  8
AM_VIS
  5
42A
 10
3.92663
 20
4.23745
 30
0.000000
  70
    32
  0
VERTEX
  8
AM_VIS
  5
42B
 10
3.92517
 20
4.23685
 30
0.000000
  70
    32
  0
VERTEX
  8
AM_VIS
  5
42C
 10
3.92372
 20
4.23623
 30
0.000000
  70
    32
  0
VERTEX
  8
AM_VIS
  5
42D
 10
3.92227
 20
4.23560
 30
0.000000
  70
    32
  0
VERTEX
  8
AM_VIS
  5
42E
 10
3.92082
 20
4.23496
 30
0.000000
  70
    32
  0
VERTEX
  8
AM_VIS
  5
42F
 10
3.91938
 20
4.23432
 30
0.000000
  70
    32
  0
VERTEX
  8
AM_VIS
  5
430
 10
3.91794
 20
4.23366
 30
0.000000
  70
    32
  0
VERTEX
  8
AM_VIS
  5
431
 10
3.91651
 20
4.23300
 30
0.000000
  70
    32
  0
VERTEX
  8
AM_VIS
  5
432
 10
3.91508
 20
4.23233
 30
0.000000
  70
    32
  0
VERTEX
  8
AM_VIS
  5
433
 10
3.91365
 20
4.23164
 30
0.000000
  70
    32
  0
VERTEX
  8
AM_VIS
  5
434
 10
3.91223
 20
4.23095
 30
0.000000
  70
    32
  0
VERTEX
  8
AM_VIS
  5
435
 10
3.91082
 20
4.23025
 30
0.000000
  70
    32
  0
VERTEX
  8
AM_VIS
  5
436
 10
3.90941
 20
4.22955
 30
0.000000
  70
    32
  0
VERTEX
  8
AM_VIS
  5
437
 10
3.90800
 20
4.22883
 30
0.000000
  70
    32
  0
VERTEX
  8
AM_VIS
  5
438
 10
3.90660
 20
4.22810
 30
0.000000
  70
    32
  0
VERTEX
  8
AM_VIS
  5
439
 10
3.90520
 20
4.22737
 30
0.000000
  70
    32
  0
VERTEX
  8
AM_VIS
  5
43A
 10
3.90381
 20
4.22663
 30
0.000000
  70
    32
  0
VERTEX
  8
AM_VIS
  5
43B
 10
3.90242
 20
4.22588
 30
0.000000
  70
    32
  0
VERTEX
  8
AM_VIS
  5
43C
 10
3.90104
 20
4.22512
 30
0.000000
  70
    32
  0
VERTEX
  8
AM_VIS
  5
43D
 10
3.89966
 20
4.22435
 30
0.000000
  70
    32
  0
VERTEX
  8
AM_VIS
  5
43E
 10
3.89829
 20
4.22358
 30
0.000000
  70
    32
  0
VERTEX
  8
AM_VIS
  5
43F
 10
3.89692
 20
4.22280
 30
0.000000
  70
    32
  0
VERTEX
  8
AM_VIS
  5
440
 10
3.89556
 20
4.22201
 30
0.000000
  70
    32
  0
VERTEX
  8
AM_VIS
  5
441
 10
3.89420
 20
4.22121
 30
0.000000
  70
    32
  0
VERTEX
  8
AM_VIS
  5
442
 10
3.89285
 20
4.22040
 30
0.000000
  70
    32
  0
VERTEX
  8
AM_VIS
  5
443
 10
3.89151
 20
4.21959
 30
0.000000
  70
    32
  0
VERTEX
  8
AM_VIS
  5
444
 10
3.89017
 20
4.21877
 30
0.000000
  70
    32
  0
VERTEX
  8
AM_VIS
  5
445
 10
3.88883
 20
4.21794
 30
0.000000
  70
    32
  0
VERTEX
  8
AM_VIS
  5
446
 10
3.88750
 20
4.21710
 30
0.000000
  70
    32
  0
VERTEX
  8
AM_VIS
  5
447
 10
3.88618
 20
4.21626
 30
0.000000
  70
    32
  0
VERTEX
  8
AM_VIS
  5
448
 10
3.88486
 20
4.21541
 30
0.000000
  70
    32
  0
VERTEX
  8
AM_VIS
  5
449
 10
3.88355
 20
4.21455
 30
0.000000
  70
    32
  0
VERTEX
  8
AM_VIS
  5
44A
 10
3.88224
 20
4.21369
 30
0.000000
  70
    32
  0
VERTEX
  8
AM_VIS
  5
44B
 10
3.88094
 20
4.21282
 30
0.000000
  70
    32
  0
VERTEX
  8
AM_VIS
  5
44C
 10
3.87965
 20
4.21194
 30
0.000000
  70
    32
  0
VERTEX
  8
AM_VIS
  5
44D
 10
3.87836
 20
4.21105
 30
0.000000
  70
    32
  0
VERTEX
  8
AM_VIS
  5
44E
 10
3.87708
 20
4.21016
 30
0.000000
  70
    32
  0
VERTEX
  8
AM_VIS
  5
44F
 10
3.87580
 20
4.20926
 30
0.000000
  70
    32
  0
VERTEX
  8
AM_VIS
  5
450
 10
3.87453
 20
4.20836
 30
0.000000
  70
    32
  0
VERTEX
  8
AM_VIS
  5
451
 10
3.87326
 20
4.20745
 30
0.000000
  70
    32
  0
VERTEX
  8
AM_VIS
  5
452
 10
3.87201
 20
4.20653
 30
0.000000
  70
    32
  0
VERTEX
  8
AM_VIS
  5
453
 10
3.87076
 20
4.20560
 30
0.000000
  70
    32
  0
VERTEX
  8
AM_VIS
  5
454
 10
3.86951
 20
4.20467
 30
0.000000
  70
    32
  0
VERTEX
  8
AM_VIS
  5
455
 10
3.86827
 20
4.20373
 30
0.000000
  70
    32
  0
VERTEX
  8
AM_VIS
  5
456
 10
3.86704
 20
4.20279
 30
0.000000
  70
    32
  0
VERTEX
  8
AM_VIS
  5
457
 10
3.86582
 20
4.20184
 30
0.000000
  70
    32
  0
VERTEX
  8
AM_VIS
  5
458
 10
3.86460
 20
4.20089
 30
0.000000
  70
    32
  0
VERTEX
  8
AM_VIS
  5
459
 10
3.86339
 20
4.19993
 30
0.000000
  70
    32
  0
VERTEX
  8
AM_VIS
  5
45A
 10
3.86218
 20
4.19896
 30
0.000000
  70
    32
  0
VERTEX
  8
AM_VIS
  5
45B
 10
3.86098
 20
4.19799
 30
0.000000
  70
    32
  0
VERTEX
  8
AM_VIS
  5
45C
 10
3.85979
 20
4.19701
 30
0.000000
  70
    32
  0
VERTEX
  8
AM_VIS
  5
45D
 10
3.85861
 20
4.19603
 30
0.000000
  70
    32
  0
VERTEX
  8
AM_VIS
  5
45E
 10
3.85743
 20
4.19504
 30
0.000000
  70
    32
  0
VERTEX
  8
AM_VIS
  5
45F
 10
3.85626
 20
4.19404
 30
0.000000
  70
    32
  0
VERTEX
  8
AM_VIS
  5
460
 10
3.85510
 20
4.19304
 30
0.000000
  70
    32
  0
VERTEX
  8
AM_VIS
  5
461
 10
3.85394
 20
4.19204
 30
0.000000
  70
    32
  0
VERTEX
  8
AM_VIS
  5
462
 10
3.85279
 20
4.19103
 30
0.000000
  70
    32
  0
VERTEX
  8
AM_VIS
  5
463
 10
3.85165
 20
4.19001
 30
0.000000
  70
    32
  0
VERTEX
  8
AM_VIS
  5
464
 10
3.85052
 20
4.18899
 30
0.000000
  70
    32
  0
VERTEX
  8
AM_VIS
  5
465
 10
3.84939
 20
4.18797
 30
0.000000
  70
    32
  0
VERTEX
  8
AM_VIS
  5
466
 10
3.84828
 20
4.18694
 30
0.000000
  70
    32
  0
VERTEX
  8
AM_VIS
  5
467
 10
3.84717
 20
4.18590
 30
0.000000
  70
    32
  0
VERTEX
  8
AM_VIS
  5
468
 10
3.84606
 20
4.18486
 30
0.000000
  70
    32
  0
VERTEX
  8
AM_VIS
  5
469
 10
3.84497
 20
4.18382
 30
0.000000
  70
    32
  0
VERTEX
  8
AM_VIS
  5
46A
 10
3.84388
 20
4.18277
 30
0.000000
  70
    32
  0
VERTEX
  8
AM_VIS
  5
46B
 10
3.84280
 20
4.18172
 30
0.000000
  70
    32
  0
VERTEX
  8
AM_VIS
  5
46C
 10
3.84173
 20
4.18066
 30
0.000000
  70
    32
  0
VERTEX
  8
AM_VIS
  5
46D
 10
3.84066
 20
4.17960
 30
0.000000
  70
    32
  0
VERTEX
  8
AM_VIS
  5
46E
 10
3.83961
 20
4.17853
 30
0.000000
  70
    32
  0
VERTEX
  8
AM_VIS
  5
46F
 10
3.83856
 20
4.17746
 30
0.000000
  70
    32
  0
VERTEX
  8
AM_VIS
  5
470
 10
3.83752
 20
4.17639
 30
0.000000
  70
    32
  0
VERTEX
  8
AM_VIS
  5
471
 10
3.83649
 20
4.17531
 30
0.000000
  70
    32
  0
VERTEX
  8
AM_VIS
  5
472
 10
3.83547
 20
4.17423
 30
0.000000
  70
    32
  0
VERTEX
  8
AM_VIS
  5
473
 10
3.83445
 20
4.17314
 30
0.000000
  70
    32
  0
VERTEX
  8
AM_VIS
  5
474
 10
3.83344
 20
4.17204
 30
0.000000
  70
    32
  0
VERTEX
  8
AM_VIS
  5
475
 10
3.83243
 20
4.17094
 30
0.000000
  70
    32
  0
VERTEX
  8
AM_VIS
  5
476
 10
3.83142
 20
4.16983
 30
0.000000
  70
    32
  0
VERTEX
  8
AM_VIS
  5
477
 10
3.83043
 20
4.16871
 30
0.000000
  70
    32
  0
VERTEX
  8
AM_VIS
  5
478
 10
3.82943
 20
4.16758
 30
0.000000
  70
    32
  0
VERTEX
  8
AM_VIS
  5
479
 10
3.82844
 20
4.16645
 30
0.000000
  70
    32
  0
VERTEX
  8
AM_VIS
  5
47A
 10
3.82746
 20
4.16530
 30
0.000000
  70
    32
  0
VERTEX
  8
AM_VIS
  5
47B
 10
3.82647
 20
4.16415
 30
0.000000
  70
    32
  0
VERTEX
  8
AM_VIS
  5
47C
 10
3.82550
 20
4.16300
 30
0.000000
  70
    32
  0
VERTEX
  8
AM_VIS
  5
47D
 10
3.82453
 20
4.16183
 30
0.000000
  70
    32
  0
VERTEX
  8
AM_VIS
  5
47E
 10
3.82356
 20
4.16066
 30
0.000000
  70
    32
  0
VERTEX
  8
AM_VIS
  5
47F
 10
3.82260
 20
4.15948
 30
0.000000
  70
    32
  0
VERTEX
  8
AM_VIS
  5
480
 10
3.82165
 20
4.15829
 30
0.000000
  70
    32
  0
VERTEX
  8
AM_VIS
  5
481
 10
3.82069
 20
4.15710
 30
0.000000
  70
    32
  0
VERTEX
  8
AM_VIS
  5
482
 10
3.81975
 20
4.15590
 30
0.000000
  70
    32
  0
VERTEX
  8
AM_VIS
  5
483
 10
3.81881
 20
4.15469
 30
0.000000
  70
    32
  0
VERTEX
  8
AM_VIS
  5
484
 10
3.81787
 20
4.15347
 30
0.000000
  70
    32
  0
VERTEX
  8
AM_VIS
  5
485
 10
3.81694
 20
4.15225
 30
0.000000
  70
    32
  0
VERTEX
  8
AM_VIS
  5
486
 10
3.81602
 20
4.15102
 30
0.000000
  70
    32
  0
VERTEX
  8
AM_VIS
  5
487
 10
3.81510
 20
4.14978
 30
0.000000
  70
    32
  0
VERTEX
  8
AM_VIS
  5
488
 10
3.81419
 20
4.14854
 30
0.000000
  70
    32
  0
VERTEX
  8
AM_VIS
  5
489
 10
3.81328
 20
4.14729
 30
0.000000
  70
    32
  0
VERTEX
  8
AM_VIS
  5
48A
 10
3.81238
 20
4.14603
 30
0.000000
  70
    32
  0
VERTEX
  8
AM_VIS
  5
48B
 10
3.81149
 20
4.14477
 30
0.000000
  70
    32
  0
VERTEX
  8
AM_VIS
  5
48C
 10
3.81060
 20
4.14350
 30
0.000000
  70
    32
  0
VERTEX
  8
AM_VIS
  5
48D
 10
3.80971
 20
4.14223
 30
0.000000
  70
    32
  0
VERTEX
  8
AM_VIS
  5
48E
 10
3.80883
 20
4.14094
 30
0.000000
  70
    32
  0
VERTEX
  8
AM_VIS
  5
48F
 10
3.80796
 20
4.13965
 30
0.000000
  70
    32
  0
VERTEX
  8
AM_VIS
  5
490
 10
3.80710
 20
4.13836
 30
0.000000
  70
    32
  0
VERTEX
  8
AM_VIS
  5
491
 10
3.80624
 20
4.13706
 30
0.000000
  70
    32
  0
VERTEX
  8
AM_VIS
  5
492
 10
3.80538
 20
4.13575
 30
0.000000
  70
    32
  0
VERTEX
  8
AM_VIS
  5
493
 10
3.80454
 20
4.13444
 30
0.000000
  70
    32
  0
VERTEX
  8
AM_VIS
  5
494
 10
3.80370
 20
4.13312
 30
0.000000
  70
    32
  0
VERTEX
  8
AM_VIS
  5
495
 10
3.80286
 20
4.13180
 30
0.000000
  70
    32
  0
VERTEX
  8
AM_VIS
  5
496
 10
3.80204
 20
4.13047
 30
0.000000
  70
    32
  0
VERTEX
  8
AM_VIS
  5
497
 10
3.80122
 20
4.12913
 30
0.000000
  70
    32
  0
VERTEX
  8
AM_VIS
  5
498
 10
3.80040
 20
4.12779
 30
0.000000
  70
    32
  0
VERTEX
  8
AM_VIS
  5
499
 10
3.79960
 20
4.12644
 30
0.000000
  70
    32
  0
VERTEX
  8
AM_VIS
  5
49A
 10
3.79880
 20
4.12509
 30
0.000000
  70
    32
  0
VERTEX
  8
AM_VIS
  5
49B
 10
3.79800
 20
4.12373
 30
0.000000
  70
    32
  0
VERTEX
  8
AM_VIS
  5
49C
 10
3.79722
 20
4.12237
 30
0.000000
  70
    32
  0
VERTEX
  8
AM_VIS
  5
49D
 10
3.79644
 20
4.12100
 30
0.000000
  70
    32
  0
VERTEX
  8
AM_VIS
  5
49E
 10
3.79566
 20
4.11962
 30
0.000000
  70
    32
  0
VERTEX
  8
AM_VIS
  5
49F
 10
3.79490
 20
4.11824
 30
0.000000
  70
    32
  0
VERTEX
  8
AM_VIS
  5
4A0
 10
3.79414
 20
4.11686
 30
0.000000
  70
    32
  0
VERTEX
  8
AM_VIS
  5
4A1
 10
3.79339
 20
4.11547
 30
0.000000
  70
    32
  0
VERTEX
  8
AM_VIS
  5
4A2
 10
3.79265
 20
4.11408
 30
0.000000
  70
    32
  0
VERTEX
  8
AM_VIS
  5
4A3
 10
3.79191
 20
4.11268
 30
0.000000
  70
    32
  0
VERTEX
  8
AM_VIS
  5
4A4
 10
3.79118
 20
4.11127
 30
0.000000
  70
    32
  0
VERTEX
  8
AM_VIS
  5
4A5
 10
3.79046
 20
4.10986
 30
0.000000
  70
    32
  0
VERTEX
  8
AM_VIS
  5
4A6
 10
3.78975
 20
4.10845
 30
0.000000
  70
    32
  0
VERTEX
  8
AM_VIS
  5
4A7
 10
3.78905
 20
4.10703
 30
0.000000
  70
    32
  0
VERTEX
  8
AM_VIS
  5
4A8
 10
3.78835
 20
4.10561
 30
0.000000
  70
    32
  0
VERTEX
  8
AM_VIS
  5
4A9
 10
3.78766
 20
4.10418
 30
0.000000
  70
    32
  0
VERTEX
  8
AM_VIS
  5
4AA
 10
3.78698
 20
4.10275
 30
0.000000
  70
    32
  0
VERTEX
  8
AM_VIS
  5
4AB
 10
3.78630
 20
4.10131
 30
0.000000
  70
    32
  0
VERTEX
  8
AM_VIS
  5
4AC
 10
3.78564
 20
4.09987
 30
0.000000
  70
    32
  0
VERTEX
  8
AM_VIS
  5
4AD
 10
3.78498
 20
4.09842
 30
0.000000
  70
    32
  0
VERTEX
  8
AM_VIS
  5
4AE
 10
3.78433
 20
4.09697
 30
0.000000
  70
    32
  0
VERTEX
  8
AM_VIS
  5
4AF
 10
3.78369
 20
4.09552
 30
0.000000
  70
    32
  0
VERTEX
  8
AM_VIS
  5
4B0
 10
3.78306
 20
4.09406
 30
0.000000
  70
    32
  0
VERTEX
  8
AM_VIS
  5
4B1
 10
3.78243
 20
4.09260
 30
0.000000
  70
    32
  0
VERTEX
  8
AM_VIS
  5
4B2
 10
3.78181
 20
4.09114
 30
0.000000
  70
    32
  0
VERTEX
  8
AM_VIS
  5
4B3
 10
3.78121
 20
4.08967
 30
0.000000
  70
    32
  0
VERTEX
  8
AM_VIS
  5
4B4
 10
3.78061
 20
4.08819
 30
0.000000
  70
    32
  0
VERTEX
  8
AM_VIS
  5
4B5
 10
3.78002
 20
4.08672
 30
0.000000
  70
    32
  0
VERTEX
  8
AM_VIS
  5
4B6
 10
3.77944
 20
4.08524
 30
0.000000
  70
    32
  0
VERTEX
  8
AM_VIS
  5
4B7
 10
3.77886
 20
4.08375
 30
0.000000
  70
    32
  0
VERTEX
  8
AM_VIS
  5
4B8
 10
3.77830
 20
4.08226
 30
0.000000
  70
    32
  0
VERTEX
  8
AM_VIS
  5
4B9
 10
3.77774
 20
4.08077
 30
0.000000
  70
    32
  0
VERTEX
  8
AM_VIS
  5
4BA
 10
3.77720
 20
4.07928
 30
0.000000
  70
    32
  0
VERTEX
  8
AM_VIS
  5
4BB
 10
3.77666
 20
4.07778
 30
0.000000
  70
    32
  0
VERTEX
  8
AM_VIS
  5
4BC
 10
3.77613
 20
4.07628
 30
0.000000
  70
    32
  0
VERTEX
  8
AM_VIS
  5
4BD
 10
3.77561
 20
4.07478
 30
0.000000
  70
    32
  0
VERTEX
  8
AM_VIS
  5
4BE
 10
3.77510
 20
4.07327
 30
0.000000
  70
    32
  0
VERTEX
  8
AM_VIS
  5
4BF
 10
3.77459
 20
4.07176
 30
0.000000
  70
    32
  0
VERTEX
  8
AM_VIS
  5
4C0
 10
3.77410
 20
4.07025
 30
0.000000
  70
    32
  0
VERTEX
  8
AM_VIS
  5
4C1
 10
3.77361
 20
4.06873
 30
0.000000
  70
    32
  0
VERTEX
  8
AM_VIS
  5
4C2
 10
3.77314
 20
4.06722
 30
0.000000
  70
    32
  0
VERTEX
  8
AM_VIS
  5
4C3
 10
3.77267
 20
4.06570
 30
0.000000
  70
    32
  0
VERTEX
  8
AM_VIS
  5
4C4
 10
3.77221
 20
4.06417
 30
0.000000
  70
    32
  0
VERTEX
  8
AM_VIS
  5
4C5
 10
3.77176
 20
4.06265
 30
0.000000
  70
    32
  0
VERTEX
  8
AM_VIS
  5
4C6
 10
3.77131
 20
4.06112
 30
0.000000
  70
    32
  0
VERTEX
  8
AM_VIS
  5
4C7
 10
3.77088
 20
4.05960
 30
0.000000
  70
    32
  0
VERTEX
  8
AM_VIS
  5
4C8
 10
3.77046
 20
4.05807
 30
0.000000
  70
    32
  0
VERTEX
  8
AM_VIS
  5
4C9
 10
3.77004
 20
4.05653
 30
0.000000
  70
    32
  0
VERTEX
  8
AM_VIS
  5
4CA
 10
3.76963
 20
4.05500
 30
0.000000
  70
    32
  0
VERTEX
  8
AM_VIS
  5
4CB
 10
3.76923
 20
4.05346
 30
0.000000
  70
    32
  0
VERTEX
  8
AM_VIS
  5
4CC
 10
3.76884
 20
4.05193
 30
0.000000
  70
    32
  0
VERTEX
  8
AM_VIS
  5
4CD
 10
3.76846
 20
4.05039
 30
0.000000
  70
    32
  0
VERTEX
  8
AM_VIS
  5
4CE
 10
3.76809
 20
4.04885
 30
0.000000
  70
    32
  0
VERTEX
  8
AM_VIS
  5
4CF
 10
3.76772
 20
4.04731
 30
0.000000
  70
    32
  0
VERTEX
  8
AM_VIS
  5
4D0
 10
3.76737
 20
4.04577
 30
0.000000
  70
    32
  0
VERTEX
  8
AM_VIS
  5
4D1
 10
3.76702
 20
4.04422
 30
0.000000
  70
    32
  0
VERTEX
  8
AM_VIS
  5
4D2
 10
3.76668
 20
4.04268
 30
0.000000
  70
    32
  0
VERTEX
  8
AM_VIS
  5
4D3
 10
3.76635
 20
4.04113
 30
0.000000
  70
    32
  0
VERTEX
  8
AM_VIS
  5
4D4
 10
3.76603
 20
4.03959
 30
0.000000
  70
    32
  0
VERTEX
  8
AM_VIS
  5
4D5
 10
3.76572
 20
4.03804
 30
0.000000
  70
    32
  0
VERTEX
  8
AM_VIS
  5
4D6
 10
3.76541
 20
4.03649
 30
0.000000
  70
    32
  0
VERTEX
  8
AM_VIS
  5
4D7
 10
3.76512
 20
4.03495
 30
0.000000
  70
    32
  0
VERTEX
  8
AM_VIS
  5
4D8
 10
3.76483
 20
4.03340
 30
0.000000
  70
    32
  0
VERTEX
  8
AM_VIS
  5
4D9
 10
3.76455
 20
4.03185
 30
0.000000
  70
    32
  0
VERTEX
  8
AM_VIS
  5
4DA
 10
3.76428
 20
4.03030
 30
0.000000
  70
    32
  0
VERTEX
  8
AM_VIS
  5
4DB
 10
3.76402
 20
4.02875
 30
0.000000
  70
    32
  0
VERTEX
  8
AM_VIS
  5
4DC
 10
3.76377
 20
4.02721
 30
0.000000
  70
    32
  0
VERTEX
  8
AM_VIS
  5
4DD
 10
3.76353
 20
4.02566
 30
0.000000
  70
    32
  0
VERTEX
  8
AM_VIS
  5
4DE
 10
3.76329
 20
4.02411
 30
0.000000
  70
    32
  0
VERTEX
  8
AM_VIS
  5
4DF
 10
3.76306
 20
4.02256
 30
0.000000
  70
    32
  0
VERTEX
  8
AM_VIS
  5
4E0
 10
3.76285
 20
4.02101
 30
0.000000
  70
    32
  0
VERTEX
  8
AM_VIS
  5
4E1
 10
3.76264
 20
4.01947
 30
0.000000
  70
    32
  0
VERTEX
  8
AM_VIS
  5
4E2
 10
3.76243
 20
4.01792
 30
0.000000
  70
    32
  0
VERTEX
  8
AM_VIS
  5
4E3
 10
3.76224
 20
4.01638
 30
0.000000
  70
    32
  0
VERTEX
  8
AM_VIS
  5
4E4
 10
3.76206
 20
4.01483
 30
0.000000
  70
    32
  0
VERTEX
  8
AM_VIS
  5
4E5
 10
3.76188
 20
4.01329
 30
0.000000
  70
    32
  0
VERTEX
  8
AM_VIS
  5
4E6
 10
3.76171
 20
4.01175
 30
0.000000
  70
    32
  0
VERTEX
  8
AM_VIS
  5
4E7
 10
3.76156
 20
4.01020
 30
0.000000
  70
    32
  0
VERTEX
  8
AM_VIS
  5
4E8
 10
3.76141
 20
4.00866
 30
0.000000
  70
    32
  0
VERTEX
  8
AM_VIS
  5
4E9
 10
3.76126
 20
4.00713
 30
0.000000
  70
    32
  0
VERTEX
  8
AM_VIS
  5
4EA
 10
3.76113
 20
4.00559
 30
0.000000
  70
    32
  0
VERTEX
  8
AM_VIS
  5
4EB
 10
3.76101
 20
4.00405
 30
0.000000
  70
    32
  0
VERTEX
  8
AM_VIS
  5
4EC
 10
3.76089
 20
4.00252
 30
0.000000
  70
    32
  0
VERTEX
  8
AM_VIS
  5
4ED
 10
3.76078
 20
4.00098
 30
0.000000
  70
    32
  0
VERTEX
  8
AM_VIS
  5
4EE
 10
3.76068
 20
3.99945
 30
0.000000
  70
    32
  0
VERTEX
  8
AM_VIS
  5
4EF
 10
3.76059
 20
3.99792
 30
0.000000
  70
    32
  0
VERTEX
  8
AM_VIS
  5
4F0
 10
3.76051
 20
3.99640
 30
0.000000
  70
    32
  0
VERTEX
  8
AM_VIS
  5
4F1
 10
3.76044
 20
3.99487
 30
0.000000
  70
    32
  0
VERTEX
  8
AM_VIS
  5
4F2
 10
3.76037
 20
3.99335
 30
0.000000
  70
    32
  0
VERTEX
  8
AM_VIS
  5
4F3
 10
3.76031
 20
3.99183
 30
0.000000
  70
    32
  0
VERTEX
  8
AM_VIS
  5
4F4
 10
3.76026
 20
3.99031
 30
0.000000
  70
    32
  0
VERTEX
  8
AM_VIS
  5
4F5
 10
3.76022
 20
3.98879
 30
0.000000
  70
    32
  0
VERTEX
  8
AM_VIS
  5
4F6
 10
3.76019
 20
3.98728
 30
0.000000
  70
    32
  0
VERTEX
  8
AM_VIS
  5
4F7
 10
3.76017
 20
3.98577
 30
0.000000
  70
    32
  0
VERTEX
  8
AM_VIS
  5
4F8
 10
3.76016
 20
3.98426
 30
0.000000
  70
    32
  0
VERTEX
  8
AM_VIS
  5
4F9
 10
3.76015
 20
3.98276
 30
0.000000
  70
    32
  0
VERTEX
  8
AM_VIS
  5
4FA
 10
3.76015
 20
3.98125
 30
0.000000
  70
    32
  0
VERTEX
  8
AM_VIS
  5
4FB
 10
3.76016
 20
3.97975
 30
0.000000
  70
    32
  0
VERTEX
  8
AM_VIS
  5
4FC
 10
3.76018
 20
3.97824
 30
0.000000
  70
    32
  0
VERTEX
  8
AM_VIS
  5
4FD
 10
3.76021
 20
3.97673
 30
0.000000
  70
    32
  0
VERTEX
  8
AM_VIS
  5
4FE
 10
3.76024
 20
3.97521
 30
0.000000
  70
    32
  0
VERTEX
  8
AM_VIS
  5
4FF
 10
3.76029
 20
3.97370
 30
0.000000
  70
    32
  0
VERTEX
  8
AM_VIS
  5
500
 10
3.76034
 20
3.97218
 30
0.000000
  70
    32
  0
VERTEX
  8
AM_VIS
  5
501
 10
3.76040
 20
3.97065
 30
0.000000
  70
    32
  0
VERTEX
  8
AM_VIS
  5
502
 10
3.76047
 20
3.96913
 30
0.000000
  70
    32
  0
VERTEX
  8
AM_VIS
  5
503
 10
3.76055
 20
3.96760
 30
0.000000
  70
    32
  0
VERTEX
  8
AM_VIS
  5
504
 10
3.76064
 20
3.96608
 30
0.000000
  70
    32
  0
VERTEX
  8
AM_VIS
  5
505
 10
3.76073
 20
3.96455
 30
0.000000
  70
    32
  0
VERTEX
  8
AM_VIS
  5
506
 10
3.76083
 20
3.96301
 30
0.000000
  70
    32
  0
VERTEX
  8
AM_VIS
  5
507
 10
3.76095
 20
3.96148
 30
0.000000
  70
    32
  0
VERTEX
  8
AM_VIS
  5
508
 10
3.76107
 20
3.95995
 30
0.000000
  70
    32
  0
VERTEX
  8
AM_VIS
  5
509
 10
3.76120
 20
3.95841
 30
0.000000
  70
    32
  0
VERTEX
  8
AM_VIS
  5
50A
 10
3.76133
 20
3.95687
 30
0.000000
  70
    32
  0
VERTEX
  8
AM_VIS
  5
50B
 10
3.76148
 20
3.95533
 30
0.000000
  70
    32
  0
VERTEX
  8
AM_VIS
  5
50C
 10
3.76163
 20
3.95379
 30
0.000000
  70
    32
  0
VERTEX
  8
AM_VIS
  5
50D
 10
3.76180
 20
3.95225
 30
0.000000
  70
    32
  0
VERTEX
  8
AM_VIS
  5
50E
 10
3.76197
 20
3.95070
 30
0.000000
  70
    32
  0
VERTEX
  8
AM_VIS
  5
50F
 10
3.76215
 20
3.94916
 30
0.000000
  70
    32
  0
VERTEX
  8
AM_VIS
  5
510
 10
3.76234
 20
3.94762
 30
0.000000
  70
    32
  0
VERTEX
  8
AM_VIS
  5
511
 10
3.76253
 20
3.94607
 30
0.000000
  70
    32
  0
VERTEX
  8
AM_VIS
  5
512
 10
3.76274
 20
3.94452
 30
0.000000
  70
    32
  0
VERTEX
  8
AM_VIS
  5
513
 10
3.76295
 20
3.94298
 30
0.000000
  70
    32
  0
VERTEX
  8
AM_VIS
  5
514
 10
3.76318
 20
3.94143
 30
0.000000
  70
    32
  0
VERTEX
  8
AM_VIS
  5
515
 10
3.76341
 20
3.93988
 30
0.000000
  70
    32
  0
VERTEX
  8
AM_VIS
  5
516
 10
3.76365
 20
3.93833
 30
0.000000
  70
    32
  0
VERTEX
  8
AM_VIS
  5
517
 10
3.76390
 20
3.93678
 30
0.000000
  70
    32
  0
VERTEX
  8
AM_VIS
  5
518
 10
3.76415
 20
3.93524
 30
0.000000
  70
    32
  0
VERTEX
  8
AM_VIS
  5
519
 10
3.76442
 20
3.93369
 30
0.000000
  70
    32
  0
VERTEX
  8
AM_VIS
  5
51A
 10
3.76469
 20
3.93214
 30
0.000000
  70
    32
  0
VERTEX
  8
AM_VIS
  5
51B
 10
3.76497
 20
3.93059
 30
0.000000
  70
    32
  0
VERTEX
  8
AM_VIS
  5
51C
 10
3.76527
 20
3.92904
 30
0.000000
  70
    32
  0
VERTEX
  8
AM_VIS
  5
51D
 10
3.76557
 20
3.92750
 30
0.000000
  70
    32
  0
VERTEX
  8
AM_VIS
  5
51E
 10
3.76587
 20
3.92595
 30
0.000000
  70
    32
  0
VERTEX
  8
AM_VIS
  5
51F
 10
3.76619
 20
3.92440
 30
0.000000
  70
    32
  0
VERTEX
  8
AM_VIS
  5
520
 10
3.76652
 20
3.92286
 30
0.000000
  70
    32
  0
VERTEX
  8
AM_VIS
  5
521
 10
3.76685
 20
3.92131
 30
0.000000
  70
    32
  0
VERTEX
  8
AM_VIS
  5
522
 10
3.76719
 20
3.91977
 30
0.000000
  70
    32
  0
VERTEX
  8
AM_VIS
  5
523
 10
3.76754
 20
3.91823
 30
0.000000
  70
    32
  0
VERTEX
  8
AM_VIS
  5
524
 10
3.76790
 20
3.91669
 30
0.000000
  70
    32
  0
VERTEX
  8
AM_VIS
  5
525
 10
3.76827
 20
3.91515
 30
0.000000
  70
    32
  0
VERTEX
  8
AM_VIS
  5
526
 10
3.76865
 20
3.91361
 30
0.000000
  70
    32
  0
VERTEX
  8
AM_VIS
  5
527
 10
3.76904
 20
3.91207
 30
0.000000
  70
    32
  0
VERTEX
  8
AM_VIS
  5
528
 10
3.76943
 20
3.91053
 30
0.000000
  70
    32
  0
VERTEX
  8
AM_VIS
  5
529
 10
3.76983
 20
3.90900
 30
0.000000
  70
    32
  0
VERTEX
  8
AM_VIS
  5
52A
 10
3.77025
 20
3.90746
 30
0.000000
  70
    32
  0
VERTEX
  8
AM_VIS
  5
52B
 10
3.77067
 20
3.90593
 30
0.000000
  70
    32
  0
VERTEX
  8
AM_VIS
  5
52C
 10
3.77110
 20
3.90440
 30
0.000000
  70
    32
  0
VERTEX
  8
AM_VIS
  5
52D
 10
3.77153
 20
3.90288
 30
0.000000
  70
    32
  0
VERTEX
  8
AM_VIS
  5
52E
 10
3.77198
 20
3.90135
 30
0.000000
  70
    32
  0
VERTEX
  8
AM_VIS
  5
52F
 10
3.77244
 20
3.89983
 30
0.000000
  70
    32
  0
VERTEX
  8
AM_VIS
  5
530
 10
3.77290
 20
3.89831
 30
0.000000
  70
    32
  0
VERTEX
  8
AM_VIS
  5
531
 10
3.77337
 20
3.89679
 30
0.000000
  70
    32
  0
VERTEX
  8
AM_VIS
  5
532
 10
3.77385
 20
3.89527
 30
0.000000
  70
    32
  0
VERTEX
  8
AM_VIS
  5
533
 10
3.77434
 20
3.89376
 30
0.000000
  70
    32
  0
VERTEX
  8
AM_VIS
  5
534
 10
3.77484
 20
3.89225
 30
0.000000
  70
    32
  0
VERTEX
  8
AM_VIS
  5
535
 10
3.77535
 20
3.89074
 30
0.000000
  70
    32
  0
VERTEX
  8
AM_VIS
  5
536
 10
3.77587
 20
3.88924
 30
0.000000
  70
    32
  0
VERTEX
  8
AM_VIS
  5
537
 10
3.77639
 20
3.88773
 30
0.000000
  70
    32
  0
VERTEX
  8
AM_VIS
  5
538
 10
3.77693
 20
3.88623
 30
0.000000
  70
    32
  0
VERTEX
  8
AM_VIS
  5
539
 10
3.77747
 20
3.88474
 30
0.000000
  70
    32
  0
VERTEX
  8
AM_VIS
  5
53A
 10
3.77802
 20
3.88325
 30
0.000000
  70
    32
  0
VERTEX
  8
AM_VIS
  5
53B
 10
3.77858
 20
3.88176
 30
0.000000
  70
    32
  0
VERTEX
  8
AM_VIS
  5
53C
 10
3.77915
 20
3.88027
 30
0.000000
  70
    32
  0
VERTEX
  8
AM_VIS
  5
53D
 10
3.77973
 20
3.87879
 30
0.000000
  70
    32
  0
VERTEX
  8
AM_VIS
  5
53E
 10
3.78031
 20
3.87731
 30
0.000000
  70
    32
  0
VERTEX
  8
AM_VIS
  5
53F
 10
3.78091
 20
3.87583
 30
0.000000
  70
    32
  0
VERTEX
  8
AM_VIS
  5
540
 10
3.78151
 20
3.87436
 30
0.000000
  70
    32
  0
VERTEX
  8
AM_VIS
  5
541
 10
3.78212
 20
3.87290
 30
0.000000
  70
    32
  0
VERTEX
  8
AM_VIS
  5
542
 10
3.78274
 20
3.87143
 30
0.000000
  70
    32
  0
VERTEX
  8
AM_VIS
  5
543
 10
3.78337
 20
3.86997
 30
0.000000
  70
    32
  0
VERTEX
  8
AM_VIS
  5
544
 10
3.78401
 20
3.86852
 30
0.000000
  70
    32
  0
VERTEX
  8
AM_VIS
  5
545
 10
3.78465
 20
3.86707
 30
0.000000
  70
    32
  0
VERTEX
  8
AM_VIS
  5
546
 10
3.78531
 20
3.86562
 30
0.000000
  70
    32
  0
VERTEX
  8
AM_VIS
  5
547
 10
3.78597
 20
3.86418
 30
0.000000
  70
    32
  0
VERTEX
  8
AM_VIS
  5
548
 10
3.78664
 20
3.86274
 30
0.000000
  70
    32
  0
VERTEX
  8
AM_VIS
  5
549
 10
3.78732
 20
3.86130
 30
0.000000
  70
    32
  0
VERTEX
  8
AM_VIS
  5
54A
 10
3.78800
 20
3.85987
 30
0.000000
  70
    32
  0
VERTEX
  8
AM_VIS
  5
54B
 10
3.78870
 20
3.85845
 30
0.000000
  70
    32
  0
VERTEX
  8
AM_VIS
  5
54C
 10
3.78940
 20
3.85703
 30
0.000000
  70
    32
  0
VERTEX
  8
AM_VIS
  5
54D
 10
3.79011
 20
3.85561
 30
0.000000
  70
    32
  0
VERTEX
  8
AM_VIS
  5
54E
 10
3.79082
 20
3.85420
 30
0.000000
  70
    32
  0
VERTEX
  8
AM_VIS
  5
54F
 10
3.79155
 20
3.85279
 30
0.000000
  70
    32
  0
VERTEX
  8
AM_VIS
  5
550
 10
3.79228
 20
3.85139
 30
0.000000
  70
    32
  0
VERTEX
  8
AM_VIS
  5
551
 10
3.79302
 20
3.84999
 30
0.000000
  70
    32
  0
VERTEX
  8
AM_VIS
  5
552
 10
3.79377
 20
3.84860
 30
0.000000
  70
    32
  0
VERTEX
  8
AM_VIS
  5
553
 10
3.79452
 20
3.84721
 30
0.000000
  70
    32
  0
VERTEX
  8
AM_VIS
  5
554
 10
3.79528
 20
3.84583
 30
0.000000
  70
    32
  0
VERTEX
  8
AM_VIS
  5
555
 10
3.79605
 20
3.84445
 30
0.000000
  70
    32
  0
VERTEX
  8
AM_VIS
  5
556
 10
3.79683
 20
3.84308
 30
0.000000
  70
    32
  0
VERTEX
  8
AM_VIS
  5
557
 10
3.79761
 20
3.84172
 30
0.000000
  70
    32
  0
VERTEX
  8
AM_VIS
  5
558
 10
3.79840
 20
3.84035
 30
0.000000
  70
    32
  0
VERTEX
  8
AM_VIS
  5
559
 10
3.79920
 20
3.83900
 30
0.000000
  70
    32
  0
VERTEX
  8
AM_VIS
  5
55A
 10
3.80000
 20
3.83765
 30
0.000000
  70
    32
  0
VERTEX
  8
AM_VIS
  5
55B
 10
3.80081
 20
3.83630
 30
0.000000
  70
    32
  0
VERTEX
  8
AM_VIS
  5
55C
 10
3.80163
 20
3.83497
 30
0.000000
  70
    32
  0
VERTEX
  8
AM_VIS
  5
55D
 10
3.80245
 20
3.83363
 30
0.000000
  70
    32
  0
VERTEX
  8
AM_VIS
  5
55E
 10
3.80328
 20
3.83230
 30
0.000000
  70
    32
  0
VERTEX
  8
AM_VIS
  5
55F
 10
3.80412
 20
3.83098
 30
0.000000
  70
    32
  0
VERTEX
  8
AM_VIS
  5
560
 10
3.80496
 20
3.82967
 30
0.000000
  70
    32
  0
VERTEX
  8
AM_VIS
  5
561
 10
3.80581
 20
3.82836
 30
0.000000
  70
    32
  0
VERTEX
  8
AM_VIS
  5
562
 10
3.80667
 20
3.82705
 30
0.000000
  70
    32
  0
VERTEX
  8
AM_VIS
  5
563
 10
3.80753
 20
3.82576
 30
0.000000
  70
    32
  0
VERTEX
  8
AM_VIS
  5
564
 10
3.80840
 20
3.82446
 30
0.000000
  70
    32
  0
VERTEX
  8
AM_VIS
  5
565
 10
3.80927
 20
3.82318
 30
0.000000
  70
    32
  0
VERTEX
  8
AM_VIS
  5
566
 10
3.81015
 20
3.82190
 30
0.000000
  70
    32
  0
VERTEX
  8
AM_VIS
  5
567
 10
3.81104
 20
3.82063
 30
0.000000
  70
    32
  0
VERTEX
  8
AM_VIS
  5
568
 10
3.81193
 20
3.81936
 30
0.000000
  70
    32
  0
VERTEX
  8
AM_VIS
  5
569
 10
3.81283
 20
3.81810
 30
0.000000
  70
    32
  0
VERTEX
  8
AM_VIS
  5
56A
 10
3.81373
 20
3.81685
 30
0.000000
  70
    32
  0
VERTEX
  8
AM_VIS
  5
56B
 10
3.81464
 20
3.81560
 30
0.000000
  70
    32
  0
VERTEX
  8
AM_VIS
  5
56C
 10
3.81556
 20
3.81436
 30
0.000000
  70
    32
  0
VERTEX
  8
AM_VIS
  5
56D
 10
3.81648
 20
3.81313
 30
0.000000
  70
    32
  0
VERTEX
  8
AM_VIS
  5
56E
 10
3.81741
 20
3.81190
 30
0.000000
  70
    32
  0
VERTEX
  8
AM_VIS
  5
56F
 10
3.81834
 20
3.81069
 30
0.000000
  70
    32
  0
VERTEX
  8
AM_VIS
  5
570
 10
3.81928
 20
3.80947
 30
0.000000
  70
    32
  0
VERTEX
  8
AM_VIS
  5
571
 10
3.82022
 20
3.80827
 30
0.000000
  70
    32
  0
VERTEX
  8
AM_VIS
  5
572
 10
3.82117
 20
3.80707
 30
0.000000
  70
    32
  0
VERTEX
  8
AM_VIS
  5
573
 10
3.82212
 20
3.80588
 30
0.000000
  70
    32
  0
VERTEX
  8
AM_VIS
  5
574
 10
3.82308
 20
3.80469
 30
0.000000
  70
    32
  0
VERTEX
  8
AM_VIS
  5
575
 10
3.82404
 20
3.80352
 30
0.000000
  70
    32
  0
VERTEX
  8
AM_VIS
  5
576
 10
3.82501
 20
3.80235
 30
0.000000
  70
    32
  0
VERTEX
  8
AM_VIS
  5
577
 10
3.82599
 20
3.80119
 30
0.000000
  70
    32
  0
VERTEX
  8
AM_VIS
  5
578
 10
3.82696
 20
3.80003
 30
0.000000
  70
    32
  0
VERTEX
  8
AM_VIS
  5
579
 10
3.82795
 20
3.79889
 30
0.000000
  70
    32
  0
VERTEX
  8
AM_VIS
  5
57A
 10
3.82894
 20
3.79775
 30
0.000000
  70
    32
  0
VERTEX
  8
AM_VIS
  5
57B
 10
3.82993
 20
3.79662
 30
0.000000
  70
    32
  0
VERTEX
  8
AM_VIS
  5
57C
 10
3.83092
 20
3.79549
 30
0.000000
  70
    32
  0
VERTEX
  8
AM_VIS
  5
57D
 10
3.83193
 20
3.79438
 30
0.000000
  70
    32
  0
VERTEX
  8
AM_VIS
  5
57E
 10
3.83293
 20
3.79327
 30
0.000000
  70
    32
  0
VERTEX
  8
AM_VIS
  5
57F
 10
3.83394
 20
3.79217
 30
0.000000
  70
    32
  0
VERTEX
  8
AM_VIS
  5
580
 10
3.83496
 20
3.79108
 30
0.000000
  70
    32
  0
VERTEX
  8
AM_VIS
  5
581
 10
3.83598
 20
3.79000
 30
0.000000
  70
    32
  0
VERTEX
  8
AM_VIS
  5
582
 10
3.83700
 20
3.78892
 30
0.000000
  70
    32
  0
VERTEX
  8
AM_VIS
  5
583
 10
3.83804
 20
3.78784
 30
0.000000
  70
    32
  0
VERTEX
  8
AM_VIS
  5
584
 10
3.83908
 20
3.78677
 30
0.000000
  70
    32
  0
VERTEX
  8
AM_VIS
  5
585
 10
3.84013
 20
3.78570
 30
0.000000
  70
    32
  0
VERTEX
  8
AM_VIS
  5
586
 10
3.84119
 20
3.78464
 30
0.000000
  70
    32
  0
VERTEX
  8
AM_VIS
  5
587
 10
3.84226
 20
3.78358
 30
0.000000
  70
    32
  0
VERTEX
  8
AM_VIS
  5
588
 10
3.84334
 20
3.78252
 30
0.000000
  70
    32
  0
VERTEX
  8
AM_VIS
  5
589
 10
3.84442
 20
3.78147
 30
0.000000
  70
    32
  0
VERTEX
  8
AM_VIS
  5
58A
 10
3.84551
 20
3.78042
 30
0.000000
  70
    32
  0
VERTEX
  8
AM_VIS
  5
58B
 10
3.84661
 20
3.77938
 30
0.000000
  70
    32
  0
VERTEX
  8
AM_VIS
  5
58C
 10
3.84772
 20
3.77835
 30
0.000000
  70
    32
  0
VERTEX
  8
AM_VIS
  5
58D
 10
3.84883
 20
3.77731
 30
0.000000
  70
    32
  0
VERTEX
  8
AM_VIS
  5
58E
 10
3.84996
 20
3.77629
 30
0.000000
  70
    32
  0
VERTEX
  8
AM_VIS
  5
58F
 10
3.85109
 20
3.77526
 30
0.000000
  70
    32
  0
VERTEX
  8
AM_VIS
  5
590
 10
3.85222
 20
3.77425
 30
0.000000
  70
    32
  0
VERTEX
  8
AM_VIS
  5
591
 10
3.85337
 20
3.77323
 30
0.000000
  70
    32
  0
VERTEX
  8
AM_VIS
  5
592
 10
3.85452
 20
3.77222
 30
0.000000
  70
    32
  0
VERTEX
  8
AM_VIS
  5
593
 10
3.85568
 20
3.77122
 30
0.000000
  70
    32
  0
VERTEX
  8
AM_VIS
  5
594
 10
3.85685
 20
3.77023
 30
0.000000
  70
    32
  0
VERTEX
  8
AM_VIS
  5
595
 10
3.85802
 20
3.76923
 30
0.000000
  70
    32
  0
VERTEX
  8
AM_VIS
  5
596
 10
3.85920
 20
3.76825
 30
0.000000
  70
    32
  0
VERTEX
  8
AM_VIS
  5
597
 10
3.86039
 20
3.76727
 30
0.000000
  70
    32
  0
VERTEX
  8
AM_VIS
  5
598
 10
3.86158
 20
3.76629
 30
0.000000
  70
    32
  0
VERTEX
  8
AM_VIS
  5
599
 10
3.86278
 20
3.76532
 30
0.000000
  70
    32
  0
VERTEX
  8
AM_VIS
  5
59A
 10
3.86399
 20
3.76436
 30
0.000000
  70
    32
  0
VERTEX
  8
AM_VIS
  5
59B
 10
3.86521
 20
3.76340
 30
0.000000
  70
    32
  0
VERTEX
  8
AM_VIS
  5
59C
 10
3.86643
 20
3.76245
 30
0.000000
  70
    32
  0
VERTEX
  8
AM_VIS
  5
59D
 10
3.86766
 20
3.76150
 30
0.000000
  70
    32
  0
VERTEX
  8
AM_VIS
  5
59E
 10
3.86889
 20
3.76056
 30
0.000000
  70
    32
  0
VERTEX
  8
AM_VIS
  5
59F
 10
3.87013
 20
3.75963
 30
0.000000
  70
    32
  0
VERTEX
  8
AM_VIS
  5
5A0
 10
3.87138
 20
3.75870
 30
0.000000
  70
    32
  0
VERTEX
  8
AM_VIS
  5
5A1
 10
3.87264
 20
3.75778
 30
0.000000
  70
    32
  0
VERTEX
  8
AM_VIS
  5
5A2
 10
3.87390
 20
3.75686
 30
0.000000
  70
    32
  0
VERTEX
  8
AM_VIS
  5
5A3
 10
3.87516
 20
3.75595
 30
0.000000
  70
    32
  0
VERTEX
  8
AM_VIS
  5
5A4
 10
3.87644
 20
3.75505
 30
0.000000
  70
    32
  0
VERTEX
  8
AM_VIS
  5
5A5
 10
3.87772
 20
3.75416
 30
0.000000
  70
    32
  0
VERTEX
  8
AM_VIS
  5
5A6
 10
3.87900
 20
3.75327
 30
0.000000
  70
    32
  0
VERTEX
  8
AM_VIS
  5
5A7
 10
3.88029
 20
3.75239
 30
0.000000
  70
    32
  0
VERTEX
  8
AM_VIS
  5
5A8
 10
3.88159
 20
3.75151
 30
0.000000
  70
    32
  0
VERTEX
  8
AM_VIS
  5
5A9
 10
3.88289
 20
3.75064
 30
0.000000
  70
    32
  0
VERTEX
  8
AM_VIS
  5
5AA
 10
3.88420
 20
3.74978
 30
0.000000
  70
    32
  0
VERTEX
  8
AM_VIS
  5
5AB
 10
3.88552
 20
3.74893
 30
0.000000
  70
    32
  0
VERTEX
  8
AM_VIS
  5
5AC
 10
3.88684
 20
3.74808
 30
0.000000
  70
    32
  0
VERTEX
  8
AM_VIS
  5
5AD
 10
3.88817
 20
3.74724
 30
0.000000
  70
    32
  0
VERTEX
  8
AM_VIS
  5
5AE
 10
3.88950
 20
3.74641
 30
0.000000
  70
    32
  0
VERTEX
  8
AM_VIS
  5
5AF
 10
3.89084
 20
3.74558
 30
0.000000
  70
    32
  0
VERTEX
  8
AM_VIS
  5
5B0
 10
3.89218
 20
3.74477
 30
0.000000
  70
    32
  0
VERTEX
  8
AM_VIS
  5
5B1
 10
3.89353
 20
3.74396
 30
0.000000
  70
    32
  0
VERTEX
  8
AM_VIS
  5
5B2
 10
3.89488
 20
3.74316
 30
0.000000
  70
    32
  0
VERTEX
  8
AM_VIS
  5
5B3
 10
3.89624
 20
3.74236
 30
0.000000
  70
    32
  0
VERTEX
  8
AM_VIS
  5
5B4
 10
3.89761
 20
3.74158
 30
0.000000
  70
    32
  0
VERTEX
  8
AM_VIS
  5
5B5
 10
3.89898
 20
3.74080
 30
0.000000
  70
    32
  0
VERTEX
  8
AM_VIS
  5
5B6
 10
3.90035
 20
3.74003
 30
0.000000
  70
    32
  0
VERTEX
  8
AM_VIS
  5
5B7
 10
3.90173
 20
3.73926
 30
0.000000
  70
    32
  0
VERTEX
  8
AM_VIS
  5
5B8
 10
3.90311
 20
3.73851
 30
0.000000
  70
    32
  0
VERTEX
  8
AM_VIS
  5
5B9
 10
3.90450
 20
3.73776
 30
0.000000
  70
    32
  0
VERTEX
  8
AM_VIS
  5
5BA
 10
3.90590
 20
3.73703
 30
0.000000
  70
    32
  0
VERTEX
  8
AM_VIS
  5
5BB
 10
3.90730
 20
3.73630
 30
0.000000
  70
    32
  0
VERTEX
  8
AM_VIS
  5
5BC
 10
3.90870
 20
3.73558
 30
0.000000
  70
    32
  0
VERTEX
  8
AM_VIS
  5
5BD
 10
3.91011
 20
3.73486
 30
0.000000
  70
    32
  0
VERTEX
  8
AM_VIS
  5
5BE
 10
3.91153
 20
3.73416
 30
0.000000
  70
    32
  0
VERTEX
  8
AM_VIS
  5
5BF
 10
3.91294
 20
3.73346
 30
0.000000
  70
    32
  0
VERTEX
  8
AM_VIS
  5
5C0
 10
3.91437
 20
3.73278
 30
0.000000
  70
    32
  0
VERTEX
  8
AM_VIS
  5
5C1
 10
3.91579
 20
3.73210
 30
0.000000
  70
    32
  0
VERTEX
  8
AM_VIS
  5
5C2
 10
3.91723
 20
3.73143
 30
0.000000
  70
    32
  0
VERTEX
  8
AM_VIS
  5
5C3
 10
3.91866
 20
3.73077
 30
0.000000
  70
    32
  0
VERTEX
  8
AM_VIS
  5
5C4
 10
3.92010
 20
3.73012
 30
0.000000
  70
    32
  0
VERTEX
  8
AM_VIS
  5
5C5
 10
3.92155
 20
3.72948
 30
0.000000
  70
    32
  0
VERTEX
  8
AM_VIS
  5
5C6
 10
3.92299
 20
3.72885
 30
0.000000
  70
    32
  0
VERTEX
  8
AM_VIS
  5
5C7
 10
3.92445
 20
3.72823
 30
0.000000
  70
    32
  0
VERTEX
  8
AM_VIS
  5
5C8
 10
3.92590
 20
3.72761
 30
0.000000
  70
    32
  0
VERTEX
  8
AM_VIS
  5
5C9
 10
3.92736
 20
3.72701
 30
0.000000
  70
    32
  0
VERTEX
  8
AM_VIS
  5
5CA
 10
3.92883
 20
3.72641
 30
0.000000
  70
    32
  0
VERTEX
  8
AM_VIS
  5
5CB
 10
3.93030
 20
3.72583
 30
0.000000
  70
    32
  0
VERTEX
  8
AM_VIS
  5
5CC
 10
3.93177
 20
3.72525
 30
0.000000
  70
    32
  0
VERTEX
  8
AM_VIS
  5
5CD
 10
3.93324
 20
3.72469
 30
0.000000
  70
    32
  0
VERTEX
  8
AM_VIS
  5
5CE
 10
3.93472
 20
3.72413
 30
0.000000
  70
    32
  0
VERTEX
  8
AM_VIS
  5
5CF
 10
3.93620
 20
3.72358
 30
0.000000
  70
    32
  0
VERTEX
  8
AM_VIS
  5
5D0
 10
3.93769
 20
3.72304
 30
0.000000
  70
    32
  0
VERTEX
  8
AM_VIS
  5
5D1
 10
3.93918
 20
3.72251
 30
0.000000
  70
    32
  0
VERTEX
  8
AM_VIS
  5
5D2
 10
3.94067
 20
3.72199
 30
0.000000
  70
    32
  0
VERTEX
  8
AM_VIS
  5
5D3
 10
3.94216
 20
3.72148
 30
0.000000
  70
    32
  0
VERTEX
  8
AM_VIS
  5
5D4
 10
3.94366
 20
3.72098
 30
0.000000
  70
    32
  0
VERTEX
  8
AM_VIS
  5
5D5
 10
3.94516
 20
3.72048
 30
0.000000
  70
    32
  0
VERTEX
  8
AM_VIS
  5
5D6
 10
3.94666
 20
3.72000
 30
0.000000
  70
    32
  0
VERTEX
  8
AM_VIS
  5
5D7
 10
3.94816
 20
3.71953
 30
0.000000
  70
    32
  0
VERTEX
  8
AM_VIS
  5
5D8
 10
3.94967
 20
3.71906
 30
0.000000
  70
    32
  0
VERTEX
  8
AM_VIS
  5
5D9
 10
3.95118
 20
3.71861
 30
0.000000
  70
    32
  0
VERTEX
  8
AM_VIS
  5
5DA
 10
3.95269
 20
3.71816
 30
0.000000
  70
    32
  0
VERTEX
  8
AM_VIS
  5
5DB
 10
3.95420
 20
3.71772
 30
0.000000
  70
    32
  0
VERTEX
  8
AM_VIS
  5
5DC
 10
3.95572
 20
3.71730
 30
0.000000
  70
    32
  0
VERTEX
  8
AM_VIS
  5
5DD
 10
3.95723
 20
3.71688
 30
0.000000
  70
    32
  0
VERTEX
  8
AM_VIS
  5
5DE
 10
3.95875
 20
3.71647
 30
0.000000
  70
    32
  0
VERTEX
  8
AM_VIS
  5
5DF
 10
3.96027
 20
3.71607
 30
0.000000
  70
    32
  0
VERTEX
  8
AM_VIS
  5
5E0
 10
3.96180
 20
3.71568
 30
0.000000
  70
    32
  0
VERTEX
  8
AM_VIS
  5
5E1
 10
3.96332
 20
3.71530
 30
0.000000
  70
    32
  0
VERTEX
  8
AM_VIS
  5
5E2
 10
3.96485
 20
3.71493
 30
0.000000
  70
    32
  0
VERTEX
  8
AM_VIS
  5
5E3
 10
3.96637
 20
3.71457
 30
0.000000
  70
    32
  0
VERTEX
  8
AM_VIS
  5
5E4
 10
3.96790
 20
3.71421
 30
0.000000
  70
    32
  0
VERTEX
  8
AM_VIS
  5
5E5
 10
3.96943
 20
3.71387
 30
0.000000
  70
    32
  0
VERTEX
  8
AM_VIS
  5
5E6
 10
3.97096
 20
3.71354
 30
0.000000
  70
    32
  0
VERTEX
  8
AM_VIS
  5
5E7
 10
3.97249
 20
3.71321
 30
0.000000
  70
    32
  0
VERTEX
  8
AM_VIS
  5
5E8
 10
3.97402
 20
3.71290
 30
0.000000
  70
    32
  0
VERTEX
  8
AM_VIS
  5
5E9
 10
3.97555
 20
3.71259
 30
0.000000
  70
    32
  0
VERTEX
  8
AM_VIS
  5
5EA
 10
3.97709
 20
3.71230
 30
0.000000
  70
    32
  0
VERTEX
  8
AM_VIS
  5
5EB
 10
3.97862
 20
3.71201
 30
0.000000
  70
    32
  0
VERTEX
  8
AM_VIS
  5
5EC
 10
3.98016
 20
3.71173
 30
0.000000
  70
    32
  0
VERTEX
  8
AM_VIS
  5
5ED
 10
3.98169
 20
3.71146
 30
0.000000
  70
    32
  0
VERTEX
  8
AM_VIS
  5
5EE
 10
3.98322
 20
3.71120
 30
0.000000
  70
    32
  0
VERTEX
  8
AM_VIS
  5
5EF
 10
3.98476
 20
3.71095
 30
0.000000
  70
    32
  0
VERTEX
  8
AM_VIS
  5
5F0
 10
3.98629
 20
3.71071
 30
0.000000
  70
    32
  0
VERTEX
  8
AM_VIS
  5
5F1
 10
3.98783
 20
3.71048
 30
0.000000
  70
    32
  0
VERTEX
  8
AM_VIS
  5
5F2
 10
3.98936
 20
3.71026
 30
0.000000
  70
    32
  0
VERTEX
  8
AM_VIS
  5
5F3
 10
3.99090
 20
3.71005
 30
0.000000
  70
    32
  0
VERTEX
  8
AM_VIS
  5
5F4
 10
3.99243
 20
3.70985
 30
0.000000
  70
    32
  0
VERTEX
  8
AM_VIS
  5
5F5
 10
3.99397
 20
3.70965
 30
0.000000
  70
    32
  0
VERTEX
  8
AM_VIS
  5
5F6
 10
3.99550
 20
3.70947
 30
0.000000
  70
    32
  0
VERTEX
  8
AM_VIS
  5
5F7
 10
3.99703
 20
3.70930
 30
0.000000
  70
    32
  0
VERTEX
  8
AM_VIS
  5
5F8
 10
3.99856
 20
3.70913
 30
0.000000
  70
    32
  0
VERTEX
  8
AM_VIS
  5
5F9
 10
4.00009
 20
3.70898
 30
0.000000
  70
    32
  0
VERTEX
  8
AM_VIS
  5
5FA
 10
4.00162
 20
3.70883
 30
0.000000
  70
    32
  0
VERTEX
  8
AM_VIS
  5
5FB
 10
4.00315
 20
3.70869
 30
0.000000
  70
    32
  0
VERTEX
  8
AM_VIS
  5
5FC
 10
4.00468
 20
3.70856
 30
0.000000
  70
    32
  0
VERTEX
  8
AM_VIS
  5
5FD
 10
4.00621
 20
3.70845
 30
0.000000
  70
    32
  0
VERTEX
  8
AM_VIS
  5
5FE
 10
4.00773
 20
3.70834
 30
0.000000
  70
    32
  0
VERTEX
  8
AM_VIS
  5
5FF
 10
4.00925
 20
3.70824
 30
0.000000
  70
    32
  0
VERTEX
  8
AM_VIS
  5
600
 10
4.01078
 20
3.70815
 30
0.000000
  70
    32
  0
VERTEX
  8
AM_VIS
  5
601
 10
4.01230
 20
3.70807
 30
0.000000
  70
    32
  0
VERTEX
  8
AM_VIS
  5
602
 10
4.01382
 20
3.70800
 30
0.000000
  70
    32
  0
VERTEX
  8
AM_VIS
  5
603
 10
4.01533
 20
3.70794
 30
0.000000
  70
    32
  0
VERTEX
  8
AM_VIS
  5
604
 10
4.01685
 20
3.70789
 30
0.000000
  70
    32
  0
VERTEX
  8
AM_VIS
  5
605
 10
4.01836
 20
3.70784
 30
0.000000
  70
    32
  0
VERTEX
  8
AM_VIS
  5
606
 10
4.01987
 20
3.70781
 30
0.000000
  70
    32
  0
VERTEX
  8
AM_VIS
  5
607
 10
4.02138
 20
3.70779
 30
0.000000
  70
    32
  0
VERTEX
  8
AM_VIS
  5
608
 10
4.02289
 20
3.70777
 30
0.000000
  70
    32
  0
VERTEX
  8
AM_VIS
  5
609
 10
4.02439
 20
3.70777
 30
0.000000
  70
    32
  0
SEQEND
  8
AM_VIS
  5
60A
  0
CIRCLE
  5
48
  8
AM_VIS
 10
4.0243896622183772
 20
3.98238230870039
 30
0.0
 40
0.253378125
  0
POLYLINE
  8
AM_VIS
  5
60B
  66
     1
 10
0.000000
 20
0.000000
 30
0.000000
  70
     8
  0
VERTEX
  8
AM_VIS
  5
60C
 10
5.85190
 20
3.70777
 30
0.000000
  70
    32
  0
VERTEX
  8
AM_VIS
  5
60D
 10
5.85340
 20
3.70777
 30
0.000000
  70
    32
  0
VERTEX
  8
AM_VIS
  5
60E
 10
5.85491
 20
3.70779
 30
0.000000
  70
    32
  0
VERTEX
  8
AM_VIS
  5
60F
 10
5.85642
 20
3.70781
 30
0.000000
  70
    32
  0
VERTEX
  8
AM_VIS
  5
610
 10
5.85793
 20
3.70784
 30
0.000000
  70
    32
  0
VERTEX
  8
AM_VIS
  5
611
 10
5.85944
 20
3.70789
 30
0.000000
  70
    32
  0
VERTEX
  8
AM_VIS
  5
612
 10
5.86096
 20
3.70794
 30
0.000000
  70
    32
  0
VERTEX
  8
AM_VIS
  5
613
 10
5.86247
 20
3.70800
 30
0.000000
  70
    32
  0
VERTEX
  8
AM_VIS
  5
614
 10
5.86399
 20
3.70807
 30
0.000000
  70
    32
  0
VERTEX
  8
AM_VIS
  5
615
 10
5.86551
 20
3.70815
 30
0.000000
  70
    32
  0
VERTEX
  8
AM_VIS
  5
616
 10
5.86703
 20
3.70824
 30
0.000000
  70
    32
  0
VERTEX
  8
AM_VIS
  5
617
 10
5.86856
 20
3.70834
 30
0.000000
  70
    32
  0
VERTEX
  8
AM_VIS
  5
618
 10
5.87008
 20
3.70845
 30
0.000000
  70
    32
  0
VERTEX
  8
AM_VIS
  5
619
 10
5.87161
 20
3.70856
 30
0.000000
  70
    32
  0
VERTEX
  8
AM_VIS
  5
61A
 10
5.87314
 20
3.70869
 30
0.000000
  70
    32
  0
VERTEX
  8
AM_VIS
  5
61B
 10
5.87467
 20
3.70883
 30
0.000000
  70
    32
  0
VERTEX
  8
AM_VIS
  5
61C
 10
5.87620
 20
3.70898
 30
0.000000
  70
    32
  0
VERTEX
  8
AM_VIS
  5
61D
 10
5.87773
 20
3.70913
 30
0.000000
  70
    32
  0
VERTEX
  8
AM_VIS
  5
61E
 10
5.87926
 20
3.70930
 30
0.000000
  70
    32
  0
VERTEX
  8
AM_VIS
  5
61F
 10
5.88079
 20
3.70947
 30
0.000000
  70
    32
  0
VERTEX
  8
AM_VIS
  5
620
 10
5.88232
 20
3.70965
 30
0.000000
  70
    32
  0
VERTEX
  8
AM_VIS
  5
621
 10
5.88386
 20
3.70985
 30
0.000000
  70
    32
  0
VERTEX
  8
AM_VIS
  5
622
 10
5.88539
 20
3.71005
 30
0.000000
  70
    32
  0
VERTEX
  8
AM_VIS
  5
623
 10
5.88693
 20
3.71026
 30
0.000000
  70
    32
  0
VERTEX
  8
AM_VIS
  5
624
 10
5.88846
 20
3.71048
 30
0.000000
  70
    32
  0
VERTEX
  8
AM_VIS
  5
625
 10
5.89000
 20
3.71071
 30
0.000000
  70
    32
  0
VERTEX
  8
AM_VIS
  5
626
 10
5.89153
 20
3.71095
 30
0.000000
  70
    32
  0
VERTEX
  8
AM_VIS
  5
627
 10
5.89306
 20
3.71120
 30
0.000000
  70
    32
  0
VERTEX
  8
AM_VIS
  5
628
 10
5.89460
 20
3.71146
 30
0.000000
  70
    32
  0
VERTEX
  8
AM_VIS
  5
629
 10
5.89613
 20
3.71173
 30
0.000000
  70
    32
  0
VERTEX
  8
AM_VIS
  5
62A
 10
5.89767
 20
3.71201
 30
0.000000
  70
    32
  0
VERTEX
  8
AM_VIS
  5
62B
 10
5.89920
 20
3.71230
 30
0.000000
  70
    32
  0
VERTEX
  8
AM_VIS
  5
62C
 10
5.90073
 20
3.71259
 30
0.000000
  70
    32
  0
VERTEX
  8
AM_VIS
  5
62D
 10
5.90227
 20
3.71290
 30
0.000000
  70
    32
  0
VERTEX
  8
AM_VIS
  5
62E
 10
5.90380
 20
3.71321
 30
0.000000
  70
    32
  0
VERTEX
  8
AM_VIS
  5
62F
 10
5.90533
 20
3.71354
 30
0.000000
  70
    32
  0
VERTEX
  8
AM_VIS
  5
630
 10
5.90686
 20
3.71387
 30
0.000000
  70
    32
  0
VERTEX
  8
AM_VIS
  5
631
 10
5.90839
 20
3.71421
 30
0.000000
  70
    32
  0
VERTEX
  8
AM_VIS
  5
632
 10
5.90992
 20
3.71457
 30
0.000000
  70
    32
  0
VERTEX
  8
AM_VIS
  5
633
 10
5.91144
 20
3.71493
 30
0.000000
  70
    32
  0
VERTEX
  8
AM_VIS
  5
634
 10
5.91297
 20
3.71530
 30
0.000000
  70
    32
  0
VERTEX
  8
AM_VIS
  5
635
 10
5.91449
 20
3.71568
 30
0.000000
  70
    32
  0
VERTEX
  8
AM_VIS
  5
636
 10
5.91601
 20
3.71607
 30
0.000000
  70
    32
  0
VERTEX
  8
AM_VIS
  5
637
 10
5.91754
 20
3.71647
 30
0.000000
  70
    32
  0
VERTEX
  8
AM_VIS
  5
638
 10
5.91905
 20
3.71688
 30
0.000000
  70
    32
  0
VERTEX
  8
AM_VIS
  5
639
 10
5.92057
 20
3.71730
 30
0.000000
  70
    32
  0
VERTEX
  8
AM_VIS
  5
63A
 10
5.92209
 20
3.71772
 30
0.000000
  70
    32
  0
VERTEX
  8
AM_VIS
  5
63B
 10
5.92360
 20
3.71816
 30
0.000000
  70
    32
  0
VERTEX
  8
AM_VIS
  5
63C
 10
5.92511
 20
3.71861
 30
0.000000
  70
    32
  0
VERTEX
  8
AM_VIS
  5
63D
 10
5.92662
 20
3.71906
 30
0.000000
  70
    32
  0
VERTEX
  8
AM_VIS
  5
63E
 10
5.92813
 20
3.71953
 30
0.000000
  70
    32
  0
VERTEX
  8
AM_VIS
  5
63F
 10
5.92963
 20
3.72000
 30
0.000000
  70
    32
  0
VERTEX
  8
AM_VIS
  5
640
 10
5.93113
 20
3.72048
 30
0.000000
  70
    32
  0
VERTEX
  8
AM_VIS
  5
641
 10
5.93263
 20
3.72098
 30
0.000000
  70
    32
  0
VERTEX
  8
AM_VIS
  5
642
 10
5.93413
 20
3.72148
 30
0.000000
  70
    32
  0
VERTEX
  8
AM_VIS
  5
643
 10
5.93562
 20
3.72199
 30
0.000000
  70
    32
  0
VERTEX
  8
AM_VIS
  5
644
 10
5.93711
 20
3.72251
 30
0.000000
  70
    32
  0
VERTEX
  8
AM_VIS
  5
645
 10
5.93860
 20
3.72304
 30
0.000000
  70
    32
  0
VERTEX
  8
AM_VIS
  5
646
 10
5.94009
 20
3.72358
 30
0.000000
  70
    32
  0
VERTEX
  8
AM_VIS
  5
647
 10
5.94157
 20
3.72413
 30
0.000000
  70
    32
  0
VERTEX
  8
AM_VIS
  5
648
 10
5.94305
 20
3.72469
 30
0.000000
  70
    32
  0
VERTEX
  8
AM_VIS
  5
649
 10
5.94452
 20
3.72525
 30
0.000000
  70
    32
  0
VERTEX
  8
AM_VIS
  5
64A
 10
5.94599
 20
3.72583
 30
0.000000
  70
    32
  0
VERTEX
  8
AM_VIS
  5
64B
 10
5.94746
 20
3.72641
 30
0.000000
  70
    32
  0
VERTEX
  8
AM_VIS
  5
64C
 10
5.94892
 20
3.72701
 30
0.000000
  70
    32
  0
VERTEX
  8
AM_VIS
  5
64D
 10
5.95039
 20
3.72761
 30
0.000000
  70
    32
  0
VERTEX
  8
AM_VIS
  5
64E
 10
5.95184
 20
3.72823
 30
0.000000
  70
    32
  0
VERTEX
  8
AM_VIS
  5
64F
 10
5.95329
 20
3.72885
 30
0.000000
  70
    32
  0
VERTEX
  8
AM_VIS
  5
650
 10
5.95474
 20
3.72948
 30
0.000000
  70
    32
  0
VERTEX
  8
AM_VIS
  5
651
 10
5.95619
 20
3.73012
 30
0.000000
  70
    32
  0
VERTEX
  8
AM_VIS
  5
652
 10
5.95763
 20
3.73077
 30
0.000000
  70
    32
  0
VERTEX
  8
AM_VIS
  5
653
 10
5.95906
 20
3.73143
 30
0.000000
  70
    32
  0
VERTEX
  8
AM_VIS
  5
654
 10
5.96050
 20
3.73210
 30
0.000000
  70
    32
  0
VERTEX
  8
AM_VIS
  5
655
 10
5.96192
 20
3.73278
 30
0.000000
  70
    32
  0
VERTEX
  8
AM_VIS
  5
656
 10
5.96334
 20
3.73346
 30
0.000000
  70
    32
  0
VERTEX
  8
AM_VIS
  5
657
 10
5.96476
 20
3.73416
 30
0.000000
  70
    32
  0
VERTEX
  8
AM_VIS
  5
658
 10
5.96618
 20
3.73486
 30
0.000000
  70
    32
  0
VERTEX
  8
AM_VIS
  5
659
 10
5.96759
 20
3.73558
 30
0.000000
  70
    32
  0
VERTEX
  8
AM_VIS
  5
65A
 10
5.96899
 20
3.73630
 30
0.000000
  70
    32
  0
VERTEX
  8
AM_VIS
  5
65B
 10
5.97039
 20
3.73703
 30
0.000000
  70
    32
  0
VERTEX
  8
AM_VIS
  5
65C
 10
5.97178
 20
3.73776
 30
0.000000
  70
    32
  0
VERTEX
  8
AM_VIS
  5
65D
 10
5.97317
 20
3.73851
 30
0.000000
  70
    32
  0
VERTEX
  8
AM_VIS
  5
65E
 10
5.97456
 20
3.73926
 30
0.000000
  70
    32
  0
VERTEX
  8
AM_VIS
  5
65F
 10
5.97594
 20
3.74003
 30
0.000000
  70
    32
  0
VERTEX
  8
AM_VIS
  5
660
 10
5.97731
 20
3.74080
 30
0.000000
  70
    32
  0
VERTEX
  8
AM_VIS
  5
661
 10
5.97868
 20
3.74158
 30
0.000000
  70
    32
  0
VERTEX
  8
AM_VIS
  5
662
 10
5.98005
 20
3.74236
 30
0.000000
  70
    32
  0
VERTEX
  8
AM_VIS
  5
663
 10
5.98141
 20
3.74316
 30
0.000000
  70
    32
  0
VERTEX
  8
AM_VIS
  5
664
 10
5.98276
 20
3.74396
 30
0.000000
  70
    32
  0
VERTEX
  8
AM_VIS
  5
665
 10
5.98411
 20
3.74477
 30
0.000000
  70
    32
  0
VERTEX
  8
AM_VIS
  5
666
 10
5.98545
 20
3.74558
 30
0.000000
  70
    32
  0
VERTEX
  8
AM_VIS
  5
667
 10
5.98679
 20
3.74641
 30
0.000000
  70
    32
  0
VERTEX
  8
AM_VIS
  5
668
 10
5.98812
 20
3.74724
 30
0.000000
  70
    32
  0
VERTEX
  8
AM_VIS
  5
669
 10
5.98945
 20
3.74808
 30
0.000000
  70
    32
  0
VERTEX
  8
AM_VIS
  5
66A
 10
5.99077
 20
3.74893
 30
0.000000
  70
    32
  0
VERTEX
  8
AM_VIS
  5
66B
 10
5.99209
 20
3.74978
 30
0.000000
  70
    32
  0
VERTEX
  8
AM_VIS
  5
66C
 10
5.99340
 20
3.75064
 30
0.000000
  70
    32
  0
VERTEX
  8
AM_VIS
  5
66D
 10
5.99470
 20
3.75151
 30
0.000000
  70
    32
  0
VERTEX
  8
AM_VIS
  5
66E
 10
5.99600
 20
3.75239
 30
0.000000
  70
    32
  0
VERTEX
  8
AM_VIS
  5
66F
 10
5.99729
 20
3.75327
 30
0.000000
  70
    32
  0
VERTEX
  8
AM_VIS
  5
670
 10
5.99857
 20
3.75416
 30
0.000000
  70
    32
  0
VERTEX
  8
AM_VIS
  5
671
 10
5.99985
 20
3.75505
 30
0.000000
  70
    32
  0
VERTEX
  8
AM_VIS
  5
672
 10
6.00113
 20
3.75595
 30
0.000000
  70
    32
  0
VERTEX
  8
AM_VIS
  5
673
 10
6.00239
 20
3.75686
 30
0.000000
  70
    32
  0
VERTEX
  8
AM_VIS
  5
674
 10
6.00365
 20
3.75778
 30
0.000000
  70
    32
  0
VERTEX
  8
AM_VIS
  5
675
 10
6.00491
 20
3.75870
 30
0.000000
  70
    32
  0
VERTEX
  8
AM_VIS
  5
676
 10
6.00616
 20
3.75963
 30
0.000000
  70
    32
  0
VERTEX
  8
AM_VIS
  5
677
 10
6.00740
 20
3.76056
 30
0.000000
  70
    32
  0
VERTEX
  8
AM_VIS
  5
678
 10
6.00863
 20
3.76150
 30
0.000000
  70
    32
  0
VERTEX
  8
AM_VIS
  5
679
 10
6.00986
 20
3.76245
 30
0.000000
  70
    32
  0
VERTEX
  8
AM_VIS
  5
67A
 10
6.01108
 20
3.76340
 30
0.000000
  70
    32
  0
VERTEX
  8
AM_VIS
  5
67B
 10
6.01230
 20
3.76436
 30
0.000000
  70
    32
  0
VERTEX
  8
AM_VIS
  5
67C
 10
6.01351
 20
3.76532
 30
0.000000
  70
    32
  0
VERTEX
  8
AM_VIS
  5
67D
 10
6.01471
 20
3.76629
 30
0.000000
  70
    32
  0
VERTEX
  8
AM_VIS
  5
67E
 10
6.01590
 20
3.76727
 30
0.000000
  70
    32
  0
VERTEX
  8
AM_VIS
  5
67F
 10
6.01709
 20
3.76825
 30
0.000000
  70
    32
  0
VERTEX
  8
AM_VIS
  5
680
 10
6.01827
 20
3.76923
 30
0.000000
  70
    32
  0
VERTEX
  8
AM_VIS
  5
681
 10
6.01944
 20
3.77023
 30
0.000000
  70
    32
  0
VERTEX
  8
AM_VIS
  5
682
 10
6.02061
 20
3.77122
 30
0.000000
  70
    32
  0
VERTEX
  8
AM_VIS
  5
683
 10
6.02177
 20
3.77222
 30
0.000000
  70
    32
  0
VERTEX
  8
AM_VIS
  5
684
 10
6.02292
 20
3.77323
 30
0.000000
  70
    32
  0
VERTEX
  8
AM_VIS
  5
685
 10
6.02407
 20
3.77425
 30
0.000000
  70
    32
  0
VERTEX
  8
AM_VIS
  5
686
 10
6.02520
 20
3.77526
 30
0.000000
  70
    32
  0
VERTEX
  8
AM_VIS
  5
687
 10
6.02633
 20
3.77629
 30
0.000000
  70
    32
  0
VERTEX
  8
AM_VIS
  5
688
 10
6.02745
 20
3.77731
 30
0.000000
  70
    32
  0
VERTEX
  8
AM_VIS
  5
689
 10
6.02857
 20
3.77835
 30
0.000000
  70
    32
  0
VERTEX
  8
AM_VIS
  5
68A
 10
6.02968
 20
3.77938
 30
0.000000
  70
    32
  0
VERTEX
  8
AM_VIS
  5
68B
 10
6.03078
 20
3.78042
 30
0.000000
  70
    32
  0
VERTEX
  8
AM_VIS
  5
68C
 10
6.03187
 20
3.78147
 30
0.000000
  70
    32
  0
VERTEX
  8
AM_VIS
  5
68D
 10
6.03295
 20
3.78252
 30
0.000000
  70
    32
  0
VERTEX
  8
AM_VIS
  5
68E
 10
6.03403
 20
3.78358
 30
0.000000
  70
    32
  0
VERTEX
  8
AM_VIS
  5
68F
 10
6.03509
 20
3.78464
 30
0.000000
  70
    32
  0
VERTEX
  8
AM_VIS
  5
690
 10
6.03615
 20
3.78570
 30
0.000000
  70
    32
  0
VERTEX
  8
AM_VIS
  5
691
 10
6.03721
 20
3.78677
 30
0.000000
  70
    32
  0
VERTEX
  8
AM_VIS
  5
692
 10
6.03825
 20
3.78784
 30
0.000000
  70
    32
  0
VERTEX
  8
AM_VIS
  5
693
 10
6.03929
 20
3.78892
 30
0.000000
  70
    32
  0
VERTEX
  8
AM_VIS
  5
694
 10
6.04031
 20
3.79000
 30
0.000000
  70
    32
  0
VERTEX
  8
AM_VIS
  5
695
 10
6.04133
 20
3.79108
 30
0.000000
  70
    32
  0
VERTEX
  8
AM_VIS
  5
696
 10
6.04235
 20
3.79217
 30
0.000000
  70
    32
  0
VERTEX
  8
AM_VIS
  5
697
 10
6.04336
 20
3.79327
 30
0.000000
  70
    32
  0
VERTEX
  8
AM_VIS
  5
698
 10
6.04436
 20
3.79438
 30
0.000000
  70
    32
  0
VERTEX
  8
AM_VIS
  5
699
 10
6.04536
 20
3.79549
 30
0.000000
  70
    32
  0
VERTEX
  8
AM_VIS
  5
69A
 10
6.04636
 20
3.79662
 30
0.000000
  70
    32
  0
VERTEX
  8
AM_VIS
  5
69B
 10
6.04735
 20
3.79775
 30
0.000000
  70
    32
  0
VERTEX
  8
AM_VIS
  5
69C
 10
6.04834
 20
3.79889
 30
0.000000
  70
    32
  0
VERTEX
  8
AM_VIS
  5
69D
 10
6.04932
 20
3.80003
 30
0.000000
  70
    32
  0
VERTEX
  8
AM_VIS
  5
69E
 10
6.05030
 20
3.80119
 30
0.000000
  70
    32
  0
VERTEX
  8
AM_VIS
  5
69F
 10
6.05128
 20
3.80235
 30
0.000000
  70
    32
  0
VERTEX
  8
AM_VIS
  5
6A0
 10
6.05224
 20
3.80352
 30
0.000000
  70
    32
  0
VERTEX
  8
AM_VIS
  5
6A1
 10
6.05321
 20
3.80469
 30
0.000000
  70
    32
  0
VERTEX
  8
AM_VIS
  5
6A2
 10
6.05417
 20
3.80588
 30
0.000000
  70
    32
  0
VERTEX
  8
AM_VIS
  5
6A3
 10
6.05512
 20
3.80707
 30
0.000000
  70
    32
  0
VERTEX
  8
AM_VIS
  5
6A4
 10
6.05607
 20
3.80827
 30
0.000000
  70
    32
  0
VERTEX
  8
AM_VIS
  5
6A5
 10
6.05701
 20
3.80947
 30
0.000000
  70
    32
  0
VERTEX
  8
AM_VIS
  5
6A6
 10
6.05795
 20
3.81069
 30
0.000000
  70
    32
  0
VERTEX
  8
AM_VIS
  5
6A7
 10
6.05888
 20
3.81190
 30
0.000000
  70
    32
  0
VERTEX
  8
AM_VIS
  5
6A8
 10
6.05981
 20
3.81313
 30
0.000000
  70
    32
  0
VERTEX
  8
AM_VIS
  5
6A9
 10
6.06073
 20
3.81436
 30
0.000000
  70
    32
  0
VERTEX
  8
AM_VIS
  5
6AA
 10
6.06164
 20
3.81560
 30
0.000000
  70
    32
  0
VERTEX
  8
AM_VIS
  5
6AB
 10
6.06255
 20
3.81685
 30
0.000000
  70
    32
  0
VERTEX
  8
AM_VIS
  5
6AC
 10
6.06346
 20
3.81810
 30
0.000000
  70
    32
  0
VERTEX
  8
AM_VIS
  5
6AD
 10
6.06436
 20
3.81936
 30
0.000000
  70
    32
  0
VERTEX
  8
AM_VIS
  5
6AE
 10
6.06525
 20
3.82063
 30
0.000000
  70
    32
  0
VERTEX
  8
AM_VIS
  5
6AF
 10
6.06614
 20
3.82190
 30
0.000000
  70
    32
  0
VERTEX
  8
AM_VIS
  5
6B0
 10
6.06702
 20
3.82318
 30
0.000000
  70
    32
  0
VERTEX
  8
AM_VIS
  5
6B1
 10
6.06789
 20
3.82446
 30
0.000000
  70
    32
  0
VERTEX
  8
AM_VIS
  5
6B2
 10
6.06876
 20
3.82576
 30
0.000000
  70
    32
  0
VERTEX
  8
AM_VIS
  5
6B3
 10
6.06962
 20
3.82705
 30
0.000000
  70
    32
  0
VERTEX
  8
AM_VIS
  5
6B4
 10
6.07048
 20
3.82836
 30
0.000000
  70
    32
  0
VERTEX
  8
AM_VIS
  5
6B5
 10
6.07133
 20
3.82967
 30
0.000000
  70
    32
  0
VERTEX
  8
AM_VIS
  5
6B6
 10
6.07217
 20
3.83098
 30
0.000000
  70
    32
  0
VERTEX
  8
AM_VIS
  5
6B7
 10
6.07301
 20
3.83230
 30
0.000000
  70
    32
  0
VERTEX
  8
AM_VIS
  5
6B8
 10
6.07384
 20
3.83363
 30
0.000000
  70
    32
  0
VERTEX
  8
AM_VIS
  5
6B9
 10
6.07466
 20
3.83497
 30
0.000000
  70
    32
  0
VERTEX
  8
AM_VIS
  5
6BA
 10
6.07548
 20
3.83630
 30
0.000000
  70
    32
  0
VERTEX
  8
AM_VIS
  5
6BB
 10
6.07629
 20
3.83765
 30
0.000000
  70
    32
  0
VERTEX
  8
AM_VIS
  5
6BC
 10
6.07709
 20
3.83900
 30
0.000000
  70
    32
  0
VERTEX
  8
AM_VIS
  5
6BD
 10
6.07789
 20
3.84035
 30
0.000000
  70
    32
  0
VERTEX
  8
AM_VIS
  5
6BE
 10
6.07868
 20
3.84172
 30
0.000000
  70
    32
  0
VERTEX
  8
AM_VIS
  5
6BF
 10
6.07946
 20
3.84308
 30
0.000000
  70
    32
  0
VERTEX
  8
AM_VIS
  5
6C0
 10
6.08024
 20
3.84445
 30
0.000000
  70
    32
  0
VERTEX
  8
AM_VIS
  5
6C1
 10
6.08101
 20
3.84583
 30
0.000000
  70
    32
  0
VERTEX
  8
AM_VIS
  5
6C2
 10
6.08177
 20
3.84721
 30
0.000000
  70
    32
  0
VERTEX
  8
AM_VIS
  5
6C3
 10
6.08252
 20
3.84860
 30
0.000000
  70
    32
  0
VERTEX
  8
AM_VIS
  5
6C4
 10
6.08327
 20
3.84999
 30
0.000000
  70
    32
  0
VERTEX
  8
AM_VIS
  5
6C5
 10
6.08401
 20
3.85139
 30
0.000000
  70
    32
  0
VERTEX
  8
AM_VIS
  5
6C6
 10
6.08474
 20
3.85279
 30
0.000000
  70
    32
  0
VERTEX
  8
AM_VIS
  5
6C7
 10
6.08547
 20
3.85420
 30
0.000000
  70
    32
  0
VERTEX
  8
AM_VIS
  5
6C8
 10
6.08618
 20
3.85561
 30
0.000000
  70
    32
  0
VERTEX
  8
AM_VIS
  5
6C9
 10
6.08689
 20
3.85703
 30
0.000000
  70
    32
  0
VERTEX
  8
AM_VIS
  5
6CA
 10
6.08759
 20
3.85845
 30
0.000000
  70
    32
  0
VERTEX
  8
AM_VIS
  5
6CB
 10
6.08829
 20
3.85987
 30
0.000000
  70
    32
  0
VERTEX
  8
AM_VIS
  5
6CC
 10
6.08897
 20
3.86130
 30
0.000000
  70
    32
  0
VERTEX
  8
AM_VIS
  5
6CD
 10
6.08965
 20
3.86274
 30
0.000000
  70
    32
  0
VERTEX
  8
AM_VIS
  5
6CE
 10
6.09032
 20
3.86418
 30
0.000000
  70
    32
  0
VERTEX
  8
AM_VIS
  5
6CF
 10
6.09098
 20
3.86562
 30
0.000000
  70
    32
  0
VERTEX
  8
AM_VIS
  5
6D0
 10
6.09164
 20
3.86707
 30
0.000000
  70
    32
  0
VERTEX
  8
AM_VIS
  5
6D1
 10
6.09228
 20
3.86852
 30
0.000000
  70
    32
  0
VERTEX
  8
AM_VIS
  5
6D2
 10
6.09292
 20
3.86997
 30
0.000000
  70
    32
  0
VERTEX
  8
AM_VIS
  5
6D3
 10
6.09355
 20
3.87143
 30
0.000000
  70
    32
  0
VERTEX
  8
AM_VIS
  5
6D4
 10
6.09417
 20
3.87290
 30
0.000000
  70
    32
  0
VERTEX
  8
AM_VIS
  5
6D5
 10
6.09478
 20
3.87436
 30
0.000000
  70
    32
  0
VERTEX
  8
AM_VIS
  5
6D6
 10
6.09538
 20
3.87583
 30
0.000000
  70
    32
  0
VERTEX
  8
AM_VIS
  5
6D7
 10
6.09598
 20
3.87731
 30
0.000000
  70
    32
  0
VERTEX
  8
AM_VIS
  5
6D8
 10
6.09656
 20
3.87879
 30
0.000000
  70
    32
  0
VERTEX
  8
AM_VIS
  5
6D9
 10
6.09714
 20
3.88027
 30
0.000000
  70
    32
  0
VERTEX
  8
AM_VIS
  5
6DA
 10
6.09771
 20
3.88176
 30
0.000000
  70
    32
  0
VERTEX
  8
AM_VIS
  5
6DB
 10
6.09827
 20
3.88325
 30
0.000000
  70
    32
  0
VERTEX
  8
AM_VIS
  5
6DC
 10
6.09882
 20
3.88474
 30
0.000000
  70
    32
  0
VERTEX
  8
AM_VIS
  5
6DD
 10
6.09936
 20
3.88623
 30
0.000000
  70
    32
  0
VERTEX
  8
AM_VIS
  5
6DE
 10
6.09990
 20
3.88773
 30
0.000000
  70
    32
  0
VERTEX
  8
AM_VIS
  5
6DF
 10
6.10042
 20
3.88924
 30
0.000000
  70
    32
  0
VERTEX
  8
AM_VIS
  5
6E0
 10
6.10094
 20
3.89074
 30
0.000000
  70
    32
  0
VERTEX
  8
AM_VIS
  5
6E1
 10
6.10145
 20
3.89225
 30
0.000000
  70
    32
  0
VERTEX
  8
AM_VIS
  5
6E2
 10
6.10194
 20
3.89376
 30
0.000000
  70
    32
  0
VERTEX
  8
AM_VIS
  5
6E3
 10
6.10243
 20
3.89527
 30
0.000000
  70
    32
  0
VERTEX
  8
AM_VIS
  5
6E4
 10
6.10292
 20
3.89679
 30
0.000000
  70
    32
  0
VERTEX
  8
AM_VIS
  5
6E5
 10
6.10339
 20
3.89831
 30
0.000000
  70
    32
  0
VERTEX
  8
AM_VIS
  5
6E6
 10
6.10385
 20
3.89983
 30
0.000000
  70
    32
  0
VERTEX
  8
AM_VIS
  5
6E7
 10
6.10431
 20
3.90135
 30
0.000000
  70
    32
  0
VERTEX
  8
AM_VIS
  5
6E8
 10
6.10475
 20
3.90288
 30
0.000000
  70
    32
  0
VERTEX
  8
AM_VIS
  5
6E9
 10
6.10519
 20
3.90440
 30
0.000000
  70
    32
  0
VERTEX
  8
AM_VIS
  5
6EA
 10
6.10562
 20
3.90593
 30
0.000000
  70
    32
  0
VERTEX
  8
AM_VIS
  5
6EB
 10
6.10604
 20
3.90746
 30
0.000000
  70
    32
  0
VERTEX
  8
AM_VIS
  5
6EC
 10
6.10645
 20
3.90900
 30
0.000000
  70
    32
  0
VERTEX
  8
AM_VIS
  5
6ED
 10
6.10686
 20
3.91053
 30
0.000000
  70
    32
  0
VERTEX
  8
AM_VIS
  5
6EE
 10
6.10725
 20
3.91207
 30
0.000000
  70
    32
  0
VERTEX
  8
AM_VIS
  5
6EF
 10
6.10764
 20
3.91361
 30
0.000000
  70
    32
  0
VERTEX
  8
AM_VIS
  5
6F0
 10
6.10802
 20
3.91515
 30
0.000000
  70
    32
  0
VERTEX
  8
AM_VIS
  5
6F1
 10
6.10838
 20
3.91669
 30
0.000000
  70
    32
  0
VERTEX
  8
AM_VIS
  5
6F2
 10
6.10874
 20
3.91823
 30
0.000000
  70
    32
  0
VERTEX
  8
AM_VIS
  5
6F3
 10
6.10910
 20
3.91977
 30
0.000000
  70
    32
  0
VERTEX
  8
AM_VIS
  5
6F4
 10
6.10944
 20
3.92131
 30
0.000000
  70
    32
  0
VERTEX
  8
AM_VIS
  5
6F5
 10
6.10977
 20
3.92286
 30
0.000000
  70
    32
  0
VERTEX
  8
AM_VIS
  5
6F6
 10
6.11010
 20
3.92440
 30
0.000000
  70
    32
  0
VERTEX
  8
AM_VIS
  5
6F7
 10
6.11042
 20
3.92595
 30
0.000000
  70
    32
  0
VERTEX
  8
AM_VIS
  5
6F8
 10
6.11072
 20
3.92750
 30
0.000000
  70
    32
  0
VERTEX
  8
AM_VIS
  5
6F9
 10
6.11102
 20
3.92904
 30
0.000000
  70
    32
  0
VERTEX
  8
AM_VIS
  5
6FA
 10
6.11131
 20
3.93059
 30
0.000000
  70
    32
  0
VERTEX
  8
AM_VIS
  5
6FB
 10
6.11160
 20
3.93214
 30
0.000000
  70
    32
  0
VERTEX
  8
AM_VIS
  5
6FC
 10
6.11187
 20
3.93369
 30
0.000000
  70
    32
  0
VERTEX
  8
AM_VIS
  5
6FD
 10
6.11214
 20
3.93524
 30
0.000000
  70
    32
  0
VERTEX
  8
AM_VIS
  5
6FE
 10
6.11239
 20
3.93678
 30
0.000000
  70
    32
  0
VERTEX
  8
AM_VIS
  5
6FF
 10
6.11264
 20
3.93833
 30
0.000000
  70
    32
  0
VERTEX
  8
AM_VIS
  5
700
 10
6.11288
 20
3.93988
 30
0.000000
  70
    32
  0
VERTEX
  8
AM_VIS
  5
701
 10
6.11311
 20
3.94143
 30
0.000000
  70
    32
  0
VERTEX
  8
AM_VIS
  5
702
 10
6.11334
 20
3.94298
 30
0.000000
  70
    32
  0
VERTEX
  8
AM_VIS
  5
703
 10
6.11355
 20
3.94452
 30
0.000000
  70
    32
  0
VERTEX
  8
AM_VIS
  5
704
 10
6.11376
 20
3.94607
 30
0.000000
  70
    32
  0
VERTEX
  8
AM_VIS
  5
705
 10
6.11395
 20
3.94762
 30
0.000000
  70
    32
  0
VERTEX
  8
AM_VIS
  5
706
 10
6.11414
 20
3.94916
 30
0.000000
  70
    32
  0
VERTEX
  8
AM_VIS
  5
707
 10
6.11432
 20
3.95070
 30
0.000000
  70
    32
  0
VERTEX
  8
AM_VIS
  5
708
 10
6.11449
 20
3.95225
 30
0.000000
  70
    32
  0
VERTEX
  8
AM_VIS
  5
709
 10
6.11466
 20
3.95379
 30
0.000000
  70
    32
  0
VERTEX
  8
AM_VIS
  5
70A
 10
6.11481
 20
3.95533
 30
0.000000
  70
    32
  0
VERTEX
  8
AM_VIS
  5
70B
 10
6.11496
 20
3.95687
 30
0.000000
  70
    32
  0
VERTEX
  8
AM_VIS
  5
70C
 10
6.11509
 20
3.95841
 30
0.000000
  70
    32
  0
VERTEX
  8
AM_VIS
  5
70D
 10
6.11522
 20
3.95995
 30
0.000000
  70
    32
  0
VERTEX
  8
AM_VIS
  5
70E
 10
6.11534
 20
3.96148
 30
0.000000
  70
    32
  0
VERTEX
  8
AM_VIS
  5
70F
 10
6.11545
 20
3.96301
 30
0.000000
  70
    32
  0
VERTEX
  8
AM_VIS
  5
710
 10
6.11556
 20
3.96455
 30
0.000000
  70
    32
  0
VERTEX
  8
AM_VIS
  5
711
 10
6.11565
 20
3.96608
 30
0.000000
  70
    32
  0
VERTEX
  8
AM_VIS
  5
712
 10
6.11574
 20
3.96760
 30
0.000000
  70
    32
  0
VERTEX
  8
AM_VIS
  5
713
 10
6.11582
 20
3.96913
 30
0.000000
  70
    32
  0
VERTEX
  8
AM_VIS
  5
714
 10
6.11589
 20
3.97065
 30
0.000000
  70
    32
  0
VERTEX
  8
AM_VIS
  5
715
 10
6.11595
 20
3.97218
 30
0.000000
  70
    32
  0
VERTEX
  8
AM_VIS
  5
716
 10
6.11600
 20
3.97370
 30
0.000000
  70
    32
  0
VERTEX
  8
AM_VIS
  5
717
 10
6.11605
 20
3.97521
 30
0.000000
  70
    32
  0
VERTEX
  8
AM_VIS
  5
718
 10
6.11608
 20
3.97673
 30
0.000000
  70
    32
  0
VERTEX
  8
AM_VIS
  5
719
 10
6.11611
 20
3.97824
 30
0.000000
  70
    32
  0
VERTEX
  8
AM_VIS
  5
71A
 10
6.11613
 20
3.97975
 30
0.000000
  70
    32
  0
VERTEX
  8
AM_VIS
  5
71B
 10
6.11614
 20
3.98125
 30
0.000000
  70
    32
  0
VERTEX
  8
AM_VIS
  5
71C
 10
6.11614
 20
3.98276
 30
0.000000
  70
    32
  0
VERTEX
  8
AM_VIS
  5
71D
 10
6.11613
 20
3.98426
 30
0.000000
  70
    32
  0
VERTEX
  8
AM_VIS
  5
71E
 10
6.11612
 20
3.98577
 30
0.000000
  70
    32
  0
VERTEX
  8
AM_VIS
  5
71F
 10
6.11610
 20
3.98728
 30
0.000000
  70
    32
  0
VERTEX
  8
AM_VIS
  5
720
 10
6.11606
 20
3.98879
 30
0.000000
  70
    32
  0
VERTEX
  8
AM_VIS
  5
721
 10
6.11602
 20
3.99031
 30
0.000000
  70
    32
  0
VERTEX
  8
AM_VIS
  5
722
 10
6.11598
 20
3.99183
 30
0.000000
  70
    32
  0
VERTEX
  8
AM_VIS
  5
723
 10
6.11592
 20
3.99335
 30
0.000000
  70
    32
  0
VERTEX
  8
AM_VIS
  5
724
 10
6.11585
 20
3.99487
 30
0.000000
  70
    32
  0
VERTEX
  8
AM_VIS
  5
725
 10
6.11578
 20
3.99640
 30
0.000000
  70
    32
  0
VERTEX
  8
AM_VIS
  5
726
 10
6.11570
 20
3.99792
 30
0.000000
  70
    32
  0
VERTEX
  8
AM_VIS
  5
727
 10
6.11561
 20
3.99945
 30
0.000000
  70
    32
  0
VERTEX
  8
AM_VIS
  5
728
 10
6.11551
 20
4.00098
 30
0.000000
  70
    32
  0
VERTEX
  8
AM_VIS
  5
729
 10
6.11540
 20
4.00252
 30
0.000000
  70
    32
  0
VERTEX
  8
AM_VIS
  5
72A
 10
6.11528
 20
4.00405
 30
0.000000
  70
    32
  0
VERTEX
  8
AM_VIS
  5
72B
 10
6.11516
 20
4.00559
 30
0.000000
  70
    32
  0
VERTEX
  8
AM_VIS
  5
72C
 10
6.11503
 20
4.00713
 30
0.000000
  70
    32
  0
VERTEX
  8
AM_VIS
  5
72D
 10
6.11488
 20
4.00866
 30
0.000000
  70
    32
  0
VERTEX
  8
AM_VIS
  5
72E
 10
6.11473
 20
4.01020
 30
0.000000
  70
    32
  0
VERTEX
  8
AM_VIS
  5
72F
 10
6.11458
 20
4.01175
 30
0.000000
  70
    32
  0
VERTEX
  8
AM_VIS
  5
730
 10
6.11441
 20
4.01329
 30
0.000000
  70
    32
  0
VERTEX
  8
AM_VIS
  5
731
 10
6.11423
 20
4.01483
 30
0.000000
  70
    32
  0
VERTEX
  8
AM_VIS
  5
732
 10
6.11405
 20
4.01638
 30
0.000000
  70
    32
  0
VERTEX
  8
AM_VIS
  5
733
 10
6.11386
 20
4.01792
 30
0.000000
  70
    32
  0
VERTEX
  8
AM_VIS
  5
734
 10
6.11365
 20
4.01947
 30
0.000000
  70
    32
  0
VERTEX
  8
AM_VIS
  5
735
 10
6.11344
 20
4.02101
 30
0.000000
  70
    32
  0
VERTEX
  8
AM_VIS
  5
736
 10
6.11323
 20
4.02256
 30
0.000000
  70
    32
  0
VERTEX
  8
AM_VIS
  5
737
 10
6.11300
 20
4.02411
 30
0.000000
  70
    32
  0
VERTEX
  8
AM_VIS
  5
738
 10
6.11276
 20
4.02566
 30
0.000000
  70
    32
  0
VERTEX
  8
AM_VIS
  5
739
 10
6.11252
 20
4.02721
 30
0.000000
  70
    32
  0
VERTEX
  8
AM_VIS
  5
73A
 10
6.11227
 20
4.02875
 30
0.000000
  70
    32
  0
VERTEX
  8
AM_VIS
  5
73B
 10
6.11201
 20
4.03030
 30
0.000000
  70
    32
  0
VERTEX
  8
AM_VIS
  5
73C
 10
6.11174
 20
4.03185
 30
0.000000
  70
    32
  0
VERTEX
  8
AM_VIS
  5
73D
 10
6.11146
 20
4.03340
 30
0.000000
  70
    32
  0
VERTEX
  8
AM_VIS
  5
73E
 10
6.11117
 20
4.03495
 30
0.000000
  70
    32
  0
VERTEX
  8
AM_VIS
  5
73F
 10
6.11087
 20
4.03649
 30
0.000000
  70
    32
  0
VERTEX
  8
AM_VIS
  5
740
 10
6.11057
 20
4.03804
 30
0.000000
  70
    32
  0
VERTEX
  8
AM_VIS
  5
741
 10
6.11026
 20
4.03959
 30
0.000000
  70
    32
  0
VERTEX
  8
AM_VIS
  5
742
 10
6.10994
 20
4.04113
 30
0.000000
  70
    32
  0
VERTEX
  8
AM_VIS
  5
743
 10
6.10961
 20
4.04268
 30
0.000000
  70
    32
  0
VERTEX
  8
AM_VIS
  5
744
 10
6.10927
 20
4.04422
 30
0.000000
  70
    32
  0
VERTEX
  8
AM_VIS
  5
745
 10
6.10892
 20
4.04577
 30
0.000000
  70
    32
  0
VERTEX
  8
AM_VIS
  5
746
 10
6.10857
 20
4.04731
 30
0.000000
  70
    32
  0
VERTEX
  8
AM_VIS
  5
747
 10
6.10820
 20
4.04885
 30
0.000000
  70
    32
  0
VERTEX
  8
AM_VIS
  5
748
 10
6.10783
 20
4.05039
 30
0.000000
  70
    32
  0
VERTEX
  8
AM_VIS
  5
749
 10
6.10745
 20
4.05193
 30
0.000000
  70
    32
  0
VERTEX
  8
AM_VIS
  5
74A
 10
6.10706
 20
4.05346
 30
0.000000
  70
    32
  0
VERTEX
  8
AM_VIS
  5
74B
 10
6.10666
 20
4.05500
 30
0.000000
  70
    32
  0
VERTEX
  8
AM_VIS
  5
74C
 10
6.10625
 20
4.05653
 30
0.000000
  70
    32
  0
VERTEX
  8
AM_VIS
  5
74D
 10
6.10583
 20
4.05807
 30
0.000000
  70
    32
  0
VERTEX
  8
AM_VIS
  5
74E
 10
6.10541
 20
4.05960
 30
0.000000
  70
    32
  0
VERTEX
  8
AM_VIS
  5
74F
 10
6.10497
 20
4.06112
 30
0.000000
  70
    32
  0
VERTEX
  8
AM_VIS
  5
750
 10
6.10453
 20
4.06265
 30
0.000000
  70
    32
  0
VERTEX
  8
AM_VIS
  5
751
 10
6.10408
 20
4.06417
 30
0.000000
  70
    32
  0
VERTEX
  8
AM_VIS
  5
752
 10
6.10362
 20
4.06570
 30
0.000000
  70
    32
  0
VERTEX
  8
AM_VIS
  5
753
 10
6.10315
 20
4.06722
 30
0.000000
  70
    32
  0
VERTEX
  8
AM_VIS
  5
754
 10
6.10268
 20
4.06873
 30
0.000000
  70
    32
  0
VERTEX
  8
AM_VIS
  5
755
 10
6.10219
 20
4.07025
 30
0.000000
  70
    32
  0
VERTEX
  8
AM_VIS
  5
756
 10
6.10170
 20
4.07176
 30
0.000000
  70
    32
  0
VERTEX
  8
AM_VIS
  5
757
 10
6.10119
 20
4.07327
 30
0.000000
  70
    32
  0
VERTEX
  8
AM_VIS
  5
758
 10
6.10068
 20
4.07478
 30
0.000000
  70
    32
  0
VERTEX
  8
AM_VIS
  5
759
 10
6.10016
 20
4.07628
 30
0.000000
  70
    32
  0
VERTEX
  8
AM_VIS
  5
75A
 10
6.09963
 20
4.07778
 30
0.000000
  70
    32
  0
VERTEX
  8
AM_VIS
  5
75B
 10
6.09909
 20
4.07928
 30
0.000000
  70
    32
  0
VERTEX
  8
AM_VIS
  5
75C
 10
6.09855
 20
4.08077
 30
0.000000
  70
    32
  0
VERTEX
  8
AM_VIS
  5
75D
 10
6.09799
 20
4.08226
 30
0.000000
  70
    32
  0
VERTEX
  8
AM_VIS
  5
75E
 10
6.09743
 20
4.08375
 30
0.000000
  70
    32
  0
VERTEX
  8
AM_VIS
  5
75F
 10
6.09685
 20
4.08524
 30
0.000000
  70
    32
  0
VERTEX
  8
AM_VIS
  5
760
 10
6.09627
 20
4.08672
 30
0.000000
  70
    32
  0
VERTEX
  8
AM_VIS
  5
761
 10
6.09568
 20
4.08819
 30
0.000000
  70
    32
  0
VERTEX
  8
AM_VIS
  5
762
 10
6.09508
 20
4.08967
 30
0.000000
  70
    32
  0
VERTEX
  8
AM_VIS
  5
763
 10
6.09447
 20
4.09114
 30
0.000000
  70
    32
  0
VERTEX
  8
AM_VIS
  5
764
 10
6.09386
 20
4.09260
 30
0.000000
  70
    32
  0
VERTEX
  8
AM_VIS
  5
765
 10
6.09323
 20
4.09406
 30
0.000000
  70
    32
  0
VERTEX
  8
AM_VIS
  5
766
 10
6.09260
 20
4.09552
 30
0.000000
  70
    32
  0
VERTEX
  8
AM_VIS
  5
767
 10
6.09196
 20
4.09697
 30
0.000000
  70
    32
  0
VERTEX
  8
AM_VIS
  5
768
 10
6.09131
 20
4.09842
 30
0.000000
  70
    32
  0
VERTEX
  8
AM_VIS
  5
769
 10
6.09065
 20
4.09987
 30
0.000000
  70
    32
  0
VERTEX
  8
AM_VIS
  5
76A
 10
6.08999
 20
4.10131
 30
0.000000
  70
    32
  0
VERTEX
  8
AM_VIS
  5
76B
 10
6.08931
 20
4.10275
 30
0.000000
  70
    32
  0
VERTEX
  8
AM_VIS
  5
76C
 10
6.08863
 20
4.10418
 30
0.000000
  70
    32
  0
VERTEX
  8
AM_VIS
  5
76D
 10
6.08794
 20
4.10561
 30
0.000000
  70
    32
  0
VERTEX
  8
AM_VIS
  5
76E
 10
6.08724
 20
4.10703
 30
0.000000
  70
    32
  0
VERTEX
  8
AM_VIS
  5
76F
 10
6.08654
 20
4.10845
 30
0.000000
  70
    32
  0
VERTEX
  8
AM_VIS
  5
770
 10
6.08583
 20
4.10986
 30
0.000000
  70
    32
  0
VERTEX
  8
AM_VIS
  5
771
 10
6.08510
 20
4.11127
 30
0.000000
  70
    32
  0
VERTEX
  8
AM_VIS
  5
772
 10
6.08438
 20
4.11268
 30
0.000000
  70
    32
  0
VERTEX
  8
AM_VIS
  5
773
 10
6.08364
 20
4.11408
 30
0.000000
  70
    32
  0
VERTEX
  8
AM_VIS
  5
774
 10
6.08290
 20
4.11547
 30
0.000000
  70
    32
  0
VERTEX
  8
AM_VIS
  5
775
 10
6.08215
 20
4.11686
 30
0.000000
  70
    32
  0
VERTEX
  8
AM_VIS
  5
776
 10
6.08139
 20
4.11824
 30
0.000000
  70
    32
  0
VERTEX
  8
AM_VIS
  5
777
 10
6.08062
 20
4.11962
 30
0.000000
  70
    32
  0
VERTEX
  8
AM_VIS
  5
778
 10
6.07985
 20
4.12100
 30
0.000000
  70
    32
  0
VERTEX
  8
AM_VIS
  5
779
 10
6.07907
 20
4.12237
 30
0.000000
  70
    32
  0
VERTEX
  8
AM_VIS
  5
77A
 10
6.07829
 20
4.12373
 30
0.000000
  70
    32
  0
VERTEX
  8
AM_VIS
  5
77B
 10
6.07749
 20
4.12509
 30
0.000000
  70
    32
  0
VERTEX
  8
AM_VIS
  5
77C
 10
6.07669
 20
4.12644
 30
0.000000
  70
    32
  0
VERTEX
  8
AM_VIS
  5
77D
 10
6.07589
 20
4.12779
 30
0.000000
  70
    32
  0
VERTEX
  8
AM_VIS
  5
77E
 10
6.07507
 20
4.12913
 30
0.000000
  70
    32
  0
VERTEX
  8
AM_VIS
  5
77F
 10
6.07425
 20
4.13047
 30
0.000000
  70
    32
  0
VERTEX
  8
AM_VIS
  5
780
 10
6.07342
 20
4.13180
 30
0.000000
  70
    32
  0
VERTEX
  8
AM_VIS
  5
781
 10
6.07259
 20
4.13312
 30
0.000000
  70
    32
  0
VERTEX
  8
AM_VIS
  5
782
 10
6.07175
 20
4.13444
 30
0.000000
  70
    32
  0
VERTEX
  8
AM_VIS
  5
783
 10
6.07090
 20
4.13575
 30
0.000000
  70
    32
  0
VERTEX
  8
AM_VIS
  5
784
 10
6.07005
 20
4.13706
 30
0.000000
  70
    32
  0
VERTEX
  8
AM_VIS
  5
785
 10
6.06919
 20
4.13836
 30
0.000000
  70
    32
  0
VERTEX
  8
AM_VIS
  5
786
 10
6.06833
 20
4.13965
 30
0.000000
  70
    32
  0
VERTEX
  8
AM_VIS
  5
787
 10
6.06746
 20
4.14094
 30
0.000000
  70
    32
  0
VERTEX
  8
AM_VIS
  5
788
 10
6.06658
 20
4.14223
 30
0.000000
  70
    32
  0
VERTEX
  8
AM_VIS
  5
789
 10
6.06569
 20
4.14350
 30
0.000000
  70
    32
  0
VERTEX
  8
AM_VIS
  5
78A
 10
6.06480
 20
4.14477
 30
0.000000
  70
    32
  0
VERTEX
  8
AM_VIS
  5
78B
 10
6.06391
 20
4.14603
 30
0.000000
  70
    32
  0
VERTEX
  8
AM_VIS
  5
78C
 10
6.06301
 20
4.14729
 30
0.000000
  70
    32
  0
VERTEX
  8
AM_VIS
  5
78D
 10
6.06210
 20
4.14854
 30
0.000000
  70
    32
  0
VERTEX
  8
AM_VIS
  5
78E
 10
6.06119
 20
4.14978
 30
0.000000
  70
    32
  0
VERTEX
  8
AM_VIS
  5
78F
 10
6.06027
 20
4.15102
 30
0.000000
  70
    32
  0
VERTEX
  8
AM_VIS
  5
790
 10
6.05934
 20
4.15225
 30
0.000000
  70
    32
  0
VERTEX
  8
AM_VIS
  5
791
 10
6.05842
 20
4.15347
 30
0.000000
  70
    32
  0
VERTEX
  8
AM_VIS
  5
792
 10
6.05748
 20
4.15469
 30
0.000000
  70
    32
  0
VERTEX
  8
AM_VIS
  5
793
 10
6.05654
 20
4.15590
 30
0.000000
  70
    32
  0
VERTEX
  8
AM_VIS
  5
794
 10
6.05559
 20
4.15710
 30
0.000000
  70
    32
  0
VERTEX
  8
AM_VIS
  5
795
 10
6.05464
 20
4.15829
 30
0.000000
  70
    32
  0
VERTEX
  8
AM_VIS
  5
796
 10
6.05369
 20
4.15948
 30
0.000000
  70
    32
  0
VERTEX
  8
AM_VIS
  5
797
 10
6.05273
 20
4.16066
 30
0.000000
  70
    32
  0
VERTEX
  8
AM_VIS
  5
798
 10
6.05176
 20
4.16183
 30
0.000000
  70
    32
  0
VERTEX
  8
AM_VIS
  5
799
 10
6.05079
 20
4.16300
 30
0.000000
  70
    32
  0
VERTEX
  8
AM_VIS
  5
79A
 10
6.04981
 20
4.16415
 30
0.000000
  70
    32
  0
VERTEX
  8
AM_VIS
  5
79B
 10
6.04883
 20
4.16530
 30
0.000000
  70
    32
  0
VERTEX
  8
AM_VIS
  5
79C
 10
6.04785
 20
4.16645
 30
0.000000
  70
    32
  0
VERTEX
  8
AM_VIS
  5
79D
 10
6.04686
 20
4.16758
 30
0.000000
  70
    32
  0
VERTEX
  8
AM_VIS
  5
79E
 10
6.04586
 20
4.16871
 30
0.000000
  70
    32
  0
VERTEX
  8
AM_VIS
  5
79F
 10
6.04486
 20
4.16983
 30
0.000000
  70
    32
  0
VERTEX
  8
AM_VIS
  5
7A0
 10
6.04386
 20
4.17094
 30
0.000000
  70
    32
  0
VERTEX
  8
AM_VIS
  5
7A1
 10
6.04285
 20
4.17204
 30
0.000000
  70
    32
  0
VERTEX
  8
AM_VIS
  5
7A2
 10
6.04184
 20
4.17314
 30
0.000000
  70
    32
  0
VERTEX
  8
AM_VIS
  5
7A3
 10
6.04082
 20
4.17423
 30
0.000000
  70
    32
  0
VERTEX
  8
AM_VIS
  5
7A4
 10
6.03980
 20
4.17531
 30
0.000000
  70
    32
  0
VERTEX
  8
AM_VIS
  5
7A5
 10
6.03877
 20
4.17639
 30
0.000000
  70
    32
  0
VERTEX
  8
AM_VIS
  5
7A6
 10
6.03773
 20
4.17746
 30
0.000000
  70
    32
  0
VERTEX
  8
AM_VIS
  5
7A7
 10
6.03668
 20
4.17853
 30
0.000000
  70
    32
  0
VERTEX
  8
AM_VIS
  5
7A8
 10
6.03563
 20
4.17960
 30
0.000000
  70
    32
  0
VERTEX
  8
AM_VIS
  5
7A9
 10
6.03456
 20
4.18066
 30
0.000000
  70
    32
  0
VERTEX
  8
AM_VIS
  5
7AA
 10
6.03349
 20
4.18172
 30
0.000000
  70
    32
  0
VERTEX
  8
AM_VIS
  5
7AB
 10
6.03241
 20
4.18277
 30
0.000000
  70
    32
  0
VERTEX
  8
AM_VIS
  5
7AC
 10
6.03132
 20
4.18382
 30
0.000000
  70
    32
  0
VERTEX
  8
AM_VIS
  5
7AD
 10
6.03023
 20
4.18486
 30
0.000000
  70
    32
  0
VERTEX
  8
AM_VIS
  5
7AE
 10
6.02912
 20
4.18590
 30
0.000000
  70
    32
  0
VERTEX
  8
AM_VIS
  5
7AF
 10
6.02801
 20
4.18694
 30
0.000000
  70
    32
  0
VERTEX
  8
AM_VIS
  5
7B0
 10
6.02689
 20
4.18797
 30
0.000000
  70
    32
  0
VERTEX
  8
AM_VIS
  5
7B1
 10
6.02577
 20
4.18899
 30
0.000000
  70
    32
  0
VERTEX
  8
AM_VIS
  5
7B2
 10
6.02464
 20
4.19001
 30
0.000000
  70
    32
  0
VERTEX
  8
AM_VIS
  5
7B3
 10
6.02349
 20
4.19103
 30
0.000000
  70
    32
  0
VERTEX
  8
AM_VIS
  5
7B4
 10
6.02235
 20
4.19204
 30
0.000000
  70
    32
  0
VERTEX
  8
AM_VIS
  5
7B5
 10
6.02119
 20
4.19304
 30
0.000000
  70
    32
  0
VERTEX
  8
AM_VIS
  5
7B6
 10
6.02003
 20
4.19404
 30
0.000000
  70
    32
  0
VERTEX
  8
AM_VIS
  5
7B7
 10
6.01886
 20
4.19504
 30
0.000000
  70
    32
  0
VERTEX
  8
AM_VIS
  5
7B8
 10
6.01768
 20
4.19603
 30
0.000000
  70
    32
  0
VERTEX
  8
AM_VIS
  5
7B9
 10
6.01650
 20
4.19701
 30
0.000000
  70
    32
  0
VERTEX
  8
AM_VIS
  5
7BA
 10
6.01531
 20
4.19799
 30
0.000000
  70
    32
  0
VERTEX
  8
AM_VIS
  5
7BB
 10
6.01411
 20
4.19896
 30
0.000000
  70
    32
  0
VERTEX
  8
AM_VIS
  5
7BC
 10
6.01290
 20
4.19993
 30
0.000000
  70
    32
  0
VERTEX
  8
AM_VIS
  5
7BD
 10
6.01169
 20
4.20089
 30
0.000000
  70
    32
  0
VERTEX
  8
AM_VIS
  5
7BE
 10
6.01047
 20
4.20184
 30
0.000000
  70
    32
  0
VERTEX
  8
AM_VIS
  5
7BF
 10
6.00925
 20
4.20279
 30
0.000000
  70
    32
  0
VERTEX
  8
AM_VIS
  5
7C0
 10
6.00802
 20
4.20373
 30
0.000000
  70
    32
  0
VERTEX
  8
AM_VIS
  5
7C1
 10
6.00678
 20
4.20467
 30
0.000000
  70
    32
  0
VERTEX
  8
AM_VIS
  5
7C2
 10
6.00553
 20
4.20560
 30
0.000000
  70
    32
  0
VERTEX
  8
AM_VIS
  5
7C3
 10
6.00428
 20
4.20653
 30
0.000000
  70
    32
  0
VERTEX
  8
AM_VIS
  5
7C4
 10
6.00302
 20
4.20745
 30
0.000000
  70
    32
  0
VERTEX
  8
AM_VIS
  5
7C5
 10
6.00176
 20
4.20836
 30
0.000000
  70
    32
  0
VERTEX
  8
AM_VIS
  5
7C6
 10
6.00049
 20
4.20926
 30
0.000000
  70
    32
  0
VERTEX
  8
AM_VIS
  5
7C7
 10
5.99921
 20
4.21016
 30
0.000000
  70
    32
  0
VERTEX
  8
AM_VIS
  5
7C8
 10
5.99793
 20
4.21105
 30
0.000000
  70
    32
  0
VERTEX
  8
AM_VIS
  5
7C9
 10
5.99664
 20
4.21194
 30
0.000000
  70
    32
  0
VERTEX
  8
AM_VIS
  5
7CA
 10
5.99535
 20
4.21282
 30
0.000000
  70
    32
  0
VERTEX
  8
AM_VIS
  5
7CB
 10
5.99405
 20
4.21369
 30
0.000000
  70
    32
  0
VERTEX
  8
AM_VIS
  5
7CC
 10
5.99274
 20
4.21455
 30
0.000000
  70
    32
  0
VERTEX
  8
AM_VIS
  5
7CD
 10
5.99143
 20
4.21541
 30
0.000000
  70
    32
  0
VERTEX
  8
AM_VIS
  5
7CE
 10
5.99011
 20
4.21626
 30
0.000000
  70
    32
  0
VERTEX
  8
AM_VIS
  5
7CF
 10
5.98879
 20
4.21710
 30
0.000000
  70
    32
  0
VERTEX
  8
AM_VIS
  5
7D0
 10
5.98746
 20
4.21794
 30
0.000000
  70
    32
  0
VERTEX
  8
AM_VIS
  5
7D1
 10
5.98612
 20
4.21877
 30
0.000000
  70
    32
  0
VERTEX
  8
AM_VIS
  5
7D2
 10
5.98478
 20
4.21959
 30
0.000000
  70
    32
  0
VERTEX
  8
AM_VIS
  5
7D3
 10
5.98344
 20
4.22040
 30
0.000000
  70
    32
  0
VERTEX
  8
AM_VIS
  5
7D4
 10
5.98209
 20
4.22121
 30
0.000000
  70
    32
  0
VERTEX
  8
AM_VIS
  5
7D5
 10
5.98073
 20
4.22201
 30
0.000000
  70
    32
  0
VERTEX
  8
AM_VIS
  5
7D6
 10
5.97937
 20
4.22280
 30
0.000000
  70
    32
  0
VERTEX
  8
AM_VIS
  5
7D7
 10
5.97800
 20
4.22358
 30
0.000000
  70
    32
  0
VERTEX
  8
AM_VIS
  5
7D8
 10
5.97663
 20
4.22435
 30
0.000000
  70
    32
  0
VERTEX
  8
AM_VIS
  5
7D9
 10
5.97525
 20
4.22512
 30
0.000000
  70
    32
  0
VERTEX
  8
AM_VIS
  5
7DA
 10
5.97387
 20
4.22588
 30
0.000000
  70
    32
  0
VERTEX
  8
AM_VIS
  5
7DB
 10
5.97248
 20
4.22663
 30
0.000000
  70
    32
  0
VERTEX
  8
AM_VIS
  5
7DC
 10
5.97109
 20
4.22737
 30
0.000000
  70
    32
  0
VERTEX
  8
AM_VIS
  5
7DD
 10
5.96969
 20
4.22810
 30
0.000000
  70
    32
  0
VERTEX
  8
AM_VIS
  5
7DE
 10
5.96829
 20
4.22883
 30
0.000000
  70
    32
  0
VERTEX
  8
AM_VIS
  5
7DF
 10
5.96688
 20
4.22955
 30
0.000000
  70
    32
  0
VERTEX
  8
AM_VIS
  5
7E0
 10
5.96547
 20
4.23025
 30
0.000000
  70
    32
  0
VERTEX
  8
AM_VIS
  5
7E1
 10
5.96405
 20
4.23095
 30
0.000000
  70
    32
  0
VERTEX
  8
AM_VIS
  5
7E2
 10
5.96263
 20
4.23164
 30
0.000000
  70
    32
  0
VERTEX
  8
AM_VIS
  5
7E3
 10
5.96121
 20
4.23233
 30
0.000000
  70
    32
  0
VERTEX
  8
AM_VIS
  5
7E4
 10
5.95978
 20
4.23300
 30
0.000000
  70
    32
  0
VERTEX
  8
AM_VIS
  5
7E5
 10
5.95835
 20
4.23366
 30
0.000000
  70
    32
  0
VERTEX
  8
AM_VIS
  5
7E6
 10
5.95691
 20
4.23432
 30
0.000000
  70
    32
  0
VERTEX
  8
AM_VIS
  5
7E7
 10
5.95547
 20
4.23496
 30
0.000000
  70
    32
  0
VERTEX
  8
AM_VIS
  5
7E8
 10
5.95402
 20
4.23560
 30
0.000000
  70
    32
  0
VERTEX
  8
AM_VIS
  5
7E9
 10
5.95257
 20
4.23623
 30
0.000000
  70
    32
  0
VERTEX
  8
AM_VIS
  5
7EA
 10
5.95111
 20
4.23685
 30
0.000000
  70
    32
  0
VERTEX
  8
AM_VIS
  5
7EB
 10
5.94966
 20
4.23745
 30
0.000000
  70
    32
  0
VERTEX
  8
AM_VIS
  5
7EC
 10
5.94819
 20
4.23805
 30
0.000000
  70
    32
  0
VERTEX
  8
AM_VIS
  5
7ED
 10
5.94673
 20
4.23864
 30
0.000000
  70
    32
  0
VERTEX
  8
AM_VIS
  5
7EE
 10
5.94526
 20
4.23923
 30
0.000000
  70
    32
  0
VERTEX
  8
AM_VIS
  5
7EF
 10
5.94378
 20
4.23980
 30
0.000000
  70
    32
  0
VERTEX
  8
AM_VIS
  5
7F0
 10
5.94231
 20
4.24036
 30
0.000000
  70
    32
  0
VERTEX
  8
AM_VIS
  5
7F1
 10
5.94083
 20
4.24091
 30
0.000000
  70
    32
  0
VERTEX
  8
AM_VIS
  5
7F2
 10
5.93934
 20
4.24146
 30
0.000000
  70
    32
  0
VERTEX
  8
AM_VIS
  5
7F3
 10
5.93786
 20
4.24199
 30
0.000000
  70
    32
  0
VERTEX
  8
AM_VIS
  5
7F4
 10
5.93637
 20
4.24252
 30
0.000000
  70
    32
  0
VERTEX
  8
AM_VIS
  5
7F5
 10
5.93488
 20
4.24303
 30
0.000000
  70
    32
  0
VERTEX
  8
AM_VIS
  5
7F6
 10
5.93338
 20
4.24354
 30
0.000000
  70
    32
  0
VERTEX
  8
AM_VIS
  5
7F7
 10
5.93188
 20
4.24404
 30
0.000000
  70
    32
  0
VERTEX
  8
AM_VIS
  5
7F8
 10
5.93038
 20
4.24452
 30
0.000000
  70
    32
  0
VERTEX
  8
AM_VIS
  5
7F9
 10
5.92888
 20
4.24500
 30
0.000000
  70
    32
  0
VERTEX
  8
AM_VIS
  5
7FA
 10
5.92737
 20
4.24547
 30
0.000000
  70
    32
  0
VERTEX
  8
AM_VIS
  5
7FB
 10
5.92587
 20
4.24593
 30
0.000000
  70
    32
  0
VERTEX
  8
AM_VIS
  5
7FC
 10
5.92436
 20
4.24638
 30
0.000000
  70
    32
  0
VERTEX
  8
AM_VIS
  5
7FD
 10
5.92284
 20
4.24682
 30
0.000000
  70
    32
  0
VERTEX
  8
AM_VIS
  5
7FE
 10
5.92133
 20
4.24725
 30
0.000000
  70
    32
  0
VERTEX
  8
AM_VIS
  5
7FF
 10
5.91981
 20
4.24768
 30
0.000000
  70
    32
  0
VERTEX
  8
AM_VIS
  5
800
 10
5.91829
 20
4.24809
 30
0.000000
  70
    32
  0
VERTEX
  8
AM_VIS
  5
801
 10
5.91678
 20
4.24849
 30
0.000000
  70
    32
  0
VERTEX
  8
AM_VIS
  5
802
 10
5.91525
 20
4.24889
 30
0.000000
  70
    32
  0
VERTEX
  8
AM_VIS
  5
803
 10
5.91373
 20
4.24927
 30
0.000000
  70
    32
  0
VERTEX
  8
AM_VIS
  5
804
 10
5.91221
 20
4.24965
 30
0.000000
  70
    32
  0
VERTEX
  8
AM_VIS
  5
805
 10
5.91068
 20
4.25002
 30
0.000000
  70
    32
  0
VERTEX
  8
AM_VIS
  5
806
 10
5.90915
 20
4.25037
 30
0.000000
  70
    32
  0
VERTEX
  8
AM_VIS
  5
807
 10
5.90762
 20
4.25072
 30
0.000000
  70
    32
  0
VERTEX
  8
AM_VIS
  5
808
 10
5.90609
 20
4.25106
 30
0.000000
  70
    32
  0
VERTEX
  8
AM_VIS
  5
809
 10
5.90456
 20
4.25139
 30
0.000000
  70
    32
  0
VERTEX
  8
AM_VIS
  5
80A
 10
5.90303
 20
4.25171
 30
0.000000
  70
    32
  0
VERTEX
  8
AM_VIS
  5
80B
 10
5.90150
 20
4.25202
 30
0.000000
  70
    32
  0
VERTEX
  8
AM_VIS
  5
80C
 10
5.89997
 20
4.25232
 30
0.000000
  70
    32
  0
VERTEX
  8
AM_VIS
  5
80D
 10
5.89843
 20
4.25261
 30
0.000000
  70
    32
  0
VERTEX
  8
AM_VIS
  5
80E
 10
5.89690
 20
4.25290
 30
0.000000
  70
    32
  0
VERTEX
  8
AM_VIS
  5
80F
 10
5.89537
 20
4.25317
 30
0.000000
  70
    32
  0
VERTEX
  8
AM_VIS
  5
810
 10
5.89383
 20
4.25343
 30
0.000000
  70
    32
  0
VERTEX
  8
AM_VIS
  5
811
 10
5.89230
 20
4.25369
 30
0.000000
  70
    32
  0
VERTEX
  8
AM_VIS
  5
812
 10
5.89076
 20
4.25393
 30
0.000000
  70
    32
  0
VERTEX
  8
AM_VIS
  5
813
 10
5.88923
 20
4.25417
 30
0.000000
  70
    32
  0
VERTEX
  8
AM_VIS
  5
814
 10
5.88769
 20
4.25439
 30
0.000000
  70
    32
  0
VERTEX
  8
AM_VIS
  5
815
 10
5.88616
 20
4.25461
 30
0.000000
  70
    32
  0
VERTEX
  8
AM_VIS
  5
816
 10
5.88462
 20
4.25482
 30
0.000000
  70
    32
  0
VERTEX
  8
AM_VIS
  5
817
 10
5.88309
 20
4.25502
 30
0.000000
  70
    32
  0
VERTEX
  8
AM_VIS
  5
818
 10
5.88156
 20
4.25520
 30
0.000000
  70
    32
  0
VERTEX
  8
AM_VIS
  5
819
 10
5.88002
 20
4.25538
 30
0.000000
  70
    32
  0
VERTEX
  8
AM_VIS
  5
81A
 10
5.87849
 20
4.25555
 30
0.000000
  70
    32
  0
VERTEX
  8
AM_VIS
  5
81B
 10
5.87696
 20
4.25571
 30
0.000000
  70
    32
  0
VERTEX
  8
AM_VIS
  5
81C
 10
5.87543
 20
4.25586
 30
0.000000
  70
    32
  0
VERTEX
  8
AM_VIS
  5
81D
 10
5.87390
 20
4.25601
 30
0.000000
  70
    32
  0
VERTEX
  8
AM_VIS
  5
81E
 10
5.87237
 20
4.25614
 30
0.000000
  70
    32
  0
VERTEX
  8
AM_VIS
  5
81F
 10
5.87085
 20
4.25626
 30
0.000000
  70
    32
  0
VERTEX
  8
AM_VIS
  5
820
 10
5.86932
 20
4.25637
 30
0.000000
  70
    32
  0
VERTEX
  8
AM_VIS
  5
821
 10
5.86780
 20
4.25648
 30
0.000000
  70
    32
  0
VERTEX
  8
AM_VIS
  5
822
 10
5.86627
 20
4.25657
 30
0.000000
  70
    32
  0
VERTEX
  8
AM_VIS
  5
823
 10
5.86475
 20
4.25666
 30
0.000000
  70
    32
  0
VERTEX
  8
AM_VIS
  5
824
 10
5.86323
 20
4.25673
 30
0.000000
  70
    32
  0
VERTEX
  8
AM_VIS
  5
825
 10
5.86172
 20
4.25680
 30
0.000000
  70
    32
  0
VERTEX
  8
AM_VIS
  5
826
 10
5.86020
 20
4.25685
 30
0.000000
  70
    32
  0
VERTEX
  8
AM_VIS
  5
827
 10
5.85869
 20
4.25690
 30
0.000000
  70
    32
  0
VERTEX
  8
AM_VIS
  5
828
 10
5.85717
 20
4.25694
 30
0.000000
  70
    32
  0
VERTEX
  8
AM_VIS
  5
829
 10
5.85566
 20
4.25697
 30
0.000000
  70
    32
  0
VERTEX
  8
AM_VIS
  5
82A
 10
5.85416
 20
4.25699
 30
0.000000
  70
    32
  0
VERTEX
  8
AM_VIS
  5
82B
 10
5.85265
 20
4.25700
 30
0.000000
  70
    32
  0
VERTEX
  8
AM_VIS
  5
82C
 10
5.85115
 20
4.25700
 30
0.000000
  70
    32
  0
VERTEX
  8
AM_VIS
  5
82D
 10
5.84964
 20
4.25699
 30
0.000000
  70
    32
  0
VERTEX
  8
AM_VIS
  5
82E
 10
5.84814
 20
4.25697
 30
0.000000
  70
    32
  0
VERTEX
  8
AM_VIS
  5
82F
 10
5.84663
 20
4.25694
 30
0.000000
  70
    32
  0
VERTEX
  8
AM_VIS
  5
830
 10
5.84511
 20
4.25690
 30
0.000000
  70
    32
  0
VERTEX
  8
AM_VIS
  5
831
 10
5.84360
 20
4.25685
 30
0.000000
  70
    32
  0
VERTEX
  8
AM_VIS
  5
832
 10
5.84208
 20
4.25680
 30
0.000000
  70
    32
  0
VERTEX
  8
AM_VIS
  5
833
 10
5.84057
 20
4.25673
 30
0.000000
  70
    32
  0
VERTEX
  8
AM_VIS
  5
834
 10
5.83905
 20
4.25666
 30
0.000000
  70
    32
  0
VERTEX
  8
AM_VIS
  5
835
 10
5.83753
 20
4.25657
 30
0.000000
  70
    32
  0
VERTEX
  8
AM_VIS
  5
836
 10
5.83600
 20
4.25648
 30
0.000000
  70
    32
  0
VERTEX
  8
AM_VIS
  5
837
 10
5.83448
 20
4.25637
 30
0.000000
  70
    32
  0
VERTEX
  8
AM_VIS
  5
838
 10
5.83295
 20
4.25626
 30
0.000000
  70
    32
  0
VERTEX
  8
AM_VIS
  5
839
 10
5.83143
 20
4.25614
 30
0.000000
  70
    32
  0
VERTEX
  8
AM_VIS
  5
83A
 10
5.82990
 20
4.25601
 30
0.000000
  70
    32
  0
VERTEX
  8
AM_VIS
  5
83B
 10
5.82837
 20
4.25586
 30
0.000000
  70
    32
  0
VERTEX
  8
AM_VIS
  5
83C
 10
5.82684
 20
4.25571
 30
0.000000
  70
    32
  0
VERTEX
  8
AM_VIS
  5
83D
 10
5.82531
 20
4.25555
 30
0.000000
  70
    32
  0
VERTEX
  8
AM_VIS
  5
83E
 10
5.82377
 20
4.25538
 30
0.000000
  70
    32
  0
VERTEX
  8
AM_VIS
  5
83F
 10
5.82224
 20
4.25520
 30
0.000000
  70
    32
  0
VERTEX
  8
AM_VIS
  5
840
 10
5.82071
 20
4.25502
 30
0.000000
  70
    32
  0
VERTEX
  8
AM_VIS
  5
841
 10
5.81917
 20
4.25482
 30
0.000000
  70
    32
  0
VERTEX
  8
AM_VIS
  5
842
 10
5.81764
 20
4.25461
 30
0.000000
  70
    32
  0
VERTEX
  8
AM_VIS
  5
843
 10
5.81611
 20
4.25439
 30
0.000000
  70
    32
  0
VERTEX
  8
AM_VIS
  5
844
 10
5.81457
 20
4.25417
 30
0.000000
  70
    32
  0
VERTEX
  8
AM_VIS
  5
845
 10
5.81304
 20
4.25393
 30
0.000000
  70
    32
  0
VERTEX
  8
AM_VIS
  5
846
 10
5.81150
 20
4.25369
 30
0.000000
  70
    32
  0
VERTEX
  8
AM_VIS
  5
847
 10
5.80997
 20
4.25343
 30
0.000000
  70
    32
  0
VERTEX
  8
AM_VIS
  5
848
 10
5.80843
 20
4.25317
 30
0.000000
  70
    32
  0
VERTEX
  8
AM_VIS
  5
849
 10
5.80690
 20
4.25290
 30
0.000000
  70
    32
  0
VERTEX
  8
AM_VIS
  5
84A
 10
5.80536
 20
4.25261
 30
0.000000
  70
    32
  0
VERTEX
  8
AM_VIS
  5
84B
 10
5.80383
 20
4.25232
 30
0.000000
  70
    32
  0
VERTEX
  8
AM_VIS
  5
84C
 10
5.80230
 20
4.25202
 30
0.000000
  70
    32
  0
VERTEX
  8
AM_VIS
  5
84D
 10
5.80077
 20
4.25171
 30
0.000000
  70
    32
  0
VERTEX
  8
AM_VIS
  5
84E
 10
5.79923
 20
4.25139
 30
0.000000
  70
    32
  0
VERTEX
  8
AM_VIS
  5
84F
 10
5.79770
 20
4.25106
 30
0.000000
  70
    32
  0
VERTEX
  8
AM_VIS
  5
850
 10
5.79617
 20
4.25072
 30
0.000000
  70
    32
  0
VERTEX
  8
AM_VIS
  5
851
 10
5.79465
 20
4.25037
 30
0.000000
  70
    32
  0
VERTEX
  8
AM_VIS
  5
852
 10
5.79312
 20
4.25002
 30
0.000000
  70
    32
  0
VERTEX
  8
AM_VIS
  5
853
 10
5.79159
 20
4.24965
 30
0.000000
  70
    32
  0
VERTEX
  8
AM_VIS
  5
854
 10
5.79007
 20
4.24927
 30
0.000000
  70
    32
  0
VERTEX
  8
AM_VIS
  5
855
 10
5.78855
 20
4.24889
 30
0.000000
  70
    32
  0
VERTEX
  8
AM_VIS
  5
856
 10
5.78702
 20
4.24849
 30
0.000000
  70
    32
  0
VERTEX
  8
AM_VIS
  5
857
 10
5.78550
 20
4.24809
 30
0.000000
  70
    32
  0
VERTEX
  8
AM_VIS
  5
858
 10
5.78399
 20
4.24768
 30
0.000000
  70
    32
  0
VERTEX
  8
AM_VIS
  5
859
 10
5.78247
 20
4.24725
 30
0.000000
  70
    32
  0
VERTEX
  8
AM_VIS
  5
85A
 10
5.78095
 20
4.24682
 30
0.000000
  70
    32
  0
VERTEX
  8
AM_VIS
  5
85B
 10
5.77944
 20
4.24638
 30
0.000000
  70
    32
  0
VERTEX
  8
AM_VIS
  5
85C
 10
5.77793
 20
4.24593
 30
0.000000
  70
    32
  0
VERTEX
  8
AM_VIS
  5
85D
 10
5.77642
 20
4.24547
 30
0.000000
  70
    32
  0
VERTEX
  8
AM_VIS
  5
85E
 10
5.77492
 20
4.24500
 30
0.000000
  70
    32
  0
VERTEX
  8
AM_VIS
  5
85F
 10
5.77342
 20
4.24452
 30
0.000000
  70
    32
  0
VERTEX
  8
AM_VIS
  5
860
 10
5.77192
 20
4.24404
 30
0.000000
  70
    32
  0
VERTEX
  8
AM_VIS
  5
861
 10
5.77042
 20
4.24354
 30
0.000000
  70
    32
  0
VERTEX
  8
AM_VIS
  5
862
 10
5.76892
 20
4.24303
 30
0.000000
  70
    32
  0
VERTEX
  8
AM_VIS
  5
863
 10
5.76743
 20
4.24252
 30
0.000000
  70
    32
  0
VERTEX
  8
AM_VIS
  5
864
 10
5.76594
 20
4.24199
 30
0.000000
  70
    32
  0
VERTEX
  8
AM_VIS
  5
865
 10
5.76445
 20
4.24146
 30
0.000000
  70
    32
  0
VERTEX
  8
AM_VIS
  5
866
 10
5.76297
 20
4.24091
 30
0.000000
  70
    32
  0
VERTEX
  8
AM_VIS
  5
867
 10
5.76149
 20
4.24036
 30
0.000000
  70
    32
  0
VERTEX
  8
AM_VIS
  5
868
 10
5.76001
 20
4.23980
 30
0.000000
  70
    32
  0
VERTEX
  8
AM_VIS
  5
869
 10
5.75854
 20
4.23923
 30
0.000000
  70
    32
  0
VERTEX
  8
AM_VIS
  5
86A
 10
5.75707
 20
4.23864
 30
0.000000
  70
    32
  0
VERTEX
  8
AM_VIS
  5
86B
 10
5.75561
 20
4.23805
 30
0.000000
  70
    32
  0
VERTEX
  8
AM_VIS
  5
86C
 10
5.75414
 20
4.23745
 30
0.000000
  70
    32
  0
VERTEX
  8
AM_VIS
  5
86D
 10
5.75268
 20
4.23685
 30
0.000000
  70
    32
  0
VERTEX
  8
AM_VIS
  5
86E
 10
5.75123
 20
4.23623
 30
0.000000
  70
    32
  0
VERTEX
  8
AM_VIS
  5
86F
 10
5.74978
 20
4.23560
 30
0.000000
  70
    32
  0
VERTEX
  8
AM_VIS
  5
870
 10
5.74833
 20
4.23496
 30
0.000000
  70
    32
  0
VERTEX
  8
AM_VIS
  5
871
 10
5.74689
 20
4.23432
 30
0.000000
  70
    32
  0
VERTEX
  8
AM_VIS
  5
872
 10
5.74545
 20
4.23366
 30
0.000000
  70
    32
  0
VERTEX
  8
AM_VIS
  5
873
 10
5.74402
 20
4.23300
 30
0.000000
  70
    32
  0
VERTEX
  8
AM_VIS
  5
874
 10
5.74259
 20
4.23233
 30
0.000000
  70
    32
  0
VERTEX
  8
AM_VIS
  5
875
 10
5.74116
 20
4.23164
 30
0.000000
  70
    32
  0
VERTEX
  8
AM_VIS
  5
876
 10
5.73974
 20
4.23095
 30
0.000000
  70
    32
  0
VERTEX
  8
AM_VIS
  5
877
 10
5.73833
 20
4.23025
 30
0.000000
  70
    32
  0
VERTEX
  8
AM_VIS
  5
878
 10
5.73692
 20
4.22955
 30
0.000000
  70
    32
  0
VERTEX
  8
AM_VIS
  5
879
 10
5.73551
 20
4.22883
 30
0.000000
  70
    32
  0
VERTEX
  8
AM_VIS
  5
87A
 10
5.73411
 20
4.22810
 30
0.000000
  70
    32
  0
VERTEX
  8
AM_VIS
  5
87B
 10
5.73271
 20
4.22737
 30
0.000000
  70
    32
  0
VERTEX
  8
AM_VIS
  5
87C
 10
5.73132
 20
4.22663
 30
0.000000
  70
    32
  0
VERTEX
  8
AM_VIS
  5
87D
 10
5.72993
 20
4.22588
 30
0.000000
  70
    32
  0
VERTEX
  8
AM_VIS
  5
87E
 10
5.72855
 20
4.22512
 30
0.000000
  70
    32
  0
VERTEX
  8
AM_VIS
  5
87F
 10
5.72717
 20
4.22435
 30
0.000000
  70
    32
  0
VERTEX
  8
AM_VIS
  5
880
 10
5.72580
 20
4.22358
 30
0.000000
  70
    32
  0
VERTEX
  8
AM_VIS
  5
881
 10
5.72443
 20
4.22280
 30
0.000000
  70
    32
  0
VERTEX
  8
AM_VIS
  5
882
 10
5.72307
 20
4.22201
 30
0.000000
  70
    32
  0
VERTEX
  8
AM_VIS
  5
883
 10
5.72171
 20
4.22121
 30
0.000000
  70
    32
  0
VERTEX
  8
AM_VIS
  5
884
 10
5.72036
 20
4.22040
 30
0.000000
  70
    32
  0
VERTEX
  8
AM_VIS
  5
885
 10
5.71902
 20
4.21959
 30
0.000000
  70
    32
  0
VERTEX
  8
AM_VIS
  5
886
 10
5.71768
 20
4.21877
 30
0.000000
  70
    32
  0
VERTEX
  8
AM_VIS
  5
887
 10
5.71634
 20
4.21794
 30
0.000000
  70
    32
  0
VERTEX
  8
AM_VIS
  5
888
 10
5.71501
 20
4.21710
 30
0.000000
  70
    32
  0
VERTEX
  8
AM_VIS
  5
889
 10
5.71369
 20
4.21626
 30
0.000000
  70
    32
  0
VERTEX
  8
AM_VIS
  5
88A
 10
5.71237
 20
4.21541
 30
0.000000
  70
    32
  0
VERTEX
  8
AM_VIS
  5
88B
 10
5.71106
 20
4.21455
 30
0.000000
  70
    32
  0
VERTEX
  8
AM_VIS
  5
88C
 10
5.70975
 20
4.21369
 30
0.000000
  70
    32
  0
VERTEX
  8
AM_VIS
  5
88D
 10
5.70845
 20
4.21282
 30
0.000000
  70
    32
  0
VERTEX
  8
AM_VIS
  5
88E
 10
5.70716
 20
4.21194
 30
0.000000
  70
    32
  0
VERTEX
  8
AM_VIS
  5
88F
 10
5.70587
 20
4.21105
 30
0.000000
  70
    32
  0
VERTEX
  8
AM_VIS
  5
890
 10
5.70458
 20
4.21016
 30
0.000000
  70
    32
  0
VERTEX
  8
AM_VIS
  5
891
 10
5.70331
 20
4.20926
 30
0.000000
  70
    32
  0
VERTEX
  8
AM_VIS
  5
892
 10
5.70204
 20
4.20836
 30
0.000000
  70
    32
  0
VERTEX
  8
AM_VIS
  5
893
 10
5.70077
 20
4.20745
 30
0.000000
  70
    32
  0
VERTEX
  8
AM_VIS
  5
894
 10
5.69952
 20
4.20653
 30
0.000000
  70
    32
  0
VERTEX
  8
AM_VIS
  5
895
 10
5.69827
 20
4.20560
 30
0.000000
  70
    32
  0
VERTEX
  8
AM_VIS
  5
896
 10
5.69702
 20
4.20467
 30
0.000000
  70
    32
  0
VERTEX
  8
AM_VIS
  5
897
 10
5.69578
 20
4.20373
 30
0.000000
  70
    32
  0
VERTEX
  8
AM_VIS
  5
898
 10
5.69455
 20
4.20279
 30
0.000000
  70
    32
  0
VERTEX
  8
AM_VIS
  5
899
 10
5.69333
 20
4.20184
 30
0.000000
  70
    32
  0
VERTEX
  8
AM_VIS
  5
89A
 10
5.69211
 20
4.20089
 30
0.000000
  70
    32
  0
VERTEX
  8
AM_VIS
  5
89B
 10
5.69090
 20
4.19993
 30
0.000000
  70
    32
  0
VERTEX
  8
AM_VIS
  5
89C
 10
5.68969
 20
4.19896
 30
0.000000
  70
    32
  0
VERTEX
  8
AM_VIS
  5
89D
 10
5.68849
 20
4.19799
 30
0.000000
  70
    32
  0
VERTEX
  8
AM_VIS
  5
89E
 10
5.68730
 20
4.19701
 30
0.000000
  70
    32
  0
VERTEX
  8
AM_VIS
  5
89F
 10
5.68612
 20
4.19603
 30
0.000000
  70
    32
  0
VERTEX
  8
AM_VIS
  5
8A0
 10
5.68494
 20
4.19504
 30
0.000000
  70
    32
  0
VERTEX
  8
AM_VIS
  5
8A1
 10
5.68377
 20
4.19404
 30
0.000000
  70
    32
  0
VERTEX
  8
AM_VIS
  5
8A2
 10
5.68261
 20
4.19304
 30
0.000000
  70
    32
  0
VERTEX
  8
AM_VIS
  5
8A3
 10
5.68145
 20
4.19204
 30
0.000000
  70
    32
  0
VERTEX
  8
AM_VIS
  5
8A4
 10
5.68030
 20
4.19103
 30
0.000000
  70
    32
  0
VERTEX
  8
AM_VIS
  5
8A5
 10
5.67916
 20
4.19001
 30
0.000000
  70
    32
  0
VERTEX
  8
AM_VIS
  5
8A6
 10
5.67803
 20
4.18899
 30
0.000000
  70
    32
  0
VERTEX
  8
AM_VIS
  5
8A7
 10
5.67690
 20
4.18797
 30
0.000000
  70
    32
  0
VERTEX
  8
AM_VIS
  5
8A8
 10
5.67579
 20
4.18694
 30
0.000000
  70
    32
  0
VERTEX
  8
AM_VIS
  5
8A9
 10
5.67468
 20
4.18590
 30
0.000000
  70
    32
  0
VERTEX
  8
AM_VIS
  5
8AA
 10
5.67357
 20
4.18486
 30
0.000000
  70
    32
  0
VERTEX
  8
AM_VIS
  5
8AB
 10
5.67248
 20
4.18382
 30
0.000000
  70
    32
  0
VERTEX
  8
AM_VIS
  5
8AC
 10
5.67139
 20
4.18277
 30
0.000000
  70
    32
  0
VERTEX
  8
AM_VIS
  5
8AD
 10
5.67031
 20
4.18172
 30
0.000000
  70
    32
  0
VERTEX
  8
AM_VIS
  5
8AE
 10
5.66924
 20
4.18066
 30
0.000000
  70
    32
  0
VERTEX
  8
AM_VIS
  5
8AF
 10
5.66817
 20
4.17960
 30
0.000000
  70
    32
  0
VERTEX
  8
AM_VIS
  5
8B0
 10
5.66712
 20
4.17853
 30
0.000000
  70
    32
  0
VERTEX
  8
AM_VIS
  5
8B1
 10
5.66607
 20
4.17746
 30
0.000000
  70
    32
  0
VERTEX
  8
AM_VIS
  5
8B2
 10
5.66503
 20
4.17639
 30
0.000000
  70
    32
  0
VERTEX
  8
AM_VIS
  5
8B3
 10
5.66400
 20
4.17531
 30
0.000000
  70
    32
  0
VERTEX
  8
AM_VIS
  5
8B4
 10
5.66298
 20
4.17423
 30
0.000000
  70
    32
  0
VERTEX
  8
AM_VIS
  5
8B5
 10
5.66196
 20
4.17314
 30
0.000000
  70
    32
  0
VERTEX
  8
AM_VIS
  5
8B6
 10
5.66095
 20
4.17204
 30
0.000000
  70
    32
  0
VERTEX
  8
AM_VIS
  5
8B7
 10
5.65994
 20
4.17094
 30
0.000000
  70
    32
  0
VERTEX
  8
AM_VIS
  5
8B8
 10
5.65893
 20
4.16983
 30
0.000000
  70
    32
  0
VERTEX
  8
AM_VIS
  5
8B9
 10
5.65794
 20
4.16871
 30
0.000000
  70
    32
  0
VERTEX
  8
AM_VIS
  5
8BA
 10
5.65694
 20
4.16758
 30
0.000000
  70
    32
  0
VERTEX
  8
AM_VIS
  5
8BB
 10
5.65595
 20
4.16645
 30
0.000000
  70
    32
  0
VERTEX
  8
AM_VIS
  5
8BC
 10
5.65497
 20
4.16530
 30
0.000000
  70
    32
  0
VERTEX
  8
AM_VIS
  5
8BD
 10
5.65398
 20
4.16415
 30
0.000000
  70
    32
  0
VERTEX
  8
AM_VIS
  5
8BE
 10
5.65301
 20
4.16300
 30
0.000000
  70
    32
  0
VERTEX
  8
AM_VIS
  5
8BF
 10
5.65204
 20
4.16183
 30
0.000000
  70
    32
  0
VERTEX
  8
AM_VIS
  5
8C0
 10
5.65107
 20
4.16066
 30
0.000000
  70
    32
  0
VERTEX
  8
AM_VIS
  5
8C1
 10
5.65011
 20
4.15948
 30
0.000000
  70
    32
  0
VERTEX
  8
AM_VIS
  5
8C2
 10
5.64915
 20
4.15829
 30
0.000000
  70
    32
  0
VERTEX
  8
AM_VIS
  5
8C3
 10
5.64820
 20
4.15710
 30
0.000000
  70
    32
  0
VERTEX
  8
AM_VIS
  5
8C4
 10
5.64726
 20
4.15590
 30
0.000000
  70
    32
  0
VERTEX
  8
AM_VIS
  5
8C5
 10
5.64632
 20
4.15469
 30
0.000000
  70
    32
  0
VERTEX
  8
AM_VIS
  5
8C6
 10
5.64538
 20
4.15347
 30
0.000000
  70
    32
  0
VERTEX
  8
AM_VIS
  5
8C7
 10
5.64445
 20
4.15225
 30
0.000000
  70
    32
  0
VERTEX
  8
AM_VIS
  5
8C8
 10
5.64353
 20
4.15102
 30
0.000000
  70
    32
  0
VERTEX
  8
AM_VIS
  5
8C9
 10
5.64261
 20
4.14978
 30
0.000000
  70
    32
  0
VERTEX
  8
AM_VIS
  5
8CA
 10
5.64170
 20
4.14854
 30
0.000000
  70
    32
  0
VERTEX
  8
AM_VIS
  5
8CB
 10
5.64079
 20
4.14729
 30
0.000000
  70
    32
  0
VERTEX
  8
AM_VIS
  5
8CC
 10
5.63989
 20
4.14603
 30
0.000000
  70
    32
  0
VERTEX
  8
AM_VIS
  5
8CD
 10
5.63899
 20
4.14477
 30
0.000000
  70
    32
  0
VERTEX
  8
AM_VIS
  5
8CE
 10
5.63811
 20
4.14350
 30
0.000000
  70
    32
  0
VERTEX
  8
AM_VIS
  5
8CF
 10
5.63722
 20
4.14223
 30
0.000000
  70
    32
  0
VERTEX
  8
AM_VIS
  5
8D0
 10
5.63634
 20
4.14094
 30
0.000000
  70
    32
  0
VERTEX
  8
AM_VIS
  5
8D1
 10
5.63547
 20
4.13965
 30
0.000000
  70
    32
  0
VERTEX
  8
AM_VIS
  5
8D2
 10
5.63461
 20
4.13836
 30
0.000000
  70
    32
  0
VERTEX
  8
AM_VIS
  5
8D3
 10
5.63375
 20
4.13706
 30
0.000000
  70
    32
  0
VERTEX
  8
AM_VIS
  5
8D4
 10
5.63289
 20
4.13575
 30
0.000000
  70
    32
  0
VERTEX
  8
AM_VIS
  5
8D5
 10
5.63205
 20
4.13444
 30
0.000000
  70
    32
  0
VERTEX
  8
AM_VIS
  5
8D6
 10
5.63121
 20
4.13312
 30
0.000000
  70
    32
  0
VERTEX
  8
AM_VIS
  5
8D7
 10
5.63037
 20
4.13180
 30
0.000000
  70
    32
  0
VERTEX
  8
AM_VIS
  5
8D8
 10
5.62955
 20
4.13047
 30
0.000000
  70
    32
  0
VERTEX
  8
AM_VIS
  5
8D9
 10
5.62873
 20
4.12913
 30
0.000000
  70
    32
  0
VERTEX
  8
AM_VIS
  5
8DA
 10
5.62791
 20
4.12779
 30
0.000000
  70
    32
  0
VERTEX
  8
AM_VIS
  5
8DB
 10
5.62711
 20
4.12644
 30
0.000000
  70
    32
  0
VERTEX
  8
AM_VIS
  5
8DC
 10
5.62631
 20
4.12509
 30
0.000000
  70
    32
  0
VERTEX
  8
AM_VIS
  5
8DD
 10
5.62551
 20
4.12373
 30
0.000000
  70
    32
  0
VERTEX
  8
AM_VIS
  5
8DE
 10
5.62473
 20
4.12237
 30
0.000000
  70
    32
  0
VERTEX
  8
AM_VIS
  5
8DF
 10
5.62395
 20
4.12100
 30
0.000000
  70
    32
  0
VERTEX
  8
AM_VIS
  5
8E0
 10
5.62317
 20
4.11962
 30
0.000000
  70
    32
  0
VERTEX
  8
AM_VIS
  5
8E1
 10
5.62241
 20
4.11824
 30
0.000000
  70
    32
  0
VERTEX
  8
AM_VIS
  5
8E2
 10
5.62165
 20
4.11686
 30
0.000000
  70
    32
  0
VERTEX
  8
AM_VIS
  5
8E3
 10
5.62090
 20
4.11547
 30
0.000000
  70
    32
  0
VERTEX
  8
AM_VIS
  5
8E4
 10
5.62016
 20
4.11408
 30
0.000000
  70
    32
  0
VERTEX
  8
AM_VIS
  5
8E5
 10
5.61942
 20
4.11268
 30
0.000000
  70
    32
  0
VERTEX
  8
AM_VIS
  5
8E6
 10
5.61869
 20
4.11127
 30
0.000000
  70
    32
  0
VERTEX
  8
AM_VIS
  5
8E7
 10
5.61797
 20
4.10986
 30
0.000000
  70
    32
  0
VERTEX
  8
AM_VIS
  5
8E8
 10
5.61726
 20
4.10845
 30
0.000000
  70
    32
  0
VERTEX
  8
AM_VIS
  5
8E9
 10
5.61656
 20
4.10703
 30
0.000000
  70
    32
  0
VERTEX
  8
AM_VIS
  5
8EA
 10
5.61586
 20
4.10561
 30
0.000000
  70
    32
  0
VERTEX
  8
AM_VIS
  5
8EB
 10
5.61517
 20
4.10418
 30
0.000000
  70
    32
  0
VERTEX
  8
AM_VIS
  5
8EC
 10
5.61449
 20
4.10275
 30
0.000000
  70
    32
  0
VERTEX
  8
AM_VIS
  5
8ED
 10
5.61381
 20
4.10131
 30
0.000000
  70
    32
  0
VERTEX
  8
AM_VIS
  5
8EE
 10
5.61315
 20
4.09987
 30
0.000000
  70
    32
  0
VERTEX
  8
AM_VIS
  5
8EF
 10
5.61249
 20
4.09842
 30
0.000000
  70
    32
  0
VERTEX
  8
AM_VIS
  5
8F0
 10
5.61184
 20
4.09697
 30
0.000000
  70
    32
  0
VERTEX
  8
AM_VIS
  5
8F1
 10
5.61120
 20
4.09552
 30
0.000000
  70
    32
  0
VERTEX
  8
AM_VIS
  5
8F2
 10
5.61056
 20
4.09406
 30
0.000000
  70
    32
  0
VERTEX
  8
AM_VIS
  5
8F3
 10
5.60994
 20
4.09260
 30
0.000000
  70
    32
  0
VERTEX
  8
AM_VIS
  5
8F4
 10
5.60932
 20
4.09114
 30
0.000000
  70
    32
  0
VERTEX
  8
AM_VIS
  5
8F5
 10
5.60872
 20
4.08967
 30
0.000000
  70
    32
  0
VERTEX
  8
AM_VIS
  5
8F6
 10
5.60812
 20
4.08819
 30
0.000000
  70
    32
  0
VERTEX
  8
AM_VIS
  5
8F7
 10
5.60753
 20
4.08672
 30
0.000000
  70
    32
  0
VERTEX
  8
AM_VIS
  5
8F8
 10
5.60694
 20
4.08524
 30
0.000000
  70
    32
  0
VERTEX
  8
AM_VIS
  5
8F9
 10
5.60637
 20
4.08375
 30
0.000000
  70
    32
  0
VERTEX
  8
AM_VIS
  5
8FA
 10
5.60581
 20
4.08226
 30
0.000000
  70
    32
  0
VERTEX
  8
AM_VIS
  5
8FB
 10
5.60525
 20
4.08077
 30
0.000000
  70
    32
  0
VERTEX
  8
AM_VIS
  5
8FC
 10
5.60471
 20
4.07928
 30
0.000000
  70
    32
  0
VERTEX
  8
AM_VIS
  5
8FD
 10
5.60417
 20
4.07778
 30
0.000000
  70
    32
  0
VERTEX
  8
AM_VIS
  5
8FE
 10
5.60364
 20
4.07628
 30
0.000000
  70
    32
  0
VERTEX
  8
AM_VIS
  5
8FF
 10
5.60312
 20
4.07478
 30
0.000000
  70
    32
  0
VERTEX
  8
AM_VIS
  5
900
 10
5.60261
 20
4.07327
 30
0.000000
  70
    32
  0
VERTEX
  8
AM_VIS
  5
901
 10
5.60210
 20
4.07176
 30
0.000000
  70
    32
  0
VERTEX
  8
AM_VIS
  5
902
 10
5.60161
 20
4.07025
 30
0.000000
  70
    32
  0
VERTEX
  8
AM_VIS
  5
903
 10
5.60112
 20
4.06873
 30
0.000000
  70
    32
  0
VERTEX
  8
AM_VIS
  5
904
 10
5.60065
 20
4.06722
 30
0.000000
  70
    32
  0
VERTEX
  8
AM_VIS
  5
905
 10
5.60018
 20
4.06570
 30
0.000000
  70
    32
  0
VERTEX
  8
AM_VIS
  5
906
 10
5.59972
 20
4.06417
 30
0.000000
  70
    32
  0
VERTEX
  8
AM_VIS
  5
907
 10
5.59927
 20
4.06265
 30
0.000000
  70
    32
  0
VERTEX
  8
AM_VIS
  5
908
 10
5.59882
 20
4.06112
 30
0.000000
  70
    32
  0
VERTEX
  8
AM_VIS
  5
909
 10
5.59839
 20
4.05960
 30
0.000000
  70
    32
  0
VERTEX
  8
AM_VIS
  5
90A
 10
5.59797
 20
4.05807
 30
0.000000
  70
    32
  0
VERTEX
  8
AM_VIS
  5
90B
 10
5.59755
 20
4.05653
 30
0.000000
  70
    32
  0
VERTEX
  8
AM_VIS
  5
90C
 10
5.59714
 20
4.05500
 30
0.000000
  70
    32
  0
VERTEX
  8
AM_VIS
  5
90D
 10
5.59674
 20
4.05346
 30
0.000000
  70
    32
  0
VERTEX
  8
AM_VIS
  5
90E
 10
5.59635
 20
4.05193
 30
0.000000
  70
    32
  0
VERTEX
  8
AM_VIS
  5
90F
 10
5.59597
 20
4.05039
 30
0.000000
  70
    32
  0
VERTEX
  8
AM_VIS
  5
910
 10
5.59560
 20
4.04885
 30
0.000000
  70
    32
  0
VERTEX
  8
AM_VIS
  5
911
 10
5.59523
 20
4.04731
 30
0.000000
  70
    32
  0
VERTEX
  8
AM_VIS
  5
912
 10
5.59488
 20
4.04577
 30
0.000000
  70
    32
  0
VERTEX
  8
AM_VIS
  5
913
 10
5.59453
 20
4.04422
 30
0.000000
  70
    32
  0
VERTEX
  8
AM_VIS
  5
914
 10
5.59419
 20
4.04268
 30
0.000000
  70
    32
  0
VERTEX
  8
AM_VIS
  5
915
 10
5.59386
 20
4.04113
 30
0.000000
  70
    32
  0
VERTEX
  8
AM_VIS
  5
916
 10
5.59354
 20
4.03959
 30
0.000000
  70
    32
  0
VERTEX
  8
AM_VIS
  5
917
 10
5.59323
 20
4.03804
 30
0.000000
  70
    32
  0
VERTEX
  8
AM_VIS
  5
918
 10
5.59292
 20
4.03649
 30
0.000000
  70
    32
  0
VERTEX
  8
AM_VIS
  5
919
 10
5.59263
 20
4.03495
 30
0.000000
  70
    32
  0
VERTEX
  8
AM_VIS
  5
91A
 10
5.59234
 20
4.03340
 30
0.000000
  70
    32
  0
VERTEX
  8
AM_VIS
  5
91B
 10
5.59206
 20
4.03185
 30
0.000000
  70
    32
  0
VERTEX
  8
AM_VIS
  5
91C
 10
5.59179
 20
4.03030
 30
0.000000
  70
    32
  0
VERTEX
  8
AM_VIS
  5
91D
 10
5.59153
 20
4.02875
 30
0.000000
  70
    32
  0
VERTEX
  8
AM_VIS
  5
91E
 10
5.59128
 20
4.02721
 30
0.000000
  70
    32
  0
VERTEX
  8
AM_VIS
  5
91F
 10
5.59104
 20
4.02566
 30
0.000000
  70
    32
  0
VERTEX
  8
AM_VIS
  5
920
 10
5.59080
 20
4.02411
 30
0.000000
  70
    32
  0
VERTEX
  8
AM_VIS
  5
921
 10
5.59057
 20
4.02256
 30
0.000000
  70
    32
  0
VERTEX
  8
AM_VIS
  5
922
 10
5.59035
 20
4.02101
 30
0.000000
  70
    32
  0
VERTEX
  8
AM_VIS
  5
923
 10
5.59014
 20
4.01947
 30
0.000000
  70
    32
  0
VERTEX
  8
AM_VIS
  5
924
 10
5.58994
 20
4.01792
 30
0.000000
  70
    32
  0
VERTEX
  8
AM_VIS
  5
925
 10
5.58975
 20
4.01638
 30
0.000000
  70
    32
  0
VERTEX
  8
AM_VIS
  5
926
 10
5.58957
 20
4.01483
 30
0.000000
  70
    32
  0
VERTEX
  8
AM_VIS
  5
927
 10
5.58939
 20
4.01329
 30
0.000000
  70
    32
  0
VERTEX
  8
AM_VIS
  5
928
 10
5.58922
 20
4.01175
 30
0.000000
  70
    32
  0
VERTEX
  8
AM_VIS
  5
929
 10
5.58907
 20
4.01020
 30
0.000000
  70
    32
  0
VERTEX
  8
AM_VIS
  5
92A
 10
5.58891
 20
4.00866
 30
0.000000
  70
    32
  0
VERTEX
  8
AM_VIS
  5
92B
 10
5.58877
 20
4.00713
 30
0.000000
  70
    32
  0
VERTEX
  8
AM_VIS
  5
92C
 10
5.58864
 20
4.00559
 30
0.000000
  70
    32
  0
VERTEX
  8
AM_VIS
  5
92D
 10
5.58852
 20
4.00405
 30
0.000000
  70
    32
  0
VERTEX
  8
AM_VIS
  5
92E
 10
5.58840
 20
4.00252
 30
0.000000
  70
    32
  0
VERTEX
  8
AM_VIS
  5
92F
 10
5.58829
 20
4.00098
 30
0.000000
  70
    32
  0
VERTEX
  8
AM_VIS
  5
930
 10
5.58819
 20
3.99945
 30
0.000000
  70
    32
  0
VERTEX
  8
AM_VIS
  5
931
 10
5.58810
 20
3.99792
 30
0.000000
  70
    32
  0
VERTEX
  8
AM_VIS
  5
932
 10
5.58802
 20
3.99640
 30
0.000000
  70
    32
  0
VERTEX
  8
AM_VIS
  5
933
 10
5.58795
 20
3.99487
 30
0.000000
  70
    32
  0
VERTEX
  8
AM_VIS
  5
934
 10
5.58788
 20
3.99335
 30
0.000000
  70
    32
  0
VERTEX
  8
AM_VIS
  5
935
 10
5.58782
 20
3.99183
 30
0.000000
  70
    32
  0
VERTEX
  8
AM_VIS
  5
936
 10
5.58777
 20
3.99031
 30
0.000000
  70
    32
  0
VERTEX
  8
AM_VIS
  5
937
 10
5.58773
 20
3.98879
 30
0.000000
  70
    32
  0
VERTEX
  8
AM_VIS
  5
938
 10
5.58770
 20
3.98728
 30
0.000000
  70
    32
  0
VERTEX
  8
AM_VIS
  5
939
 10
5.58768
 20
3.98577
 30
0.000000
  70
    32
  0
VERTEX
  8
AM_VIS
  5
93A
 10
5.58767
 20
3.98426
 30
0.000000
  70
    32
  0
VERTEX
  8
AM_VIS
  5
93B
 10
5.58766
 20
3.98276
 30
0.000000
  70
    32
  0
VERTEX
  8
AM_VIS
  5
93C
 10
5.58766
 20
3.98125
 30
0.000000
  70
    32
  0
VERTEX
  8
AM_VIS
  5
93D
 10
5.58767
 20
3.97975
 30
0.000000
  70
    32
  0
VERTEX
  8
AM_VIS
  5
93E
 10
5.58769
 20
3.97824
 30
0.000000
  70
    32
  0
VERTEX
  8
AM_VIS
  5
93F
 10
5.58772
 20
3.97673
 30
0.000000
  70
    32
  0
VERTEX
  8
AM_VIS
  5
940
 10
5.58775
 20
3.97521
 30
0.000000
  70
    32
  0
VERTEX
  8
AM_VIS
  5
941
 10
5.58780
 20
3.97370
 30
0.000000
  70
    32
  0
VERTEX
  8
AM_VIS
  5
942
 10
5.58785
 20
3.97218
 30
0.000000
  70
    32
  0
VERTEX
  8
AM_VIS
  5
943
 10
5.58791
 20
3.97065
 30
0.000000
  70
    32
  0
VERTEX
  8
AM_VIS
  5
944
 10
5.58798
 20
3.96913
 30
0.000000
  70
    32
  0
VERTEX
  8
AM_VIS
  5
945
 10
5.58806
 20
3.96760
 30
0.000000
  70
    32
  0
VERTEX
  8
AM_VIS
  5
946
 10
5.58815
 20
3.96608
 30
0.000000
  70
    32
  0
VERTEX
  8
AM_VIS
  5
947
 10
5.58824
 20
3.96455
 30
0.000000
  70
    32
  0
VERTEX
  8
AM_VIS
  5
948
 10
5.58834
 20
3.96301
 30
0.000000
  70
    32
  0
VERTEX
  8
AM_VIS
  5
949
 10
5.58846
 20
3.96148
 30
0.000000
  70
    32
  0
VERTEX
  8
AM_VIS
  5
94A
 10
5.58858
 20
3.95995
 30
0.000000
  70
    32
  0
VERTEX
  8
AM_VIS
  5
94B
 10
5.58871
 20
3.95841
 30
0.000000
  70
    32
  0
VERTEX
  8
AM_VIS
  5
94C
 10
5.58884
 20
3.95687
 30
0.000000
  70
    32
  0
VERTEX
  8
AM_VIS
  5
94D
 10
5.58899
 20
3.95533
 30
0.000000
  70
    32
  0
VERTEX
  8
AM_VIS
  5
94E
 10
5.58914
 20
3.95379
 30
0.000000
  70
    32
  0
VERTEX
  8
AM_VIS
  5
94F
 10
5.58931
 20
3.95225
 30
0.000000
  70
    32
  0
VERTEX
  8
AM_VIS
  5
950
 10
5.58948
 20
3.95070
 30
0.000000
  70
    32
  0
VERTEX
  8
AM_VIS
  5
951
 10
5.58966
 20
3.94916
 30
0.000000
  70
    32
  0
VERTEX
  8
AM_VIS
  5
952
 10
5.58985
 20
3.94762
 30
0.000000
  70
    32
  0
VERTEX
  8
AM_VIS
  5
953
 10
5.59004
 20
3.94607
 30
0.000000
  70
    32
  0
VERTEX
  8
AM_VIS
  5
954
 10
5.59025
 20
3.94452
 30
0.000000
  70
    32
  0
VERTEX
  8
AM_VIS
  5
955
 10
5.59046
 20
3.94298
 30
0.000000
  70
    32
  0
VERTEX
  8
AM_VIS
  5
956
 10
5.59069
 20
3.94143
 30
0.000000
  70
    32
  0
VERTEX
  8
AM_VIS
  5
957
 10
5.59092
 20
3.93988
 30
0.000000
  70
    32
  0
VERTEX
  8
AM_VIS
  5
958
 10
5.59116
 20
3.93833
 30
0.000000
  70
    32
  0
VERTEX
  8
AM_VIS
  5
959
 10
5.59140
 20
3.93678
 30
0.000000
  70
    32
  0
VERTEX
  8
AM_VIS
  5
95A
 10
5.59166
 20
3.93524
 30
0.000000
  70
    32
  0
VERTEX
  8
AM_VIS
  5
95B
 10
5.59193
 20
3.93369
 30
0.000000
  70
    32
  0
VERTEX
  8
AM_VIS
  5
95C
 10
5.59220
 20
3.93214
 30
0.000000
  70
    32
  0
VERTEX
  8
AM_VIS
  5
95D
 10
5.59248
 20
3.93059
 30
0.000000
  70
    32
  0
VERTEX
  8
AM_VIS
  5
95E
 10
5.59277
 20
3.92904
 30
0.000000
  70
    32
  0
VERTEX
  8
AM_VIS
  5
95F
 10
5.59307
 20
3.92750
 30
0.000000
  70
    32
  0
VERTEX
  8
AM_VIS
  5
960
 10
5.59338
 20
3.92595
 30
0.000000
  70
    32
  0
VERTEX
  8
AM_VIS
  5
961
 10
5.59370
 20
3.92440
 30
0.000000
  70
    32
  0
VERTEX
  8
AM_VIS
  5
962
 10
5.59403
 20
3.92286
 30
0.000000
  70
    32
  0
VERTEX
  8
AM_VIS
  5
963
 10
5.59436
 20
3.92131
 30
0.000000
  70
    32
  0
VERTEX
  8
AM_VIS
  5
964
 10
5.59470
 20
3.91977
 30
0.000000
  70
    32
  0
VERTEX
  8
AM_VIS
  5
965
 10
5.59505
 20
3.91823
 30
0.000000
  70
    32
  0
VERTEX
  8
AM_VIS
  5
966
 10
5.59541
 20
3.91669
 30
0.000000
  70
    32
  0
VERTEX
  8
AM_VIS
  5
967
 10
5.59578
 20
3.91515
 30
0.000000
  70
    32
  0
VERTEX
  8
AM_VIS
  5
968
 10
5.59616
 20
3.91361
 30
0.000000
  70
    32
  0
VERTEX
  8
AM_VIS
  5
969
 10
5.59655
 20
3.91207
 30
0.000000
  70
    32
  0
VERTEX
  8
AM_VIS
  5
96A
 10
5.59694
 20
3.91053
 30
0.000000
  70
    32
  0
VERTEX
  8
AM_VIS
  5
96B
 10
5.59734
 20
3.90900
 30
0.000000
  70
    32
  0
VERTEX
  8
AM_VIS
  5
96C
 10
5.59776
 20
3.90746
 30
0.000000
  70
    32
  0
VERTEX
  8
AM_VIS
  5
96D
 10
5.59818
 20
3.90593
 30
0.000000
  70
    32
  0
VERTEX
  8
AM_VIS
  5
96E
 10
5.59861
 20
3.90440
 30
0.000000
  70
    32
  0
VERTEX
  8
AM_VIS
  5
96F
 10
5.59904
 20
3.90288
 30
0.000000
  70
    32
  0
VERTEX
  8
AM_VIS
  5
970
 10
5.59949
 20
3.90135
 30
0.000000
  70
    32
  0
VERTEX
  8
AM_VIS
  5
971
 10
5.59995
 20
3.89983
 30
0.000000
  70
    32
  0
VERTEX
  8
AM_VIS
  5
972
 10
5.60041
 20
3.89831
 30
0.000000
  70
    32
  0
VERTEX
  8
AM_VIS
  5
973
 10
5.60088
 20
3.89679
 30
0.000000
  70
    32
  0
VERTEX
  8
AM_VIS
  5
974
 10
5.60136
 20
3.89527
 30
0.000000
  70
    32
  0
VERTEX
  8
AM_VIS
  5
975
 10
5.60185
 20
3.89376
 30
0.000000
  70
    32
  0
VERTEX
  8
AM_VIS
  5
976
 10
5.60235
 20
3.89225
 30
0.000000
  70
    32
  0
VERTEX
  8
AM_VIS
  5
977
 10
5.60286
 20
3.89074
 30
0.000000
  70
    32
  0
VERTEX
  8
AM_VIS
  5
978
 10
5.60338
 20
3.88924
 30
0.000000
  70
    32
  0
VERTEX
  8
AM_VIS
  5
979
 10
5.60390
 20
3.88773
 30
0.000000
  70
    32
  0
VERTEX
  8
AM_VIS
  5
97A
 10
5.60444
 20
3.88623
 30
0.000000
  70
    32
  0
VERTEX
  8
AM_VIS
  5
97B
 10
5.60498
 20
3.88474
 30
0.000000
  70
    32
  0
VERTEX
  8
AM_VIS
  5
97C
 10
5.60553
 20
3.88325
 30
0.000000
  70
    32
  0
VERTEX
  8
AM_VIS
  5
97D
 10
5.60609
 20
3.88176
 30
0.000000
  70
    32
  0
VERTEX
  8
AM_VIS
  5
97E
 10
5.60666
 20
3.88027
 30
0.000000
  70
    32
  0
VERTEX
  8
AM_VIS
  5
97F
 10
5.60723
 20
3.87879
 30
0.000000
  70
    32
  0
VERTEX
  8
AM_VIS
  5
980
 10
5.60782
 20
3.87731
 30
0.000000
  70
    32
  0
VERTEX
  8
AM_VIS
  5
981
 10
5.60842
 20
3.87583
 30
0.000000
  70
    32
  0
VERTEX
  8
AM_VIS
  5
982
 10
5.60902
 20
3.87436
 30
0.000000
  70
    32
  0
VERTEX
  8
AM_VIS
  5
983
 10
5.60963
 20
3.87290
 30
0.000000
  70
    32
  0
VERTEX
  8
AM_VIS
  5
984
 10
5.61025
 20
3.87143
 30
0.000000
  70
    32
  0
VERTEX
  8
AM_VIS
  5
985
 10
5.61088
 20
3.86997
 30
0.000000
  70
    32
  0
VERTEX
  8
AM_VIS
  5
986
 10
5.61152
 20
3.86852
 30
0.000000
  70
    32
  0
VERTEX
  8
AM_VIS
  5
987
 10
5.61216
 20
3.86707
 30
0.000000
  70
    32
  0
VERTEX
  8
AM_VIS
  5
988
 10
5.61282
 20
3.86562
 30
0.000000
  70
    32
  0
VERTEX
  8
AM_VIS
  5
989
 10
5.61348
 20
3.86418
 30
0.000000
  70
    32
  0
VERTEX
  8
AM_VIS
  5
98A
 10
5.61415
 20
3.86274
 30
0.000000
  70
    32
  0
VERTEX
  8
AM_VIS
  5
98B
 10
5.61483
 20
3.86130
 30
0.000000
  70
    32
  0
VERTEX
  8
AM_VIS
  5
98C
 10
5.61551
 20
3.85987
 30
0.000000
  70
    32
  0
VERTEX
  8
AM_VIS
  5
98D
 10
5.61621
 20
3.85845
 30
0.000000
  70
    32
  0
VERTEX
  8
AM_VIS
  5
98E
 10
5.61691
 20
3.85703
 30
0.000000
  70
    32
  0
VERTEX
  8
AM_VIS
  5
98F
 10
5.61762
 20
3.85561
 30
0.000000
  70
    32
  0
VERTEX
  8
AM_VIS
  5
990
 10
5.61833
 20
3.85420
 30
0.000000
  70
    32
  0
VERTEX
  8
AM_VIS
  5
991
 10
5.61906
 20
3.85279
 30
0.000000
  70
    32
  0
VERTEX
  8
AM_VIS
  5
992
 10
5.61979
 20
3.85139
 30
0.000000
  70
    32
  0
VERTEX
  8
AM_VIS
  5
993
 10
5.62053
 20
3.84999
 30
0.000000
  70
    32
  0
VERTEX
  8
AM_VIS
  5
994
 10
5.62128
 20
3.84860
 30
0.000000
  70
    32
  0
VERTEX
  8
AM_VIS
  5
995
 10
5.62203
 20
3.84721
 30
0.000000
  70
    32
  0
VERTEX
  8
AM_VIS
  5
996
 10
5.62279
 20
3.84583
 30
0.000000
  70
    32
  0
VERTEX
  8
AM_VIS
  5
997
 10
5.62356
 20
3.84445
 30
0.000000
  70
    32
  0
VERTEX
  8
AM_VIS
  5
998
 10
5.62434
 20
3.84308
 30
0.000000
  70
    32
  0
VERTEX
  8
AM_VIS
  5
999
 10
5.62512
 20
3.84172
 30
0.000000
  70
    32
  0
VERTEX
  8
AM_VIS
  5
99A
 10
5.62591
 20
3.84035
 30
0.000000
  70
    32
  0
VERTEX
  8
AM_VIS
  5
99B
 10
5.62670
 20
3.83900
 30
0.000000
  70
    32
  0
VERTEX
  8
AM_VIS
  5
99C
 10
5.62751
 20
3.83765
 30
0.000000
  70
    32
  0
VERTEX
  8
AM_VIS
  5
99D
 10
5.62832
 20
3.83630
 30
0.000000
  70
    32
  0
VERTEX
  8
AM_VIS
  5
99E
 10
5.62914
 20
3.83497
 30
0.000000
  70
    32
  0
VERTEX
  8
AM_VIS
  5
99F
 10
5.62996
 20
3.83363
 30
0.000000
  70
    32
  0
VERTEX
  8
AM_VIS
  5
9A0
 10
5.63079
 20
3.83230
 30
0.000000
  70
    32
  0
VERTEX
  8
AM_VIS
  5
9A1
 10
5.63163
 20
3.83098
 30
0.000000
  70
    32
  0
VERTEX
  8
AM_VIS
  5
9A2
 10
5.63247
 20
3.82967
 30
0.000000
  70
    32
  0
VERTEX
  8
AM_VIS
  5
9A3
 10
5.63332
 20
3.82836
 30
0.000000
  70
    32
  0
VERTEX
  8
AM_VIS
  5
9A4
 10
5.63418
 20
3.82705
 30
0.000000
  70
    32
  0
VERTEX
  8
AM_VIS
  5
9A5
 10
5.63504
 20
3.82576
 30
0.000000
  70
    32
  0
VERTEX
  8
AM_VIS
  5
9A6
 10
5.63591
 20
3.82446
 30
0.000000
  70
    32
  0
VERTEX
  8
AM_VIS
  5
9A7
 10
5.63678
 20
3.82318
 30
0.000000
  70
    32
  0
VERTEX
  8
AM_VIS
  5
9A8
 10
5.63766
 20
3.82190
 30
0.000000
  70
    32
  0
VERTEX
  8
AM_VIS
  5
9A9
 10
5.63855
 20
3.82063
 30
0.000000
  70
    32
  0
VERTEX
  8
AM_VIS
  5
9AA
 10
5.63944
 20
3.81936
 30
0.000000
  70
    32
  0
VERTEX
  8
AM_VIS
  5
9AB
 10
5.64034
 20
3.81810
 30
0.000000
  70
    32
  0
VERTEX
  8
AM_VIS
  5
9AC
 10
5.64124
 20
3.81685
 30
0.000000
  70
    32
  0
VERTEX
  8
AM_VIS
  5
9AD
 10
5.64215
 20
3.81560
 30
0.000000
  70
    32
  0
VERTEX
  8
AM_VIS
  5
9AE
 10
5.64307
 20
3.81436
 30
0.000000
  70
    32
  0
VERTEX
  8
AM_VIS
  5
9AF
 10
5.64399
 20
3.81313
 30
0.000000
  70
    32
  0
VERTEX
  8
AM_VIS
  5
9B0
 10
5.64492
 20
3.81190
 30
0.000000
  70
    32
  0
VERTEX
  8
AM_VIS
  5
9B1
 10
5.64585
 20
3.81069
 30
0.000000
  70
    32
  0
VERTEX
  8
AM_VIS
  5
9B2
 10
5.64679
 20
3.80947
 30
0.000000
  70
    32
  0
VERTEX
  8
AM_VIS
  5
9B3
 10
5.64773
 20
3.80827
 30
0.000000
  70
    32
  0
VERTEX
  8
AM_VIS
  5
9B4
 10
5.64868
 20
3.80707
 30
0.000000
  70
    32
  0
VERTEX
  8
AM_VIS
  5
9B5
 10
5.64963
 20
3.80588
 30
0.000000
  70
    32
  0
VERTEX
  8
AM_VIS
  5
9B6
 10
5.65059
 20
3.80469
 30
0.000000
  70
    32
  0
VERTEX
  8
AM_VIS
  5
9B7
 10
5.65155
 20
3.80352
 30
0.000000
  70
    32
  0
VERTEX
  8
AM_VIS
  5
9B8
 10
5.65252
 20
3.80235
 30
0.000000
  70
    32
  0
VERTEX
  8
AM_VIS
  5
9B9
 10
5.65350
 20
3.80119
 30
0.000000
  70
    32
  0
VERTEX
  8
AM_VIS
  5
9BA
 10
5.65447
 20
3.80003
 30
0.000000
  70
    32
  0
VERTEX
  8
AM_VIS
  5
9BB
 10
5.65546
 20
3.79889
 30
0.000000
  70
    32
  0
VERTEX
  8
AM_VIS
  5
9BC
 10
5.65645
 20
3.79775
 30
0.000000
  70
    32
  0
VERTEX
  8
AM_VIS
  5
9BD
 10
5.65744
 20
3.79662
 30
0.000000
  70
    32
  0
VERTEX
  8
AM_VIS
  5
9BE
 10
5.65843
 20
3.79549
 30
0.000000
  70
    32
  0
VERTEX
  8
AM_VIS
  5
9BF
 10
5.65944
 20
3.79438
 30
0.000000
  70
    32
  0
VERTEX
  8
AM_VIS
  5
9C0
 10
5.66044
 20
3.79327
 30
0.000000
  70
    32
  0
VERTEX
  8
AM_VIS
  5
9C1
 10
5.66145
 20
3.79217
 30
0.000000
  70
    32
  0
VERTEX
  8
AM_VIS
  5
9C2
 10
5.66247
 20
3.79108
 30
0.000000
  70
    32
  0
VERTEX
  8
AM_VIS
  5
9C3
 10
5.66349
 20
3.79000
 30
0.000000
  70
    32
  0
VERTEX
  8
AM_VIS
  5
9C4
 10
5.66451
 20
3.78892
 30
0.000000
  70
    32
  0
VERTEX
  8
AM_VIS
  5
9C5
 10
5.66555
 20
3.78784
 30
0.000000
  70
    32
  0
VERTEX
  8
AM_VIS
  5
9C6
 10
5.66659
 20
3.78677
 30
0.000000
  70
    32
  0
VERTEX
  8
AM_VIS
  5
9C7
 10
5.66764
 20
3.78570
 30
0.000000
  70
    32
  0
VERTEX
  8
AM_VIS
  5
9C8
 10
5.66870
 20
3.78464
 30
0.000000
  70
    32
  0
VERTEX
  8
AM_VIS
  5
9C9
 10
5.66977
 20
3.78358
 30
0.000000
  70
    32
  0
VERTEX
  8
AM_VIS
  5
9CA
 10
5.67085
 20
3.78252
 30
0.000000
  70
    32
  0
VERTEX
  8
AM_VIS
  5
9CB
 10
5.67193
 20
3.78147
 30
0.000000
  70
    32
  0
VERTEX
  8
AM_VIS
  5
9CC
 10
5.67302
 20
3.78042
 30
0.000000
  70
    32
  0
VERTEX
  8
AM_VIS
  5
9CD
 10
5.67412
 20
3.77938
 30
0.000000
  70
    32
  0
VERTEX
  8
AM_VIS
  5
9CE
 10
5.67523
 20
3.77835
 30
0.000000
  70
    32
  0
VERTEX
  8
AM_VIS
  5
9CF
 10
5.67634
 20
3.77731
 30
0.000000
  70
    32
  0
VERTEX
  8
AM_VIS
  5
9D0
 10
5.67747
 20
3.77629
 30
0.000000
  70
    32
  0
VERTEX
  8
AM_VIS
  5
9D1
 10
5.67860
 20
3.77526
 30
0.000000
  70
    32
  0
VERTEX
  8
AM_VIS
  5
9D2
 10
5.67973
 20
3.77425
 30
0.000000
  70
    32
  0
VERTEX
  8
AM_VIS
  5
9D3
 10
5.68088
 20
3.77323
 30
0.000000
  70
    32
  0
VERTEX
  8
AM_VIS
  5
9D4
 10
5.68203
 20
3.77222
 30
0.000000
  70
    32
  0
VERTEX
  8
AM_VIS
  5
9D5
 10
5.68319
 20
3.77122
 30
0.000000
  70
    32
  0
VERTEX
  8
AM_VIS
  5
9D6
 10
5.68435
 20
3.77023
 30
0.000000
  70
    32
  0
VERTEX
  8
AM_VIS
  5
9D7
 10
5.68553
 20
3.76923
 30
0.000000
  70
    32
  0
VERTEX
  8
AM_VIS
  5
9D8
 10
5.68671
 20
3.76825
 30
0.000000
  70
    32
  0
VERTEX
  8
AM_VIS
  5
9D9
 10
5.68790
 20
3.76727
 30
0.000000
  70
    32
  0
VERTEX
  8
AM_VIS
  5
9DA
 10
5.68909
 20
3.76629
 30
0.000000
  70
    32
  0
VERTEX
  8
AM_VIS
  5
9DB
 10
5.69029
 20
3.76532
 30
0.000000
  70
    32
  0
VERTEX
  8
AM_VIS
  5
9DC
 10
5.69150
 20
3.76436
 30
0.000000
  70
    32
  0
VERTEX
  8
AM_VIS
  5
9DD
 10
5.69272
 20
3.76340
 30
0.000000
  70
    32
  0
VERTEX
  8
AM_VIS
  5
9DE
 10
5.69394
 20
3.76245
 30
0.000000
  70
    32
  0
VERTEX
  8
AM_VIS
  5
9DF
 10
5.69517
 20
3.76150
 30
0.000000
  70
    32
  0
VERTEX
  8
AM_VIS
  5
9E0
 10
5.69640
 20
3.76056
 30
0.000000
  70
    32
  0
VERTEX
  8
AM_VIS
  5
9E1
 10
5.69764
 20
3.75963
 30
0.000000
  70
    32
  0
VERTEX
  8
AM_VIS
  5
9E2
 10
5.69889
 20
3.75870
 30
0.000000
  70
    32
  0
VERTEX
  8
AM_VIS
  5
9E3
 10
5.70014
 20
3.75778
 30
0.000000
  70
    32
  0
VERTEX
  8
AM_VIS
  5
9E4
 10
5.70141
 20
3.75686
 30
0.000000
  70
    32
  0
VERTEX
  8
AM_VIS
  5
9E5
 10
5.70267
 20
3.75595
 30
0.000000
  70
    32
  0
VERTEX
  8
AM_VIS
  5
9E6
 10
5.70395
 20
3.75505
 30
0.000000
  70
    32
  0
VERTEX
  8
AM_VIS
  5
9E7
 10
5.70523
 20
3.75416
 30
0.000000
  70
    32
  0
VERTEX
  8
AM_VIS
  5
9E8
 10
5.70651
 20
3.75327
 30
0.000000
  70
    32
  0
VERTEX
  8
AM_VIS
  5
9E9
 10
5.70780
 20
3.75239
 30
0.000000
  70
    32
  0
VERTEX
  8
AM_VIS
  5
9EA
 10
5.70910
 20
3.75151
 30
0.000000
  70
    32
  0
VERTEX
  8
AM_VIS
  5
9EB
 10
5.71040
 20
3.75064
 30
0.000000
  70
    32
  0
VERTEX
  8
AM_VIS
  5
9EC
 10
5.71171
 20
3.74978
 30
0.000000
  70
    32
  0
VERTEX
  8
AM_VIS
  5
9ED
 10
5.71303
 20
3.74893
 30
0.000000
  70
    32
  0
VERTEX
  8
AM_VIS
  5
9EE
 10
5.71435
 20
3.74808
 30
0.000000
  70
    32
  0
VERTEX
  8
AM_VIS
  5
9EF
 10
5.71568
 20
3.74724
 30
0.000000
  70
    32
  0
VERTEX
  8
AM_VIS
  5
9F0
 10
5.71701
 20
3.74641
 30
0.000000
  70
    32
  0
VERTEX
  8
AM_VIS
  5
9F1
 10
5.71835
 20
3.74558
 30
0.000000
  70
    32
  0
VERTEX
  8
AM_VIS
  5
9F2
 10
5.71969
 20
3.74477
 30
0.000000
  70
    32
  0
VERTEX
  8
AM_VIS
  5
9F3
 10
5.72104
 20
3.74396
 30
0.000000
  70
    32
  0
VERTEX
  8
AM_VIS
  5
9F4
 10
5.72239
 20
3.74316
 30
0.000000
  70
    32
  0
VERTEX
  8
AM_VIS
  5
9F5
 10
5.72375
 20
3.74236
 30
0.000000
  70
    32
  0
VERTEX
  8
AM_VIS
  5
9F6
 10
5.72511
 20
3.74158
 30
0.000000
  70
    32
  0
VERTEX
  8
AM_VIS
  5
9F7
 10
5.72648
 20
3.74080
 30
0.000000
  70
    32
  0
VERTEX
  8
AM_VIS
  5
9F8
 10
5.72786
 20
3.74003
 30
0.000000
  70
    32
  0
VERTEX
  8
AM_VIS
  5
9F9
 10
5.72924
 20
3.73926
 30
0.000000
  70
    32
  0
VERTEX
  8
AM_VIS
  5
9FA
 10
5.73062
 20
3.73851
 30
0.000000
  70
    32
  0
VERTEX
  8
AM_VIS
  5
9FB
 10
5.73201
 20
3.73776
 30
0.000000
  70
    32
  0
VERTEX
  8
AM_VIS
  5
9FC
 10
5.73341
 20
3.73703
 30
0.000000
  70
    32
  0
VERTEX
  8
AM_VIS
  5
9FD
 10
5.73481
 20
3.73630
 30
0.000000
  70
    32
  0
VERTEX
  8
AM_VIS
  5
9FE
 10
5.73621
 20
3.73558
 30
0.000000
  70
    32
  0
VERTEX
  8
AM_VIS
  5
9FF
 10
5.73762
 20
3.73486
 30
0.000000
  70
    32
  0
VERTEX
  8
AM_VIS
  5
A00
 10
5.73904
 20
3.73416
 30
0.000000
  70
    32
  0
VERTEX
  8
AM_VIS
  5
A01
 10
5.74045
 20
3.73346
 30
0.000000
  70
    32
  0
VERTEX
  8
AM_VIS
  5
A02
 10
5.74188
 20
3.73278
 30
0.000000
  70
    32
  0
VERTEX
  8
AM_VIS
  5
A03
 10
5.74330
 20
3.73210
 30
0.000000
  70
    32
  0
VERTEX
  8
AM_VIS
  5
A04
 10
5.74474
 20
3.73143
 30
0.000000
  70
    32
  0
VERTEX
  8
AM_VIS
  5
A05
 10
5.74617
 20
3.73077
 30
0.000000
  70
    32
  0
VERTEX
  8
AM_VIS
  5
A06
 10
5.74761
 20
3.73012
 30
0.000000
  70
    32
  0
VERTEX
  8
AM_VIS
  5
A07
 10
5.74906
 20
3.72948
 30
0.000000
  70
    32
  0
VERTEX
  8
AM_VIS
  5
A08
 10
5.75050
 20
3.72885
 30
0.000000
  70
    32
  0
VERTEX
  8
AM_VIS
  5
A09
 10
5.75196
 20
3.72823
 30
0.000000
  70
    32
  0
VERTEX
  8
AM_VIS
  5
A0A
 10
5.75341
 20
3.72761
 30
0.000000
  70
    32
  0
VERTEX
  8
AM_VIS
  5
A0B
 10
5.75487
 20
3.72701
 30
0.000000
  70
    32
  0
VERTEX
  8
AM_VIS
  5
A0C
 10
5.75634
 20
3.72641
 30
0.000000
  70
    32
  0
VERTEX
  8
AM_VIS
  5
A0D
 10
5.75781
 20
3.72583
 30
0.000000
  70
    32
  0
VERTEX
  8
AM_VIS
  5
A0E
 10
5.75928
 20
3.72525
 30
0.000000
  70
    32
  0
VERTEX
  8
AM_VIS
  5
A0F
 10
5.76075
 20
3.72469
 30
0.000000
  70
    32
  0
VERTEX
  8
AM_VIS
  5
A10
 10
5.76223
 20
3.72413
 30
0.000000
  70
    32
  0
VERTEX
  8
AM_VIS
  5
A11
 10
5.76371
 20
3.72358
 30
0.000000
  70
    32
  0
VERTEX
  8
AM_VIS
  5
A12
 10
5.76520
 20
3.72304
 30
0.000000
  70
    32
  0
VERTEX
  8
AM_VIS
  5
A13
 10
5.76668
 20
3.72251
 30
0.000000
  70
    32
  0
VERTEX
  8
AM_VIS
  5
A14
 10
5.76818
 20
3.72199
 30
0.000000
  70
    32
  0
VERTEX
  8
AM_VIS
  5
A15
 10
5.76967
 20
3.72148
 30
0.000000
  70
    32
  0
VERTEX
  8
AM_VIS
  5
A16
 10
5.77117
 20
3.72098
 30
0.000000
  70
    32
  0
VERTEX
  8
AM_VIS
  5
A17
 10
5.77267
 20
3.72048
 30
0.000000
  70
    32
  0
VERTEX
  8
AM_VIS
  5
A18
 10
5.77417
 20
3.72000
 30
0.000000
  70
    32
  0
VERTEX
  8
AM_VIS
  5
A19
 10
5.77567
 20
3.71953
 30
0.000000
  70
    32
  0
VERTEX
  8
AM_VIS
  5
A1A
 10
5.77718
 20
3.71906
 30
0.000000
  70
    32
  0
VERTEX
  8
AM_VIS
  5
A1B
 10
5.77869
 20
3.71861
 30
0.000000
  70
    32
  0
VERTEX
  8
AM_VIS
  5
A1C
 10
5.78020
 20
3.71816
 30
0.000000
  70
    32
  0
VERTEX
  8
AM_VIS
  5
A1D
 10
5.78171
 20
3.71772
 30
0.000000
  70
    32
  0
VERTEX
  8
AM_VIS
  5
A1E
 10
5.78323
 20
3.71730
 30
0.000000
  70
    32
  0
VERTEX
  8
AM_VIS
  5
A1F
 10
5.78474
 20
3.71688
 30
0.000000
  70
    32
  0
VERTEX
  8
AM_VIS
  5
A20
 10
5.78626
 20
3.71647
 30
0.000000
  70
    32
  0
VERTEX
  8
AM_VIS
  5
A21
 10
5.78778
 20
3.71607
 30
0.000000
  70
    32
  0
VERTEX
  8
AM_VIS
  5
A22
 10
5.78931
 20
3.71568
 30
0.000000
  70
    32
  0
VERTEX
  8
AM_VIS
  5
A23
 10
5.79083
 20
3.71530
 30
0.000000
  70
    32
  0
VERTEX
  8
AM_VIS
  5
A24
 10
5.79236
 20
3.71493
 30
0.000000
  70
    32
  0
VERTEX
  8
AM_VIS
  5
A25
 10
5.79388
 20
3.71457
 30
0.000000
  70
    32
  0
VERTEX
  8
AM_VIS
  5
A26
 10
5.79541
 20
3.71421
 30
0.000000
  70
    32
  0
VERTEX
  8
AM_VIS
  5
A27
 10
5.79694
 20
3.71387
 30
0.000000
  70
    32
  0
VERTEX
  8
AM_VIS
  5
A28
 10
5.79847
 20
3.71354
 30
0.000000
  70
    32
  0
VERTEX
  8
AM_VIS
  5
A29
 10
5.80000
 20
3.71321
 30
0.000000
  70
    32
  0
VERTEX
  8
AM_VIS
  5
A2A
 10
5.80153
 20
3.71290
 30
0.000000
  70
    32
  0
VERTEX
  8
AM_VIS
  5
A2B
 10
5.80306
 20
3.71259
 30
0.000000
  70
    32
  0
VERTEX
  8
AM_VIS
  5
A2C
 10
5.80460
 20
3.71230
 30
0.000000
  70
    32
  0
VERTEX
  8
AM_VIS
  5
A2D
 10
5.80613
 20
3.71201
 30
0.000000
  70
    32
  0
VERTEX
  8
AM_VIS
  5
A2E
 10
5.80767
 20
3.71173
 30
0.000000
  70
    32
  0
VERTEX
  8
AM_VIS
  5
A2F
 10
5.80920
 20
3.71146
 30
0.000000
  70
    32
  0
VERTEX
  8
AM_VIS
  5
A30
 10
5.81073
 20
3.71120
 30
0.000000
  70
    32
  0
VERTEX
  8
AM_VIS
  5
A31
 10
5.81227
 20
3.71095
 30
0.000000
  70
    32
  0
VERTEX
  8
AM_VIS
  5
A32
 10
5.81380
 20
3.71071
 30
0.000000
  70
    32
  0
VERTEX
  8
AM_VIS
  5
A33
 10
5.81534
 20
3.71048
 30
0.000000
  70
    32
  0
VERTEX
  8
AM_VIS
  5
A34
 10
5.81687
 20
3.71026
 30
0.000000
  70
    32
  0
VERTEX
  8
AM_VIS
  5
A35
 10
5.81841
 20
3.71005
 30
0.000000
  70
    32
  0
VERTEX
  8
AM_VIS
  5
A36
 10
5.81994
 20
3.70985
 30
0.000000
  70
    32
  0
VERTEX
  8
AM_VIS
  5
A37
 10
5.82147
 20
3.70965
 30
0.000000
  70
    32
  0
VERTEX
  8
AM_VIS
  5
A38
 10
5.82301
 20
3.70947
 30
0.000000
  70
    32
  0
VERTEX
  8
AM_VIS
  5
A39
 10
5.82454
 20
3.70930
 30
0.000000
  70
    32
  0
VERTEX
  8
AM_VIS
  5
A3A
 10
5.82607
 20
3.70913
 30
0.000000
  70
    32
  0
VERTEX
  8
AM_VIS
  5
A3B
 10
5.82760
 20
3.70898
 30
0.000000
  70
    32
  0
VERTEX
  8
AM_VIS
  5
A3C
 10
5.82913
 20
3.70883
 30
0.000000
  70
    32
  0
VERTEX
  8
AM_VIS
  5
A3D
 10
5.83066
 20
3.70869
 30
0.000000
  70
    32
  0
VERTEX
  8
AM_VIS
  5
A3E
 10
5.83219
 20
3.70856
 30
0.000000
  70
    32
  0
VERTEX
  8
AM_VIS
  5
A3F
 10
5.83372
 20
3.70845
 30
0.000000
  70
    32
  0
VERTEX
  8
AM_VIS
  5
A40
 10
5.83524
 20
3.70834
 30
0.000000
  70
    32
  0
VERTEX
  8
AM_VIS
  5
A41
 10
5.83676
 20
3.70824
 30
0.000000
  70
    32
  0
VERTEX
  8
AM_VIS
  5
A42
 10
5.83829
 20
3.70815
 30
0.000000
  70
    32
  0
VERTEX
  8
AM_VIS
  5
A43
 10
5.83981
 20
3.70807
 30
0.000000
  70
    32
  0
VERTEX
  8
AM_VIS
  5
A44
 10
5.84133
 20
3.70800
 30
0.000000
  70
    32
  0
VERTEX
  8
AM_VIS
  5
A45
 10
5.84284
 20
3.70794
 30
0.000000
  70
    32
  0
VERTEX
  8
AM_VIS
  5
A46
 10
5.84436
 20
3.70789
 30
0.000000
  70
    32
  0
VERTEX
  8
AM_VIS
  5
A47
 10
5.84587
 20
3.70784
 30
0.000000
  70
    32
  0
VERTEX
  8
AM_VIS
  5
A48
 10
5.84738
 20
3.70781
 30
0.000000
  70
    32
  0
VERTEX
  8
AM_VIS
  5
A49
 10
5.84889
 20
3.70779
 30
0.000000
  70
    32
  0
VERTEX
  8
AM_VIS
  5
A4A
 10
5.85040
 20
3.70777
 30
0.000000
  70
    32
  0
VERTEX
  8
AM_VIS
  5
A4B
 10
5.85190
 20
3.70777
 30
0.000000
  70
    32
  0
SEQEND
  8
AM_VIS
  5
A4C
  0
LINE
  5
4A
  8
AM_VIS
 10
5.7766529195464651
 20
4.112712975802876
 30
0.0
 11
5.9271458110170334
 21
4.112712975802876
 31
0.0
  0
LINE
  5
4B
  8
AM_VIS
 10
5.9271458110170334
 20
4.112712975802876
 30
0.0
 11
6.0023922567523167
 21
3.98238230870039
 31
0.0
  0
LINE
  5
4C
  8
AM_VIS
 10
6.0023922567523176
 20
3.98238230870039
 30
0.0
 11
5.9271458110170334
 21
3.852051641597904
 31
0.0
  0
LINE
  5
4D
  8
AM_VIS
 10
5.9271458110170334
 20
3.852051641597904
 30
0.0
 11
5.7766529195464651
 21
3.852051641597904
 31
0.0
  0
LINE
  5
4E
  8
AM_VIS
 10
5.7014064738111809
 20
3.98238230870039
 30
0.0
 11
5.7766529195464651
 21
4.112712975802876
 31
0.0
  0
LINE
  5
4F
  8
AM_VIS
 10
5.7766529195464651
 20
3.852051641597904
 30
0.0
 11
5.7014064738111818
 21
3.98238230870039
 31
0.0
  0
CIRCLE
  5
50
  8
AM_VIS
 10
5.8518993652817493
 20
3.98238230870039
 30
0.0
 40
0.253378125
  0
LINE
  5
51
  8
AM_HID
 10
6.7389838757294589
 20
5.5786644962003891
 30
0.0
 11
6.333578875729458
 21
5.5786644962003891
 31
0.0
  0
LINE
  5
52
  8
AM_HID
 10
6.7389838757294589
 20
6.0347451212003911
 30
0.0
 11
6.333578875729458
 21
6.0347451212003911
 31
0.0
  0
LINE
  5
53
  8
AM_HID
 10
6.7389838757294589
 20
1.9300194962003889
 30
0.0
 11
6.333578875729458
 21
1.9300194962003889
 31
0.0
  0
LINE
  5
54
  8
AM_HID
 10
6.7389838757294589
 20
2.3861001212003892
 30
0.0
 11
6.333578875729458
 21
2.3861001212003892
 31
0.0
  0
LINE
  5
55
  8
AM_VIS
 10
6.7389838757294589
 20
1.499276683700389
 30
0.0
 11
6.333578875729458
 21
1.499276683700389
 31
0.0
  0
LINE
  5
56
  8
AM_VIS
 10
6.7389838757294589
 20
6.4654879337003894
 30
0.0
 11
6.333578875729458
 21
6.4654879337003894
 31
0.0
  0
LINE
  5
57
  8
AM_VIS
 10
6.333578875729458
 20
2.9891400587003889
 30
0.0
 11
3.2389838757294598
 21
2.9891400587003898
 31
0.0
  0
LINE
  5
58
  8
AM_VIS
 10
6.333578875729458
 20
4.975624558700388
 30
0.0
 11
3.2389838757294598
 21
4.9756245587003889
 31
0.0
  0
LINE
  5
59
  8
AM_HID
 10
3.2389838757294598
 20
4.7729220587003889
 30
0.0
 11
6.7389838757294589
 21
4.7729220587003889
 31
0.0
  0
LINE
  5
5A
  8
AM_HID
 10
3.2389838757294598
 20
3.1918425587003889
 30
0.0
 11
6.7389838757294589
 21
3.1918425587003889
 31
0.0
  0
LINE
  5
15D
  8
0
 10
6.7896595007294582
 20
6.4654879337003894
 30
0.0
 11
8.1828356234292396
 21
6.4654879337003894
 31
0.0
  0
LINE
  5
15E
  8
0
 10
6.7896595007294582
 20
1.499276683700389
 30
0.0
 11
8.1828356234292343
 21
1.4992766837003879
 31
0.0
  0
LINE
  5
15F
  8
0
 10
8.0368898234292363
 20
6.3641366837003899
 30
0.0
 11
8.0368898234292363
 21
4.2652970837003892
 31
0.0
  0
LINE
  5
160
  8
0
 10
8.0368898234292363
 20
1.6006279337003879
 30
0.0
 11
8.0368898234292363
 21
3.6994675337003891
 31
0.0
  0
SOLID
  5
161
  8
0
 10
8.0199979484292356
 20
6.3641366837003899
 30
0.0
 11
8.0537816984292352
 21
6.3641366837003899
 31
0.0
 12
8.0368898234292363
 22
6.4654879337003894
 32
0.0
 13
8.0368898234292363
 23
6.4654879337003894
 33
0.0
  0
SOLID
  5
162
  8
0
 10
8.0199979484292356
 20
1.6006279337003879
 30
0.0
 11
8.0537816984292352
 21
1.6006279337003879
 31
0.0
 12
8.0368898234292363
 22
1.4992766837003879
 32
0.0
 13
8.0368898234292363
 23
1.4992766837003879
 33
0.0
  0
INSERT
  5
163
  8
0
  2
*U2
 10
0.0
 20
0.0
 30
0.0
  0
LINE
  5
1AC
  8
AM_VIS
 10
3.2389838757294598
 20
2.918194183700388
 30
0.0
 11
3.2389838757294598
 21
5.0465704337003903
 31
0.0
  0
ENDSEC
  0
EOF
