  0
SECTION
  2
HEADER
  9
$ACADVER
  1
AC1009
  9
$INSBASE
 10
9.2455451004990046
 20
4.2885257387404589
 30
-0.0000000000000002
  9
$EXTMIN
 10
7.4468608536136811
 20
1.9201944486975571
 30
-0.0000000000000002
  9
$EXTMAX
 10
12.68931296759567
 20
5.7914565242279368
 30
0.5600000000000001
  9
$LIMMIN
 10
0.0
 20
0.0
  9
$LIMMAX
 10
12.0
 20
9.0
  9
$ORTHOMODE
 70
     1
  9
$REGENMODE
 70
     0
  9
$FILLMODE
 70
     1
  9
$QTEXTMODE
 70
     0
  9
$MIRRTEXT
 70
     0
  9
$DRAGMODE
 70
     2
  9
$LTSCALE
 40
1.0
  9
$OSMODE
 70
    55
  9
$ATTMODE
 70
     1
  9
$TEXTSIZE
 40
0.2
  9
$TRACEWID
 40
0.05
  9
$TEXTSTYLE
  7
STANDARD
  9
$CLAYER
  8
0
  9
$CELTYPE
  6
BYLAYER
  9
$CECOLOR
 62
   256
  9
$DIMSCALE
 40
0.0
  9
$DIMASZ
 40
0.125
  9
$DIMEXO
 40
0.0625
  9
$DIMDLI
 40
0.375
  9
$DIMRND
 40
0.0
  9
$DIMDLE
 40
0.0
  9
$DIMEXE
 40
0.1875
  9
$DIMTP
 40
0.0
  9
$DIMTM
 40
0.0
  9
$DIMTXT
 40
0.09375
  9
$DIMCEN
 40
-0.125
  9
$DIMTSZ
 40
0.0
  9
$DIMTOL
 70
     0
  9
$DIMLIM
 70
     0
  9
$DIMTIH
 70
     0
  9
$DIMTOH
 70
     0
  9
$DIMSE1
 70
     0
  9
$DIMSE2
 70
     0
  9
$DIMTAD
 70
     0
  9
$DIMZIN
 70
     3
  9
$DIMBLK
  1

  9
$DIMASO
 70
     0
  9
$DIMSHO
 70
     1
  9
$DIMPOST
  1

  9
$DIMAPOST
  1

  9
$DIMALT
 70
     0
  9
$DIMALTD
 70
     2
  9
$DIMALTF
 40
25.399999999999999
  9
$DIMLFAC
 40
1.0
  9
$DIMTOFL
 70
     1
  9
$DIMTVP
 40
0.0
  9
$DIMTIX
 70
     0
  9
$DIMSOXD
 70
     0
  9
$DIMSAH
 70
     1
  9
$DIMBLK1
  1
DOT
  9
$DIMBLK2
  1
DOT
  9
$DIMSTYLE
  2
STANDARD
  9
$DIMCLRD
 70
     0
  9
$DIMCLRE
 70
     0
  9
$DIMCLRT
 70
     0
  9
$DIMTFAC
 40
1.0
  9
$DIMGAP
 40
0.09
  9
$LUNITS
 70
     4
  9
$LUPREC
 70
     4
  9
$SKETCHINC
 40
0.1
  9
$FILLETRAD
 40
0.0
  9
$AUNITS
 70
     0
  9
$AUPREC
 70
     4
  9
$MENU
  1
.
  9
$ELEVATION
 40
0.5600000000000001
  9
$PELEVATION
 40
0.0
  9
$THICKNESS
 40
0.0
  9
$LIMCHECK
 70
     0
  9
$BLIPMODE
 70
     0
  9
$CHAMFERA
 40
0.125
  9
$CHAMFERB
 40
0.5
  9
$SKPOLY
 70
     0
  9
$TDCREATE
 40
2451086.9526012731
  9
$TDUPDATE
 40
2453913.5665513081
  9
$TDINDWG
 40
0.0732004398
  9
$TDUSRTIMER
 40
0.0732004398
  9
$USRTIMER
 70
     1
  9
$ANGBASE
 50
0.0
  9
$ANGDIR
 70
     0
  9
$PDMODE
 70
    34
  9
$PDSIZE
 40
3.0
  9
$PLINEWID
 40
0.0
  9
$COORDS
 70
     1
  9
$SPLFRAME
 70
     0
  9
$SPLINETYPE
 70
     6
  9
$SPLINESEGS
 70
     8
  9
$ATTDIA
 70
     0
  9
$ATTREQ
 70
     1
  9
$HANDLING
 70
     1
  9
$HANDSEED
  5
1CB
  9
$SURFTAB1
 70
     6
  9
$SURFTAB2
 70
     6
  9
$SURFTYPE
 70
     6
  9
$SURFU
 70
     6
  9
$SURFV
 70
     6
  9
$UCSNAME
  2

  9
$UCSORG
 10
0.0
 20
0.0
 30
0.0
  9
$UCSXDIR
 10
1.0
 20
0.0
 30
0.0
  9
$UCSYDIR
 10
0.0
 20
1.0
 30
0.0
  9
$PUCSNAME
  2

  9
$PUCSORG
 10
0.0
 20
0.0
 30
0.0
  9
$PUCSXDIR
 10
1.0
 20
0.0
 30
0.0
  9
$PUCSYDIR
 10
0.0
 20
1.0
 30
0.0
  9
$USERI1
 70
     0
  9
$USERI2
 70
     0
  9
$USERI3
 70
     0
  9
$USERI4
 70
     0
  9
$USERI5
 70
     0
  9
$USERR1
 40
0.0
  9
$USERR2
 40
0.0
  9
$USERR3
 40
0.0
  9
$USERR4
 40
0.0
  9
$USERR5
 40
0.0
  9
$WORLDVIEW
 70
     1
  9
$SHADEDGE
 70
     3
  9
$SHADEDIF
 70
    70
  9
$TILEMODE
 70
     1
  9
$MAXACTVP
 70
    48
  9
$PLIMCHECK
 70
     0
  9
$PEXTMIN
 10
7.4468608536136811
 20
2.0269792435034559
 30
0.0
  9
$PEXTMAX
 10
12.68931296759567
 20
5.7914565242279368
 30
0.0
  9
$PLIMMIN
 10
0.0
 20
0.0
  9
$PLIMMAX
 10
12.0
 20
9.0
  9
$UNITMODE
 70
     0
  9
$VISRETAIN
 70
     1
  9
$PLINEGEN
 70
     0
  9
$PSLTSCALE
 70
     1
  0
ENDSEC
  0
SECTION
  2
TABLES
  0
TABLE
  2
VPORT
 70
     2
  0
VPORT
  2
*ACTIVE
 70
     0
 10
0.0
 20
0.0
 11
1.0
 21
1.0
 12
10.46535218085144
 22
3.8555832111225259
 13
0.0
 23
0.0
 14
0.5
 24
0.5
 15
0.5
 25
0.5
 16
0.0
 26
-0.0000000000000001
 36
0.9999999999999996
 17
0.0
 27
0.0
 37
0.0
 40
3.9368877669857669
 41
2.1654275092936799
 42
50.0
 43
0.0
 44
0.0
 50
0.0
 51
0.0
 71
     0
 72
   100
 73
     1
 74
     1
 75
     0
 76
     0
 77
     0
 78
     0
  0
ENDTAB
  0
TABLE
  2
LTYPE
 70
    17
  0
LTYPE
  2
CONTINUOUS
 70
     0
  3
Solid line
 72
    65
 73
     0
 40
0.0
  0
LTYPE
  2
HIDDEN
 70
     0
  3
__ __ __ __ __ __ __ __ __ __ __ __ __ __ __ __
 72
    65
 73
     2
 40
0.375
 49
0.25
 49
-0.125
  0
LTYPE
  2
PHANTOM2
 70
     0
  3
___ _ _ ___ _ _ ___ _ _ ___ _ _ ___ _ _ ___ _ _
 72
    65
 73
     6
 40
1.25
 49
0.625
 49
-0.125
 49
0.125
 49
-0.125
 49
0.125
 49
-0.125
  0
LTYPE
  2
CENTER
 70
     0
  3
____ _ ____ _ ____ _ ____ _ ____ _ ____ _ ____ 
 72
    65
 73
     4
 40
2.0
 49
1.25
 49
-0.25
 49
0.25
 49
-0.25
  0
LTYPE
  2
ACJISTGB
 70
     0
  3
__ . . __ . .
 72
    65
 73
     6
 40
9.0
 49
4.0
 49
-1.0
 49
1.0
 49
-1.0
 49
1.0
 49
-1.0
  0
LTYPE
  2
ACJISTGL
 70
     0
  3
_ _ _ _ _
 72
    65
 73
     2
 40
3.0
 49
2.0
 49
-1.0
  0
LTYPE
  2
ACANSTGB
 70
     0
  3
__ . . __ . .
 72
    65
 73
     6
 40
0.35433070866
 49
0.15748031496
 49
-0.03937007874
 49
0.03937007874
 49
-0.03937007874
 49
0.03937007874
 49
-0.03937007874
  0
LTYPE
  2
ACANSTGL
 70
     0
  3
_ _ _ _ _
 72
    65
 73
     2
 40
0.11811023622
 49
0.07874015748
 49
-0.03937007874
  0
LTYPE
  2
ACBSIWELD
 70
     0
  3
_ _ _ _ _
 72
    65
 73
     2
 40
2.0
 49
2.0
 49
-1.0
  0
LTYPE
  2
ACBSITGB
 70
     0
  3
__ . . __ . .
 72
    65
 73
     6
 40
9.0
 49
4.0
 49
-1.0
 49
1.0
 49
-1.0
 49
1.0
 49
-1.0
  0
LTYPE
  2
ACBSITGL
 70
     0
  3
_ _ _ _ _
 72
    65
 73
     2
 40
3.0
 49
2.0
 49
-1.0
  0
LTYPE
  2
ACDINWELD
 70
     0
  3
_ _ _ _ _
 72
    65
 73
     2
 40
2.0
 49
2.0
 49
-1.0
  0
LTYPE
  2
ACDINTGB
 70
     0
  3
__ . . __ . .
 72
    65
 73
     6
 40
9.0
 49
4.0
 49
-1.0
 49
1.0
 49
-1.0
 49
1.0
 49
-1.0
  0
LTYPE
  2
ACDINTGL
 70
     0
  3
_ _ _ _ _
 72
    65
 73
     2
 40
3.0
 49
2.0
 49
-1.0
  0
LTYPE
  2
ACISOWELD
 70
     0
  3
_ _ _ _ _
 72
    65
 73
     2
 40
2.0
 49
2.0
 49
-1.0
  0
LTYPE
  2
ACISOTGB
 70
     0
  3
__ . . __ . .
 72
    65
 73
     6
 40
9.0
 49
4.0
 49
-1.0
 49
1.0
 49
-1.0
 49
1.0
 49
-1.0
  0
LTYPE
  2
ACISOTGL
 70
     0
  3
_ _ _ _ _
 72
    65
 73
     2
 40
3.0
 49
2.0
 49
-1.0
  0
ENDTAB
  0
TABLE
  2
LAYER
 70
    11
  0
LAYER
  2
0
 70
     0
 62
     7
  6
CONTINUOUS
  0
LAYER
  2
AM_VIEWS
 70
     0
 62
    -7
  6
CONTINUOUS
  0
LAYER
  2
AM_VIS
 70
     0
 62
     7
  6
CONTINUOUS
  0
LAYER
  2
AM_HID
 70
     0
 62
     7
  6
HIDDEN
  0
LAYER
  2
AM_BM
 70
     0
 62
     7
  6
CONTINUOUS
  0
LAYER
  2
AM_BL
 70
     0
 62
     7
  6
CONTINUOUS
  0
LAYER
  2
AM_PARDIM
 70
     0
 62
     3
  6
CONTINUOUS
  0
LAYER
  2
AM_REFDIM
 70
     0
 62
     4
  6
CONTINUOUS
  0
LAYER
  2
KEEDIM
 70
     0
 62
     7
  6
CONTINUOUS
  0
LAYER
  2
KEE16
 70
     0
 62
     7
  6
CONTINUOUS
  0
LAYER
  2
KEE15
 70
     0
 62
     7
  6
CONTINUOUS
  0
ENDTAB
  0
TABLE
  2
STYLE
 70
    11
  0
STYLE
  2
STANDARD
 70
     0
 40
0.0
 41
1.0
 50
0.0
 71
     0
 42
0.2
  3
txt
  4

  0
STYLE
  2
ACJISTS
 70
     0
 40
1.0
 41
1.0
 50
0.0
 71
     0
 42
0.2
  3
isocp.shx
  4
bigfont.shx
  0
STYLE
  2
ACJISGDT
 70
     0
 40
0.0
 41
1.0
 50
0.0
 71
     0
 42
0.2
  3
amgdt.shx
  4

  0
STYLE
  2
ACANSTSB
 70
     0
 40
1.0
 41
1.0
 50
0.0
 71
     0
 42
0.2
  3
romans.shx
  4

  0
STYLE
  2
ACANSGDT
 70
     0
 40
0.0
 41
1.0
 50
0.0
 71
     0
 42
0.2
  3
amgdt.shx
  4

  0
STYLE
  2
ACBSITS
 70
     0
 40
1.0
 41
1.0
 50
0.0
 71
     0
 42
0.2
  3
isocp.shx
  4

  0
STYLE
  2
ACBSIGDT
 70
     0
 40
0.0
 41
1.0
 50
0.0
 71
     0
 42
0.2
  3
amgdt.shx
  4

  0
STYLE
  2
ACDINTS
 70
     0
 40
1.0
 41
1.0
 50
0.0
 71
     0
 42
0.2
  3
isocp.shx
  4

  0
STYLE
  2
ACDINGDT
 70
     0
 40
0.0
 41
1.0
 50
0.0
 71
     0
 42
0.2
  3
amgdt.shx
  4

  0
STYLE
  2
ACISOTS
 70
     0
 40
1.0
 41
1.0
 50
0.0
 71
     0
 42
0.2
  3
isocp.shx
  4

  0
STYLE
  2
ACISOGDT
 70
     0
 40
0.0
 41
1.0
 50
0.0
 71
     0
 42
0.2
  3
amgdt.shx
  4

  0
ENDTAB
  0
TABLE
  2
VIEW
 70
     0
  0
ENDTAB
  0
TABLE
  2
UCS
 70
     0
  0
ENDTAB
  0
TABLE
  2
APPID
 70
     5
  0
APPID
  2
ACAD
 70
     0
  0
APPID
  2
MCAD_NO_VIS
 70
     0
  0
APPID
  2
AD_DRAW
 70
     0
  0
APPID
  2
DESIGNERASSEMBLIES
 70
     0
  0
APPID
  2
ASURF_PCURVE_APPNAME
 70
     0
  0
ENDTAB
  0
TABLE
  2
DIMSTYLE
 70
     1
  0
DIMSTYLE
  2
STANDARD
 70
     0
  3

  4

  5

  6

  7

 40
1.0
 41
0.18
 42
0.0625
 43
0.38
 44
0.18
 45
0.0
 46
0.0
 47
0.0
 48
0.0
140
0.18
141
0.09
142
0.0
143
25.399999999999999
144
1.0
145
0.0
146
1.0
147
0.09
 71
     0
 72
     0
 73
     1
 74
     1
 75
     0
 76
     0
 77
     0
 78
     0
170
     0
171
     2
172
     0
173
     0
174
     0
175
     0
176
     0
177
     0
178
     0
  0
ENDTAB
  0
ENDSEC
  0
SECTION
  2
BLOCKS
  0
BLOCK
  8
0
  2
$MODEL_SPACE
 70
     0
 10
0.0
 20
0.0
 30
0.0
  3
$MODEL_SPACE
  1

  0
ENDBLK
  5
7
  8
0
  0
BLOCK
 67
     1
  8
0
  2
$PAPER_SPACE
 70
     0
 10
0.0
 20
0.0
 30
0.0
  3
$PAPER_SPACE
  1

  0
ENDBLK
  5
A
 67
     1
  8
0
  0
BLOCK
  8
0
  2
*U0
 70
     1
 10
0.0
 20
0.0
 30
0.0
  3
*U0
  1

  0
ENDBLK
  5
B5
  8
0
  0
BLOCK
  8
0
  2
_DOT
 70
     0
 10
0.0
 20
0.0
 30
0.0
  3
_DOT
  1

  0
POLYLINE
  5
103
  8
0
  6
BYBLOCK
 62
     0
 66
     1
 10
0.0
 20
0.0
 30
0.0
 70
     1
 40
0.5
 41
0.5
  0
VERTEX
  5
1B0
  8
0
  6
BYBLOCK
 62
     0
 10
-0.25
 20
0.0
 30
0.0
 42
1.0
  0
VERTEX
  5
1B1
  8
0
  6
BYBLOCK
 62
     0
 10
0.25
 20
0.0
 30
0.0
 42
1.0
  0
SEQEND
  5
1B2
  8
0
  6
BYBLOCK
 62
     0
  0
LINE
  5
107
  8
0
  6
BYBLOCK
 62
     0
 10
-0.5
 20
0.0
 30
0.0
 11
-1.0
 21
0.0
 31
0.0
  0
ENDBLK
  5
108
  8
0
  0
BLOCK
  8
0
  2
*U2
 70
     1
 10
0.0
 20
0.0
 30
0.0
  3
*U2
  1

  0
TEXT
  5
1B4
  8
KEEDIM
 10
10.542420100498999
 20
2.0608194486975568
 30
0.5600000000000001
 40
0.09375
  1
3.0000
  0
ENDBLK
  5
1B6
  8
0
  0
BLOCK
  8
0
  2
*U3
 70
     1
 10
0.0
 20
0.0
 30
0.0
  3
*U3
  1

  0
TEXT
  5
1B8
  8
KEE16
 10
11.18489709721875
 20
3.9984413321534511
 30
0.0
 40
0.140625
  1
16-8
 50
90.0
  0
ENDBLK
  5
1BA
  8
0
  0
BLOCK
  8
0
  2
*U4
 70
     1
 10
0.0
 20
0.0
 30
0.0
  3
*U4
  1

  0
TEXT
  5
1BC
  8
KEE16
 10
10.90090359815542
 20
3.9046913321534511
 30
0.0
 40
0.140625
  1
KLAMP
 50
90.0
  0
ENDBLK
  5
1BE
  8
0
  0
BLOCK
  8
0
  2
*U5
 70
     1
 10
0.0
 20
0.0
 30
0.0
  3
*U5
  1

  0
TEXT
  5
1C0
  8
KEE16
 10
10.592367785322841
 20
4.0453163321534511
 30
0.0
 40
0.140625
  1
KEE
 50
90.0
  0
ENDBLK
  5
1C2
  8
0
  0
BLOCK
  8
0
  2
*U6
 70
     1
 10
0.0
 20
0.0
 30
0.0
  3
*U6
  1

  0
TEXT
  5
1C4
  8
KEE15
 10
12.242022027415461
 20
4.2128842692138182
 30
0.0
 40
0.0006
  1
KEE KLAMP 15-8
  0
ENDBLK
  5
1C6
  8
0
  0
ENDSEC
  0
SECTION
  2
ENTITIES
  0
POLYLINE
  5
1E
  8
AM_VIEWS
 66
     1
 10
0.0
 20
0.0
 30
0.0
  0
VERTEX
  5
16C
  8
AM_VIEWS
 10
7.4468608536136811
 20
2.0269792435034559
 30
0.0
  0
VERTEX
  5
16D
  8
AM_VIEWS
 10
7.4468608536136811
 20
5.7914565242279368
 30
0.0
  0
VERTEX
  5
16E
  8
AM_VIEWS
 10
12.68931296759567
 20
5.7914565242279368
 30
0.0
  0
VERTEX
  5
16F
  8
AM_VIEWS
 10
12.68931296759567
 20
2.0269792435034559
 30
0.0
  0
VERTEX
  5
170
  8
AM_VIEWS
 10
7.4468608536136811
 20
2.0269792435034559
 30
0.0
  0
SEQEND
  5
171
  8
AM_VIEWS
  0
LINE
  5
20
  8
KEE16
 10
10.620545100498999
 20
2.9085257387404591
 30
0.0
 11
10.620545100498999
 21
2.6217653326195189
 31
0.0
  0
LINE
  5
22
  8
KEE16
 10
10.245545100498999
 20
2.9085257387404591
 30
0.0
 11
10.245545100498999
 21
2.6217653326195189
 31
0.0
  0
LINE
  5
23
  8
KEE16
 10
10.620545100498999
 20
2.9085257387404591
 30
0.0
 11
10.620545100498999
 21
3.1748523263428412
 31
0.0
  0
LINE
  5
24
  8
KEE16
 10
10.245545100498999
 20
2.9085257387404591
 30
0.0
 11
10.245545100498999
 21
3.1748523263428412
 31
0.0
  0
ARC
  5
25
  8
KEE16
 10
-11.615545100499
 20
4.2885257387404607
 30
0.0000000000000002
 40
0.40625
210
0.0
220
0.0
230
-1.0
 50
219.0723075591805
 51
320.92769244081961
  0
POLYLINE
  5
26
  8
KEE16
 66
     1
 10
0.0
 20
0.0
 30
0.0
  0
VERTEX
  5
172
  8
KEE16
 10
11.20135655963697
 20
4.2885257387414306
 30
0.0
  0
VERTEX
  5
173
  8
KEE16
 10
11.206817597004941
 20
4.2273234015080297
 30
0.0
  0
VERTEX
  5
174
  8
KEE16
 10
11.22593661416699
 20
4.1589860734287107
 30
0.0
  0
VERTEX
  5
175
  8
KEE16
 10
11.25668183335023
 20
4.0951113215071482
 30
0.0
  0
VERTEX
  5
176
  8
KEE16
 10
11.30015245095629
 20
4.032466098979671
 30
0.0
  0
SEQEND
  5
177
  8
KEE16
  0
CIRCLE
  5
27
  8
KEE16
 10
-11.615545100499
 20
4.2885257387404607
 30
0.0000000000000002
 40
0.3125
210
0.0
220
0.0
230
-1.0
  0
POLYLINE
  5
28
  8
KEE16
 66
     1
 10
0.0
 20
0.0
 30
0.0
  0
VERTEX
  5
178
  8
KEE16
 10
11.20135655963697
 20
4.2885257387394882
 30
0.0
  0
VERTEX
  5
179
  8
KEE16
 10
11.206817597004941
 20
4.3497280759728882
 30
0.0
  0
VERTEX
  5
17A
  8
KEE16
 10
11.22593661416699
 20
4.418065404052208
 30
0.0
  0
VERTEX
  5
17B
  8
KEE16
 10
11.25668183335023
 20
4.4819401559737706
 30
0.0
  0
VERTEX
  5
17C
  8
KEE16
 10
11.30015245095629
 20
4.544585378501246
 30
0.0
  0
SEQEND
  5
17D
  8
KEE16
  0
ARC
  5
29
  8
KEE16
 10
-11.615545100499
 20
4.2885257387404572
 30
0.0000000000000002
 40
0.40625
210
0.0
220
0.0
230
-1.0
 50
39.07230755918043
 51
140.9276924408195
  0
POLYLINE
  5
2A
  8
KEE16
 66
     1
 10
0.0
 20
0.0
 30
0.0
  0
VERTEX
  5
17E
  8
KEE16
 10
12.029733641361039
 20
4.2885257387414306
 30
0.0
  0
VERTEX
  5
17F
  8
KEE16
 10
12.024272603993071
 20
4.2273234015080297
 30
0.0
  0
VERTEX
  5
180
  8
KEE16
 10
12.005153586831019
 20
4.1589860734287107
 30
0.0
  0
VERTEX
  5
181
  8
KEE16
 10
11.97440836764777
 20
4.0951113215071482
 30
0.0
  0
VERTEX
  5
182
  8
KEE16
 10
11.93093775004172
 20
4.032466098979671
 30
0.0
  0
SEQEND
  5
183
  8
KEE16
  0
POLYLINE
  5
2B
  8
KEE16
 66
     1
 10
0.0
 20
0.0
 30
0.0
  0
VERTEX
  5
184
  8
KEE16
 10
12.029733641361039
 20
4.2885257387394882
 30
0.0
  0
VERTEX
  5
185
  8
KEE16
 10
12.024272603993071
 20
4.3497280759728882
 30
0.0
  0
VERTEX
  5
186
  8
KEE16
 10
12.005153586831019
 20
4.418065404052208
 30
0.0
  0
VERTEX
  5
187
  8
KEE16
 10
11.97440836764777
 20
4.4819401559737706
 30
0.0
  0
VERTEX
  5
188
  8
KEE16
 10
11.93093775004172
 20
4.544585378501246
 30
0.0
  0
SEQEND
  5
189
  8
KEE16
  0
POLYLINE
  5
2C
  8
KEE16
 66
     1
 10
0.0
 20
0.0
 30
0.0
  0
VERTEX
  5
18A
  8
KEE16
 10
12.24554510049459
 20
4.2885257387404581
 30
0.0
  0
VERTEX
  5
18B
  8
KEE16
 10
12.245545099361211
 20
4.1375882323316571
 30
0.0
  0
SEQEND
  5
18C
  8
KEE16
  0
POLYLINE
  5
2D
  8
KEE16
 66
     1
 10
0.0
 20
0.0
 30
0.0
  0
VERTEX
  5
18D
  8
KEE16
 10
12.245545099361211
 20
4.4394632451492617
 30
0.0
  0
VERTEX
  5
18E
  8
KEE16
 10
12.24554510049459
 20
4.2885257387404581
 30
0.0
  0
SEQEND
  5
18F
  8
KEE16
  0
LINE
  5
2E
  8
KEE16
 10
7.9080451004990042
 20
4.6947757387404589
 30
0.0
 11
7.9080451004990042
 21
4.5445853785012487
 31
0.0
  0
LINE
  5
2F
  8
KEE16
 10
7.9080451004990042
 20
4.0324660989796728
 30
0.0
 11
7.9080451004990042
 21
3.8822757387404629
 31
0.0
  0
POLYLINE
  5
30
  8
KEE16
 66
     1
 10
0.0
 20
0.0
 30
0.0
  0
VERTEX
  5
190
  8
KEE16
 10
7.9080451004990042
 20
4.2885257387394891
 30
0.0
  0
VERTEX
  5
191
  8
KEE16
 10
7.9080451004990042
 20
4.34972807597289
 30
0.0
  0
VERTEX
  5
192
  8
KEE16
 10
7.9080451004990042
 20
4.4180654040522089
 30
0.0
  0
VERTEX
  5
193
  8
KEE16
 10
7.9080451004990042
 20
4.4819401559737733
 30
0.0
  0
VERTEX
  5
194
  8
KEE16
 10
7.9080451004984091
 20
4.5445853785012487
 30
0.0
  0
SEQEND
  5
195
  8
KEE16
  0
POLYLINE
  5
31
  8
KEE16
 66
     1
 10
0.0
 20
0.0
 30
0.0
  0
VERTEX
  5
196
  8
KEE16
 10
8.0088818733025295
 20
4.6947757387404589
 30
0.0
  0
VERTEX
  5
197
  8
KEE16
 10
8.0680132974334988
 20
4.701869430299852
 30
0.0
  0
VERTEX
  5
198
  8
KEE16
 10
8.1146041261802786
 20
4.7182304973459743
 30
0.0
  0
VERTEX
  5
199
  8
KEE16
 10
8.1570703775147084
 20
4.7434298492384448
 30
0.0
  0
VERTEX
  5
19A
  8
KEE16
 10
8.1929251968653531
 20
4.775577616809545
 30
0.0
  0
VERTEX
  5
19B
  8
KEE16
 10
8.2219512776842834
 20
4.8140033069499442
 30
0.0
  0
VERTEX
  5
19C
  8
KEE16
 10
8.2297145924447577
 20
4.8275882387404589
 30
0.0
  0
SEQEND
  5
19D
  8
KEE16
  0
POLYLINE
  5
32
  8
KEE16
 66
     1
 10
0.0
 20
0.0
 30
0.0
  0
VERTEX
  5
19E
  8
KEE16
 10
8.0955451004990042
 20
3.8667741077153708
 30
0.0
  0
VERTEX
  5
19F
  8
KEE16
 10
8.0660744025620055
 20
3.875645857277854
 30
0.0
  0
VERTEX
  5
1A0
  8
KEE16
 10
8.0088818733025295
 20
3.8822757387404629
 30
0.0
  0
SEQEND
  5
1A1
  8
KEE16
  0
POLYLINE
  5
33
  8
KEE16
 66
     1
 10
0.0
 20
0.0
 30
0.0
  0
VERTEX
  5
1A2
  8
KEE16
 10
7.9080451004990042
 20
4.2885257387414333
 30
0.0
  0
VERTEX
  5
1A3
  8
KEE16
 10
7.9080451004990042
 20
4.2273234015080323
 30
0.0
  0
VERTEX
  5
1A4
  8
KEE16
 10
7.9080451004990042
 20
4.1589860734287134
 30
0.0
  0
VERTEX
  5
1A5
  8
KEE16
 10
7.9080451004990042
 20
4.0951113215071491
 30
0.0
  0
VERTEX
  5
1A6
  8
KEE16
 10
7.9080451004984091
 20
4.0324660989796728
 30
0.0
  0
SEQEND
  5
1A7
  8
KEE16
  0
POLYLINE
  5
34
  8
KEE16
 66
     1
 10
0.0
 20
0.0
 30
0.0
  0
VERTEX
  5
1A8
  8
KEE16
 10
8.0955451004990024
 20
4.2384967825272799
 30
0.0
  0
VERTEX
  5
1A9
  8
KEE16
 10
8.0941631559566396
 20
4.2885257387404616
 30
0.0
  0
SEQEND
  5
1AA
  8
KEE16
  0
POLYLINE
  5
35
  8
KEE16
 66
     1
 10
0.0
 20
0.0
 30
0.0
  0
VERTEX
  5
1AB
  8
KEE16
 10
8.0941631559566396
 20
4.2885257387404616
 30
0.0
  0
VERTEX
  5
1AC
  8
KEE16
 10
8.1054934046715346
 20
4.4394632451492644
 30
0.0
  0
SEQEND
  5
1AD
  8
KEE16
  0
LINE
  5
36
  8
KEE16
 10
8.2455451004990046
 20
3.129910028990933
 30
0.0
 11
8.2455451004990046
 21
2.379910028990933
 31
0.0
  0
LINE
  5
37
  8
KEE16
 10
8.0955451004990042
 20
2.3799100289909321
 30
0.0
 11
8.2455451004990064
 21
2.3799100289909321
 31
0.0
  0
LINE
  5
38
  8
KEE16
 10
8.0955451004990042
 20
3.1299100289909321
 30
0.0
 11
8.0955451004990042
 21
2.3799100289909321
 31
0.0
  0
LINE
  5
39
  8
KEE16
 10
8.2455451004990046
 20
3.129910028990933
 30
0.0
 11
8.2455451004990046
 21
4.2885257387404598
 31
0.0
  0
LINE
  5
3A
  8
KEE16
 10
8.0955451004990042
 20
3.1299100289909321
 30
-0.0000000000000002
 11
8.0955451004990042
 21
4.2885257387404598
 31
-0.0000000000000002
  0
ARC
  5
3B
  8
KEE16
 10
9.2455451004990046
 20
4.2885257387404589
 30
-0.0000000000000002
 40
1.149999999999999
 50
360.0
 51
179.99999999999989
  0
ARC
  5
3C
  8
KEE16
 10
-9.2455451004990046
 20
4.2885257387404589
 30
0.0000000000000002
 40
1.0
210
0.0
220
0.0
230
-1.0
 50
0.0000000000000763
 51
180.0
  0
LINE
  5
3D
  8
KEE16
 10
10.245545100498999
 20
3.1748523263428412
 30
0.0
 11
10.245545100498999
 21
4.2885257387404581
 31
-0.0000000000000001
  0
LINE
  5
3E
  8
KEE16
 10
10.620545100498999
 20
3.1748523263428421
 30
0.0
 11
10.245545100498999
 21
3.1748523263428421
 31
0.0
  0
LINE
  5
3F
  8
KEE16
 10
12.245545100498999
 20
3.138525738740459
 30
0.0
 11
12.245545100498999
 21
4.1375882323316571
 31
0.0000000000000002
  0
LINE
  5
40
  8
KEE16
 10
12.245545100498999
 20
4.4394632451492448
 30
-0.0000000000000001
 11
12.245545100498999
 21
5.4385257387404593
 31
0.0
  0
LINE
  5
41
  8
KEE16
  6
HIDDEN
 10
10.245545100498999
 20
2.7210257387404591
 30
0.0
 11
10.620545100498999
 21
2.7210257387404591
 31
0.0
  0
LINE
  5
44
  8
KEE16
  6
HIDDEN
 10
10.620545100498999
 20
3.0960257387404591
 30
0.0
 11
10.245545100498999
 21
3.0960257387404591
 31
0.0
  0
LINE
  5
45
  8
KEE16
  6
HIDDEN
 10
8.0955451004990042
 20
2.7210257387404591
 30
0.0
 11
8.2455451004990081
 21
2.7210257387404591
 31
0.0
  0
LINE
  5
46
  8
KEE16
  6
HIDDEN
 10
8.2455451004990081
 20
3.0960257387404591
 30
0.0
 11
8.0955451004990042
 21
3.0960257387404591
 31
0.0
  0
LINE
  5
47
  8
KEE16
 10
10.620545100498999
 20
3.138525738740459
 30
0.0
 11
12.245545100498999
 21
3.138525738740459
 31
0.0
  0
LINE
  5
48
  8
KEE16
 10
12.245545100498999
 20
5.4385257387404593
 30
0.0
 11
9.2455451004990046
 21
5.4385257387404584
 31
0.0
  0
LINE
  5
49
  8
KEE16
  6
HIDDEN
 10
8.1388185082459774
 20
4.6010257387404634
 30
0.0
 11
7.9080451004990042
 21
4.6010257387404634
 31
0.0
  0
LINE
  5
4A
  8
KEE16
  6
HIDDEN
 10
7.9080451004990042
 20
3.9760257387404629
 30
0.0
 11
8.0955451004990042
 21
3.9760257387404629
 31
0.0
  0
LINE
  5
4B
  8
KEE16
 10
7.9080451004990042
 20
3.8822757387404629
 30
0.0
 11
8.0088818733025295
 21
3.8822757387404629
 31
0.0
  0
LINE
  5
4C
  8
KEE16
 10
8.0088818733025295
 20
4.6947757387404589
 30
0.0
 11
7.9080451004990042
 21
4.6947757387404589
 31
0.0
  0
LINE
  5
4D
  8
KEE16
  6
HIDDEN
 10
10.245545100498999
 20
3.2885257387404581
 30
0.0
 11
12.245545100498999
 21
3.2885257387404589
 31
0.0
  0
LINE
  5
4E
  8
KEE16
  6
HIDDEN
 10
12.245545100498999
 20
5.2885257387404589
 30
0.0
 11
9.2455451004990046
 21
5.2885257387404581
 31
0.0
  0
LINE
  5
4F
  8
KEE16
 10
10.245545100498999
 20
2.6217653326195189
 30
0.0
 11
10.620545100498999
 21
2.6217653326195189
 31
0.0
  0
LINE
  5
109
  8
KEEDIM
 10
9.2455451004990046
 20
4.2260257387404589
 30
0.5600000000000001
 11
9.2455451004990046
 21
1.9201944486975571
 31
0.5600000000000001
  0
LINE
  5
10A
  8
KEEDIM
 10
12.245545100498999
 20
3.076025738740459
 30
0.5600000000000001
 11
12.245545100498999
 21
1.9201944486975571
 31
0.5600000000000001
  0
LINE
  5
10B
  8
KEEDIM
 10
9.3705451004990046
 20
2.1076944486975568
 30
0.5600000000000001
 11
10.452420100498999
 21
2.1076944486975568
 31
0.5600000000000001
  0
LINE
  5
10C
  8
KEEDIM
 10
12.120545100498999
 20
2.1076944486975568
 30
0.5600000000000001
 11
11.038670100499001
 21
2.1076944486975568
 31
0.5600000000000001
  0
INSERT
  5
10D
  8
KEEDIM
  2
_DOT
 10
9.2455451004990046
 20
2.1076944486975568
 30
0.5600000000000001
 41
0.125
 42
0.125
 43
0.125
 50
180.0
  0
INSERT
  5
10E
  8
KEEDIM
  2
_DOT
 10
12.245545100498999
 20
2.1076944486975568
 30
0.5600000000000001
 41
0.125
 42
0.125
 43
0.125
  0
INSERT
  5
10F
  8
0
  2
*U2
 10
0.0
 20
0.0
 30
0.0
  0
INSERT
  5
139
  8
0
  2
*U3
 10
0.0
 20
0.0
 30
0.0
  0
INSERT
  5
13A
  8
0
  2
*U4
 10
0.0
 20
0.0
 30
0.0
  0
INSERT
  5
13B
  8
0
  2
*U5
 10
0.0
 20
0.0
 30
0.0
  0
INSERT
  5
152
  8
0
  2
*U6
 10
0.0
 20
0.0
 30
0.0
  0
VIEWPORT
  5
C0
 67
     1
  8
0
 10
6.0
 20
4.5
 30
0.0
 40
12.0
 41
9.0
 68
    -1
 69
     1
1001
ACAD
1000
MVIEW
1002
{
1070
    16
1010
0.0
1020
0.0
1030
0.0
1010
0.0
1020
0.0
1030
1.0
1040
0.0
1040
9.0
1040
8.8361344537815114
1040
4.5
1040
50.0
1040
0.0
1040
0.0
1070
     0
1070
   100
1070
     1
1070
     1
1070
     0
1070
     0
1070
     0
1070
     0
1040
0.0
1040
0.0
1040
0.0
1040
0.5
1040
0.5
1040
0.5
1040
0.5
1070
     0
1002
{
1002
}
1002
}
  0
ENDSEC
  0
EOF
