  0
SECTION
  2
HEADER
  9
$ACADVER
  1
AC1009
  9
$INSBASE
 10
3.0
 20
0.0049741520862643
 30
0.0
  9
$EXTMIN
 10
-0.0625
 20
-2.3642777282427421
 30
0.0
  9
$EXTMAX
 10
15.181603977185111
 20
6.7999219428984574
 30
0.5600000000000001
  9
$LIMMIN
 10
0.0
 20
0.0
  9
$LIMMAX
 10
12.0
 20
9.0
  9
$ORTHOMODE
 70
     1
  9
$REGENMODE
 70
     0
  9
$FILLMODE
 70
     1
  9
$QTEXTMODE
 70
     0
  9
$MIRRTEXT
 70
     0
  9
$DRAGMODE
 70
     2
  9
$LTSCALE
 40
0.5
  9
$OSMODE
 70
    55
  9
$ATTMODE
 70
     1
  9
$TEXTSIZE
 40
0.2
  9
$TRACEWID
 40
0.05
  9
$TEXTSTYLE
  7
STANDARD
  9
$CLAYER
  8
0
  9
$CELTYPE
  6
BYLAYER
  9
$CECOLOR
 62
   256
  9
$DIMSCALE
 40
0.0
  9
$DIMASZ
 40
0.125
  9
$DIMEXO
 40
0.0625
  9
$DIMDLI
 40
0.375
  9
$DIMRND
 40
0.0
  9
$DIMDLE
 40
0.0
  9
$DIMEXE
 40
0.1875
  9
$DIMTP
 40
0.0
  9
$DIMTM
 40
0.0
  9
$DIMTXT
 40
0.09375
  9
$DIMCEN
 40
-0.125
  9
$DIMTSZ
 40
0.0
  9
$DIMTOL
 70
     0
  9
$DIMLIM
 70
     0
  9
$DIMTIH
 70
     0
  9
$DIMTOH
 70
     0
  9
$DIMSE1
 70
     0
  9
$DIMSE2
 70
     0
  9
$DIMTAD
 70
     0
  9
$DIMZIN
 70
     3
  9
$DIMBLK
  1

  9
$DIMASO
 70
     0
  9
$DIMSHO
 70
     1
  9
$DIMPOST
  1

  9
$DIMAPOST
  1

  9
$DIMALT
 70
     0
  9
$DIMALTD
 70
     2
  9
$DIMALTF
 40
25.399999999999999
  9
$DIMLFAC
 40
1.0
  9
$DIMTOFL
 70
     1
  9
$DIMTVP
 40
0.0
  9
$DIMTIX
 70
     0
  9
$DIMSOXD
 70
     0
  9
$DIMSAH
 70
     1
  9
$DIMBLK1
  1
DOT
  9
$DIMBLK2
  1
DOT
  9
$DIMSTYLE
  2
STANDARD
  9
$DIMCLRD
 70
     0
  9
$DIMCLRE
 70
     0
  9
$DIMCLRT
 70
     0
  9
$DIMTFAC
 40
1.0
  9
$DIMGAP
 40
0.09375
  9
$LUNITS
 70
     4
  9
$LUPREC
 70
     4
  9
$SKETCHINC
 40
0.1
  9
$FILLETRAD
 40
0.025
  9
$AUNITS
 70
     0
  9
$AUPREC
 70
     4
  9
$MENU
  1
.
  9
$ELEVATION
 40
0.5600000000000001
  9
$PELEVATION
 40
0.0
  9
$THICKNESS
 40
0.0
  9
$LIMCHECK
 70
     0
  9
$BLIPMODE
 70
     0
  9
$CHAMFERA
 40
0.125
  9
$CHAMFERB
 40
0.5
  9
$SKPOLY
 70
     0
  9
$TDCREATE
 40
2451086.9526012731
  9
$TDUPDATE
 40
2453913.5699190861
  9
$TDINDWG
 40
0.098676713
  9
$TDUSRTIMER
 40
0.098676713
  9
$USRTIMER
 70
     1
  9
$ANGBASE
 50
0.0
  9
$ANGDIR
 70
     0
  9
$PDMODE
 70
    34
  9
$PDSIZE
 40
3.0
  9
$PLINEWID
 40
0.0
  9
$COORDS
 70
     1
  9
$SPLFRAME
 70
     0
  9
$SPLINETYPE
 70
     6
  9
$SPLINESEGS
 70
     8
  9
$ATTDIA
 70
     0
  9
$ATTREQ
 70
     1
  9
$HANDLING
 70
     1
  9
$HANDSEED
  5
27E
  9
$SURFTAB1
 70
     6
  9
$SURFTAB2
 70
     6
  9
$SURFTYPE
 70
     6
  9
$SURFU
 70
     6
  9
$SURFV
 70
     6
  9
$UCSNAME
  2

  9
$UCSORG
 10
0.0
 20
0.0
 30
0.0
  9
$UCSXDIR
 10
1.0
 20
0.0
 30
0.0
  9
$UCSYDIR
 10
0.0
 20
1.0
 30
0.0
  9
$PUCSNAME
  2

  9
$PUCSORG
 10
0.0
 20
0.0
 30
0.0
  9
$PUCSXDIR
 10
1.0
 20
0.0
 30
0.0
  9
$PUCSYDIR
 10
0.0
 20
1.0
 30
0.0
  9
$USERI1
 70
     0
  9
$USERI2
 70
     0
  9
$USERI3
 70
     0
  9
$USERI4
 70
     0
  9
$USERI5
 70
     0
  9
$USERR1
 40
0.0
  9
$USERR2
 40
0.0
  9
$USERR3
 40
0.0
  9
$USERR4
 40
0.0
  9
$USERR5
 40
0.0
  9
$WORLDVIEW
 70
     1
  9
$SHADEDGE
 70
     3
  9
$SHADEDIF
 70
    70
  9
$TILEMODE
 70
     1
  9
$MAXACTVP
 70
    48
  9
$PLIMCHECK
 70
     0
  9
$PEXTMIN
 10
8.7100597932905721
 20
1.6217201882531489
 30
0.0
  9
$PEXTMAX
 10
15.181603977185111
 20
6.7999219428984574
 30
0.0
  9
$PLIMMIN
 10
0.0
 20
0.0
  9
$PLIMMAX
 10
12.0
 20
9.0
  9
$UNITMODE
 70
     0
  9
$VISRETAIN
 70
     1
  9
$PLINEGEN
 70
     0
  9
$PSLTSCALE
 70
     1
  0
ENDSEC
  0
SECTION
  2
TABLES
  0
TABLE
  2
VPORT
 70
     2
  0
VPORT
  2
*ACTIVE
 70
     0
 10
0.0
 20
0.0
 11
1.0
 21
1.0
 12
3.9783548290574471
 22
0.3543408001628157
 13
0.0
 23
0.0
 14
0.5
 24
0.5
 15
0.5
 25
0.5
 16
0.0
 26
0.0000000000000001
 36
0.9999999999999998
 17
0.0
 27
0.0
 37
0.0
 40
6.741419278762856
 41
2.1654275092936799
 42
50.0
 43
0.0
 44
0.0
 50
0.0
 51
0.0
 71
     0
 72
   100
 73
     1
 74
     1
 75
     0
 76
     0
 77
     0
 78
     0
  0
ENDTAB
  0
TABLE
  2
LTYPE
 70
    17
  0
LTYPE
  2
CONTINUOUS
 70
     0
  3
Solid line
 72
    65
 73
     0
 40
0.0
  0
LTYPE
  2
HIDDEN
 70
     0
  3
__ __ __ __ __ __ __ __ __ __ __ __ __ __ __ __
 72
    65
 73
     2
 40
0.375
 49
0.25
 49
-0.125
  0
LTYPE
  2
PHANTOM2
 70
     0
  3
___ _ _ ___ _ _ ___ _ _ ___ _ _ ___ _ _ ___ _ _
 72
    65
 73
     6
 40
1.25
 49
0.625
 49
-0.125
 49
0.125
 49
-0.125
 49
0.125
 49
-0.125
  0
LTYPE
  2
CENTER
 70
     0
  3
____ _ ____ _ ____ _ ____ _ ____ _ ____ _ ____ 
 72
    65
 73
     4
 40
2.0
 49
1.25
 49
-0.25
 49
0.25
 49
-0.25
  0
LTYPE
  2
ACJISTGB
 70
     0
  3
__ . . __ . .
 72
    65
 73
     6
 40
9.0
 49
4.0
 49
-1.0
 49
1.0
 49
-1.0
 49
1.0
 49
-1.0
  0
LTYPE
  2
ACJISTGL
 70
     0
  3
_ _ _ _ _
 72
    65
 73
     2
 40
3.0
 49
2.0
 49
-1.0
  0
LTYPE
  2
ACANSTGB
 70
     0
  3
__ . . __ . .
 72
    65
 73
     6
 40
0.35433070866
 49
0.15748031496
 49
-0.03937007874
 49
0.03937007874
 49
-0.03937007874
 49
0.03937007874
 49
-0.03937007874
  0
LTYPE
  2
ACANSTGL
 70
     0
  3
_ _ _ _ _
 72
    65
 73
     2
 40
0.11811023622
 49
0.07874015748
 49
-0.03937007874
  0
LTYPE
  2
ACBSIWELD
 70
     0
  3
_ _ _ _ _
 72
    65
 73
     2
 40
2.0
 49
2.0
 49
-1.0
  0
LTYPE
  2
ACBSITGB
 70
     0
  3
__ . . __ . .
 72
    65
 73
     6
 40
9.0
 49
4.0
 49
-1.0
 49
1.0
 49
-1.0
 49
1.0
 49
-1.0
  0
LTYPE
  2
ACBSITGL
 70
     0
  3
_ _ _ _ _
 72
    65
 73
     2
 40
3.0
 49
2.0
 49
-1.0
  0
LTYPE
  2
ACDINWELD
 70
     0
  3
_ _ _ _ _
 72
    65
 73
     2
 40
2.0
 49
2.0
 49
-1.0
  0
LTYPE
  2
ACDINTGB
 70
     0
  3
__ . . __ . .
 72
    65
 73
     6
 40
9.0
 49
4.0
 49
-1.0
 49
1.0
 49
-1.0
 49
1.0
 49
-1.0
  0
LTYPE
  2
ACDINTGL
 70
     0
  3
_ _ _ _ _
 72
    65
 73
     2
 40
3.0
 49
2.0
 49
-1.0
  0
LTYPE
  2
ACISOWELD
 70
     0
  3
_ _ _ _ _
 72
    65
 73
     2
 40
2.0
 49
2.0
 49
-1.0
  0
LTYPE
  2
ACISOTGB
 70
     0
  3
__ . . __ . .
 72
    65
 73
     6
 40
9.0
 49
4.0
 49
-1.0
 49
1.0
 49
-1.0
 49
1.0
 49
-1.0
  0
LTYPE
  2
ACISOTGL
 70
     0
  3
_ _ _ _ _
 72
    65
 73
     2
 40
3.0
 49
2.0
 49
-1.0
  0
ENDTAB
  0
TABLE
  2
LAYER
 70
    10
  0
LAYER
  2
0
 70
     0
 62
     7
  6
CONTINUOUS
  0
LAYER
  2
AM_VIEWS
 70
     0
 62
    -7
  6
CONTINUOUS
  0
LAYER
  2
AM_VIS
 70
     0
 62
     7
  6
CONTINUOUS
  0
LAYER
  2
AM_HID
 70
     0
 62
     7
  6
HIDDEN
  0
LAYER
  2
AM_BM
 70
     0
 62
     7
  6
CONTINUOUS
  0
LAYER
  2
AM_BL
 70
     0
 62
     7
  6
CONTINUOUS
  0
LAYER
  2
AM_PARDIM
 70
     0
 62
     3
  6
CONTINUOUS
  0
LAYER
  2
AM_REFDIM
 70
     0
 62
     4
  6
CONTINUOUS
  0
LAYER
  2
KEE19
 70
     0
 62
     7
  6
CONTINUOUS
  0
LAYER
  2
DIMKEE
 70
     0
 62
     7
  6
CONTINUOUS
  0
ENDTAB
  0
TABLE
  2
STYLE
 70
    11
  0
STYLE
  2
STANDARD
 70
     0
 40
0.0
 41
1.0
 50
0.0
 71
     0
 42
0.2
  3
txt
  4

  0
STYLE
  2
ACJISTS
 70
     0
 40
1.0
 41
1.0
 50
0.0
 71
     0
 42
0.2
  3
isocp.shx
  4
bigfont.shx
  0
STYLE
  2
ACJISGDT
 70
     0
 40
0.0
 41
1.0
 50
0.0
 71
     0
 42
0.2
  3
amgdt.shx
  4

  0
STYLE
  2
ACANSTSB
 70
     0
 40
1.0
 41
1.0
 50
0.0
 71
     0
 42
0.2
  3
romans.shx
  4

  0
STYLE
  2
ACANSGDT
 70
     0
 40
0.0
 41
1.0
 50
0.0
 71
     0
 42
0.2
  3
amgdt.shx
  4

  0
STYLE
  2
ACBSITS
 70
     0
 40
1.0
 41
1.0
 50
0.0
 71
     0
 42
0.2
  3
isocp.shx
  4

  0
STYLE
  2
ACBSIGDT
 70
     0
 40
0.0
 41
1.0
 50
0.0
 71
     0
 42
0.2
  3
amgdt.shx
  4

  0
STYLE
  2
ACDINTS
 70
     0
 40
1.0
 41
1.0
 50
0.0
 71
     0
 42
0.2
  3
isocp.shx
  4

  0
STYLE
  2
ACDINGDT
 70
     0
 40
0.0
 41
1.0
 50
0.0
 71
     0
 42
0.2
  3
amgdt.shx
  4

  0
STYLE
  2
ACISOTS
 70
     0
 40
1.0
 41
1.0
 50
0.0
 71
     0
 42
0.2
  3
isocp.shx
  4

  0
STYLE
  2
ACISOGDT
 70
     0
 40
0.0
 41
1.0
 50
0.0
 71
     0
 42
0.2
  3
amgdt.shx
  4

  0
ENDTAB
  0
TABLE
  2
VIEW
 70
     0
  0
ENDTAB
  0
TABLE
  2
UCS
 70
     0
  0
ENDTAB
  0
TABLE
  2
APPID
 70
     5
  0
APPID
  2
ACAD
 70
     0
  0
APPID
  2
MCAD_NO_VIS
 70
     0
  0
APPID
  2
AD_DRAW
 70
     0
  0
APPID
  2
DESIGNERASSEMBLIES
 70
     0
  0
APPID
  2
ASURF_PCURVE_APPNAME
 70
     0
  0
ENDTAB
  0
TABLE
  2
DIMSTYLE
 70
     1
  0
DIMSTYLE
  2
STANDARD
 70
     0
  3

  4

  5

  6

  7

 40
1.0
 41
0.18
 42
0.0625
 43
0.38
 44
0.18
 45
0.0
 46
0.0
 47
0.0
 48
0.0
140
0.18
141
0.09
142
0.0
143
25.399999999999999
144
1.0
145
0.0
146
1.0
147
0.09
 71
     0
 72
     0
 73
     1
 74
     1
 75
     0
 76
     0
 77
     0
 78
     0
170
     0
171
     2
172
     0
173
     0
174
     0
175
     0
176
     0
177
     0
178
     0
  0
ENDTAB
  0
ENDSEC
  0
SECTION
  2
BLOCKS
  0
BLOCK
  8
0
  2
$MODEL_SPACE
 70
     0
 10
0.0
 20
0.0
 30
0.0
  3
$MODEL_SPACE
  1

  0
ENDBLK
  5
7
  8
0
  0
BLOCK
 67
     1
  8
0
  2
$PAPER_SPACE
 70
     0
 10
0.0
 20
0.0
 30
0.0
  3
$PAPER_SPACE
  1

  0
ENDBLK
  5
A
 67
     1
  8
0
  0
BLOCK
  8
0
  2
*U0
 70
     1
 10
0.0
 20
0.0
 30
0.0
  3
*U0
  1

  0
ENDBLK
  5
D8
  8
0
  0
BLOCK
  8
0
  2
_DOT
 70
     0
 10
0.0
 20
0.0
 30
0.0
  3
_DOT
  1

  0
POLYLINE
  5
136
  8
0
  6
BYBLOCK
 62
     0
 66
     1
 10
0.0
 20
0.0
 30
0.0
 70
     1
 40
0.5
 41
0.5
  0
VERTEX
  5
263
  8
0
  6
BYBLOCK
 62
     0
 10
-0.25
 20
0.0
 30
0.0
 42
1.0
  0
VERTEX
  5
264
  8
0
  6
BYBLOCK
 62
     0
 10
0.25
 20
0.0
 30
0.0
 42
1.0
  0
SEQEND
  5
265
  8
0
  6
BYBLOCK
 62
     0
  0
LINE
  5
13A
  8
0
  6
BYBLOCK
 62
     0
 10
-0.5
 20
0.0
 30
0.0
 11
-1.0
 21
0.0
 31
0.0
  0
ENDBLK
  5
13B
  8
0
  0
BLOCK
  8
0
  2
*U2
 70
     1
 10
0.0
 20
0.0
 30
0.0
  3
*U2
  1

  0
TEXT
  5
267
  8
DIMKEE
 10
1.3671875
 20
-2.2236527282427421
 30
0.5600000000000001
 40
0.09375
  1
3.50
  0
ENDBLK
  5
269
  8
0
  0
BLOCK
  8
0
  2
*U3
 70
     1
 10
0.0
 20
0.0
 30
0.0
  3
*U3
  1

  0
TEXT
  5
26B
  8
KEE19
 10
0.0001727163222405
 20
-0.0035230725124378
 30
0.0
 40
0.0006
  1
KEE KLAMP 15-8
 50
90.0
  0
ENDBLK
  5
26D
  8
0
  0
BLOCK
  8
0
  2
*U4
 70
     1
 10
0.0
 20
0.0
 30
0.0
  3
*U4
  1

  0
TEXT
  5
26F
  8
KEE19
 10
0.2018753139112981
 20
0.214615653382606
 30
0.0
 40
0.140625
  1
19-8
 50
270.0
  0
ENDBLK
  5
271
  8
0
  0
BLOCK
  8
0
  2
*U5
 70
     1
 10
0.0
 20
0.0
 30
0.0
  3
*U5
  1

  0
TEXT
  5
273
  8
KEE19
 10
0.4858688129746228
 20
0.308365653382606
 30
0.0
 40
0.140625
  1
KLAMP
 50
270.0
  0
ENDBLK
  5
275
  8
0
  0
BLOCK
  8
0
  2
*U6
 70
     1
 10
0.0
 20
0.0
 30
0.0
  3
*U6
  1

  0
TEXT
  5
277
  8
KEE19
 10
0.7944046258072071
 20
0.167740653382606
 30
0.0
 40
0.140625
  1
KEE
 50
270.0
  0
ENDBLK
  5
279
  8
0
  0
ENDSEC
  0
SECTION
  2
ENTITIES
  0
POLYLINE
  5
1E
  8
AM_VIEWS
 66
     1
 10
0.0
 20
0.0
 30
0.0
  0
VERTEX
  5
199
  8
AM_VIEWS
 10
8.7100597932905721
 20
1.6217201882531489
 30
0.0
  0
VERTEX
  5
19A
  8
AM_VIEWS
 10
8.7100597932905721
 20
6.7999219428984574
 30
0.0
  0
VERTEX
  5
19B
  8
AM_VIEWS
 10
15.181603977185111
 20
6.7999219428984574
 30
0.0
  0
VERTEX
  5
19C
  8
AM_VIEWS
 10
15.181603977185111
 20
1.6217201882531489
 30
0.0
  0
VERTEX
  5
19D
  8
AM_VIEWS
 10
8.7100597932905721
 20
1.6217201882531489
 30
0.0
  0
SEQEND
  5
19E
  8
AM_VIEWS
  0
LINE
  5
20
  8
KEE19
 10
2.331250000000002
 20
1.163283129647952
 30
0.0
 11
2.6899477983429341
 21
1.3703774000789699
 31
0.0
  0
LINE
  5
22
  8
KEE19
 10
2.331250000000002
 20
1.163283129647952
 30
0.0
 11
1.4866261491401671
 21
0.6756393219900483
 31
0.0
  0
LINE
  5
23
  8
KEE19
  6
HIDDEN
 10
1.4866261491401671
 20
0.6756393219900483
 30
0.0
 11
1.39208544491243
 21
0.6210562209547869
 31
0.0
  0
LINE
  5
26
  8
KEE19
  6
HIDDEN
 10
1.39208544491243
 20
0.004974152086263
 30
0.0
 11
1.39208544491243
 21
0.6210562209547869
 31
0.0
  0
LINE
  5
27
  8
KEE19
 10
2.0
 20
0.004974152086263
 30
0.0
 11
1.850000000000001
 21
0.004974152086263
 31
0.0
  0
LINE
  5
28
  8
KEE19
  6
HIDDEN
 10
3.2704145550875672
 20
1.705510038341115
 30
0.0
 11
3.017716611846601
 21
1.559614812787278
 31
0.0
  0
LINE
  5
29
  8
KEE19
 10
3.0177166118466028
 20
1.559614812787278
 30
0.0
 11
2.6899477983429341
 21
1.370377400078971
 31
0.0
  0
LINE
  5
2A
  8
KEE19
  6
HIDDEN
 10
3.2704145550875672
 20
1.705510038341115
 30
0.0
 11
3.8039572775437849
 21
1.397469003906854
 31
0.0
  0
LINE
  5
2B
  8
KEE19
 10
3.5749999999999988
 20
1.0009033664383691
 30
0.0
 11
3.5
 21
0.8709995558707031
 31
0.0
  0
ARC
  5
2C
  8
KEE19
 10
3.0
 20
0.0049741520862643
 30
0.0
 40
1.149999999999999
 50
127.5418313198843
 51
180.0
  0
POLYLINE
  5
2D
  8
KEE19
 66
     1
 10
0.0
 20
0.0
 30
0.0
  0
VERTEX
  5
19F
  8
KEE19
 10
2.4243090277288171
 20
1.002100165518677
 30
0.0
  0
VERTEX
  5
1A0
  8
KEE19
 10
2.299258437152365
 20
0.9168191290959835
 30
0.0
  0
SEQEND
  5
1A1
  8
KEE19
  0
POLYLINE
  5
2E
  8
KEE19
 66
     1
 10
0.0
 20
0.0
 30
0.0
  0
VERTEX
  5
1A2
  8
KEE19
 10
2.560689867020165
 20
1.0677566355047861
 30
0.0
  0
VERTEX
  5
1A3
  8
KEE19
 10
2.4243090277288171
 20
1.002100165518677
 30
0.0
  0
SEQEND
  5
1A4
  8
KEE19
  0
POLYLINE
  5
2F
  8
KEE19
 66
     1
 10
0.0
 20
0.0
 30
0.0
  0
VERTEX
  5
1A5
  8
KEE19
 10
2.9589265652004251
 20
1.1542404280004941
 30
0.0
  0
VERTEX
  5
1A6
  8
KEE19
 10
2.9389995856125402
 20
1.154322950696725
 30
0.0
  0
VERTEX
  5
1A7
  8
KEE19
 10
2.8898276272048871
 20
1.161429900895405
 30
0.0
  0
VERTEX
  5
1A8
  8
KEE19
 10
2.843031978236338
 20
1.1781199420092749
 30
0.0
  0
VERTEX
  5
1A9
  8
KEE19
 10
2.805071926231109
 20
1.20037397718936
 30
0.0
  0
VERTEX
  5
1AA
  8
KEE19
 10
2.7716161830375361
 20
1.2289236084697861
 30
0.0
  0
SEQEND
  5
1AB
  8
KEE19
  0
POLYLINE
  5
30
  8
KEE19
 66
     1
 10
0.0
 20
0.0
 30
0.0
  0
VERTEX
  5
1AC
  8
KEE19
 10
2.7716161830375361
 20
1.2289236084697861
 30
0.0
  0
VERTEX
  5
1AD
  8
KEE19
 10
2.7678291170896272
 20
1.232865680250371
 30
0.0
  0
VERTEX
  5
1AE
  8
KEE19
 10
2.7334912066891892
 20
1.2790809227644591
 30
0.0
  0
SEQEND
  5
1AF
  8
KEE19
  0
POLYLINE
  5
31
  8
KEE19
 66
     1
 10
0.0
 20
0.0
 30
0.0
  0
VERTEX
  5
1B0
  8
KEE19
 10
2.0298455661143371
 20
0.8728309227644594
 30
0.0
  0
VERTEX
  5
1B1
  8
KEE19
 10
2.0532679610827751
 20
0.8180747615253928
 30
0.0
  0
VERTEX
  5
1B2
  8
KEE19
 10
2.062394275761203
 20
0.7695453867242496
 30
0.0
  0
VERTEX
  5
1B3
  8
KEE19
 10
2.0618041225306341
 20
0.7201688583189047
 30
0.0
  0
VERTEX
  5
1B4
  8
KEE19
 10
2.0518907488144271
 20
0.6730437901275939
 30
0.0
  0
VERTEX
  5
1B5
  8
KEE19
 10
2.0331261654043571
 20
0.6286936216959007
 30
0.0
  0
VERTEX
  5
1B6
  8
KEE19
 10
2.0252429267453289
 20
0.6151779280004975
 30
0.0
  0
SEQEND
  5
1B7
  8
KEE19
  0
POLYLINE
  5
32
  8
KEE19
 66
     1
 10
0.0
 20
0.0
 30
0.0
  0
VERTEX
  5
1B8
  8
KEE19
 10
2.7337953015874681
 20
1.1237391222846931
 30
0.0
  0
VERTEX
  5
1B9
  8
KEE19
 10
2.587456102743857
 20
1.095629676535971
 30
0.0
  0
VERTEX
  5
1BA
  8
KEE19
 10
2.470147464492745
 20
1.065950963352625
 30
0.0
  0
VERTEX
  5
1BB
  8
KEE19
 10
2.4048045055090639
 20
1.0358829889806449
 30
0.0
  0
SEQEND
  5
1BC
  8
KEE19
  0
POLYLINE
  5
33
  8
KEE19
 66
     1
 10
0.0
 20
0.0
 30
0.0
  0
VERTEX
  5
1BD
  8
KEE19
 10
2.4048045055090639
 20
1.0358829889806449
 30
0.0
  0
VERTEX
  5
1BE
  8
KEE19
 10
2.3032284424308989
 20
0.9537401199638178
 30
0.0
  0
VERTEX
  5
1BF
  8
KEE19
 10
2.1642234641502869
 20
0.7948966686175086
 30
0.0
  0
SEQEND
  5
1C0
  8
KEE19
  0
ARC
  5
34
  8
KEE19
 10
3.0
 20
0.0049741520862643
 30
0.0
 40
1.149999999999999
 50
180.0
 51
112.4581686801164
  0
CIRCLE
  5
35
  8
KEE19
 10
-3.0
 20
0.0049741520862643
 30
0.0
 40
1.0
210
0.0
220
0.0
230
-1.0
  0
LINE
  5
36
  8
KEE19
 10
1.7791405438452561
 20
0.0049741520862652
 30
0.0
 11
1.850000000000001
 21
0.0049741520862652
 31
0.0
  0
POLYLINE
  5
37
  8
KEE19
 66
     1
 10
0.0
 20
0.0
 30
0.0
  0
VERTEX
  5
1C1
  8
KEE19
 10
2.3411796969309888
 20
-0.9376051858286179
 30
0.0
  0
VERTEX
  5
1C2
  8
KEE19
 10
2.073854118352743
 20
-1.0919456805820409
 30
0.0
  0
VERTEX
  5
1C3
  8
KEE19
 10
1.98191657165999
 20
-1.145025847913735
 30
0.0
  0
SEQEND
  5
1C4
  8
KEE19
  0
LINE
  5
38
  8
KEE19
  6
HIDDEN
 10
1.39208544491243
 20
0.0049741520862652
 30
0.0
 11
1.7791405438452561
 21
0.0049741520862652
 31
0.0
  0
LINE
  5
39
  8
KEE19
  6
HIDDEN
 10
1.955467524553721
 20
-0.9950258479137371
 30
0.0
 11
1.39208544491243
 21
-0.9950258479137371
 31
0.0
  0
POLYLINE
  5
3A
  8
KEE19
 66
     1
 10
0.0
 20
0.0
 30
0.0
  0
VERTEX
  5
1C5
  8
KEE19
 10
1.7791405438452561
 20
0.0049741520862652
 30
0.0
  0
VERTEX
  5
1C6
  8
KEE19
 10
1.8336285774509959
 20
-0.3040428422886818
 30
0.0
  0
VERTEX
  5
1C7
  8
KEE19
 10
1.8827829426869509
 20
-0.5828111002062073
 30
0.0
  0
VERTEX
  5
1C8
  8
KEE19
 10
1.921792067805228
 20
-0.804042842288682
 30
0.0
  0
VERTEX
  5
1C9
  8
KEE19
 10
1.9468374678466911
 20
-0.946082364208889
 30
0.0
  0
VERTEX
  5
1CA
  8
KEE19
 10
1.955467524553721
 20
-0.9950258479137366
 30
0.0
  0
SEQEND
  5
1CB
  8
KEE19
  0
POLYLINE
  5
3B
  8
KEE19
 66
     1
 10
0.0
 20
0.0
 30
0.0
  0
VERTEX
  5
1CC
  8
KEE19
 10
1.5763645160305231
 20
1.1549741520862631
 30
0.0
  0
VERTEX
  5
1CD
  8
KEE19
 10
1.5942587873137091
 20
1.0534906966826161
 30
0.0
  0
VERTEX
  5
1CE
  8
KEE19
 10
1.6447833881515499
 20
0.7669514465075316
 30
0.0
  0
SEQEND
  5
1CF
  8
KEE19
  0
POLYLINE
  5
3C
  8
KEE19
 66
     1
 10
0.0
 20
0.0
 30
0.0
  0
VERTEX
  5
1D0
  8
KEE19
 10
1.6447833881515499
 20
0.7669514465075316
 30
0.0
  0
VERTEX
  5
1D1
  8
KEE19
 10
1.65267055644859
 20
0.7222210923362651
 30
0.0
  0
VERTEX
  5
1D2
  8
KEE19
 10
1.660884179369793
 20
0.675639321990047
 30
0.0
  0
SEQEND
  5
1D3
  8
KEE19
  0
POLYLINE
  5
3D
  8
KEE19
 66
     1
 10
0.0
 20
0.0
 30
0.0
  0
VERTEX
  5
1D4
  8
KEE19
 10
1.660884179369793
 20
0.675639321990047
 30
0.0
  0
VERTEX
  5
1D5
  8
KEE19
 10
1.717026480026955
 20
0.3572405129615719
 30
0.0
  0
VERTEX
  5
1D6
  8
KEE19
 10
1.7791405438452561
 20
0.0049741520862652
 30
0.0
  0
SEQEND
  5
1D7
  8
KEE19
  0
LINE
  5
3E
  8
KEE19
 10
1.981916571659992
 20
-1.1450258479137361
 30
0.0
 11
1.955467524553721
 21
-0.9950258479137366
 31
0.0
  0
LINE
  5
3F
  8
KEE19
  6
HIDDEN
 10
1.39208544491243
 20
0.0049741520862652
 30
0.0
 11
1.39208544491243
 21
-0.9950258479137366
 31
0.0
  0
POLYLINE
  5
40
  8
KEE19
  6
HIDDEN
 66
     1
 10
0.0
 20
0.0
 30
0.0
  0
VERTEX
  5
1D8
  8
KEE19
  6
HIDDEN
 10
0.3175000000000008
 20
1.0049741520862621
 30
0.0
  0
VERTEX
  5
1D9
  8
KEE19
  6
HIDDEN
 10
0.3234743395633188
 20
1.0031064669619241
 30
0.0
  0
VERTEX
  5
1DA
  8
KEE19
  6
HIDDEN
 10
0.3414395154018948
 20
0.9977535350669409
 30
0.0
  0
VERTEX
  5
1DB
  8
KEE19
  6
HIDDEN
 10
0.3708826919003414
 20
0.989605772203413
 30
0.0
  0
VERTEX
  5
1DC
  8
KEE19
  6
HIDDEN
 10
0.4090291308792047
 20
0.9802545604817151
 30
0.0
  0
VERTEX
  5
1DD
  8
KEE19
  6
HIDDEN
 10
0.4554675359079781
 20
0.9708066833111481
 30
0.0
  0
VERTEX
  5
1DE
  8
KEE19
  6
HIDDEN
 10
0.5100440533368378
 20
0.9624359942188259
 30
0.0
  0
VERTEX
  5
1DF
  8
KEE19
  6
HIDDEN
 10
0.5696170088022399
 20
0.9568573702876502
 30
0.0
  0
VERTEX
  5
1E0
  8
KEE19
  6
HIDDEN
 10
0.629999999999999
 20
0.9548919116844306
 30
0.0
  0
SEQEND
  5
1E1
  8
KEE19
  6
HIDDEN
  0
POLYLINE
  5
41
  8
KEE19
  6
HIDDEN
 66
     1
 10
0.0
 20
0.0
 30
0.0
  0
VERTEX
  5
1E2
  8
KEE19
  6
HIDDEN
 10
0.942499999999999
 20
1.0049741520862621
 30
0.0
  0
VERTEX
  5
1E3
  8
KEE19
  6
HIDDEN
 10
0.9365256604366791
 20
1.0031064669619241
 30
0.0
  0
VERTEX
  5
1E4
  8
KEE19
  6
HIDDEN
 10
0.918560484598105
 20
0.9977535350669409
 30
0.0
  0
VERTEX
  5
1E5
  8
KEE19
  6
HIDDEN
 10
0.8891173080996583
 20
0.989605772203413
 30
0.0
  0
VERTEX
  5
1E6
  8
KEE19
  6
HIDDEN
 10
0.8509708691207933
 20
0.9802545604817151
 30
0.0
  0
VERTEX
  5
1E7
  8
KEE19
  6
HIDDEN
 10
0.80453246409202
 20
0.9708066833111481
 30
0.0
  0
VERTEX
  5
1E8
  8
KEE19
  6
HIDDEN
 10
0.7499559466631603
 20
0.9624359942188259
 30
0.0
  0
VERTEX
  5
1E9
  8
KEE19
  6
HIDDEN
 10
0.6903829911977581
 20
0.9568573702876502
 30
0.0
  0
VERTEX
  5
1EA
  8
KEE19
  6
HIDDEN
 10
0.629999999999999
 20
0.9548919116844306
 30
0.0
  0
SEQEND
  5
1EB
  8
KEE19
  6
HIDDEN
  0
POLYLINE
  5
42
  8
KEE19
 66
     1
 10
0.0
 20
0.0
 30
0.0
  0
VERTEX
  5
1EC
  8
KEE19
 10
1.0441885408620339
 20
1.3424741520862631
 30
0.0
  0
VERTEX
  5
1ED
  8
KEE19
 10
1.0387275034940651
 20
1.3424741520862631
 30
0.0
  0
VERTEX
  5
1EE
  8
KEE19
 10
1.0196084863320141
 20
1.3424741520862631
 30
0.0
  0
VERTEX
  5
1EF
  8
KEE19
 10
0.9888632671487692
 20
1.3424741520862631
 30
0.0
  0
VERTEX
  5
1F0
  8
KEE19
 10
0.9453926495427147
 20
1.3424741520868579
 30
0.0
  0
SEQEND
  5
1F1
  8
KEE19
  0
POLYLINE
  5
43
  8
KEE19
 66
     1
 10
0.0
 20
0.0
 30
0.0
  0
VERTEX
  5
1F2
  8
KEE19
 10
1.286249999999999
 20
1.1549741520862631
 30
0.0
  0
VERTEX
  5
1F3
  8
KEE19
 10
1.252082507962839
 20
1.1573199930501361
 30
0.0
  0
VERTEX
  5
1F4
  8
KEE19
 10
1.205573459652503
 20
1.1683493523767661
 30
0.0
  0
VERTEX
  5
1F5
  8
KEE19
 10
1.1635232630299741
 20
1.1871712382044499
 30
0.0
  0
VERTEX
  5
1F6
  8
KEE19
 10
1.125640758396018
 20
1.213389519322059
 30
0.0
  0
VERTEX
  5
1F7
  8
KEE19
 10
1.0953551131917321
 20
1.24354578548622
 30
0.0
  0
VERTEX
  5
1F8
  8
KEE19
 10
1.0706484757180621
 20
1.278419884172038
 30
0.0
  0
VERTEX
  5
1F9
  8
KEE19
 10
1.0478003076148861
 20
1.329862607025295
 30
0.0
  0
VERTEX
  5
1FA
  8
KEE19
 10
1.0441885408620339
 20
1.3424741520862631
 30
0.0
  0
SEQEND
  5
1FB
  8
KEE19
  0
LINE
  5
44
  8
KEE19
 10
0.3146073504572833
 20
1.342474152086264
 30
0.0
 11
0.9453926495427165
 21
1.342474152086264
 31
0.0
  0
POLYLINE
  5
45
  8
KEE19
 66
     1
 10
0.0
 20
0.0
 30
0.0
  0
VERTEX
  5
1FC
  8
KEE19
 10
0.0000000000044178
 20
1.156356096628627
 30
0.0
  0
VERTEX
  5
1FD
  8
KEE19
 10
0.0079174920371585
 20
1.1573199930501361
 30
0.0
  0
VERTEX
  5
1FE
  8
KEE19
 10
0.054426540347496
 20
1.168349352376767
 30
0.0
  0
VERTEX
  5
1FF
  8
KEE19
 10
0.0964767369700219
 20
1.1871712382044499
 30
0.0
  0
VERTEX
  5
200
  8
KEE19
 10
0.1343592416039794
 20
1.213389519322059
 30
0.0
  0
VERTEX
  5
201
  8
KEE19
 10
0.1646448868082651
 20
1.24354578548622
 30
0.0
  0
VERTEX
  5
202
  8
KEE19
 10
0.1893515242819372
 20
1.278419884172038
 30
0.0
  0
VERTEX
  5
203
  8
KEE19
 10
0.212199692385111
 20
1.329862607025297
 30
0.0
  0
VERTEX
  5
204
  8
KEE19
 10
0.2158114591379636
 20
1.3424741520862631
 30
0.0
  0
SEQEND
  5
205
  8
KEE19
  0
POLYLINE
  5
46
  8
KEE19
 66
     1
 10
0.0
 20
0.0
 30
0.0
  0
VERTEX
  5
206
  8
KEE19
 10
0.2158114591379636
 20
1.3424741520862631
 30
0.0
  0
VERTEX
  5
207
  8
KEE19
 10
0.2212724965059341
 20
1.3424741520862631
 30
0.0
  0
VERTEX
  5
208
  8
KEE19
 10
0.2403915136679835
 20
1.3424741520862631
 30
0.0
  0
VERTEX
  5
209
  8
KEE19
 10
0.2711367328512306
 20
1.3424741520862631
 30
0.0
  0
VERTEX
  5
20A
  8
KEE19
 10
0.3146073504572833
 20
1.3424741520868579
 30
0.0
  0
SEQEND
  5
20B
  8
KEE19
  0
POLYLINE
  5
47
  8
KEE19
 66
     1
 10
0.0
 20
0.0
 30
0.0
  0
VERTEX
  5
20C
  8
KEE19
 10
0.0000000011377956
 20
1.1450258479137341
 30
0.0
  0
VERTEX
  5
20D
  8
KEE19
 10
0.0000000000044178
 20
1.156356096628627
 30
0.0
  0
SEQEND
  5
20E
  8
KEE19
  0
LINE
  5
48
  8
KEE19
 10
0.0
 20
1.1450258479137361
 30
0.0
 11
0.0
 21
-1.1450258479137361
 31
0.0
  0
POLYLINE
  5
49
  8
KEE19
 66
     1
 10
0.0
 20
0.0
 30
0.0
  0
VERTEX
  5
20F
  8
KEE19
 10
2.4243090277288148
 20
1.0021001655186781
 30
0.0
  0
VERTEX
  5
210
  8
KEE19
 10
2.5606898670201601
 20
1.0677566355047841
 30
0.0
  0
SEQEND
  5
211
  8
KEE19
  0
POLYLINE
  5
4A
  8
KEE19
 66
     1
 10
0.0
 20
0.0
 30
0.0
  0
VERTEX
  5
212
  8
KEE19
 10
2.2992584371523601
 20
0.9168191290959825
 30
0.0
  0
VERTEX
  5
213
  8
KEE19
 10
2.4243090277288148
 20
1.0021001655186781
 30
0.0
  0
SEQEND
  5
214
  8
KEE19
  0
POLYLINE
  5
4B
  8
KEE19
 66
     1
 10
0.0
 20
0.0
 30
0.0
  0
VERTEX
  5
215
  8
KEE19
 10
2.1642234641502842
 20
0.7948966686175069
 30
0.0
  0
VERTEX
  5
216
  8
KEE19
 10
2.2617365576767829
 20
0.9075754095111751
 30
0.0
  0
VERTEX
  5
217
  8
KEE19
 10
2.3460933963707489
 20
0.9943283137283241
 30
0.0
  0
VERTEX
  5
218
  8
KEE19
 10
2.4048045055090621
 20
1.035882988980646
 30
0.0
  0
SEQEND
  5
219
  8
KEE19
  0
POLYLINE
  5
4C
  8
KEE19
 66
     1
 10
0.0
 20
0.0
 30
0.0
  0
VERTEX
  5
21A
  8
KEE19
 10
2.4048045055090621
 20
1.035882988980646
 30
0.0
  0
VERTEX
  5
21B
  8
KEE19
 10
2.5267303483564549
 20
1.082779005514332
 30
0.0
  0
VERTEX
  5
21C
  8
KEE19
 10
2.7337953015874641
 20
1.1237391222846931
 30
0.0
  0
SEQEND
  5
21D
  8
KEE19
  0
LINE
  5
4D
  8
KEE19
 10
4.145707803251109
 20
0.1042396021155514
 30
0.0
 11
4.5049709285221091
 21
0.3116602642006687
 31
0.0
  0
LINE
  5
4E
  8
KEE19
 10
3.5749999999999971
 20
1.0009033664383691
 30
0.0
 11
3.6104297280658448
 21
1.062269455546768
 31
0.0
  0
LINE
  5
4F
  8
KEE19
  6
HIDDEN
 10
3.6104297280658448
 20
1.062269455546768
 30
0.0
 11
3.8039572775437822
 21
1.3974690039068549
 31
0.0
  0
LINE
  5
50
  8
KEE19
 10
4.3882916415075783
 20
0.4095658109005887
 30
0.0
 11
4.6699826813282233
 21
0.8974690039068558
 31
0.0
  0
POLYLINE
  5
51
  8
KEE19
 66
     1
 10
0.0
 20
0.0
 30
0.0
  0
VERTEX
  5
21E
  8
KEE19
 10
4.5049709285221091
 20
0.3116602642006678
 30
0.0
  0
VERTEX
  5
21F
  8
KEE19
 10
4.4611889658548298
 20
0.3483976929269987
 30
0.0
  0
VERTEX
  5
220
  8
KEE19
 10
4.3341287614057391
 20
0.4550138636175403
 30
0.0
  0
VERTEX
  5
221
  8
KEE19
 10
4.1362278532668126
 20
0.621072442646562
 30
0.0
  0
VERTEX
  5
222
  8
KEE19
 10
3.886858161183393
 20
0.83031845930055
 30
0.0
  0
VERTEX
  5
223
  8
KEE19
 10
3.6104297280774129
 20
1.0622694555666901
 30
0.0
  0
VERTEX
  5
224
  8
KEE19
 10
3.3340012949714311
 20
1.2942204518328331
 30
0.0
  0
VERTEX
  5
225
  8
KEE19
 10
3.0846316028879981
 20
1.5034664684868331
 30
0.0
  0
VERTEX
  5
226
  8
KEE19
 10
2.8867306947490521
 20
1.6695250475158701
 30
0.0
  0
VERTEX
  5
227
  8
KEE19
 10
2.7596704902999392
 20
1.776141218206432
 30
0.0
  0
VERTEX
  5
228
  8
KEE19
 10
2.7158885276326319
 20
1.8128786469327851
 30
0.0
  0
SEQEND
  5
229
  8
KEE19
  0
LINE
  5
52
  8
KEE19
  6
HIDDEN
 10
4.6699826813282233
 20
0.8974690039068558
 30
0.0
 11
3.8039572775437822
 21
1.3974690039068549
 31
0.0
  0
POLYLINE
  5
53
  8
KEE19
  6
HIDDEN
 66
     1
 10
0.0
 20
0.0
 30
0.0
  0
VERTEX
  5
22A
  8
KEE19
  6
HIDDEN
 10
3.162724596215559
 20
2.2868214203727479
 30
0.0
  0
VERTEX
  5
22B
  8
KEE19
  6
HIDDEN
 10
3.1673292287611661
 20
2.291061507643247
 30
0.0
  0
VERTEX
  5
22C
  8
KEE19
  6
HIDDEN
 10
3.1809475916862389
 20
2.3039433403554161
 30
0.0
  0
VERTEX
  5
22D
  8
KEE19
  6
HIDDEN
 10
3.2027253495592891
 20
2.3253679977394159
 30
0.0
  0
VERTEX
  5
22E
  8
KEE19
  6
HIDDEN
 10
3.2298969559558781
 20
2.3537281770981768
 30
0.0
  0
VERTEX
  5
22F
  8
KEE19
  6
HIDDEN
 10
3.2612982601118108
 20
2.3892210769790418
 30
0.0
  0
VERTEX
  5
230
  8
KEE19
  6
HIDDEN
 10
3.2958357482273728
 20
2.4323003829763579
 30
0.0
  0
VERTEX
  5
231
  8
KEE19
  6
HIDDEN
 10
3.3304534560026311
 20
2.4811027638223249
 30
0.0
  0
VERTEX
  5
232
  8
KEE19
  6
HIDDEN
 10
3.3623470886819851
 20
2.5324132388544669
 30
0.0
  0
SEQEND
  5
233
  8
KEE19
  6
HIDDEN
  0
POLYLINE
  5
54
  8
KEE19
  6
HIDDEN
 66
     1
 10
0.0
 20
0.0
 30
0.0
  0
VERTEX
  5
234
  8
KEE19
  6
HIDDEN
 10
3.475224596215559
 20
2.8280872977380209
 30
0.0
  0
VERTEX
  5
235
  8
KEE19
  6
HIDDEN
 10
3.4738548891978471
 20
2.8219795253431839
 30
0.0
  0
VERTEX
  5
236
  8
KEE19
  6
HIDDEN
 10
3.4695080762843431
 20
2.8037447607360302
 30
0.0
  0
VERTEX
  5
237
  8
KEE19
  6
HIDDEN
 10
3.4618426576589458
 20
2.7741723404885019
 30
0.0
  0
VERTEX
  5
238
  8
KEE19
  6
HIDDEN
 10
3.450867825076672
 20
2.7364609494080452
 30
0.0
  0
VERTEX
  5
239
  8
KEE19
  6
HIDDEN
 10
3.4358307242038322
 20
2.6915201723566118
 30
0.0
  0
VERTEX
  5
23A
  8
KEE19
  6
HIDDEN
 10
3.4157916948905331
 20
2.640070177266975
 30
0.0
  0
VERTEX
  5
23B
  8
KEE19
  6
HIDDEN
 10
3.390836447200392
 20
2.5856891724898312
 30
0.0
  0
VERTEX
  5
23C
  8
KEE19
  6
HIDDEN
 10
3.3623470886819851
 20
2.5324132388544669
 30
0.0
  0
SEQEND
  5
23D
  8
KEE19
  6
HIDDEN
  0
LINE
  5
55
  8
KEE19
 10
2.868994697666952
 20
2.4530663123845078
 30
0.0
 11
3.1843873472096682
 21
2.999342405726257
 31
0.0
  0
POLYLINE
  5
56
  8
KEE19
 66
     1
 10
0.0
 20
0.0
 30
0.0
  0
VERTEX
  5
23E
  8
KEE19
 10
2.819596752007294
 20
2.3675065607124508
 30
0.0
  0
VERTEX
  5
23F
  8
KEE19
 10
2.8223272706912779
 20
2.3722359578041319
 30
0.0
  0
VERTEX
  5
240
  8
KEE19
 10
2.8318867792723039
 20
2.3887935123618571
 30
0.0
  0
VERTEX
  5
241
  8
KEE19
 10
2.847259388863927
 20
2.4154196532194692
 30
0.0
  0
VERTEX
  5
242
  8
KEE19
 10
2.8689946976664391
 20
2.4530663123848071
 30
0.0
  0
SEQEND
  5
243
  8
KEE19
  0
POLYLINE
  5
57
  8
KEE19
 66
     1
 10
0.0
 20
0.0
 30
0.0
  0
VERTEX
  5
244
  8
KEE19
 10
2.8609457856478939
 20
2.0641251878218481
 30
0.0
  0
VERTEX
  5
245
  8
KEE19
 10
2.87599797379852
 20
2.0948880243915662
 30
0.0
  0
VERTEX
  5
246
  8
KEE19
 10
2.8897007925893599
 20
2.1406807213974699
 30
0.0
  0
VERTEX
  5
247
  8
KEE19
 10
2.8944256596267208
 20
2.1865082028205518
 30
0.0
  0
VERTEX
  5
248
  8
KEE19
 10
2.8906612144522859
 20
2.2324245547513439
 30
0.0
  0
VERTEX
  5
249
  8
KEE19
 10
2.8796879444729799
 20
2.2737308259503388
 30
0.0
  0
VERTEX
  5
24A
  8
KEE19
 10
2.8618394078138141
 20
2.3125644509875398
 30
0.0
  0
VERTEX
  5
24B
  8
KEE19
 10
2.8287127870346369
 20
2.3580729064214538
 30
0.0
  0
VERTEX
  5
24C
  8
KEE19
 10
2.819596752007294
 20
2.3675065607124508
 30
0.0
  0
SEQEND
  5
24D
  8
KEE19
  0
POLYLINE
  5
58
  8
KEE19
 66
     1
 10
0.0
 20
0.0
 30
0.0
  0
VERTEX
  5
24E
  8
KEE19
 10
3.233785292869328
 20
3.084902157398318
 30
0.0
  0
VERTEX
  5
24F
  8
KEE19
 10
3.2310547741853428
 20
3.0801727603066378
 30
0.0
  0
VERTEX
  5
250
  8
KEE19
 10
3.2214952656043181
 20
3.0636152057489121
 30
0.0
  0
VERTEX
  5
251
  8
KEE19
 10
3.206122656012695
 20
3.0369890648913
 30
0.0
  0
VERTEX
  5
252
  8
KEE19
 10
3.1843873472091531
 20
2.9993424057265581
 30
0.0
  0
SEQEND
  5
253
  8
KEE19
  0
POLYLINE
  5
59
  8
KEE19
 66
     1
 10
0.0
 20
0.0
 30
0.0
  0
VERTEX
  5
254
  8
KEE19
 10
3.502873986565374
 20
3.1787413357069361
 30
0.0
  0
VERTEX
  5
255
  8
KEE19
 10
3.4980804817613591
 20
3.1723665346830781
 30
0.0
  0
VERTEX
  5
256
  8
KEE19
 10
3.4652742522418629
 20
3.137603197003803
 30
0.0
  0
VERTEX
  5
257
  8
KEE19
 10
3.4279489226566939
 20
3.1105976014084051
 30
0.0
  0
VERTEX
  5
258
  8
KEE19
 10
3.3863019728483059
 20
3.0908995305952209
 30
0.0
  0
VERTEX
  5
259
  8
KEE19
 10
3.3450430576647139
 20
3.0797495255603891
 30
0.0
  0
VERTEX
  5
25A
  8
KEE19
 10
3.3024878835318741
 20
3.0757899992090052
 30
0.0
  0
VERTEX
  5
25B
  8
KEE19
 10
3.2465130946495231
 20
3.0817242666283482
 30
0.0
  0
VERTEX
  5
25C
  8
KEE19
 10
3.233785292869328
 20
3.084902157398318
 30
0.0
  0
SEQEND
  5
25D
  8
KEE19
  0
POLYLINE
  5
5A
  8
KEE19
 66
     1
 10
0.0
 20
0.0
 30
0.0
  0
VERTEX
  5
25E
  8
KEE19
 10
3.502873986565374
 20
3.1787413357069361
 30
0.0
  0
VERTEX
  5
25F
  8
KEE19
 10
3.5126862692169789
 20
3.173076210367956
 30
0.0
  0
SEQEND
  5
260
  8
KEE19
  0
LINE
  5
5B
  8
KEE19
 10
5.4959292143521017
 20
2.0280503634395841
 30
0.0
 11
3.5126862697858772
 21
3.1730762113533171
 31
0.0
  0
LINE
  5
5C
  8
KEE19
  6
HIDDEN
 10
2.8704410224383121
 20
2.4555714203727459
 30
0.0
 11
3.162724596215559
 21
2.286821420372747
 31
0.0
  0
LINE
  5
5D
  8
KEE19
  6
HIDDEN
 10
3.475224596215559
 20
2.8280872977380218
 30
0.0
 11
3.1829410224383121
 21
2.9968372977380211
 31
0.0
  0
LINE
  5
5E
  8
KEE19
  6
HIDDEN
 10
4.6699826813282233
 20
0.8974690039068558
 30
0.0
 11
5.3660254037844348
 21
2.1030503634395821
 31
0.0
  0
LINE
  5
5F
  8
KEE19
  6
HIDDEN
 10
3.162724596215559
 20
2.2868214203727479
 30
0.0
 11
2.8325678146471631
 21
1.7149731002328641
 31
0.0
  0
LINE
  5
60
  8
KEE19
  6
HIDDEN
 10
3.6339745962155581
 20
3.1030503634395812
 30
0.0
 11
3.475224596215559
 21
2.8280872977380209
 31
0.0
  0
LINE
  5
61
  8
KEE19
 10
2.8609457856478939
 20
2.0641251878218481
 30
0.0
 11
2.7158885276326319
 21
1.8128786469327871
 31
0.0
  0
LINE
  5
62
  8
KEE19
 10
4.5049709285221091
 20
0.3116602642006687
 30
0.0
 11
5.4959292143521017
 21
2.0280503634395841
 31
0.0
  0
LINE
  5
63
  8
KEE19
  6
HIDDEN
 10
0.317499999999999
 20
1.3424741520862631
 30
0.0
 11
0.317499999999999
 21
1.0049741520862621
 31
0.0
  0
LINE
  5
64
  8
KEE19
  6
HIDDEN
 10
0.942499999999999
 20
1.0049741520862621
 30
0.0
 11
0.942499999999999
 21
1.3424741520862631
 31
0.0
  0
LINE
  5
65
  8
KEE19
  6
HIDDEN
 10
0.3175000000000008
 20
1.004974152086263
 30
0.0
 11
0.0
 21
1.004974152086263
 31
0.0
  0
LINE
  5
66
  8
KEE19
  6
HIDDEN
 10
1.602813563136791
 20
1.0049741520862621
 30
0.0
 11
0.942499999999999
 21
1.0049741520862621
 31
0.0
  0
LINE
  5
67
  8
KEE19
  6
HIDDEN
 10
0.0
 20
-0.9950258479137366
 30
0.0
 11
1.39208544491243
 21
-0.9950258479137366
 31
0.0
  0
LINE
  5
68
  8
KEE19
 10
0.0
 20
-1.145025847913735
 30
0.0
 11
1.98191657165999
 21
-1.145025847913735
 31
0.0
  0
LINE
  5
69
  8
KEE19
 10
1.5763645160305231
 20
1.154974152086264
 30
0.0
 11
1.286249999999999
 21
1.154974152086264
 31
0.0
  0
LINE
  5
6A
  8
KEE19
 10
2.7334912066891892
 20
1.2790809227644591
 30
0.0
 11
2.6830728202874261
 21
1.366408129647952
 31
0.0
  0
LINE
  5
6B
  8
KEE19
 10
1.9794271797125731
 20
0.960158129647953
 30
0.0
 11
2.0298455661143349
 21
0.8728309227644594
 31
0.0
  0
LINE
  5
6C
  8
KEE19
  6
HIDDEN
 10
2.060617061317362
 20
1.0070331296479511
 30
0.0
 11
2.2544081815182788
 21
0.6713770634042758
 31
0.0
  0
LINE
  5
6D
  8
KEE19
  6
HIDDEN
 10
2.795674058883554
 20
0.9838770634042756
 30
0.0
 11
2.6018829386826372
 21
1.3195331296479511
 31
0.0
  0
LINE
  5
6E
  8
KEE19
 10
1.972552201657062
 20
0.956188859216931
 30
0.0
 11
2.1862066477844229
 21
0.5861285032613531
 31
0.0
  0
LINE
  5
6F
  8
KEE19
  6
HIDDEN
 10
2.0606170613173651
 20
1.0070331296479531
 30
0.0
 11
2.2544081815182819
 21
0.6713770634042784
 31
0.0
  0
LINE
  5
70
  8
KEE19
  6
HIDDEN
 10
2.7956740588835571
 20
0.9838770634042756
 30
0.0
 11
2.6018829386826381
 21
1.3195331296479531
 31
0.0
  0
LINE
  5
71
  8
KEE19
 10
2.9036022444702971
 20
1.000317044123392
 30
0.0
 11
2.8222866098367261
 21
1.1411598547584441
 31
0.0
  0
LINE
  5
72
  8
KEE19
 10
2.8222866098367261
 20
1.1411598547584441
 30
0.0
 11
2.6899477983429341
 21
1.370377400078971
 31
0.0
  0
LINE
  5
143
  8
DIMKEE
 10
0.0
 20
-1.2075258479137361
 30
0.5600000000000001
 11
0.0
 21
-2.3642777282427421
 31
0.5600000000000001
  0
LINE
  5
144
  8
DIMKEE
 10
3.0
 20
-0.0575258479137357
 30
0.5600000000000001
 11
3.0
 21
-2.3642777282427421
 31
0.5600000000000001
  0
LINE
  5
145
  8
DIMKEE
 10
0.125
 20
-2.1767777282427421
 30
0.5600000000000001
 11
1.28125
 21
-2.1767777282427421
 31
0.5600000000000001
  0
LINE
  5
146
  8
DIMKEE
 10
2.875
 20
-2.1767777282427421
 30
0.5600000000000001
 11
1.71875
 21
-2.1767777282427421
 31
0.5600000000000001
  0
INSERT
  5
147
  8
DIMKEE
  2
_DOT
 10
0.0
 20
-2.1767777282427421
 30
0.5600000000000001
 41
0.125
 42
0.125
 43
0.125
 50
180.0
  0
INSERT
  5
148
  8
DIMKEE
  2
_DOT
 10
3.0
 20
-2.1767777282427421
 30
0.5600000000000001
 41
0.125
 42
0.125
 43
0.125
  0
INSERT
  5
149
  8
0
  2
*U2
 10
0.0
 20
0.0
 30
0.0
  0
INSERT
  5
173
  8
0
  2
*U3
 10
0.0
 20
0.0
 30
0.0
  0
INSERT
  5
17B
  8
0
  2
*U4
 10
0.0
 20
0.0
 30
0.0
  0
INSERT
  5
17C
  8
0
  2
*U5
 10
0.0
 20
0.0
 30
0.0
  0
INSERT
  5
17D
  8
0
  2
*U6
 10
0.0
 20
0.0
 30
0.0
  0
VIEWPORT
  5
E3
 67
     1
  8
0
 10
6.0
 20
4.5
 30
0.0
 40
12.0
 41
9.0
 68
    -1
 69
     1
1001
ACAD
1000
MVIEW
1002
{
1070
    16
1010
0.0
1020
0.0
1030
0.0
1010
0.0
1020
0.0
1030
1.0
1040
0.0
1040
9.0
1040
8.8361344537815114
1040
4.5
1040
50.0
1040
0.0
1040
0.0
1070
     0
1070
   100
1070
     1
1070
     1
1070
     0
1070
     0
1070
     0
1070
     0
1040
0.0
1040
0.0
1040
0.0
1040
0.5
1040
0.5
1040
0.5
1040
0.5
1070
     0
1002
{
1002
}
1002
}
  0
ENDSEC
  0
EOF
