  0
SECTION
  2
HEADER
  9
$ACADVER
  1
AC1009
  9
$INSBASE
 10
0.0
 20
0.0
 30
0.0
  9
$EXTMIN
 10
4.4544571226917702
 20
2.690729146097167
 30
0.0
  9
$EXTMAX
 10
8.186686439794828
 20
6.057780306970467
 30
0.0
  9
$LIMMIN
 10
0.0
 20
0.0
  9
$LIMMAX
 10
12.0
 20
9.0
  9
$ORTHOMODE
 70
     1
  9
$REGENMODE
 70
     0
  9
$FILLMODE
 70
     1
  9
$QTEXTMODE
 70
     0
  9
$MIRRTEXT
 70
     0
  9
$DRAGMODE
 70
     2
  9
$LTSCALE
 40
1.0
  9
$OSMODE
 70
    55
  9
$ATTMODE
 70
     1
  9
$TEXTSIZE
 40
0.2
  9
$TRACEWID
 40
0.05
  9
$TEXTSTYLE
  7
STANDARD
  9
$CLAYER
  8
0
  9
$CELTYPE
  6
BYLAYER
  9
$CECOLOR
 62
   256
  9
$DIMSCALE
 40
1.0
  9
$DIMASZ
 40
0.125
  9
$DIMEXO
 40
0.0625
  9
$DIMDLI
 40
0.38
  9
$DIMRND
 40
0.0
  9
$DIMDLE
 40
0.0
  9
$DIMEXE
 40
0.18
  9
$DIMTP
 40
0.0
  9
$DIMTM
 40
0.0
  9
$DIMTXT
 40
0.09375
  9
$DIMCEN
 40
-0.125
  9
$DIMTSZ
 40
0.0
  9
$DIMTOL
 70
     0
  9
$DIMLIM
 70
     0
  9
$DIMTIH
 70
     0
  9
$DIMTOH
 70
     0
  9
$DIMSE1
 70
     0
  9
$DIMSE2
 70
     0
  9
$DIMTAD
 70
     0
  9
$DIMZIN
 70
     3
  9
$DIMBLK
  1

  9
$DIMASO
 70
     0
  9
$DIMSHO
 70
     1
  9
$DIMPOST
  1

  9
$DIMAPOST
  1

  9
$DIMALT
 70
     0
  9
$DIMALTD
 70
     2
  9
$DIMALTF
 40
25.399999999999999
  9
$DIMLFAC
 40
1.0
  9
$DIMTOFL
 70
     1
  9
$DIMTVP
 40
0.0
  9
$DIMTIX
 70
     0
  9
$DIMSOXD
 70
     0
  9
$DIMSAH
 70
     0
  9
$DIMBLK1
  1

  9
$DIMBLK2
  1

  9
$DIMSTYLE
  2
STANDARD
  9
$DIMCLRD
 70
     0
  9
$DIMCLRE
 70
     0
  9
$DIMCLRT
 70
     0
  9
$DIMTFAC
 40
1.0
  9
$DIMGAP
 40
0.09
  9
$LUNITS
 70
     4
  9
$LUPREC
 70
     4
  9
$SKETCHINC
 40
0.1
  9
$FILLETRAD
 40
0.025
  9
$AUNITS
 70
     0
  9
$AUPREC
 70
     4
  9
$MENU
  1
.
  9
$ELEVATION
 40
0.0
  9
$PELEVATION
 40
0.0
  9
$THICKNESS
 40
0.0
  9
$LIMCHECK
 70
     0
  9
$BLIPMODE
 70
     0
  9
$CHAMFERA
 40
0.125
  9
$CHAMFERB
 40
0.5
  9
$SKPOLY
 70
     0
  9
$TDCREATE
 40
2451086.9109346061
  9
$TDUPDATE
 40
2453913.5539321289
  9
$TDINDWG
 40
0.0437628704
  9
$TDUSRTIMER
 40
0.0437628704
  9
$USRTIMER
 70
     1
  9
$ANGBASE
 50
0.0
  9
$ANGDIR
 70
     0
  9
$PDMODE
 70
    34
  9
$PDSIZE
 40
3.0
  9
$PLINEWID
 40
0.0
  9
$COORDS
 70
     1
  9
$SPLFRAME
 70
     0
  9
$SPLINETYPE
 70
     6
  9
$SPLINESEGS
 70
     8
  9
$ATTDIA
 70
     0
  9
$ATTREQ
 70
     1
  9
$HANDLING
 70
     1
  9
$HANDSEED
  5
B41
  9
$SURFTAB1
 70
     6
  9
$SURFTAB2
 70
     6
  9
$SURFTYPE
 70
     6
  9
$SURFU
 70
     6
  9
$SURFV
 70
     6
  9
$UCSNAME
  2

  9
$UCSORG
 10
0.0
 20
0.0
 30
0.0
  9
$UCSXDIR
 10
1.0
 20
0.0
 30
0.0
  9
$UCSYDIR
 10
0.0
 20
1.0
 30
0.0
  9
$PUCSNAME
  2

  9
$PUCSORG
 10
0.0
 20
0.0
 30
0.0
  9
$PUCSXDIR
 10
1.0
 20
0.0
 30
0.0
  9
$PUCSYDIR
 10
0.0
 20
1.0
 30
0.0
  9
$USERI1
 70
     0
  9
$USERI2
 70
     0
  9
$USERI3
 70
     0
  9
$USERI4
 70
     0
  9
$USERI5
 70
     0
  9
$USERR1
 40
0.0
  9
$USERR2
 40
0.0
  9
$USERR3
 40
0.0
  9
$USERR4
 40
0.0
  9
$USERR5
 40
0.0
  9
$WORLDVIEW
 70
     1
  9
$SHADEDGE
 70
     3
  9
$SHADEDIF
 70
    70
  9
$TILEMODE
 70
     1
  9
$MAXACTVP
 70
    48
  9
$PLIMCHECK
 70
     0
  9
$PEXTMIN
 10
4.063722233126108
 20
2.386084485156494
 30
0.0
  9
$PEXTMAX
 10
8.7737985332232622
 20
5.3160844851564937
 30
0.0
  9
$PLIMMIN
 10
-0.1579164520023376
 20
-0.2812499887361301
  9
$PLIMMAX
 10
10.84208330770177
 20
8.2187497709679782
  9
$UNITMODE
 70
     0
  9
$VISRETAIN
 70
     1
  9
$PLINEGEN
 70
     0
  9
$PSLTSCALE
 70
     1
  0
ENDSEC
  0
SECTION
  2
TABLES
  0
TABLE
  2
VPORT
 70
     2
  0
VPORT
  2
*ACTIVE
 70
     0
 10
0.0
 20
0.0
 11
1.0
 21
1.0
 12
1.018304758875888
 22
0.523259407722293
 13
0.0
 23
0.0
 14
0.5
 24
0.5
 15
0.5
 25
0.5
 16
0.0
 26
0.0
 36
1.0
 17
6.5012078336821073
 27
3.8510844851564938
 37
0.0
 40
3.405073783161785
 41
2.4795698924731182
 42
50.0
 43
0.0
 44
0.0
 50
0.0
 51
0.0
 71
     0
 72
   100
 73
     1
 74
     1
 75
     0
 76
     0
 77
     0
 78
     0
  0
ENDTAB
  0
TABLE
  2
LTYPE
 70
    18
  0
LTYPE
  2
CONTINUOUS
 70
     0
  3
Solid line
 72
    65
 73
     0
 40
0.0
  0
LTYPE
  2
HIDDEN
 70
     0
  3
Hidden __ __ __ __ __ __ __ __ __ __ __ __ __ _
 72
    65
 73
     2
 40
0.375
 49
0.25
 49
-0.125
  0
LTYPE
  2
PHANTOM2
 70
     0
  3
Phantom (.5x) ___ _ _ ___ _ _ ___ _ _ ___ _ _
 72
    65
 73
     6
 40
1.25
 49
0.625
 49
-0.125
 49
0.125
 49
-0.125
 49
0.125
 49
-0.125
  0
LTYPE
  2
CENTER
 70
     0
  3
Center ____ _ ____ _ ____ _ ____ _ ____ _ ____
 72
    65
 73
     4
 40
2.0
 49
1.25
 49
-0.25
 49
0.25
 49
-0.25
  0
LTYPE
  2
ASULTYPE
 70
     0
  3
Solid line
 72
    65
 73
     2
 40
3.0
 49
2.5
 49
0.5
  0
LTYPE
  2
ASVLTYPE
 70
     0
  3
__ __ __ __ __ __ __ __ __ __ __ __ __ __ __ __ __ __ __ __ __
 72
    65
 73
     2
 40
0.75
 49
0.5
 49
-0.25
  0
LTYPE
  2
AM_ISO02W050
 70
     0
  3
__ __ __ __ __ __ __ __ __ __ __ __ __ __ __
 72
    65
 73
     2
 40
7.5
 49
6.0
 49
-1.5
  0
LTYPE
  2
AM_ISO08W050
 70
     0
  3
____ . ____ . ____ . ____ . ____ . ____ . ____
 72
    65
 73
     4
 40
18.0
 49
12.0
 49
-1.5
 49
3.0
 49
-1.5
  0
LTYPE
  2
AM_ISO09W050
 70
     0
  3
_____ . . _____ . . _____ . . ____ .. ____
 72
    65
 73
     6
 40
22.5
 49
12.0
 49
-1.5
 49
3.0
 49
-1.5
 49
3.0
 49
-1.5
  0
LTYPE
  2
AMCONSTR
 70
     0
  3
_______________________
 72
    65
 73
     2
 40
9999.0
 49
9999.0
 49
0.0
  0
LTYPE
  2
AM_ISO08W050X2
 70
     0
  3
__ . __ . __ . __ . __ . __
 72
    65
 73
     4
 40
9.0
 49
6.0
 49
-0.75
 49
1.5
 49
-0.75
  0
LTYPE
  2
AM_ISO02W050X2
 70
     0
  3
 _ _ _ _ _ _ _ _ _ _ _ _
 72
    65
 73
     2
 40
3.75
 49
3.0
 49
-0.75
  0
LTYPE
  2
AMZIGZAG
 70
     0
  3
/\/-/\/-/\/-/\/-/\/-/\/
 72
    65
 73
     2
 40
11.0001
 49
0.0001
 49
-11.0
  0
LTYPE
  2
CENTER2
 70
     0
  3
Center (.5x) ___ _ ___ _ ___ _ ___ _ ___ _ ___
 72
    65
 73
     4
 40
1.125
 49
0.75
 49
-0.125
 49
0.125
 49
-0.125
  0
LTYPE
  2
HIDDEN2
 70
     0
  3
Hidden (.5x) _ _ _ _ _ _ _ _ _ _ _ _ _ _ _ _ _
 72
    65
 73
     2
 40
0.1875
 49
0.125
 49
-0.0625
  0
LTYPE
  2
AMZIGZAG2
 70
     0
  3
/\/-/\/-/\/-/\/-/\/-/\/
 72
    65
 73
     2
 40
0.4401
 49
0.0001
 49
-0.4400000000000001
  0
LTYPE
  2
ACANSTGB
 70
     0
  3
__ . . __ . .
 72
    65
 73
     6
 40
0.35433070866
 49
0.15748031496
 49
-0.03937007874
 49
0.03937007874
 49
-0.03937007874
 49
0.03937007874
 49
-0.03937007874
  0
LTYPE
  2
ACANSTGL
 70
     0
  3
_ _ _ _ _
 72
    65
 73
     2
 40
0.11811023622
 49
0.07874015748
 49
-0.03937007874
  0
ENDTAB
  0
TABLE
  2
LAYER
 70
     4
  0
LAYER
  2
0
 70
     0
 62
     7
  6
CONTINUOUS
  0
LAYER
  2
AM_VIS
 70
     0
 62
     7
  6
CONTINUOUS
  0
LAYER
  2
AM_HID
 70
     0
 62
     7
  6
HIDDEN
  0
LAYER
  2
KEE10
 70
     0
 62
     7
  6
CONTINUOUS
  0
ENDTAB
  0
TABLE
  2
STYLE
 70
     5
  0
STYLE
  2
STANDARD
 70
     0
 40
0.0
 41
1.0
 50
0.0
 71
     0
 42
0.2
  3
txt
  4

  0
STYLE
  2

 70
     1
 40
0.0
 41
1.0
 50
0.0
 71
     0
 42
0.2
  3
ltypeshp.shx
  4

  0
STYLE
  2
ACANSTS
 70
     0
 40
1.0
 41
1.0
 50
0.0
 71
     0
 42
0.2
  3
romans.shx
  4

  0
STYLE
  2
ACANSGDT
 70
     0
 40
0.0
 41
1.0
 50
0.0
 71
     0
 42
0.2
  3
amgdtans.shx
  4

  0
STYLE
  2
ACANSTSB
 70
     0
 40
1.0
 41
1.0
 50
0.0
 71
     0
 42
0.2
  3
romans.shx
  4

  0
ENDTAB
  0
TABLE
  2
VIEW
 70
     0
  0
ENDTAB
  0
TABLE
  2
UCS
 70
     0
  0
ENDTAB
  0
TABLE
  2
APPID
 70
    13
  0
APPID
  2
ACAD
 70
     0
  0
APPID
  2
GENIUS_GENDIM_13
 70
     0
  0
APPID
  2
GENIUS_GENDTOL_13
 70
     0
  0
APPID
  2
GENIUS_GE3DTOL_13
 70
     0
  0
APPID
  2
MCAD_NO_VIS
 70
     0
  0
APPID
  2
ACAD_TEMP_GRAPHIC
 70
     0
  0
APPID
  2
AD_DRAW
 70
     0
  0
APPID
  2
ACATTRIBSERVICES
 70
     0
  0
APPID
  2
ASURF_PCURVE_APPNAME
 70
     0
  0
APPID
  2
AMG_3D2D_5_0
 70
     0
  0
APPID
  2
DESIGNERASSEMBLIES
 70
     0
  0
APPID
  2
ACADM_DIM_EDIT
 70
     0
  0
APPID
  2
AMDT_DM_ADJ
 70
     0
  0
ENDTAB
  0
TABLE
  2
DIMSTYLE
 70
     7
  0
DIMSTYLE
  2
STANDARD
 70
     0
  3

  4

  5

  6

  7

 40
1.0
 41
0.18
 42
0.0625
 43
0.38
 44
0.18
 45
0.0
 46
0.0
 47
0.0
 48
0.0
140
0.18
141
0.09
142
0.0
143
25.399999999999999
144
1.0
145
0.0
146
1.0
147
0.09
 71
     0
 72
     0
 73
     1
 74
     1
 75
     0
 76
     0
 77
     0
 78
     0
170
     0
171
     2
172
     0
173
     0
174
     0
175
     0
176
     0
177
     0
178
     0
  0
DIMSTYLE
  2
AM_ANSI
 70
     0
  3

  4
mm
  5

  6

  7

 40
1.0
 41
0.1
 42
0.05
 43
0.5
 44
0.1
 45
0.0
 46
0.0
 47
0.1
 48
0.1
140
0.12
141
0.0
142
0.0
143
25.399999999999999
144
1.0
145
0.0
146
0.71
147
0.06
 71
     0
 72
     0
 73
     1
 74
     1
 75
     0
 76
     0
 77
     0
 78
     7
170
     0
171
     2
172
     0
173
     0
174
     0
175
     0
176
   256
177
   256
178
     2
  0
DIMSTYLE
  2
AM_ANSI$3
 70
     0
  3

  4
mm
  5

  6

  7

 40
1.0
 41
0.1
 42
0.05
 43
0.5
 44
0.1
 45
0.0
 46
0.0
 47
0.1
 48
0.1
140
0.12
141
0.0
142
0.0
143
25.399999999999999
144
1.0
145
0.0
146
0.71
147
0.06
 71
     0
 72
     0
 73
     1
 74
     1
 75
     0
 76
     0
 77
     0
 78
     7
170
     0
171
     2
172
     0
173
     0
174
     0
175
     0
176
   256
177
   256
178
     2
  0
DIMSTYLE
  2
AM_ANSI$4
 70
     0
  3

  4
mm
  5

  6

  7

 40
1.0
 41
0.1
 42
0.05
 43
0.5
 44
0.1
 45
0.0
 46
0.0
 47
0.1
 48
0.1
140
0.12
141
0.0
142
0.0
143
25.399999999999999
144
1.0
145
0.0
146
0.71
147
0.06
 71
     0
 72
     0
 73
     1
 74
     1
 75
     0
 76
     0
 77
     0
 78
     7
170
     0
171
     2
172
     0
173
     0
174
     0
175
     0
176
   256
177
   256
178
     2
  0
DIMSTYLE
  2
AM_ANSI$7
 70
     0
  3

  4
mm
  5

  6

  7

 40
1.0
 41
0.1
 42
0.05
 43
0.5
 44
0.1
 45
0.0
 46
0.0
 47
0.1
 48
0.1
140
0.24
141
0.0
142
0.0
143
25.399999999999999
144
1.0
145
0.0
146
0.71
147
0.06
 71
     0
 72
     0
 73
     1
 74
     1
 75
     0
 76
     0
 77
     0
 78
     7
170
     0
171
     2
172
     0
173
     0
174
     0
175
     0
176
   256
177
   256
178
     2
  0
DIMSTYLE
  2
AM_ANSI$SF
 70
     0
  3

  4
mm
  5

  6

  7

 40
1.0
 41
0.1
 42
0.05
 43
0.5
 44
0.1
 45
0.0
 46
0.0
 47
0.1
 48
0.1
140
0.12
141
0.0
142
0.0
143
25.399999999999999
144
1.0
145
0.0
146
0.71
147
0.06
 71
     0
 72
     0
 73
     1
 74
     1
 75
     1
 76
     1
 77
     0
 78
     7
170
     0
171
     2
172
     0
173
     0
174
     0
175
     0
176
   256
177
   256
178
     2
  0
DIMSTYLE
  2
AM_ANSI$SH
 70
     0
  3

  4
mm
  5

  6
GENAXEH
  7

 40
1.0
 41
0.1
 42
0.05
 43
0.5
 44
0.1
 45
0.0
 46
0.0
 47
0.1
 48
0.1
140
0.12
141
0.0
142
0.0
143
25.399999999999999
144
1.0
145
0.0
146
0.71
147
0.06
 71
     0
 72
     0
 73
     1
 74
     1
 75
     1
 76
     1
 77
     0
 78
     7
170
     0
171
     2
172
     0
173
     1
174
     0
175
     0
176
   256
177
   256
178
     2
  0
ENDTAB
  0
ENDSEC
  0
SECTION
  2
BLOCKS
  0
BLOCK
  8
0
  2
$MODEL_SPACE
 70
     0
 10
0.0
 20
0.0
 30
0.0
  3
$MODEL_SPACE
  1

  0
ENDBLK
  5
A
  8
0
  0
BLOCK
 67
     1
  8
0
  2
$PAPER_SPACE
 70
     0
 10
0.0
 20
0.0
 30
0.0
  3
$PAPER_SPACE
  1

  0
ENDBLK
  5
F
 67
     1
  8
0
  0
BLOCK
  8
0
  2
*U0
 70
     1
 10
0.0
 20
0.0
 30
0.0
  3
*U0
  1

  0
ENDBLK
  5
114
  8
0
  0
BLOCK
  8
0
  2
GENAXEH
 70
     0
 10
0.0
 20
0.0
 30
0.0
  3
GENAXEH
  1

  0
LINE
  5
152
  8
0
 10
-1.0
 20
0.0
 30
0.0
 11
1.0
 21
0.0
 31
0.0
  0
ENDBLK
  5
154
  8
0
  0
BLOCK
  8
0
  2
_DOT
 70
     0
 10
0.0
 20
0.0
 30
0.0
  3
_DOT
  1

  0
POLYLINE
  5
15B
  8
0
  6
BYBLOCK
 62
     0
 66
     1
 10
0.0
 20
0.0
 30
0.0
 70
     1
 40
0.5
 41
0.5
  0
VERTEX
  5
15C
  8
0
  6
BYBLOCK
 62
     0
 10
-0.25
 20
0.0
 30
0.0
 42
1.0
  0
VERTEX
  5
15D
  8
0
  6
BYBLOCK
 62
     0
 10
0.25
 20
0.0
 30
0.0
 42
1.0
  0
SEQEND
  5
15E
  8
0
  6
BYBLOCK
 62
     0
  0
LINE
  5
15F
  8
0
  6
BYBLOCK
 62
     0
 10
-0.5
 20
0.0
 30
0.0
 11
-1.0
 21
0.0
 31
0.0
  0
ENDBLK
  5
161
  8
0
  0
BLOCK
  8
0
  2
2D
 70
     0
 10
0.0
 20
0.0
 30
0.0
  3
2D
  1

  0
INSERT
  5
165
  8
0
  2
*U4
 10
0.0
 20
0.0
 30
0.0
  0
INSERT
  5
166
  8
0
  2
*U5
 10
0.0
 20
0.0
 30
0.0
  0
INSERT
  5
167
  8
0
  2
*U6
 10
0.0
 20
0.0
 30
0.0
  0
ENDBLK
  5
169
  8
0
  0
BLOCK
  8
0
  2
*U4
 70
     1
 10
0.0
 20
0.0
 30
0.0
  3
*U4
  1

  0
TEXT
  5
1A2
  8
KEE10
 10
-0.167740653382606
 20
0.7944046258072062
 30
0.0
 40
0.140625
  1
KEE
  0
ENDBLK
  5
1A4
  8
0
  0
BLOCK
  8
0
  2
*U5
 70
     1
 10
0.0
 20
0.0
 30
0.0
  3
*U5
  1

  0
TEXT
  5
1A6
  8
KEE10
 10
-0.308365653382606
 20
0.4858688129746218
 30
0.0
 40
0.140625
  1
KLAMP
  0
ENDBLK
  5
1A8
  8
0
  0
BLOCK
  8
0
  2
*U6
 70
     1
 10
0.0
 20
0.0
 30
0.0
  3
*U6
  1

  0
TEXT
  5
1AA
  8
KEE10
 10
-0.202896903382606
 20
0.2018753139112972
 30
0.0
 40
0.140625
  1
10-8
  0
ENDBLK
  5
1AC
  8
0
  0
BLOCK
  8
0
  2
*U7
 70
     1
 10
0.0
 20
0.0
 30
0.0
  3
*U7
  1

  0
TEXT
  5
1AE
  8
KEE10
 10
6.6045295724592687
 20
3.9705358284914292
 30
0.0
 40
0.140625
  1
KEE
  0
ENDBLK
  5
1B0
  8
0
  0
BLOCK
  8
0
  2
*U8
 70
     1
 10
0.0
 20
0.0
 30
0.0
  3
*U8
  1

  0
TEXT
  5
1B2
  8
KEE10
 10
6.4639045724592687
 20
3.6620000156588439
 30
0.0
 40
0.140625
  1
KLAMP
  0
ENDBLK
  5
1B4
  8
0
  0
BLOCK
  8
0
  2
*U9
 70
     1
 10
0.0
 20
0.0
 30
0.0
  3
*U9
  1

  0
TEXT
  5
1B6
  8
0
 10
6.6429829464784671
 20
5.8309053069704682
 30
0.0
 40
0.09375
  1
2-5/8"
  0
ENDBLK
  5
1B8
  8
0
  0
ENDSEC
  0
SECTION
  2
ENTITIES
  0
LINE
  5
25
  8
AM_HID
 10
6.0261825388001169
 20
4.2676322317351767
 30
0.0
 11
5.8306056613422292
 21
4.072055354277289
 31
0.0
  0
LINE
  5
28
  8
AM_VIS
 10
5.8306056613422284
 20
4.072055354277289
 30
0.0
 11
5.609634792221434
 21
3.8510844851564952
 31
0.0
  0
LINE
  5
2A
  8
AM_HID
 10
6.0261825388001169
 20
3.4345367385778109
 30
0.0
 11
5.830605661342231
 21
3.6301136160356968
 31
0.0
  0
LINE
  5
2B
  8
AM_VIS
 10
5.830605661342231
 20
3.6301136160356968
 30
0.0
 11
5.609634792221434
 21
3.8510844851564952
 31
0.0
  0
LINE
  5
2C
  8
AM_VIS
 10
6.734634792221434
 20
2.7260844851564952
 30
0.0
 11
6.7596347922214326
 21
2.7010844851564948
 31
0.0
  0
LINE
  5
2D
  8
AM_VIS
 10
8.1763311007354993
 20
3.8510844852562349
 30
0.0
 11
8.1763311007354993
 21
3.4464132707099679
 31
0.0
  0
ARC
  5
2E
  8
AM_VIS
 10
7.7268619702919246
 20
3.861259766770309
 30
0.0
 40
0.4071828861831627
 50
319.17511856382902
 51
358.56772828478501
  0
ARC
  5
2F
  8
AM_VIS
 10
7.715425239090397
 20
3.8627382524289291
 30
0.0
 40
0.4103297329045442
 50
181.62821010577991
 51
220.7056843904823
  0
POLYLINE
  8
AM_VIS
  5
1B9
  66
     1
 10
0.000000
 20
0.000000
 30
0.000000
  70
     8
  0
VERTEX
  8
AM_VIS
  5
1BA
 10
5.86569
 20
3.53569
 30
0.000000
  70
    32
  0
VERTEX
  8
AM_VIS
  5
1BB
 10
5.86460
 20
3.53480
 30
0.000000
  70
    32
  0
VERTEX
  8
AM_VIS
  5
1BC
 10
5.86349
 20
3.53392
 30
0.000000
  70
    32
  0
VERTEX
  8
AM_VIS
  5
1BD
 10
5.86239
 20
3.53303
 30
0.000000
  70
    32
  0
VERTEX
  8
AM_VIS
  5
1BE
 10
5.86129
 20
3.53215
 30
0.000000
  70
    32
  0
VERTEX
  8
AM_VIS
  5
1BF
 10
5.86018
 20
3.53127
 30
0.000000
  70
    32
  0
VERTEX
  8
AM_VIS
  5
1C0
 10
5.85907
 20
3.53040
 30
0.000000
  70
    32
  0
VERTEX
  8
AM_VIS
  5
1C1
 10
5.85796
 20
3.52953
 30
0.000000
  70
    32
  0
VERTEX
  8
AM_VIS
  5
1C2
 10
5.85684
 20
3.52866
 30
0.000000
  70
    32
  0
VERTEX
  8
AM_VIS
  5
1C3
 10
5.85572
 20
3.52780
 30
0.000000
  70
    32
  0
VERTEX
  8
AM_VIS
  5
1C4
 10
5.85461
 20
3.52694
 30
0.000000
  70
    32
  0
VERTEX
  8
AM_VIS
  5
1C5
 10
5.85349
 20
3.52608
 30
0.000000
  70
    32
  0
VERTEX
  8
AM_VIS
  5
1C6
 10
5.85236
 20
3.52522
 30
0.000000
  70
    32
  0
VERTEX
  8
AM_VIS
  5
1C7
 10
5.85124
 20
3.52437
 30
0.000000
  70
    32
  0
VERTEX
  8
AM_VIS
  5
1C8
 10
5.85011
 20
3.52352
 30
0.000000
  70
    32
  0
VERTEX
  8
AM_VIS
  5
1C9
 10
5.84898
 20
3.52268
 30
0.000000
  70
    32
  0
VERTEX
  8
AM_VIS
  5
1CA
 10
5.84785
 20
3.52184
 30
0.000000
  70
    32
  0
VERTEX
  8
AM_VIS
  5
1CB
 10
5.84672
 20
3.52100
 30
0.000000
  70
    32
  0
VERTEX
  8
AM_VIS
  5
1CC
 10
5.84558
 20
3.52016
 30
0.000000
  70
    32
  0
VERTEX
  8
AM_VIS
  5
1CD
 10
5.84444
 20
3.51933
 30
0.000000
  70
    32
  0
VERTEX
  8
AM_VIS
  5
1CE
 10
5.84331
 20
3.51851
 30
0.000000
  70
    32
  0
VERTEX
  8
AM_VIS
  5
1CF
 10
5.84216
 20
3.51768
 30
0.000000
  70
    32
  0
VERTEX
  8
AM_VIS
  5
1D0
 10
5.84102
 20
3.51686
 30
0.000000
  70
    32
  0
VERTEX
  8
AM_VIS
  5
1D1
 10
5.83988
 20
3.51604
 30
0.000000
  70
    32
  0
VERTEX
  8
AM_VIS
  5
1D2
 10
5.83873
 20
3.51523
 30
0.000000
  70
    32
  0
VERTEX
  8
AM_VIS
  5
1D3
 10
5.83758
 20
3.51442
 30
0.000000
  70
    32
  0
VERTEX
  8
AM_VIS
  5
1D4
 10
5.83643
 20
3.51361
 30
0.000000
  70
    32
  0
VERTEX
  8
AM_VIS
  5
1D5
 10
5.83527
 20
3.51280
 30
0.000000
  70
    32
  0
VERTEX
  8
AM_VIS
  5
1D6
 10
5.83412
 20
3.51200
 30
0.000000
  70
    32
  0
VERTEX
  8
AM_VIS
  5
1D7
 10
5.83296
 20
3.51121
 30
0.000000
  70
    32
  0
VERTEX
  8
AM_VIS
  5
1D8
 10
5.83180
 20
3.51041
 30
0.000000
  70
    32
  0
VERTEX
  8
AM_VIS
  5
1D9
 10
5.83064
 20
3.50962
 30
0.000000
  70
    32
  0
VERTEX
  8
AM_VIS
  5
1DA
 10
5.82948
 20
3.50883
 30
0.000000
  70
    32
  0
VERTEX
  8
AM_VIS
  5
1DB
 10
5.82831
 20
3.50805
 30
0.000000
  70
    32
  0
VERTEX
  8
AM_VIS
  5
1DC
 10
5.82714
 20
3.50726
 30
0.000000
  70
    32
  0
VERTEX
  8
AM_VIS
  5
1DD
 10
5.82596
 20
3.50649
 30
0.000000
  70
    32
  0
VERTEX
  8
AM_VIS
  5
1DE
 10
5.82479
 20
3.50571
 30
0.000000
  70
    32
  0
VERTEX
  8
AM_VIS
  5
1DF
 10
5.82361
 20
3.50494
 30
0.000000
  70
    32
  0
VERTEX
  8
AM_VIS
  5
1E0
 10
5.82243
 20
3.50417
 30
0.000000
  70
    32
  0
VERTEX
  8
AM_VIS
  5
1E1
 10
5.82125
 20
3.50340
 30
0.000000
  70
    32
  0
VERTEX
  8
AM_VIS
  5
1E2
 10
5.82006
 20
3.50264
 30
0.000000
  70
    32
  0
VERTEX
  8
AM_VIS
  5
1E3
 10
5.81887
 20
3.50188
 30
0.000000
  70
    32
  0
VERTEX
  8
AM_VIS
  5
1E4
 10
5.81768
 20
3.50112
 30
0.000000
  70
    32
  0
VERTEX
  8
AM_VIS
  5
1E5
 10
5.81649
 20
3.50037
 30
0.000000
  70
    32
  0
VERTEX
  8
AM_VIS
  5
1E6
 10
5.81529
 20
3.49962
 30
0.000000
  70
    32
  0
VERTEX
  8
AM_VIS
  5
1E7
 10
5.81409
 20
3.49887
 30
0.000000
  70
    32
  0
VERTEX
  8
AM_VIS
  5
1E8
 10
5.81289
 20
3.49813
 30
0.000000
  70
    32
  0
VERTEX
  8
AM_VIS
  5
1E9
 10
5.81169
 20
3.49739
 30
0.000000
  70
    32
  0
VERTEX
  8
AM_VIS
  5
1EA
 10
5.81048
 20
3.49665
 30
0.000000
  70
    32
  0
VERTEX
  8
AM_VIS
  5
1EB
 10
5.80928
 20
3.49592
 30
0.000000
  70
    32
  0
VERTEX
  8
AM_VIS
  5
1EC
 10
5.80807
 20
3.49519
 30
0.000000
  70
    32
  0
VERTEX
  8
AM_VIS
  5
1ED
 10
5.80685
 20
3.49446
 30
0.000000
  70
    32
  0
VERTEX
  8
AM_VIS
  5
1EE
 10
5.80564
 20
3.49374
 30
0.000000
  70
    32
  0
VERTEX
  8
AM_VIS
  5
1EF
 10
5.80442
 20
3.49302
 30
0.000000
  70
    32
  0
VERTEX
  8
AM_VIS
  5
1F0
 10
5.80320
 20
3.49230
 30
0.000000
  70
    32
  0
VERTEX
  8
AM_VIS
  5
1F1
 10
5.80197
 20
3.49159
 30
0.000000
  70
    32
  0
VERTEX
  8
AM_VIS
  5
1F2
 10
5.80075
 20
3.49088
 30
0.000000
  70
    32
  0
VERTEX
  8
AM_VIS
  5
1F3
 10
5.79952
 20
3.49018
 30
0.000000
  70
    32
  0
VERTEX
  8
AM_VIS
  5
1F4
 10
5.79829
 20
3.48948
 30
0.000000
  70
    32
  0
VERTEX
  8
AM_VIS
  5
1F5
 10
5.79706
 20
3.48878
 30
0.000000
  70
    32
  0
VERTEX
  8
AM_VIS
  5
1F6
 10
5.79582
 20
3.48808
 30
0.000000
  70
    32
  0
VERTEX
  8
AM_VIS
  5
1F7
 10
5.79458
 20
3.48739
 30
0.000000
  70
    32
  0
VERTEX
  8
AM_VIS
  5
1F8
 10
5.79334
 20
3.48671
 30
0.000000
  70
    32
  0
VERTEX
  8
AM_VIS
  5
1F9
 10
5.79210
 20
3.48602
 30
0.000000
  70
    32
  0
VERTEX
  8
AM_VIS
  5
1FA
 10
5.79086
 20
3.48534
 30
0.000000
  70
    32
  0
VERTEX
  8
AM_VIS
  5
1FB
 10
5.78961
 20
3.48467
 30
0.000000
  70
    32
  0
VERTEX
  8
AM_VIS
  5
1FC
 10
5.78836
 20
3.48400
 30
0.000000
  70
    32
  0
VERTEX
  8
AM_VIS
  5
1FD
 10
5.78711
 20
3.48333
 30
0.000000
  70
    32
  0
VERTEX
  8
AM_VIS
  5
1FE
 10
5.78585
 20
3.48266
 30
0.000000
  70
    32
  0
VERTEX
  8
AM_VIS
  5
1FF
 10
5.78460
 20
3.48200
 30
0.000000
  70
    32
  0
VERTEX
  8
AM_VIS
  5
200
 10
5.78334
 20
3.48135
 30
0.000000
  70
    32
  0
VERTEX
  8
AM_VIS
  5
201
 10
5.78208
 20
3.48069
 30
0.000000
  70
    32
  0
VERTEX
  8
AM_VIS
  5
202
 10
5.78081
 20
3.48004
 30
0.000000
  70
    32
  0
VERTEX
  8
AM_VIS
  5
203
 10
5.77955
 20
3.47940
 30
0.000000
  70
    32
  0
VERTEX
  8
AM_VIS
  5
204
 10
5.77828
 20
3.47876
 30
0.000000
  70
    32
  0
VERTEX
  8
AM_VIS
  5
205
 10
5.77701
 20
3.47812
 30
0.000000
  70
    32
  0
VERTEX
  8
AM_VIS
  5
206
 10
5.77574
 20
3.47749
 30
0.000000
  70
    32
  0
VERTEX
  8
AM_VIS
  5
207
 10
5.77446
 20
3.47686
 30
0.000000
  70
    32
  0
VERTEX
  8
AM_VIS
  5
208
 10
5.77318
 20
3.47624
 30
0.000000
  70
    32
  0
VERTEX
  8
AM_VIS
  5
209
 10
5.77190
 20
3.47561
 30
0.000000
  70
    32
  0
VERTEX
  8
AM_VIS
  5
20A
 10
5.77062
 20
3.47500
 30
0.000000
  70
    32
  0
VERTEX
  8
AM_VIS
  5
20B
 10
5.76934
 20
3.47438
 30
0.000000
  70
    32
  0
VERTEX
  8
AM_VIS
  5
20C
 10
5.76805
 20
3.47378
 30
0.000000
  70
    32
  0
VERTEX
  8
AM_VIS
  5
20D
 10
5.76676
 20
3.47317
 30
0.000000
  70
    32
  0
VERTEX
  8
AM_VIS
  5
20E
 10
5.76547
 20
3.47257
 30
0.000000
  70
    32
  0
VERTEX
  8
AM_VIS
  5
20F
 10
5.76418
 20
3.47198
 30
0.000000
  70
    32
  0
VERTEX
  8
AM_VIS
  5
210
 10
5.76288
 20
3.47138
 30
0.000000
  70
    32
  0
VERTEX
  8
AM_VIS
  5
211
 10
5.76158
 20
3.47080
 30
0.000000
  70
    32
  0
VERTEX
  8
AM_VIS
  5
212
 10
5.76028
 20
3.47021
 30
0.000000
  70
    32
  0
VERTEX
  8
AM_VIS
  5
213
 10
5.75898
 20
3.46963
 30
0.000000
  70
    32
  0
VERTEX
  8
AM_VIS
  5
214
 10
5.75768
 20
3.46906
 30
0.000000
  70
    32
  0
VERTEX
  8
AM_VIS
  5
215
 10
5.75637
 20
3.46849
 30
0.000000
  70
    32
  0
VERTEX
  8
AM_VIS
  5
216
 10
5.75506
 20
3.46792
 30
0.000000
  70
    32
  0
VERTEX
  8
AM_VIS
  5
217
 10
5.75375
 20
3.46736
 30
0.000000
  70
    32
  0
VERTEX
  8
AM_VIS
  5
218
 10
5.75244
 20
3.46680
 30
0.000000
  70
    32
  0
VERTEX
  8
AM_VIS
  5
219
 10
5.75112
 20
3.46625
 30
0.000000
  70
    32
  0
VERTEX
  8
AM_VIS
  5
21A
 10
5.74980
 20
3.46570
 30
0.000000
  70
    32
  0
VERTEX
  8
AM_VIS
  5
21B
 10
5.74849
 20
3.46516
 30
0.000000
  70
    32
  0
VERTEX
  8
AM_VIS
  5
21C
 10
5.74716
 20
3.46462
 30
0.000000
  70
    32
  0
VERTEX
  8
AM_VIS
  5
21D
 10
5.74584
 20
3.46408
 30
0.000000
  70
    32
  0
VERTEX
  8
AM_VIS
  5
21E
 10
5.74451
 20
3.46355
 30
0.000000
  70
    32
  0
VERTEX
  8
AM_VIS
  5
21F
 10
5.74319
 20
3.46303
 30
0.000000
  70
    32
  0
VERTEX
  8
AM_VIS
  5
220
 10
5.74186
 20
3.46250
 30
0.000000
  70
    32
  0
VERTEX
  8
AM_VIS
  5
221
 10
5.74052
 20
3.46199
 30
0.000000
  70
    32
  0
VERTEX
  8
AM_VIS
  5
222
 10
5.73919
 20
3.46148
 30
0.000000
  70
    32
  0
VERTEX
  8
AM_VIS
  5
223
 10
5.73785
 20
3.46097
 30
0.000000
  70
    32
  0
VERTEX
  8
AM_VIS
  5
224
 10
5.73651
 20
3.46046
 30
0.000000
  70
    32
  0
VERTEX
  8
AM_VIS
  5
225
 10
5.73517
 20
3.45997
 30
0.000000
  70
    32
  0
VERTEX
  8
AM_VIS
  5
226
 10
5.73383
 20
3.45947
 30
0.000000
  70
    32
  0
VERTEX
  8
AM_VIS
  5
227
 10
5.73249
 20
3.45898
 30
0.000000
  70
    32
  0
VERTEX
  8
AM_VIS
  5
228
 10
5.73114
 20
3.45850
 30
0.000000
  70
    32
  0
VERTEX
  8
AM_VIS
  5
229
 10
5.72979
 20
3.45802
 30
0.000000
  70
    32
  0
VERTEX
  8
AM_VIS
  5
22A
 10
5.72844
 20
3.45754
 30
0.000000
  70
    32
  0
VERTEX
  8
AM_VIS
  5
22B
 10
5.72709
 20
3.45707
 30
0.000000
  70
    32
  0
VERTEX
  8
AM_VIS
  5
22C
 10
5.72573
 20
3.45661
 30
0.000000
  70
    32
  0
VERTEX
  8
AM_VIS
  5
22D
 10
5.72437
 20
3.45615
 30
0.000000
  70
    32
  0
VERTEX
  8
AM_VIS
  5
22E
 10
5.72302
 20
3.45569
 30
0.000000
  70
    32
  0
VERTEX
  8
AM_VIS
  5
22F
 10
5.72165
 20
3.45524
 30
0.000000
  70
    32
  0
VERTEX
  8
AM_VIS
  5
230
 10
5.72029
 20
3.45480
 30
0.000000
  70
    32
  0
VERTEX
  8
AM_VIS
  5
231
 10
5.71893
 20
3.45436
 30
0.000000
  70
    32
  0
VERTEX
  8
AM_VIS
  5
232
 10
5.71756
 20
3.45392
 30
0.000000
  70
    32
  0
VERTEX
  8
AM_VIS
  5
233
 10
5.71619
 20
3.45349
 30
0.000000
  70
    32
  0
VERTEX
  8
AM_VIS
  5
234
 10
5.71482
 20
3.45306
 30
0.000000
  70
    32
  0
VERTEX
  8
AM_VIS
  5
235
 10
5.71345
 20
3.45264
 30
0.000000
  70
    32
  0
VERTEX
  8
AM_VIS
  5
236
 10
5.71207
 20
3.45223
 30
0.000000
  70
    32
  0
VERTEX
  8
AM_VIS
  5
237
 10
5.71069
 20
3.45182
 30
0.000000
  70
    32
  0
VERTEX
  8
AM_VIS
  5
238
 10
5.70932
 20
3.45141
 30
0.000000
  70
    32
  0
VERTEX
  8
AM_VIS
  5
239
 10
5.70793
 20
3.45101
 30
0.000000
  70
    32
  0
VERTEX
  8
AM_VIS
  5
23A
 10
5.70655
 20
3.45061
 30
0.000000
  70
    32
  0
VERTEX
  8
AM_VIS
  5
23B
 10
5.70517
 20
3.45022
 30
0.000000
  70
    32
  0
VERTEX
  8
AM_VIS
  5
23C
 10
5.70378
 20
3.44984
 30
0.000000
  70
    32
  0
VERTEX
  8
AM_VIS
  5
23D
 10
5.70239
 20
3.44946
 30
0.000000
  70
    32
  0
VERTEX
  8
AM_VIS
  5
23E
 10
5.70100
 20
3.44908
 30
0.000000
  70
    32
  0
VERTEX
  8
AM_VIS
  5
23F
 10
5.69961
 20
3.44872
 30
0.000000
  70
    32
  0
VERTEX
  8
AM_VIS
  5
240
 10
5.69822
 20
3.44835
 30
0.000000
  70
    32
  0
VERTEX
  8
AM_VIS
  5
241
 10
5.69682
 20
3.44799
 30
0.000000
  70
    32
  0
VERTEX
  8
AM_VIS
  5
242
 10
5.69542
 20
3.44764
 30
0.000000
  70
    32
  0
VERTEX
  8
AM_VIS
  5
243
 10
5.69402
 20
3.44729
 30
0.000000
  70
    32
  0
VERTEX
  8
AM_VIS
  5
244
 10
5.69262
 20
3.44695
 30
0.000000
  70
    32
  0
VERTEX
  8
AM_VIS
  5
245
 10
5.69122
 20
3.44661
 30
0.000000
  70
    32
  0
VERTEX
  8
AM_VIS
  5
246
 10
5.68981
 20
3.44628
 30
0.000000
  70
    32
  0
VERTEX
  8
AM_VIS
  5
247
 10
5.68841
 20
3.44595
 30
0.000000
  70
    32
  0
VERTEX
  8
AM_VIS
  5
248
 10
5.68700
 20
3.44563
 30
0.000000
  70
    32
  0
VERTEX
  8
AM_VIS
  5
249
 10
5.68559
 20
3.44531
 30
0.000000
  70
    32
  0
VERTEX
  8
AM_VIS
  5
24A
 10
5.68417
 20
3.44500
 30
0.000000
  70
    32
  0
VERTEX
  8
AM_VIS
  5
24B
 10
5.68276
 20
3.44470
 30
0.000000
  70
    32
  0
VERTEX
  8
AM_VIS
  5
24C
 10
5.68134
 20
3.44440
 30
0.000000
  70
    32
  0
VERTEX
  8
AM_VIS
  5
24D
 10
5.67992
 20
3.44410
 30
0.000000
  70
    32
  0
VERTEX
  8
AM_VIS
  5
24E
 10
5.67851
 20
3.44381
 30
0.000000
  70
    32
  0
VERTEX
  8
AM_VIS
  5
24F
 10
5.67709
 20
3.44353
 30
0.000000
  70
    32
  0
VERTEX
  8
AM_VIS
  5
250
 10
5.67567
 20
3.44325
 30
0.000000
  70
    32
  0
VERTEX
  8
AM_VIS
  5
251
 10
5.67425
 20
3.44298
 30
0.000000
  70
    32
  0
VERTEX
  8
AM_VIS
  5
252
 10
5.67283
 20
3.44272
 30
0.000000
  70
    32
  0
VERTEX
  8
AM_VIS
  5
253
 10
5.67141
 20
3.44246
 30
0.000000
  70
    32
  0
VERTEX
  8
AM_VIS
  5
254
 10
5.66998
 20
3.44221
 30
0.000000
  70
    32
  0
VERTEX
  8
AM_VIS
  5
255
 10
5.66856
 20
3.44196
 30
0.000000
  70
    32
  0
VERTEX
  8
AM_VIS
  5
256
 10
5.66714
 20
3.44172
 30
0.000000
  70
    32
  0
VERTEX
  8
AM_VIS
  5
257
 10
5.66572
 20
3.44148
 30
0.000000
  70
    32
  0
VERTEX
  8
AM_VIS
  5
258
 10
5.66429
 20
3.44125
 30
0.000000
  70
    32
  0
VERTEX
  8
AM_VIS
  5
259
 10
5.66287
 20
3.44103
 30
0.000000
  70
    32
  0
VERTEX
  8
AM_VIS
  5
25A
 10
5.66144
 20
3.44081
 30
0.000000
  70
    32
  0
VERTEX
  8
AM_VIS
  5
25B
 10
5.66002
 20
3.44060
 30
0.000000
  70
    32
  0
VERTEX
  8
AM_VIS
  5
25C
 10
5.65859
 20
3.44039
 30
0.000000
  70
    32
  0
VERTEX
  8
AM_VIS
  5
25D
 10
5.65716
 20
3.44019
 30
0.000000
  70
    32
  0
VERTEX
  8
AM_VIS
  5
25E
 10
5.65574
 20
3.43999
 30
0.000000
  70
    32
  0
VERTEX
  8
AM_VIS
  5
25F
 10
5.65431
 20
3.43980
 30
0.000000
  70
    32
  0
VERTEX
  8
AM_VIS
  5
260
 10
5.65288
 20
3.43962
 30
0.000000
  70
    32
  0
VERTEX
  8
AM_VIS
  5
261
 10
5.65145
 20
3.43944
 30
0.000000
  70
    32
  0
VERTEX
  8
AM_VIS
  5
262
 10
5.65002
 20
3.43927
 30
0.000000
  70
    32
  0
VERTEX
  8
AM_VIS
  5
263
 10
5.64859
 20
3.43911
 30
0.000000
  70
    32
  0
VERTEX
  8
AM_VIS
  5
264
 10
5.64716
 20
3.43895
 30
0.000000
  70
    32
  0
VERTEX
  8
AM_VIS
  5
265
 10
5.64573
 20
3.43879
 30
0.000000
  70
    32
  0
VERTEX
  8
AM_VIS
  5
266
 10
5.64430
 20
3.43865
 30
0.000000
  70
    32
  0
VERTEX
  8
AM_VIS
  5
267
 10
5.64287
 20
3.43850
 30
0.000000
  70
    32
  0
VERTEX
  8
AM_VIS
  5
268
 10
5.64144
 20
3.43837
 30
0.000000
  70
    32
  0
VERTEX
  8
AM_VIS
  5
269
 10
5.64001
 20
3.43824
 30
0.000000
  70
    32
  0
VERTEX
  8
AM_VIS
  5
26A
 10
5.63857
 20
3.43812
 30
0.000000
  70
    32
  0
VERTEX
  8
AM_VIS
  5
26B
 10
5.63714
 20
3.43800
 30
0.000000
  70
    32
  0
VERTEX
  8
AM_VIS
  5
26C
 10
5.63571
 20
3.43789
 30
0.000000
  70
    32
  0
VERTEX
  8
AM_VIS
  5
26D
 10
5.63427
 20
3.43778
 30
0.000000
  70
    32
  0
VERTEX
  8
AM_VIS
  5
26E
 10
5.63284
 20
3.43768
 30
0.000000
  70
    32
  0
VERTEX
  8
AM_VIS
  5
26F
 10
5.63140
 20
3.43759
 30
0.000000
  70
    32
  0
VERTEX
  8
AM_VIS
  5
270
 10
5.62997
 20
3.43750
 30
0.000000
  70
    32
  0
VERTEX
  8
AM_VIS
  5
271
 10
5.62853
 20
3.43742
 30
0.000000
  70
    32
  0
VERTEX
  8
AM_VIS
  5
272
 10
5.62709
 20
3.43734
 30
0.000000
  70
    32
  0
VERTEX
  8
AM_VIS
  5
273
 10
5.62565
 20
3.43727
 30
0.000000
  70
    32
  0
VERTEX
  8
AM_VIS
  5
274
 10
5.62422
 20
3.43721
 30
0.000000
  70
    32
  0
VERTEX
  8
AM_VIS
  5
275
 10
5.62278
 20
3.43715
 30
0.000000
  70
    32
  0
VERTEX
  8
AM_VIS
  5
276
 10
5.62134
 20
3.43710
 30
0.000000
  70
    32
  0
VERTEX
  8
AM_VIS
  5
277
 10
5.61990
 20
3.43705
 30
0.000000
  70
    32
  0
VERTEX
  8
AM_VIS
  5
278
 10
5.61846
 20
3.43701
 30
0.000000
  70
    32
  0
VERTEX
  8
AM_VIS
  5
279
 10
5.61702
 20
3.43697
 30
0.000000
  70
    32
  0
VERTEX
  8
AM_VIS
  5
27A
 10
5.61558
 20
3.43695
 30
0.000000
  70
    32
  0
VERTEX
  8
AM_VIS
  5
27B
 10
5.61414
 20
3.43692
 30
0.000000
  70
    32
  0
VERTEX
  8
AM_VIS
  5
27C
 10
5.61270
 20
3.43691
 30
0.000000
  70
    32
  0
VERTEX
  8
AM_VIS
  5
27D
 10
5.61126
 20
3.43690
 30
0.000000
  70
    32
  0
VERTEX
  8
AM_VIS
  5
27E
 10
5.60982
 20
3.43690
 30
0.000000
  70
    32
  0
VERTEX
  8
AM_VIS
  5
27F
 10
5.60837
 20
3.43690
 30
0.000000
  70
    32
  0
VERTEX
  8
AM_VIS
  5
280
 10
5.60693
 20
3.43691
 30
0.000000
  70
    32
  0
VERTEX
  8
AM_VIS
  5
281
 10
5.60549
 20
3.43692
 30
0.000000
  70
    32
  0
VERTEX
  8
AM_VIS
  5
282
 10
5.60404
 20
3.43694
 30
0.000000
  70
    32
  0
VERTEX
  8
AM_VIS
  5
283
 10
5.60260
 20
3.43697
 30
0.000000
  70
    32
  0
VERTEX
  8
AM_VIS
  5
284
 10
5.60115
 20
3.43700
 30
0.000000
  70
    32
  0
VERTEX
  8
AM_VIS
  5
285
 10
5.59971
 20
3.43704
 30
0.000000
  70
    32
  0
VERTEX
  8
AM_VIS
  5
286
 10
5.59826
 20
3.43708
 30
0.000000
  70
    32
  0
VERTEX
  8
AM_VIS
  5
287
 10
5.59682
 20
3.43713
 30
0.000000
  70
    32
  0
VERTEX
  8
AM_VIS
  5
288
 10
5.59537
 20
3.43719
 30
0.000000
  70
    32
  0
VERTEX
  8
AM_VIS
  5
289
 10
5.59392
 20
3.43725
 30
0.000000
  70
    32
  0
VERTEX
  8
AM_VIS
  5
28A
 10
5.59248
 20
3.43732
 30
0.000000
  70
    32
  0
VERTEX
  8
AM_VIS
  5
28B
 10
5.59103
 20
3.43740
 30
0.000000
  70
    32
  0
VERTEX
  8
AM_VIS
  5
28C
 10
5.58958
 20
3.43748
 30
0.000000
  70
    32
  0
VERTEX
  8
AM_VIS
  5
28D
 10
5.58813
 20
3.43757
 30
0.000000
  70
    32
  0
VERTEX
  8
AM_VIS
  5
28E
 10
5.58668
 20
3.43766
 30
0.000000
  70
    32
  0
VERTEX
  8
AM_VIS
  5
28F
 10
5.58524
 20
3.43776
 30
0.000000
  70
    32
  0
VERTEX
  8
AM_VIS
  5
290
 10
5.58379
 20
3.43787
 30
0.000000
  70
    32
  0
VERTEX
  8
AM_VIS
  5
291
 10
5.58234
 20
3.43798
 30
0.000000
  70
    32
  0
VERTEX
  8
AM_VIS
  5
292
 10
5.58089
 20
3.43810
 30
0.000000
  70
    32
  0
VERTEX
  8
AM_VIS
  5
293
 10
5.57944
 20
3.43822
 30
0.000000
  70
    32
  0
VERTEX
  8
AM_VIS
  5
294
 10
5.57798
 20
3.43835
 30
0.000000
  70
    32
  0
VERTEX
  8
AM_VIS
  5
295
 10
5.57653
 20
3.43849
 30
0.000000
  70
    32
  0
VERTEX
  8
AM_VIS
  5
296
 10
5.57508
 20
3.43863
 30
0.000000
  70
    32
  0
VERTEX
  8
AM_VIS
  5
297
 10
5.57363
 20
3.43878
 30
0.000000
  70
    32
  0
VERTEX
  8
AM_VIS
  5
298
 10
5.57218
 20
3.43894
 30
0.000000
  70
    32
  0
VERTEX
  8
AM_VIS
  5
299
 10
5.57072
 20
3.43910
 30
0.000000
  70
    32
  0
VERTEX
  8
AM_VIS
  5
29A
 10
5.56927
 20
3.43927
 30
0.000000
  70
    32
  0
VERTEX
  8
AM_VIS
  5
29B
 10
5.56782
 20
3.43944
 30
0.000000
  70
    32
  0
VERTEX
  8
AM_VIS
  5
29C
 10
5.56636
 20
3.43962
 30
0.000000
  70
    32
  0
VERTEX
  8
AM_VIS
  5
29D
 10
5.56491
 20
3.43981
 30
0.000000
  70
    32
  0
VERTEX
  8
AM_VIS
  5
29E
 10
5.56346
 20
3.44000
 30
0.000000
  70
    32
  0
VERTEX
  8
AM_VIS
  5
29F
 10
5.56200
 20
3.44020
 30
0.000000
  70
    32
  0
VERTEX
  8
AM_VIS
  5
2A0
 10
5.56055
 20
3.44041
 30
0.000000
  70
    32
  0
VERTEX
  8
AM_VIS
  5
2A1
 10
5.55909
 20
3.44062
 30
0.000000
  70
    32
  0
VERTEX
  8
AM_VIS
  5
2A2
 10
5.55763
 20
3.44084
 30
0.000000
  70
    32
  0
VERTEX
  8
AM_VIS
  5
2A3
 10
5.55618
 20
3.44106
 30
0.000000
  70
    32
  0
VERTEX
  8
AM_VIS
  5
2A4
 10
5.55472
 20
3.44129
 30
0.000000
  70
    32
  0
VERTEX
  8
AM_VIS
  5
2A5
 10
5.55327
 20
3.44153
 30
0.000000
  70
    32
  0
VERTEX
  8
AM_VIS
  5
2A6
 10
5.55181
 20
3.44177
 30
0.000000
  70
    32
  0
VERTEX
  8
AM_VIS
  5
2A7
 10
5.55035
 20
3.44202
 30
0.000000
  70
    32
  0
VERTEX
  8
AM_VIS
  5
2A8
 10
5.54889
 20
3.44227
 30
0.000000
  70
    32
  0
VERTEX
  8
AM_VIS
  5
2A9
 10
5.54744
 20
3.44254
 30
0.000000
  70
    32
  0
VERTEX
  8
AM_VIS
  5
2AA
 10
5.54598
 20
3.44280
 30
0.000000
  70
    32
  0
VERTEX
  8
AM_VIS
  5
2AB
 10
5.54452
 20
3.44308
 30
0.000000
  70
    32
  0
VERTEX
  8
AM_VIS
  5
2AC
 10
5.54306
 20
3.44336
 30
0.000000
  70
    32
  0
VERTEX
  8
AM_VIS
  5
2AD
 10
5.54160
 20
3.44365
 30
0.000000
  70
    32
  0
VERTEX
  8
AM_VIS
  5
2AE
 10
5.54014
 20
3.44394
 30
0.000000
  70
    32
  0
VERTEX
  8
AM_VIS
  5
2AF
 10
5.53869
 20
3.44424
 30
0.000000
  70
    32
  0
VERTEX
  8
AM_VIS
  5
2B0
 10
5.53723
 20
3.44454
 30
0.000000
  70
    32
  0
VERTEX
  8
AM_VIS
  5
2B1
 10
5.53577
 20
3.44485
 30
0.000000
  70
    32
  0
VERTEX
  8
AM_VIS
  5
2B2
 10
5.53432
 20
3.44517
 30
0.000000
  70
    32
  0
VERTEX
  8
AM_VIS
  5
2B3
 10
5.53287
 20
3.44549
 30
0.000000
  70
    32
  0
VERTEX
  8
AM_VIS
  5
2B4
 10
5.53142
 20
3.44582
 30
0.000000
  70
    32
  0
VERTEX
  8
AM_VIS
  5
2B5
 10
5.52997
 20
3.44616
 30
0.000000
  70
    32
  0
VERTEX
  8
AM_VIS
  5
2B6
 10
5.52852
 20
3.44650
 30
0.000000
  70
    32
  0
VERTEX
  8
AM_VIS
  5
2B7
 10
5.52707
 20
3.44685
 30
0.000000
  70
    32
  0
VERTEX
  8
AM_VIS
  5
2B8
 10
5.52563
 20
3.44720
 30
0.000000
  70
    32
  0
VERTEX
  8
AM_VIS
  5
2B9
 10
5.52418
 20
3.44756
 30
0.000000
  70
    32
  0
VERTEX
  8
AM_VIS
  5
2BA
 10
5.52274
 20
3.44792
 30
0.000000
  70
    32
  0
VERTEX
  8
AM_VIS
  5
2BB
 10
5.52130
 20
3.44829
 30
0.000000
  70
    32
  0
VERTEX
  8
AM_VIS
  5
2BC
 10
5.51985
 20
3.44867
 30
0.000000
  70
    32
  0
VERTEX
  8
AM_VIS
  5
2BD
 10
5.51842
 20
3.44905
 30
0.000000
  70
    32
  0
VERTEX
  8
AM_VIS
  5
2BE
 10
5.51698
 20
3.44944
 30
0.000000
  70
    32
  0
VERTEX
  8
AM_VIS
  5
2BF
 10
5.51554
 20
3.44983
 30
0.000000
  70
    32
  0
VERTEX
  8
AM_VIS
  5
2C0
 10
5.51410
 20
3.45023
 30
0.000000
  70
    32
  0
VERTEX
  8
AM_VIS
  5
2C1
 10
5.51267
 20
3.45064
 30
0.000000
  70
    32
  0
VERTEX
  8
AM_VIS
  5
2C2
 10
5.51124
 20
3.45105
 30
0.000000
  70
    32
  0
VERTEX
  8
AM_VIS
  5
2C3
 10
5.50981
 20
3.45146
 30
0.000000
  70
    32
  0
VERTEX
  8
AM_VIS
  5
2C4
 10
5.50838
 20
3.45188
 30
0.000000
  70
    32
  0
VERTEX
  8
AM_VIS
  5
2C5
 10
5.50695
 20
3.45231
 30
0.000000
  70
    32
  0
VERTEX
  8
AM_VIS
  5
2C6
 10
5.50552
 20
3.45275
 30
0.000000
  70
    32
  0
VERTEX
  8
AM_VIS
  5
2C7
 10
5.50410
 20
3.45318
 30
0.000000
  70
    32
  0
VERTEX
  8
AM_VIS
  5
2C8
 10
5.50267
 20
3.45363
 30
0.000000
  70
    32
  0
VERTEX
  8
AM_VIS
  5
2C9
 10
5.50125
 20
3.45408
 30
0.000000
  70
    32
  0
VERTEX
  8
AM_VIS
  5
2CA
 10
5.49983
 20
3.45454
 30
0.000000
  70
    32
  0
VERTEX
  8
AM_VIS
  5
2CB
 10
5.49841
 20
3.45500
 30
0.000000
  70
    32
  0
VERTEX
  8
AM_VIS
  5
2CC
 10
5.49699
 20
3.45546
 30
0.000000
  70
    32
  0
VERTEX
  8
AM_VIS
  5
2CD
 10
5.49557
 20
3.45594
 30
0.000000
  70
    32
  0
VERTEX
  8
AM_VIS
  5
2CE
 10
5.49416
 20
3.45641
 30
0.000000
  70
    32
  0
VERTEX
  8
AM_VIS
  5
2CF
 10
5.49274
 20
3.45690
 30
0.000000
  70
    32
  0
VERTEX
  8
AM_VIS
  5
2D0
 10
5.49133
 20
3.45739
 30
0.000000
  70
    32
  0
VERTEX
  8
AM_VIS
  5
2D1
 10
5.48992
 20
3.45788
 30
0.000000
  70
    32
  0
VERTEX
  8
AM_VIS
  5
2D2
 10
5.48851
 20
3.45838
 30
0.000000
  70
    32
  0
VERTEX
  8
AM_VIS
  5
2D3
 10
5.48710
 20
3.45888
 30
0.000000
  70
    32
  0
VERTEX
  8
AM_VIS
  5
2D4
 10
5.48570
 20
3.45939
 30
0.000000
  70
    32
  0
VERTEX
  8
AM_VIS
  5
2D5
 10
5.48429
 20
3.45991
 30
0.000000
  70
    32
  0
VERTEX
  8
AM_VIS
  5
2D6
 10
5.48289
 20
3.46043
 30
0.000000
  70
    32
  0
VERTEX
  8
AM_VIS
  5
2D7
 10
5.48149
 20
3.46096
 30
0.000000
  70
    32
  0
VERTEX
  8
AM_VIS
  5
2D8
 10
5.48009
 20
3.46149
 30
0.000000
  70
    32
  0
VERTEX
  8
AM_VIS
  5
2D9
 10
5.47869
 20
3.46203
 30
0.000000
  70
    32
  0
VERTEX
  8
AM_VIS
  5
2DA
 10
5.47730
 20
3.46257
 30
0.000000
  70
    32
  0
VERTEX
  8
AM_VIS
  5
2DB
 10
5.47590
 20
3.46312
 30
0.000000
  70
    32
  0
VERTEX
  8
AM_VIS
  5
2DC
 10
5.47451
 20
3.46367
 30
0.000000
  70
    32
  0
VERTEX
  8
AM_VIS
  5
2DD
 10
5.47312
 20
3.46423
 30
0.000000
  70
    32
  0
VERTEX
  8
AM_VIS
  5
2DE
 10
5.47173
 20
3.46479
 30
0.000000
  70
    32
  0
VERTEX
  8
AM_VIS
  5
2DF
 10
5.47034
 20
3.46536
 30
0.000000
  70
    32
  0
VERTEX
  8
AM_VIS
  5
2E0
 10
5.46895
 20
3.46593
 30
0.000000
  70
    32
  0
VERTEX
  8
AM_VIS
  5
2E1
 10
5.46757
 20
3.46651
 30
0.000000
  70
    32
  0
VERTEX
  8
AM_VIS
  5
2E2
 10
5.46619
 20
3.46710
 30
0.000000
  70
    32
  0
VERTEX
  8
AM_VIS
  5
2E3
 10
5.46481
 20
3.46769
 30
0.000000
  70
    32
  0
VERTEX
  8
AM_VIS
  5
2E4
 10
5.46343
 20
3.46828
 30
0.000000
  70
    32
  0
VERTEX
  8
AM_VIS
  5
2E5
 10
5.46205
 20
3.46888
 30
0.000000
  70
    32
  0
VERTEX
  8
AM_VIS
  5
2E6
 10
5.46068
 20
3.46948
 30
0.000000
  70
    32
  0
VERTEX
  8
AM_VIS
  5
2E7
 10
5.45930
 20
3.47009
 30
0.000000
  70
    32
  0
VERTEX
  8
AM_VIS
  5
2E8
 10
5.45793
 20
3.47071
 30
0.000000
  70
    32
  0
VERTEX
  8
AM_VIS
  5
2E9
 10
5.45656
 20
3.47133
 30
0.000000
  70
    32
  0
VERTEX
  8
AM_VIS
  5
2EA
 10
5.45519
 20
3.47195
 30
0.000000
  70
    32
  0
VERTEX
  8
AM_VIS
  5
2EB
 10
5.45383
 20
3.47258
 30
0.000000
  70
    32
  0
VERTEX
  8
AM_VIS
  5
2EC
 10
5.45246
 20
3.47321
 30
0.000000
  70
    32
  0
VERTEX
  8
AM_VIS
  5
2ED
 10
5.45110
 20
3.47385
 30
0.000000
  70
    32
  0
VERTEX
  8
AM_VIS
  5
2EE
 10
5.44974
 20
3.47450
 30
0.000000
  70
    32
  0
VERTEX
  8
AM_VIS
  5
2EF
 10
5.44838
 20
3.47515
 30
0.000000
  70
    32
  0
VERTEX
  8
AM_VIS
  5
2F0
 10
5.44702
 20
3.47580
 30
0.000000
  70
    32
  0
VERTEX
  8
AM_VIS
  5
2F1
 10
5.44567
 20
3.47646
 30
0.000000
  70
    32
  0
VERTEX
  8
AM_VIS
  5
2F2
 10
5.44431
 20
3.47712
 30
0.000000
  70
    32
  0
VERTEX
  8
AM_VIS
  5
2F3
 10
5.44296
 20
3.47779
 30
0.000000
  70
    32
  0
VERTEX
  8
AM_VIS
  5
2F4
 10
5.44161
 20
3.47846
 30
0.000000
  70
    32
  0
VERTEX
  8
AM_VIS
  5
2F5
 10
5.44026
 20
3.47914
 30
0.000000
  70
    32
  0
VERTEX
  8
AM_VIS
  5
2F6
 10
5.43892
 20
3.47982
 30
0.000000
  70
    32
  0
VERTEX
  8
AM_VIS
  5
2F7
 10
5.43758
 20
3.48051
 30
0.000000
  70
    32
  0
VERTEX
  8
AM_VIS
  5
2F8
 10
5.43623
 20
3.48120
 30
0.000000
  70
    32
  0
VERTEX
  8
AM_VIS
  5
2F9
 10
5.43490
 20
3.48190
 30
0.000000
  70
    32
  0
VERTEX
  8
AM_VIS
  5
2FA
 10
5.43356
 20
3.48260
 30
0.000000
  70
    32
  0
VERTEX
  8
AM_VIS
  5
2FB
 10
5.43222
 20
3.48331
 30
0.000000
  70
    32
  0
VERTEX
  8
AM_VIS
  5
2FC
 10
5.43089
 20
3.48402
 30
0.000000
  70
    32
  0
VERTEX
  8
AM_VIS
  5
2FD
 10
5.42956
 20
3.48474
 30
0.000000
  70
    32
  0
VERTEX
  8
AM_VIS
  5
2FE
 10
5.42823
 20
3.48546
 30
0.000000
  70
    32
  0
VERTEX
  8
AM_VIS
  5
2FF
 10
5.42690
 20
3.48618
 30
0.000000
  70
    32
  0
VERTEX
  8
AM_VIS
  5
300
 10
5.42558
 20
3.48691
 30
0.000000
  70
    32
  0
VERTEX
  8
AM_VIS
  5
301
 10
5.42425
 20
3.48764
 30
0.000000
  70
    32
  0
VERTEX
  8
AM_VIS
  5
302
 10
5.42293
 20
3.48838
 30
0.000000
  70
    32
  0
VERTEX
  8
AM_VIS
  5
303
 10
5.42161
 20
3.48913
 30
0.000000
  70
    32
  0
VERTEX
  8
AM_VIS
  5
304
 10
5.42030
 20
3.48987
 30
0.000000
  70
    32
  0
VERTEX
  8
AM_VIS
  5
305
 10
5.41898
 20
3.49063
 30
0.000000
  70
    32
  0
VERTEX
  8
AM_VIS
  5
306
 10
5.41767
 20
3.49138
 30
0.000000
  70
    32
  0
VERTEX
  8
AM_VIS
  5
307
 10
5.41636
 20
3.49214
 30
0.000000
  70
    32
  0
VERTEX
  8
AM_VIS
  5
308
 10
5.41505
 20
3.49291
 30
0.000000
  70
    32
  0
VERTEX
  8
AM_VIS
  5
309
 10
5.41374
 20
3.49368
 30
0.000000
  70
    32
  0
VERTEX
  8
AM_VIS
  5
30A
 10
5.41244
 20
3.49445
 30
0.000000
  70
    32
  0
VERTEX
  8
AM_VIS
  5
30B
 10
5.41114
 20
3.49523
 30
0.000000
  70
    32
  0
VERTEX
  8
AM_VIS
  5
30C
 10
5.40984
 20
3.49602
 30
0.000000
  70
    32
  0
VERTEX
  8
AM_VIS
  5
30D
 10
5.40854
 20
3.49680
 30
0.000000
  70
    32
  0
VERTEX
  8
AM_VIS
  5
30E
 10
5.40725
 20
3.49760
 30
0.000000
  70
    32
  0
VERTEX
  8
AM_VIS
  5
30F
 10
5.40596
 20
3.49839
 30
0.000000
  70
    32
  0
VERTEX
  8
AM_VIS
  5
310
 10
5.40466
 20
3.49919
 30
0.000000
  70
    32
  0
VERTEX
  8
AM_VIS
  5
311
 10
5.40338
 20
3.50000
 30
0.000000
  70
    32
  0
VERTEX
  8
AM_VIS
  5
312
 10
5.40209
 20
3.50081
 30
0.000000
  70
    32
  0
VERTEX
  8
AM_VIS
  5
313
 10
5.40081
 20
3.50162
 30
0.000000
  70
    32
  0
VERTEX
  8
AM_VIS
  5
314
 10
5.39953
 20
3.50244
 30
0.000000
  70
    32
  0
VERTEX
  8
AM_VIS
  5
315
 10
5.39825
 20
3.50326
 30
0.000000
  70
    32
  0
VERTEX
  8
AM_VIS
  5
316
 10
5.39697
 20
3.50408
 30
0.000000
  70
    32
  0
VERTEX
  8
AM_VIS
  5
317
 10
5.39570
 20
3.50491
 30
0.000000
  70
    32
  0
VERTEX
  8
AM_VIS
  5
318
 10
5.39442
 20
3.50575
 30
0.000000
  70
    32
  0
VERTEX
  8
AM_VIS
  5
319
 10
5.39315
 20
3.50659
 30
0.000000
  70
    32
  0
VERTEX
  8
AM_VIS
  5
31A
 10
5.39189
 20
3.50743
 30
0.000000
  70
    32
  0
VERTEX
  8
AM_VIS
  5
31B
 10
5.39062
 20
3.50828
 30
0.000000
  70
    32
  0
VERTEX
  8
AM_VIS
  5
31C
 10
5.38936
 20
3.50913
 30
0.000000
  70
    32
  0
VERTEX
  8
AM_VIS
  5
31D
 10
5.38810
 20
3.50998
 30
0.000000
  70
    32
  0
VERTEX
  8
AM_VIS
  5
31E
 10
5.38684
 20
3.51084
 30
0.000000
  70
    32
  0
VERTEX
  8
AM_VIS
  5
31F
 10
5.38558
 20
3.51170
 30
0.000000
  70
    32
  0
VERTEX
  8
AM_VIS
  5
320
 10
5.38433
 20
3.51257
 30
0.000000
  70
    32
  0
VERTEX
  8
AM_VIS
  5
321
 10
5.38307
 20
3.51345
 30
0.000000
  70
    32
  0
VERTEX
  8
AM_VIS
  5
322
 10
5.38182
 20
3.51432
 30
0.000000
  70
    32
  0
VERTEX
  8
AM_VIS
  5
323
 10
5.38057
 20
3.51520
 30
0.000000
  70
    32
  0
VERTEX
  8
AM_VIS
  5
324
 10
5.37933
 20
3.51609
 30
0.000000
  70
    32
  0
VERTEX
  8
AM_VIS
  5
325
 10
5.37808
 20
3.51698
 30
0.000000
  70
    32
  0
VERTEX
  8
AM_VIS
  5
326
 10
5.37683
 20
3.51788
 30
0.000000
  70
    32
  0
VERTEX
  8
AM_VIS
  5
327
 10
5.37559
 20
3.51878
 30
0.000000
  70
    32
  0
VERTEX
  8
AM_VIS
  5
328
 10
5.37435
 20
3.51968
 30
0.000000
  70
    32
  0
VERTEX
  8
AM_VIS
  5
329
 10
5.37311
 20
3.52059
 30
0.000000
  70
    32
  0
VERTEX
  8
AM_VIS
  5
32A
 10
5.37188
 20
3.52150
 30
0.000000
  70
    32
  0
VERTEX
  8
AM_VIS
  5
32B
 10
5.37064
 20
3.52242
 30
0.000000
  70
    32
  0
VERTEX
  8
AM_VIS
  5
32C
 10
5.36941
 20
3.52334
 30
0.000000
  70
    32
  0
VERTEX
  8
AM_VIS
  5
32D
 10
5.36818
 20
3.52426
 30
0.000000
  70
    32
  0
VERTEX
  8
AM_VIS
  5
32E
 10
5.36695
 20
3.52519
 30
0.000000
  70
    32
  0
VERTEX
  8
AM_VIS
  5
32F
 10
5.36572
 20
3.52613
 30
0.000000
  70
    32
  0
VERTEX
  8
AM_VIS
  5
330
 10
5.36450
 20
3.52706
 30
0.000000
  70
    32
  0
VERTEX
  8
AM_VIS
  5
331
 10
5.36328
 20
3.52801
 30
0.000000
  70
    32
  0
VERTEX
  8
AM_VIS
  5
332
 10
5.36206
 20
3.52895
 30
0.000000
  70
    32
  0
VERTEX
  8
AM_VIS
  5
333
 10
5.36084
 20
3.52990
 30
0.000000
  70
    32
  0
VERTEX
  8
AM_VIS
  5
334
 10
5.35962
 20
3.53086
 30
0.000000
  70
    32
  0
VERTEX
  8
AM_VIS
  5
335
 10
5.35841
 20
3.53182
 30
0.000000
  70
    32
  0
VERTEX
  8
AM_VIS
  5
336
 10
5.35720
 20
3.53278
 30
0.000000
  70
    32
  0
VERTEX
  8
AM_VIS
  5
337
 10
5.35599
 20
3.53375
 30
0.000000
  70
    32
  0
VERTEX
  8
AM_VIS
  5
338
 10
5.35478
 20
3.53472
 30
0.000000
  70
    32
  0
VERTEX
  8
AM_VIS
  5
339
 10
5.35358
 20
3.53569
 30
0.000000
  70
    32
  0
SEQEND
  8
AM_VIS
  5
33A
  0
POLYLINE
  8
AM_VIS
  5
33B
  66
     1
 10
0.000000
 20
0.000000
 30
0.000000
  70
     8
  0
VERTEX
  8
AM_VIS
  5
33C
 10
6.02618
 20
3.43454
 30
0.000000
  70
    32
  0
VERTEX
  8
AM_VIS
  5
33D
 10
6.02585
 20
3.43487
 30
0.000000
  70
    32
  0
VERTEX
  8
AM_VIS
  5
33E
 10
6.02553
 20
3.43520
 30
0.000000
  70
    32
  0
VERTEX
  8
AM_VIS
  5
33F
 10
6.02520
 20
3.43553
 30
0.000000
  70
    32
  0
VERTEX
  8
AM_VIS
  5
340
 10
6.02488
 20
3.43586
 30
0.000000
  70
    32
  0
VERTEX
  8
AM_VIS
  5
341
 10
6.02455
 20
3.43620
 30
0.000000
  70
    32
  0
VERTEX
  8
AM_VIS
  5
342
 10
6.02423
 20
3.43654
 30
0.000000
  70
    32
  0
VERTEX
  8
AM_VIS
  5
343
 10
6.02391
 20
3.43688
 30
0.000000
  70
    32
  0
VERTEX
  8
AM_VIS
  5
344
 10
6.02359
 20
3.43722
 30
0.000000
  70
    32
  0
VERTEX
  8
AM_VIS
  5
345
 10
6.02328
 20
3.43756
 30
0.000000
  70
    32
  0
VERTEX
  8
AM_VIS
  5
346
 10
6.02296
 20
3.43790
 30
0.000000
  70
    32
  0
VERTEX
  8
AM_VIS
  5
347
 10
6.02265
 20
3.43825
 30
0.000000
  70
    32
  0
VERTEX
  8
AM_VIS
  5
348
 10
6.02234
 20
3.43859
 30
0.000000
  70
    32
  0
VERTEX
  8
AM_VIS
  5
349
 10
6.02202
 20
3.43894
 30
0.000000
  70
    32
  0
VERTEX
  8
AM_VIS
  5
34A
 10
6.02172
 20
3.43929
 30
0.000000
  70
    32
  0
VERTEX
  8
AM_VIS
  5
34B
 10
6.02141
 20
3.43964
 30
0.000000
  70
    32
  0
VERTEX
  8
AM_VIS
  5
34C
 10
6.02110
 20
3.43999
 30
0.000000
  70
    32
  0
VERTEX
  8
AM_VIS
  5
34D
 10
6.02080
 20
3.44034
 30
0.000000
  70
    32
  0
VERTEX
  8
AM_VIS
  5
34E
 10
6.02050
 20
3.44069
 30
0.000000
  70
    32
  0
VERTEX
  8
AM_VIS
  5
34F
 10
6.02020
 20
3.44104
 30
0.000000
  70
    32
  0
VERTEX
  8
AM_VIS
  5
350
 10
6.01990
 20
3.44140
 30
0.000000
  70
    32
  0
VERTEX
  8
AM_VIS
  5
351
 10
6.01960
 20
3.44175
 30
0.000000
  70
    32
  0
VERTEX
  8
AM_VIS
  5
352
 10
6.01931
 20
3.44211
 30
0.000000
  70
    32
  0
VERTEX
  8
AM_VIS
  5
353
 10
6.01902
 20
3.44247
 30
0.000000
  70
    32
  0
VERTEX
  8
AM_VIS
  5
354
 10
6.01873
 20
3.44282
 30
0.000000
  70
    32
  0
VERTEX
  8
AM_VIS
  5
355
 10
6.01844
 20
3.44318
 30
0.000000
  70
    32
  0
VERTEX
  8
AM_VIS
  5
356
 10
6.01815
 20
3.44354
 30
0.000000
  70
    32
  0
VERTEX
  8
AM_VIS
  5
357
 10
6.01787
 20
3.44391
 30
0.000000
  70
    32
  0
VERTEX
  8
AM_VIS
  5
358
 10
6.01758
 20
3.44427
 30
0.000000
  70
    32
  0
VERTEX
  8
AM_VIS
  5
359
 10
6.01730
 20
3.44463
 30
0.000000
  70
    32
  0
VERTEX
  8
AM_VIS
  5
35A
 10
6.01702
 20
3.44500
 30
0.000000
  70
    32
  0
VERTEX
  8
AM_VIS
  5
35B
 10
6.01674
 20
3.44536
 30
0.000000
  70
    32
  0
VERTEX
  8
AM_VIS
  5
35C
 10
6.01647
 20
3.44573
 30
0.000000
  70
    32
  0
VERTEX
  8
AM_VIS
  5
35D
 10
6.01619
 20
3.44610
 30
0.000000
  70
    32
  0
VERTEX
  8
AM_VIS
  5
35E
 10
6.01592
 20
3.44646
 30
0.000000
  70
    32
  0
VERTEX
  8
AM_VIS
  5
35F
 10
6.01565
 20
3.44683
 30
0.000000
  70
    32
  0
VERTEX
  8
AM_VIS
  5
360
 10
6.01538
 20
3.44721
 30
0.000000
  70
    32
  0
VERTEX
  8
AM_VIS
  5
361
 10
6.01511
 20
3.44758
 30
0.000000
  70
    32
  0
VERTEX
  8
AM_VIS
  5
362
 10
6.01484
 20
3.44795
 30
0.000000
  70
    32
  0
VERTEX
  8
AM_VIS
  5
363
 10
6.01458
 20
3.44832
 30
0.000000
  70
    32
  0
VERTEX
  8
AM_VIS
  5
364
 10
6.01432
 20
3.44870
 30
0.000000
  70
    32
  0
VERTEX
  8
AM_VIS
  5
365
 10
6.01406
 20
3.44907
 30
0.000000
  70
    32
  0
VERTEX
  8
AM_VIS
  5
366
 10
6.01380
 20
3.44945
 30
0.000000
  70
    32
  0
VERTEX
  8
AM_VIS
  5
367
 10
6.01354
 20
3.44983
 30
0.000000
  70
    32
  0
VERTEX
  8
AM_VIS
  5
368
 10
6.01328
 20
3.45021
 30
0.000000
  70
    32
  0
VERTEX
  8
AM_VIS
  5
369
 10
6.01303
 20
3.45059
 30
0.000000
  70
    32
  0
VERTEX
  8
AM_VIS
  5
36A
 10
6.01278
 20
3.45097
 30
0.000000
  70
    32
  0
VERTEX
  8
AM_VIS
  5
36B
 10
6.01253
 20
3.45135
 30
0.000000
  70
    32
  0
VERTEX
  8
AM_VIS
  5
36C
 10
6.01228
 20
3.45173
 30
0.000000
  70
    32
  0
VERTEX
  8
AM_VIS
  5
36D
 10
6.01203
 20
3.45212
 30
0.000000
  70
    32
  0
VERTEX
  8
AM_VIS
  5
36E
 10
6.01179
 20
3.45250
 30
0.000000
  70
    32
  0
VERTEX
  8
AM_VIS
  5
36F
 10
6.01154
 20
3.45289
 30
0.000000
  70
    32
  0
VERTEX
  8
AM_VIS
  5
370
 10
6.01130
 20
3.45328
 30
0.000000
  70
    32
  0
VERTEX
  8
AM_VIS
  5
371
 10
6.01106
 20
3.45366
 30
0.000000
  70
    32
  0
VERTEX
  8
AM_VIS
  5
372
 10
6.01082
 20
3.45405
 30
0.000000
  70
    32
  0
VERTEX
  8
AM_VIS
  5
373
 10
6.01059
 20
3.45444
 30
0.000000
  70
    32
  0
VERTEX
  8
AM_VIS
  5
374
 10
6.01035
 20
3.45483
 30
0.000000
  70
    32
  0
VERTEX
  8
AM_VIS
  5
375
 10
6.01012
 20
3.45523
 30
0.000000
  70
    32
  0
VERTEX
  8
AM_VIS
  5
376
 10
6.00989
 20
3.45562
 30
0.000000
  70
    32
  0
VERTEX
  8
AM_VIS
  5
377
 10
6.00966
 20
3.45601
 30
0.000000
  70
    32
  0
VERTEX
  8
AM_VIS
  5
378
 10
6.00943
 20
3.45641
 30
0.000000
  70
    32
  0
VERTEX
  8
AM_VIS
  5
379
 10
6.00920
 20
3.45680
 30
0.000000
  70
    32
  0
VERTEX
  8
AM_VIS
  5
37A
 10
6.00898
 20
3.45720
 30
0.000000
  70
    32
  0
VERTEX
  8
AM_VIS
  5
37B
 10
6.00875
 20
3.45760
 30
0.000000
  70
    32
  0
VERTEX
  8
AM_VIS
  5
37C
 10
6.00853
 20
3.45800
 30
0.000000
  70
    32
  0
VERTEX
  8
AM_VIS
  5
37D
 10
6.00831
 20
3.45840
 30
0.000000
  70
    32
  0
VERTEX
  8
AM_VIS
  5
37E
 10
6.00809
 20
3.45880
 30
0.000000
  70
    32
  0
VERTEX
  8
AM_VIS
  5
37F
 10
6.00788
 20
3.45920
 30
0.000000
  70
    32
  0
VERTEX
  8
AM_VIS
  5
380
 10
6.00766
 20
3.45960
 30
0.000000
  70
    32
  0
VERTEX
  8
AM_VIS
  5
381
 10
6.00745
 20
3.46001
 30
0.000000
  70
    32
  0
VERTEX
  8
AM_VIS
  5
382
 10
6.00724
 20
3.46041
 30
0.000000
  70
    32
  0
VERTEX
  8
AM_VIS
  5
383
 10
6.00703
 20
3.46082
 30
0.000000
  70
    32
  0
VERTEX
  8
AM_VIS
  5
384
 10
6.00682
 20
3.46123
 30
0.000000
  70
    32
  0
VERTEX
  8
AM_VIS
  5
385
 10
6.00661
 20
3.46163
 30
0.000000
  70
    32
  0
VERTEX
  8
AM_VIS
  5
386
 10
6.00641
 20
3.46204
 30
0.000000
  70
    32
  0
VERTEX
  8
AM_VIS
  5
387
 10
6.00620
 20
3.46245
 30
0.000000
  70
    32
  0
VERTEX
  8
AM_VIS
  5
388
 10
6.00600
 20
3.46286
 30
0.000000
  70
    32
  0
VERTEX
  8
AM_VIS
  5
389
 10
6.00580
 20
3.46327
 30
0.000000
  70
    32
  0
VERTEX
  8
AM_VIS
  5
38A
 10
6.00560
 20
3.46369
 30
0.000000
  70
    32
  0
VERTEX
  8
AM_VIS
  5
38B
 10
6.00541
 20
3.46410
 30
0.000000
  70
    32
  0
VERTEX
  8
AM_VIS
  5
38C
 10
6.00521
 20
3.46451
 30
0.000000
  70
    32
  0
VERTEX
  8
AM_VIS
  5
38D
 10
6.00502
 20
3.46493
 30
0.000000
  70
    32
  0
VERTEX
  8
AM_VIS
  5
38E
 10
6.00483
 20
3.46535
 30
0.000000
  70
    32
  0
VERTEX
  8
AM_VIS
  5
38F
 10
6.00464
 20
3.46576
 30
0.000000
  70
    32
  0
VERTEX
  8
AM_VIS
  5
390
 10
6.00445
 20
3.46618
 30
0.000000
  70
    32
  0
VERTEX
  8
AM_VIS
  5
391
 10
6.00426
 20
3.46660
 30
0.000000
  70
    32
  0
VERTEX
  8
AM_VIS
  5
392
 10
6.00408
 20
3.46702
 30
0.000000
  70
    32
  0
VERTEX
  8
AM_VIS
  5
393
 10
6.00389
 20
3.46744
 30
0.000000
  70
    32
  0
VERTEX
  8
AM_VIS
  5
394
 10
6.00371
 20
3.46786
 30
0.000000
  70
    32
  0
VERTEX
  8
AM_VIS
  5
395
 10
6.00353
 20
3.46829
 30
0.000000
  70
    32
  0
VERTEX
  8
AM_VIS
  5
396
 10
6.00335
 20
3.46871
 30
0.000000
  70
    32
  0
VERTEX
  8
AM_VIS
  5
397
 10
6.00317
 20
3.46914
 30
0.000000
  70
    32
  0
VERTEX
  8
AM_VIS
  5
398
 10
6.00300
 20
3.46956
 30
0.000000
  70
    32
  0
VERTEX
  8
AM_VIS
  5
399
 10
6.00282
 20
3.46999
 30
0.000000
  70
    32
  0
VERTEX
  8
AM_VIS
  5
39A
 10
6.00265
 20
3.47042
 30
0.000000
  70
    32
  0
VERTEX
  8
AM_VIS
  5
39B
 10
6.00248
 20
3.47085
 30
0.000000
  70
    32
  0
VERTEX
  8
AM_VIS
  5
39C
 10
6.00231
 20
3.47128
 30
0.000000
  70
    32
  0
VERTEX
  8
AM_VIS
  5
39D
 10
6.00214
 20
3.47171
 30
0.000000
  70
    32
  0
VERTEX
  8
AM_VIS
  5
39E
 10
6.00198
 20
3.47214
 30
0.000000
  70
    32
  0
VERTEX
  8
AM_VIS
  5
39F
 10
6.00181
 20
3.47257
 30
0.000000
  70
    32
  0
VERTEX
  8
AM_VIS
  5
3A0
 10
6.00165
 20
3.47300
 30
0.000000
  70
    32
  0
VERTEX
  8
AM_VIS
  5
3A1
 10
6.00149
 20
3.47343
 30
0.000000
  70
    32
  0
VERTEX
  8
AM_VIS
  5
3A2
 10
6.00133
 20
3.47386
 30
0.000000
  70
    32
  0
VERTEX
  8
AM_VIS
  5
3A3
 10
6.00117
 20
3.47430
 30
0.000000
  70
    32
  0
VERTEX
  8
AM_VIS
  5
3A4
 10
6.00102
 20
3.47473
 30
0.000000
  70
    32
  0
VERTEX
  8
AM_VIS
  5
3A5
 10
6.00086
 20
3.47517
 30
0.000000
  70
    32
  0
VERTEX
  8
AM_VIS
  5
3A6
 10
6.00071
 20
3.47560
 30
0.000000
  70
    32
  0
VERTEX
  8
AM_VIS
  5
3A7
 10
6.00056
 20
3.47604
 30
0.000000
  70
    32
  0
VERTEX
  8
AM_VIS
  5
3A8
 10
6.00041
 20
3.47647
 30
0.000000
  70
    32
  0
VERTEX
  8
AM_VIS
  5
3A9
 10
6.00026
 20
3.47691
 30
0.000000
  70
    32
  0
VERTEX
  8
AM_VIS
  5
3AA
 10
6.00011
 20
3.47735
 30
0.000000
  70
    32
  0
VERTEX
  8
AM_VIS
  5
3AB
 10
5.99997
 20
3.47779
 30
0.000000
  70
    32
  0
VERTEX
  8
AM_VIS
  5
3AC
 10
5.99983
 20
3.47822
 30
0.000000
  70
    32
  0
VERTEX
  8
AM_VIS
  5
3AD
 10
5.99969
 20
3.47866
 30
0.000000
  70
    32
  0
VERTEX
  8
AM_VIS
  5
3AE
 10
5.99955
 20
3.47910
 30
0.000000
  70
    32
  0
VERTEX
  8
AM_VIS
  5
3AF
 10
5.99941
 20
3.47954
 30
0.000000
  70
    32
  0
VERTEX
  8
AM_VIS
  5
3B0
 10
5.99927
 20
3.47998
 30
0.000000
  70
    32
  0
VERTEX
  8
AM_VIS
  5
3B1
 10
5.99914
 20
3.48042
 30
0.000000
  70
    32
  0
VERTEX
  8
AM_VIS
  5
3B2
 10
5.99901
 20
3.48086
 30
0.000000
  70
    32
  0
VERTEX
  8
AM_VIS
  5
3B3
 10
5.99887
 20
3.48130
 30
0.000000
  70
    32
  0
VERTEX
  8
AM_VIS
  5
3B4
 10
5.99874
 20
3.48175
 30
0.000000
  70
    32
  0
VERTEX
  8
AM_VIS
  5
3B5
 10
5.99862
 20
3.48219
 30
0.000000
  70
    32
  0
VERTEX
  8
AM_VIS
  5
3B6
 10
5.99849
 20
3.48263
 30
0.000000
  70
    32
  0
VERTEX
  8
AM_VIS
  5
3B7
 10
5.99836
 20
3.48307
 30
0.000000
  70
    32
  0
VERTEX
  8
AM_VIS
  5
3B8
 10
5.99824
 20
3.48352
 30
0.000000
  70
    32
  0
VERTEX
  8
AM_VIS
  5
3B9
 10
5.99812
 20
3.48396
 30
0.000000
  70
    32
  0
VERTEX
  8
AM_VIS
  5
3BA
 10
5.99800
 20
3.48441
 30
0.000000
  70
    32
  0
VERTEX
  8
AM_VIS
  5
3BB
 10
5.99788
 20
3.48485
 30
0.000000
  70
    32
  0
VERTEX
  8
AM_VIS
  5
3BC
 10
5.99776
 20
3.48530
 30
0.000000
  70
    32
  0
VERTEX
  8
AM_VIS
  5
3BD
 10
5.99764
 20
3.48574
 30
0.000000
  70
    32
  0
VERTEX
  8
AM_VIS
  5
3BE
 10
5.99753
 20
3.48619
 30
0.000000
  70
    32
  0
VERTEX
  8
AM_VIS
  5
3BF
 10
5.99742
 20
3.48664
 30
0.000000
  70
    32
  0
VERTEX
  8
AM_VIS
  5
3C0
 10
5.99730
 20
3.48708
 30
0.000000
  70
    32
  0
VERTEX
  8
AM_VIS
  5
3C1
 10
5.99719
 20
3.48753
 30
0.000000
  70
    32
  0
VERTEX
  8
AM_VIS
  5
3C2
 10
5.99709
 20
3.48798
 30
0.000000
  70
    32
  0
VERTEX
  8
AM_VIS
  5
3C3
 10
5.99698
 20
3.48843
 30
0.000000
  70
    32
  0
VERTEX
  8
AM_VIS
  5
3C4
 10
5.99687
 20
3.48888
 30
0.000000
  70
    32
  0
VERTEX
  8
AM_VIS
  5
3C5
 10
5.99677
 20
3.48933
 30
0.000000
  70
    32
  0
VERTEX
  8
AM_VIS
  5
3C6
 10
5.99666
 20
3.48978
 30
0.000000
  70
    32
  0
VERTEX
  8
AM_VIS
  5
3C7
 10
5.99656
 20
3.49023
 30
0.000000
  70
    32
  0
VERTEX
  8
AM_VIS
  5
3C8
 10
5.99646
 20
3.49068
 30
0.000000
  70
    32
  0
VERTEX
  8
AM_VIS
  5
3C9
 10
5.99636
 20
3.49113
 30
0.000000
  70
    32
  0
VERTEX
  8
AM_VIS
  5
3CA
 10
5.99627
 20
3.49158
 30
0.000000
  70
    32
  0
VERTEX
  8
AM_VIS
  5
3CB
 10
5.99617
 20
3.49203
 30
0.000000
  70
    32
  0
VERTEX
  8
AM_VIS
  5
3CC
 10
5.99608
 20
3.49248
 30
0.000000
  70
    32
  0
VERTEX
  8
AM_VIS
  5
3CD
 10
5.99598
 20
3.49293
 30
0.000000
  70
    32
  0
VERTEX
  8
AM_VIS
  5
3CE
 10
5.99589
 20
3.49339
 30
0.000000
  70
    32
  0
VERTEX
  8
AM_VIS
  5
3CF
 10
5.99580
 20
3.49384
 30
0.000000
  70
    32
  0
VERTEX
  8
AM_VIS
  5
3D0
 10
5.99571
 20
3.49429
 30
0.000000
  70
    32
  0
VERTEX
  8
AM_VIS
  5
3D1
 10
5.99563
 20
3.49475
 30
0.000000
  70
    32
  0
VERTEX
  8
AM_VIS
  5
3D2
 10
5.99554
 20
3.49520
 30
0.000000
  70
    32
  0
VERTEX
  8
AM_VIS
  5
3D3
 10
5.99546
 20
3.49565
 30
0.000000
  70
    32
  0
VERTEX
  8
AM_VIS
  5
3D4
 10
5.99537
 20
3.49611
 30
0.000000
  70
    32
  0
VERTEX
  8
AM_VIS
  5
3D5
 10
5.99529
 20
3.49656
 30
0.000000
  70
    32
  0
VERTEX
  8
AM_VIS
  5
3D6
 10
5.99521
 20
3.49702
 30
0.000000
  70
    32
  0
VERTEX
  8
AM_VIS
  5
3D7
 10
5.99513
 20
3.49747
 30
0.000000
  70
    32
  0
VERTEX
  8
AM_VIS
  5
3D8
 10
5.99505
 20
3.49793
 30
0.000000
  70
    32
  0
VERTEX
  8
AM_VIS
  5
3D9
 10
5.99497
 20
3.49839
 30
0.000000
  70
    32
  0
VERTEX
  8
AM_VIS
  5
3DA
 10
5.99490
 20
3.49884
 30
0.000000
  70
    32
  0
VERTEX
  8
AM_VIS
  5
3DB
 10
5.99483
 20
3.49930
 30
0.000000
  70
    32
  0
VERTEX
  8
AM_VIS
  5
3DC
 10
5.99475
 20
3.49976
 30
0.000000
  70
    32
  0
VERTEX
  8
AM_VIS
  5
3DD
 10
5.99468
 20
3.50021
 30
0.000000
  70
    32
  0
VERTEX
  8
AM_VIS
  5
3DE
 10
5.99461
 20
3.50067
 30
0.000000
  70
    32
  0
VERTEX
  8
AM_VIS
  5
3DF
 10
5.99454
 20
3.50113
 30
0.000000
  70
    32
  0
VERTEX
  8
AM_VIS
  5
3E0
 10
5.99447
 20
3.50159
 30
0.000000
  70
    32
  0
VERTEX
  8
AM_VIS
  5
3E1
 10
5.99441
 20
3.50204
 30
0.000000
  70
    32
  0
VERTEX
  8
AM_VIS
  5
3E2
 10
5.99434
 20
3.50250
 30
0.000000
  70
    32
  0
VERTEX
  8
AM_VIS
  5
3E3
 10
5.99428
 20
3.50296
 30
0.000000
  70
    32
  0
VERTEX
  8
AM_VIS
  5
3E4
 10
5.99422
 20
3.50342
 30
0.000000
  70
    32
  0
VERTEX
  8
AM_VIS
  5
3E5
 10
5.99415
 20
3.50388
 30
0.000000
  70
    32
  0
VERTEX
  8
AM_VIS
  5
3E6
 10
5.99409
 20
3.50434
 30
0.000000
  70
    32
  0
VERTEX
  8
AM_VIS
  5
3E7
 10
5.99403
 20
3.50480
 30
0.000000
  70
    32
  0
VERTEX
  8
AM_VIS
  5
3E8
 10
5.99398
 20
3.50526
 30
0.000000
  70
    32
  0
VERTEX
  8
AM_VIS
  5
3E9
 10
5.99392
 20
3.50572
 30
0.000000
  70
    32
  0
VERTEX
  8
AM_VIS
  5
3EA
 10
5.99386
 20
3.50618
 30
0.000000
  70
    32
  0
VERTEX
  8
AM_VIS
  5
3EB
 10
5.99381
 20
3.50664
 30
0.000000
  70
    32
  0
VERTEX
  8
AM_VIS
  5
3EC
 10
5.99376
 20
3.50710
 30
0.000000
  70
    32
  0
VERTEX
  8
AM_VIS
  5
3ED
 10
5.99370
 20
3.50756
 30
0.000000
  70
    32
  0
VERTEX
  8
AM_VIS
  5
3EE
 10
5.99365
 20
3.50802
 30
0.000000
  70
    32
  0
VERTEX
  8
AM_VIS
  5
3EF
 10
5.99360
 20
3.50848
 30
0.000000
  70
    32
  0
VERTEX
  8
AM_VIS
  5
3F0
 10
5.99356
 20
3.50895
 30
0.000000
  70
    32
  0
VERTEX
  8
AM_VIS
  5
3F1
 10
5.99351
 20
3.50941
 30
0.000000
  70
    32
  0
VERTEX
  8
AM_VIS
  5
3F2
 10
5.99346
 20
3.50987
 30
0.000000
  70
    32
  0
VERTEX
  8
AM_VIS
  5
3F3
 10
5.99342
 20
3.51033
 30
0.000000
  70
    32
  0
VERTEX
  8
AM_VIS
  5
3F4
 10
5.99337
 20
3.51079
 30
0.000000
  70
    32
  0
VERTEX
  8
AM_VIS
  5
3F5
 10
5.99333
 20
3.51126
 30
0.000000
  70
    32
  0
VERTEX
  8
AM_VIS
  5
3F6
 10
5.99329
 20
3.51172
 30
0.000000
  70
    32
  0
VERTEX
  8
AM_VIS
  5
3F7
 10
5.99325
 20
3.51218
 30
0.000000
  70
    32
  0
VERTEX
  8
AM_VIS
  5
3F8
 10
5.99321
 20
3.51264
 30
0.000000
  70
    32
  0
VERTEX
  8
AM_VIS
  5
3F9
 10
5.99317
 20
3.51311
 30
0.000000
  70
    32
  0
VERTEX
  8
AM_VIS
  5
3FA
 10
5.99313
 20
3.51357
 30
0.000000
  70
    32
  0
VERTEX
  8
AM_VIS
  5
3FB
 10
5.99310
 20
3.51403
 30
0.000000
  70
    32
  0
VERTEX
  8
AM_VIS
  5
3FC
 10
5.99306
 20
3.51450
 30
0.000000
  70
    32
  0
VERTEX
  8
AM_VIS
  5
3FD
 10
5.99303
 20
3.51496
 30
0.000000
  70
    32
  0
VERTEX
  8
AM_VIS
  5
3FE
 10
5.99300
 20
3.51542
 30
0.000000
  70
    32
  0
VERTEX
  8
AM_VIS
  5
3FF
 10
5.99296
 20
3.51589
 30
0.000000
  70
    32
  0
VERTEX
  8
AM_VIS
  5
400
 10
5.99293
 20
3.51635
 30
0.000000
  70
    32
  0
VERTEX
  8
AM_VIS
  5
401
 10
5.99290
 20
3.51682
 30
0.000000
  70
    32
  0
VERTEX
  8
AM_VIS
  5
402
 10
5.99288
 20
3.51728
 30
0.000000
  70
    32
  0
VERTEX
  8
AM_VIS
  5
403
 10
5.99285
 20
3.51774
 30
0.000000
  70
    32
  0
VERTEX
  8
AM_VIS
  5
404
 10
5.99282
 20
3.51821
 30
0.000000
  70
    32
  0
VERTEX
  8
AM_VIS
  5
405
 10
5.99280
 20
3.51867
 30
0.000000
  70
    32
  0
VERTEX
  8
AM_VIS
  5
406
 10
5.99277
 20
3.51914
 30
0.000000
  70
    32
  0
VERTEX
  8
AM_VIS
  5
407
 10
5.99275
 20
3.51960
 30
0.000000
  70
    32
  0
VERTEX
  8
AM_VIS
  5
408
 10
5.99273
 20
3.52007
 30
0.000000
  70
    32
  0
VERTEX
  8
AM_VIS
  5
409
 10
5.99270
 20
3.52053
 30
0.000000
  70
    32
  0
VERTEX
  8
AM_VIS
  5
40A
 10
5.99268
 20
3.52100
 30
0.000000
  70
    32
  0
VERTEX
  8
AM_VIS
  5
40B
 10
5.99266
 20
3.52146
 30
0.000000
  70
    32
  0
VERTEX
  8
AM_VIS
  5
40C
 10
5.99264
 20
3.52193
 30
0.000000
  70
    32
  0
VERTEX
  8
AM_VIS
  5
40D
 10
5.99263
 20
3.52239
 30
0.000000
  70
    32
  0
VERTEX
  8
AM_VIS
  5
40E
 10
5.99261
 20
3.52286
 30
0.000000
  70
    32
  0
VERTEX
  8
AM_VIS
  5
40F
 10
5.99259
 20
3.52332
 30
0.000000
  70
    32
  0
VERTEX
  8
AM_VIS
  5
410
 10
5.99258
 20
3.52379
 30
0.000000
  70
    32
  0
VERTEX
  8
AM_VIS
  5
411
 10
5.99257
 20
3.52425
 30
0.000000
  70
    32
  0
VERTEX
  8
AM_VIS
  5
412
 10
5.99255
 20
3.52472
 30
0.000000
  70
    32
  0
VERTEX
  8
AM_VIS
  5
413
 10
5.99254
 20
3.52518
 30
0.000000
  70
    32
  0
VERTEX
  8
AM_VIS
  5
414
 10
5.99253
 20
3.52565
 30
0.000000
  70
    32
  0
VERTEX
  8
AM_VIS
  5
415
 10
5.99252
 20
3.52612
 30
0.000000
  70
    32
  0
VERTEX
  8
AM_VIS
  5
416
 10
5.99251
 20
3.52658
 30
0.000000
  70
    32
  0
VERTEX
  8
AM_VIS
  5
417
 10
5.99250
 20
3.52705
 30
0.000000
  70
    32
  0
VERTEX
  8
AM_VIS
  5
418
 10
5.99249
 20
3.52751
 30
0.000000
  70
    32
  0
VERTEX
  8
AM_VIS
  5
419
 10
5.99249
 20
3.52798
 30
0.000000
  70
    32
  0
VERTEX
  8
AM_VIS
  5
41A
 10
5.99248
 20
3.52845
 30
0.000000
  70
    32
  0
VERTEX
  8
AM_VIS
  5
41B
 10
5.99248
 20
3.52891
 30
0.000000
  70
    32
  0
VERTEX
  8
AM_VIS
  5
41C
 10
5.99247
 20
3.52938
 30
0.000000
  70
    32
  0
VERTEX
  8
AM_VIS
  5
41D
 10
5.99247
 20
3.52985
 30
0.000000
  70
    32
  0
VERTEX
  8
AM_VIS
  5
41E
 10
5.99247
 20
3.53031
 30
0.000000
  70
    32
  0
VERTEX
  8
AM_VIS
  5
41F
 10
5.99247
 20
3.53078
 30
0.000000
  70
    32
  0
VERTEX
  8
AM_VIS
  5
420
 10
5.99247
 20
3.53125
 30
0.000000
  70
    32
  0
VERTEX
  8
AM_VIS
  5
421
 10
5.99247
 20
3.53171
 30
0.000000
  70
    32
  0
VERTEX
  8
AM_VIS
  5
422
 10
5.99247
 20
3.53218
 30
0.000000
  70
    32
  0
VERTEX
  8
AM_VIS
  5
423
 10
5.99247
 20
3.53265
 30
0.000000
  70
    32
  0
VERTEX
  8
AM_VIS
  5
424
 10
5.99247
 20
3.53311
 30
0.000000
  70
    32
  0
VERTEX
  8
AM_VIS
  5
425
 10
5.99248
 20
3.53358
 30
0.000000
  70
    32
  0
VERTEX
  8
AM_VIS
  5
426
 10
5.99248
 20
3.53405
 30
0.000000
  70
    32
  0
VERTEX
  8
AM_VIS
  5
427
 10
5.99249
 20
3.53451
 30
0.000000
  70
    32
  0
VERTEX
  8
AM_VIS
  5
428
 10
5.99249
 20
3.53498
 30
0.000000
  70
    32
  0
VERTEX
  8
AM_VIS
  5
429
 10
5.99250
 20
3.53545
 30
0.000000
  70
    32
  0
VERTEX
  8
AM_VIS
  5
42A
 10
5.99251
 20
3.53592
 30
0.000000
  70
    32
  0
VERTEX
  8
AM_VIS
  5
42B
 10
5.99252
 20
3.53638
 30
0.000000
  70
    32
  0
VERTEX
  8
AM_VIS
  5
42C
 10
5.99253
 20
3.53685
 30
0.000000
  70
    32
  0
VERTEX
  8
AM_VIS
  5
42D
 10
5.99254
 20
3.53732
 30
0.000000
  70
    32
  0
VERTEX
  8
AM_VIS
  5
42E
 10
5.99255
 20
3.53778
 30
0.000000
  70
    32
  0
VERTEX
  8
AM_VIS
  5
42F
 10
5.99256
 20
3.53825
 30
0.000000
  70
    32
  0
VERTEX
  8
AM_VIS
  5
430
 10
5.99257
 20
3.53872
 30
0.000000
  70
    32
  0
VERTEX
  8
AM_VIS
  5
431
 10
5.99258
 20
3.53919
 30
0.000000
  70
    32
  0
VERTEX
  8
AM_VIS
  5
432
 10
5.99260
 20
3.53965
 30
0.000000
  70
    32
  0
VERTEX
  8
AM_VIS
  5
433
 10
5.99261
 20
3.54012
 30
0.000000
  70
    32
  0
VERTEX
  8
AM_VIS
  5
434
 10
5.99263
 20
3.54059
 30
0.000000
  70
    32
  0
VERTEX
  8
AM_VIS
  5
435
 10
5.99264
 20
3.54106
 30
0.000000
  70
    32
  0
VERTEX
  8
AM_VIS
  5
436
 10
5.99266
 20
3.54152
 30
0.000000
  70
    32
  0
VERTEX
  8
AM_VIS
  5
437
 10
5.99268
 20
3.54199
 30
0.000000
  70
    32
  0
VERTEX
  8
AM_VIS
  5
438
 10
5.99270
 20
3.54246
 30
0.000000
  70
    32
  0
VERTEX
  8
AM_VIS
  5
439
 10
5.99271
 20
3.54293
 30
0.000000
  70
    32
  0
VERTEX
  8
AM_VIS
  5
43A
 10
5.99273
 20
3.54340
 30
0.000000
  70
    32
  0
VERTEX
  8
AM_VIS
  5
43B
 10
5.99275
 20
3.54386
 30
0.000000
  70
    32
  0
VERTEX
  8
AM_VIS
  5
43C
 10
5.99278
 20
3.54433
 30
0.000000
  70
    32
  0
VERTEX
  8
AM_VIS
  5
43D
 10
5.99280
 20
3.54480
 30
0.000000
  70
    32
  0
VERTEX
  8
AM_VIS
  5
43E
 10
5.99282
 20
3.54527
 30
0.000000
  70
    32
  0
VERTEX
  8
AM_VIS
  5
43F
 10
5.99284
 20
3.54574
 30
0.000000
  70
    32
  0
VERTEX
  8
AM_VIS
  5
440
 10
5.99287
 20
3.54620
 30
0.000000
  70
    32
  0
VERTEX
  8
AM_VIS
  5
441
 10
5.99289
 20
3.54667
 30
0.000000
  70
    32
  0
VERTEX
  8
AM_VIS
  5
442
 10
5.99292
 20
3.54714
 30
0.000000
  70
    32
  0
VERTEX
  8
AM_VIS
  5
443
 10
5.99294
 20
3.54761
 30
0.000000
  70
    32
  0
VERTEX
  8
AM_VIS
  5
444
 10
5.99297
 20
3.54808
 30
0.000000
  70
    32
  0
VERTEX
  8
AM_VIS
  5
445
 10
5.99300
 20
3.54854
 30
0.000000
  70
    32
  0
VERTEX
  8
AM_VIS
  5
446
 10
5.99302
 20
3.54901
 30
0.000000
  70
    32
  0
VERTEX
  8
AM_VIS
  5
447
 10
5.99305
 20
3.54948
 30
0.000000
  70
    32
  0
VERTEX
  8
AM_VIS
  5
448
 10
5.99308
 20
3.54995
 30
0.000000
  70
    32
  0
VERTEX
  8
AM_VIS
  5
449
 10
5.99311
 20
3.55042
 30
0.000000
  70
    32
  0
VERTEX
  8
AM_VIS
  5
44A
 10
5.99314
 20
3.55088
 30
0.000000
  70
    32
  0
VERTEX
  8
AM_VIS
  5
44B
 10
5.99317
 20
3.55135
 30
0.000000
  70
    32
  0
VERTEX
  8
AM_VIS
  5
44C
 10
5.99320
 20
3.55182
 30
0.000000
  70
    32
  0
VERTEX
  8
AM_VIS
  5
44D
 10
5.99323
 20
3.55229
 30
0.000000
  70
    32
  0
VERTEX
  8
AM_VIS
  5
44E
 10
5.99327
 20
3.55276
 30
0.000000
  70
    32
  0
VERTEX
  8
AM_VIS
  5
44F
 10
5.99330
 20
3.55323
 30
0.000000
  70
    32
  0
VERTEX
  8
AM_VIS
  5
450
 10
5.99333
 20
3.55370
 30
0.000000
  70
    32
  0
VERTEX
  8
AM_VIS
  5
451
 10
5.99337
 20
3.55417
 30
0.000000
  70
    32
  0
VERTEX
  8
AM_VIS
  5
452
 10
5.99340
 20
3.55464
 30
0.000000
  70
    32
  0
VERTEX
  8
AM_VIS
  5
453
 10
5.99344
 20
3.55511
 30
0.000000
  70
    32
  0
VERTEX
  8
AM_VIS
  5
454
 10
5.99348
 20
3.55557
 30
0.000000
  70
    32
  0
VERTEX
  8
AM_VIS
  5
455
 10
5.99351
 20
3.55604
 30
0.000000
  70
    32
  0
VERTEX
  8
AM_VIS
  5
456
 10
5.99355
 20
3.55651
 30
0.000000
  70
    32
  0
VERTEX
  8
AM_VIS
  5
457
 10
5.99359
 20
3.55698
 30
0.000000
  70
    32
  0
VERTEX
  8
AM_VIS
  5
458
 10
5.99363
 20
3.55745
 30
0.000000
  70
    32
  0
VERTEX
  8
AM_VIS
  5
459
 10
5.99367
 20
3.55792
 30
0.000000
  70
    32
  0
VERTEX
  8
AM_VIS
  5
45A
 10
5.99371
 20
3.55840
 30
0.000000
  70
    32
  0
VERTEX
  8
AM_VIS
  5
45B
 10
5.99375
 20
3.55887
 30
0.000000
  70
    32
  0
VERTEX
  8
AM_VIS
  5
45C
 10
5.99379
 20
3.55934
 30
0.000000
  70
    32
  0
VERTEX
  8
AM_VIS
  5
45D
 10
5.99383
 20
3.55981
 30
0.000000
  70
    32
  0
VERTEX
  8
AM_VIS
  5
45E
 10
5.99387
 20
3.56028
 30
0.000000
  70
    32
  0
VERTEX
  8
AM_VIS
  5
45F
 10
5.99391
 20
3.56075
 30
0.000000
  70
    32
  0
VERTEX
  8
AM_VIS
  5
460
 10
5.99396
 20
3.56122
 30
0.000000
  70
    32
  0
VERTEX
  8
AM_VIS
  5
461
 10
5.99400
 20
3.56169
 30
0.000000
  70
    32
  0
VERTEX
  8
AM_VIS
  5
462
 10
5.99405
 20
3.56216
 30
0.000000
  70
    32
  0
VERTEX
  8
AM_VIS
  5
463
 10
5.99409
 20
3.56263
 30
0.000000
  70
    32
  0
VERTEX
  8
AM_VIS
  5
464
 10
5.99414
 20
3.56310
 30
0.000000
  70
    32
  0
VERTEX
  8
AM_VIS
  5
465
 10
5.99418
 20
3.56357
 30
0.000000
  70
    32
  0
VERTEX
  8
AM_VIS
  5
466
 10
5.99423
 20
3.56405
 30
0.000000
  70
    32
  0
VERTEX
  8
AM_VIS
  5
467
 10
5.99427
 20
3.56452
 30
0.000000
  70
    32
  0
VERTEX
  8
AM_VIS
  5
468
 10
5.99432
 20
3.56499
 30
0.000000
  70
    32
  0
VERTEX
  8
AM_VIS
  5
469
 10
5.99437
 20
3.56546
 30
0.000000
  70
    32
  0
VERTEX
  8
AM_VIS
  5
46A
 10
5.99442
 20
3.56593
 30
0.000000
  70
    32
  0
VERTEX
  8
AM_VIS
  5
46B
 10
5.99447
 20
3.56640
 30
0.000000
  70
    32
  0
VERTEX
  8
AM_VIS
  5
46C
 10
5.99452
 20
3.56687
 30
0.000000
  70
    32
  0
VERTEX
  8
AM_VIS
  5
46D
 10
5.99457
 20
3.56735
 30
0.000000
  70
    32
  0
VERTEX
  8
AM_VIS
  5
46E
 10
5.99462
 20
3.56782
 30
0.000000
  70
    32
  0
VERTEX
  8
AM_VIS
  5
46F
 10
5.99467
 20
3.56829
 30
0.000000
  70
    32
  0
VERTEX
  8
AM_VIS
  5
470
 10
5.99472
 20
3.56876
 30
0.000000
  70
    32
  0
VERTEX
  8
AM_VIS
  5
471
 10
5.99477
 20
3.56923
 30
0.000000
  70
    32
  0
VERTEX
  8
AM_VIS
  5
472
 10
5.99482
 20
3.56970
 30
0.000000
  70
    32
  0
VERTEX
  8
AM_VIS
  5
473
 10
5.99488
 20
3.57017
 30
0.000000
  70
    32
  0
VERTEX
  8
AM_VIS
  5
474
 10
5.99493
 20
3.57065
 30
0.000000
  70
    32
  0
VERTEX
  8
AM_VIS
  5
475
 10
5.99498
 20
3.57112
 30
0.000000
  70
    32
  0
VERTEX
  8
AM_VIS
  5
476
 10
5.99504
 20
3.57159
 30
0.000000
  70
    32
  0
VERTEX
  8
AM_VIS
  5
477
 10
5.99509
 20
3.57206
 30
0.000000
  70
    32
  0
VERTEX
  8
AM_VIS
  5
478
 10
5.99514
 20
3.57253
 30
0.000000
  70
    32
  0
VERTEX
  8
AM_VIS
  5
479
 10
5.99520
 20
3.57300
 30
0.000000
  70
    32
  0
VERTEX
  8
AM_VIS
  5
47A
 10
5.99526
 20
3.57347
 30
0.000000
  70
    32
  0
VERTEX
  8
AM_VIS
  5
47B
 10
5.99531
 20
3.57395
 30
0.000000
  70
    32
  0
VERTEX
  8
AM_VIS
  5
47C
 10
5.99537
 20
3.57442
 30
0.000000
  70
    32
  0
VERTEX
  8
AM_VIS
  5
47D
 10
5.99543
 20
3.57489
 30
0.000000
  70
    32
  0
VERTEX
  8
AM_VIS
  5
47E
 10
5.99548
 20
3.57536
 30
0.000000
  70
    32
  0
VERTEX
  8
AM_VIS
  5
47F
 10
5.99554
 20
3.57583
 30
0.000000
  70
    32
  0
VERTEX
  8
AM_VIS
  5
480
 10
5.99560
 20
3.57630
 30
0.000000
  70
    32
  0
VERTEX
  8
AM_VIS
  5
481
 10
5.99566
 20
3.57677
 30
0.000000
  70
    32
  0
VERTEX
  8
AM_VIS
  5
482
 10
5.99572
 20
3.57724
 30
0.000000
  70
    32
  0
VERTEX
  8
AM_VIS
  5
483
 10
5.99578
 20
3.57771
 30
0.000000
  70
    32
  0
VERTEX
  8
AM_VIS
  5
484
 10
5.99584
 20
3.57818
 30
0.000000
  70
    32
  0
VERTEX
  8
AM_VIS
  5
485
 10
5.99590
 20
3.57866
 30
0.000000
  70
    32
  0
VERTEX
  8
AM_VIS
  5
486
 10
5.99596
 20
3.57913
 30
0.000000
  70
    32
  0
VERTEX
  8
AM_VIS
  5
487
 10
5.99602
 20
3.57960
 30
0.000000
  70
    32
  0
VERTEX
  8
AM_VIS
  5
488
 10
5.99608
 20
3.58007
 30
0.000000
  70
    32
  0
VERTEX
  8
AM_VIS
  5
489
 10
5.99614
 20
3.58054
 30
0.000000
  70
    32
  0
VERTEX
  8
AM_VIS
  5
48A
 10
5.99620
 20
3.58101
 30
0.000000
  70
    32
  0
VERTEX
  8
AM_VIS
  5
48B
 10
5.99626
 20
3.58148
 30
0.000000
  70
    32
  0
VERTEX
  8
AM_VIS
  5
48C
 10
5.99633
 20
3.58195
 30
0.000000
  70
    32
  0
VERTEX
  8
AM_VIS
  5
48D
 10
5.99639
 20
3.58242
 30
0.000000
  70
    32
  0
VERTEX
  8
AM_VIS
  5
48E
 10
5.99645
 20
3.58289
 30
0.000000
  70
    32
  0
VERTEX
  8
AM_VIS
  5
48F
 10
5.99652
 20
3.58336
 30
0.000000
  70
    32
  0
VERTEX
  8
AM_VIS
  5
490
 10
5.99658
 20
3.58382
 30
0.000000
  70
    32
  0
VERTEX
  8
AM_VIS
  5
491
 10
5.99665
 20
3.58429
 30
0.000000
  70
    32
  0
VERTEX
  8
AM_VIS
  5
492
 10
5.99671
 20
3.58476
 30
0.000000
  70
    32
  0
VERTEX
  8
AM_VIS
  5
493
 10
5.99678
 20
3.58523
 30
0.000000
  70
    32
  0
VERTEX
  8
AM_VIS
  5
494
 10
5.99684
 20
3.58570
 30
0.000000
  70
    32
  0
VERTEX
  8
AM_VIS
  5
495
 10
5.99691
 20
3.58617
 30
0.000000
  70
    32
  0
VERTEX
  8
AM_VIS
  5
496
 10
5.99697
 20
3.58664
 30
0.000000
  70
    32
  0
VERTEX
  8
AM_VIS
  5
497
 10
5.99704
 20
3.58711
 30
0.000000
  70
    32
  0
VERTEX
  8
AM_VIS
  5
498
 10
5.99710
 20
3.58757
 30
0.000000
  70
    32
  0
VERTEX
  8
AM_VIS
  5
499
 10
5.99717
 20
3.58804
 30
0.000000
  70
    32
  0
VERTEX
  8
AM_VIS
  5
49A
 10
5.99724
 20
3.58851
 30
0.000000
  70
    32
  0
VERTEX
  8
AM_VIS
  5
49B
 10
5.99731
 20
3.58898
 30
0.000000
  70
    32
  0
VERTEX
  8
AM_VIS
  5
49C
 10
5.99737
 20
3.58945
 30
0.000000
  70
    32
  0
VERTEX
  8
AM_VIS
  5
49D
 10
5.99744
 20
3.58992
 30
0.000000
  70
    32
  0
VERTEX
  8
AM_VIS
  5
49E
 10
5.99751
 20
3.59039
 30
0.000000
  70
    32
  0
VERTEX
  8
AM_VIS
  5
49F
 10
5.99758
 20
3.59086
 30
0.000000
  70
    32
  0
VERTEX
  8
AM_VIS
  5
4A0
 10
5.99765
 20
3.59133
 30
0.000000
  70
    32
  0
VERTEX
  8
AM_VIS
  5
4A1
 10
5.99772
 20
3.59180
 30
0.000000
  70
    32
  0
VERTEX
  8
AM_VIS
  5
4A2
 10
5.99779
 20
3.59228
 30
0.000000
  70
    32
  0
VERTEX
  8
AM_VIS
  5
4A3
 10
5.99786
 20
3.59275
 30
0.000000
  70
    32
  0
VERTEX
  8
AM_VIS
  5
4A4
 10
5.99793
 20
3.59322
 30
0.000000
  70
    32
  0
VERTEX
  8
AM_VIS
  5
4A5
 10
5.99800
 20
3.59369
 30
0.000000
  70
    32
  0
VERTEX
  8
AM_VIS
  5
4A6
 10
5.99808
 20
3.59417
 30
0.000000
  70
    32
  0
VERTEX
  8
AM_VIS
  5
4A7
 10
5.99815
 20
3.59464
 30
0.000000
  70
    32
  0
VERTEX
  8
AM_VIS
  5
4A8
 10
5.99822
 20
3.59512
 30
0.000000
  70
    32
  0
VERTEX
  8
AM_VIS
  5
4A9
 10
5.99829
 20
3.59559
 30
0.000000
  70
    32
  0
VERTEX
  8
AM_VIS
  5
4AA
 10
5.99837
 20
3.59607
 30
0.000000
  70
    32
  0
VERTEX
  8
AM_VIS
  5
4AB
 10
5.99844
 20
3.59654
 30
0.000000
  70
    32
  0
VERTEX
  8
AM_VIS
  5
4AC
 10
5.99851
 20
3.59702
 30
0.000000
  70
    32
  0
VERTEX
  8
AM_VIS
  5
4AD
 10
5.99859
 20
3.59749
 30
0.000000
  70
    32
  0
VERTEX
  8
AM_VIS
  5
4AE
 10
5.99866
 20
3.59797
 30
0.000000
  70
    32
  0
VERTEX
  8
AM_VIS
  5
4AF
 10
5.99874
 20
3.59845
 30
0.000000
  70
    32
  0
VERTEX
  8
AM_VIS
  5
4B0
 10
5.99881
 20
3.59892
 30
0.000000
  70
    32
  0
VERTEX
  8
AM_VIS
  5
4B1
 10
5.99889
 20
3.59940
 30
0.000000
  70
    32
  0
VERTEX
  8
AM_VIS
  5
4B2
 10
5.99896
 20
3.59988
 30
0.000000
  70
    32
  0
VERTEX
  8
AM_VIS
  5
4B3
 10
5.99904
 20
3.60036
 30
0.000000
  70
    32
  0
VERTEX
  8
AM_VIS
  5
4B4
 10
5.99911
 20
3.60084
 30
0.000000
  70
    32
  0
VERTEX
  8
AM_VIS
  5
4B5
 10
5.99919
 20
3.60132
 30
0.000000
  70
    32
  0
VERTEX
  8
AM_VIS
  5
4B6
 10
5.99927
 20
3.60180
 30
0.000000
  70
    32
  0
VERTEX
  8
AM_VIS
  5
4B7
 10
5.99934
 20
3.60228
 30
0.000000
  70
    32
  0
VERTEX
  8
AM_VIS
  5
4B8
 10
5.99942
 20
3.60276
 30
0.000000
  70
    32
  0
VERTEX
  8
AM_VIS
  5
4B9
 10
5.99950
 20
3.60324
 30
0.000000
  70
    32
  0
VERTEX
  8
AM_VIS
  5
4BA
 10
5.99958
 20
3.60372
 30
0.000000
  70
    32
  0
VERTEX
  8
AM_VIS
  5
4BB
 10
5.99966
 20
3.60420
 30
0.000000
  70
    32
  0
VERTEX
  8
AM_VIS
  5
4BC
 10
5.99973
 20
3.60469
 30
0.000000
  70
    32
  0
VERTEX
  8
AM_VIS
  5
4BD
 10
5.99981
 20
3.60517
 30
0.000000
  70
    32
  0
VERTEX
  8
AM_VIS
  5
4BE
 10
5.99989
 20
3.60565
 30
0.000000
  70
    32
  0
VERTEX
  8
AM_VIS
  5
4BF
 10
5.99997
 20
3.60613
 30
0.000000
  70
    32
  0
VERTEX
  8
AM_VIS
  5
4C0
 10
6.00005
 20
3.60662
 30
0.000000
  70
    32
  0
VERTEX
  8
AM_VIS
  5
4C1
 10
6.00013
 20
3.60710
 30
0.000000
  70
    32
  0
VERTEX
  8
AM_VIS
  5
4C2
 10
6.00021
 20
3.60759
 30
0.000000
  70
    32
  0
VERTEX
  8
AM_VIS
  5
4C3
 10
6.00029
 20
3.60807
 30
0.000000
  70
    32
  0
VERTEX
  8
AM_VIS
  5
4C4
 10
6.00038
 20
3.60856
 30
0.000000
  70
    32
  0
VERTEX
  8
AM_VIS
  5
4C5
 10
6.00046
 20
3.60904
 30
0.000000
  70
    32
  0
VERTEX
  8
AM_VIS
  5
4C6
 10
6.00054
 20
3.60953
 30
0.000000
  70
    32
  0
VERTEX
  8
AM_VIS
  5
4C7
 10
6.00062
 20
3.61002
 30
0.000000
  70
    32
  0
VERTEX
  8
AM_VIS
  5
4C8
 10
6.00070
 20
3.61050
 30
0.000000
  70
    32
  0
VERTEX
  8
AM_VIS
  5
4C9
 10
6.00078
 20
3.61099
 30
0.000000
  70
    32
  0
VERTEX
  8
AM_VIS
  5
4CA
 10
6.00087
 20
3.61148
 30
0.000000
  70
    32
  0
VERTEX
  8
AM_VIS
  5
4CB
 10
6.00095
 20
3.61197
 30
0.000000
  70
    32
  0
VERTEX
  8
AM_VIS
  5
4CC
 10
6.00103
 20
3.61245
 30
0.000000
  70
    32
  0
VERTEX
  8
AM_VIS
  5
4CD
 10
6.00112
 20
3.61294
 30
0.000000
  70
    32
  0
VERTEX
  8
AM_VIS
  5
4CE
 10
6.00120
 20
3.61343
 30
0.000000
  70
    32
  0
VERTEX
  8
AM_VIS
  5
4CF
 10
6.00128
 20
3.61392
 30
0.000000
  70
    32
  0
VERTEX
  8
AM_VIS
  5
4D0
 10
6.00137
 20
3.61441
 30
0.000000
  70
    32
  0
VERTEX
  8
AM_VIS
  5
4D1
 10
6.00145
 20
3.61490
 30
0.000000
  70
    32
  0
VERTEX
  8
AM_VIS
  5
4D2
 10
6.00154
 20
3.61539
 30
0.000000
  70
    32
  0
VERTEX
  8
AM_VIS
  5
4D3
 10
6.00162
 20
3.61588
 30
0.000000
  70
    32
  0
VERTEX
  8
AM_VIS
  5
4D4
 10
6.00171
 20
3.61638
 30
0.000000
  70
    32
  0
VERTEX
  8
AM_VIS
  5
4D5
 10
6.00179
 20
3.61687
 30
0.000000
  70
    32
  0
VERTEX
  8
AM_VIS
  5
4D6
 10
6.00188
 20
3.61736
 30
0.000000
  70
    32
  0
VERTEX
  8
AM_VIS
  5
4D7
 10
6.00197
 20
3.61785
 30
0.000000
  70
    32
  0
VERTEX
  8
AM_VIS
  5
4D8
 10
6.00205
 20
3.61835
 30
0.000000
  70
    32
  0
VERTEX
  8
AM_VIS
  5
4D9
 10
6.00214
 20
3.61884
 30
0.000000
  70
    32
  0
VERTEX
  8
AM_VIS
  5
4DA
 10
6.00222
 20
3.61933
 30
0.000000
  70
    32
  0
VERTEX
  8
AM_VIS
  5
4DB
 10
6.00231
 20
3.61983
 30
0.000000
  70
    32
  0
VERTEX
  8
AM_VIS
  5
4DC
 10
6.00240
 20
3.62032
 30
0.000000
  70
    32
  0
VERTEX
  8
AM_VIS
  5
4DD
 10
6.00249
 20
3.62082
 30
0.000000
  70
    32
  0
VERTEX
  8
AM_VIS
  5
4DE
 10
6.00257
 20
3.62131
 30
0.000000
  70
    32
  0
VERTEX
  8
AM_VIS
  5
4DF
 10
6.00266
 20
3.62181
 30
0.000000
  70
    32
  0
VERTEX
  8
AM_VIS
  5
4E0
 10
6.00275
 20
3.62231
 30
0.000000
  70
    32
  0
VERTEX
  8
AM_VIS
  5
4E1
 10
6.00284
 20
3.62280
 30
0.000000
  70
    32
  0
VERTEX
  8
AM_VIS
  5
4E2
 10
6.00293
 20
3.62330
 30
0.000000
  70
    32
  0
VERTEX
  8
AM_VIS
  5
4E3
 10
6.00301
 20
3.62380
 30
0.000000
  70
    32
  0
VERTEX
  8
AM_VIS
  5
4E4
 10
6.00310
 20
3.62430
 30
0.000000
  70
    32
  0
VERTEX
  8
AM_VIS
  5
4E5
 10
6.00319
 20
3.62479
 30
0.000000
  70
    32
  0
VERTEX
  8
AM_VIS
  5
4E6
 10
6.00328
 20
3.62529
 30
0.000000
  70
    32
  0
VERTEX
  8
AM_VIS
  5
4E7
 10
6.00337
 20
3.62579
 30
0.000000
  70
    32
  0
VERTEX
  8
AM_VIS
  5
4E8
 10
6.00346
 20
3.62629
 30
0.000000
  70
    32
  0
VERTEX
  8
AM_VIS
  5
4E9
 10
6.00355
 20
3.62679
 30
0.000000
  70
    32
  0
VERTEX
  8
AM_VIS
  5
4EA
 10
6.00364
 20
3.62729
 30
0.000000
  70
    32
  0
VERTEX
  8
AM_VIS
  5
4EB
 10
6.00373
 20
3.62779
 30
0.000000
  70
    32
  0
VERTEX
  8
AM_VIS
  5
4EC
 10
6.00382
 20
3.62829
 30
0.000000
  70
    32
  0
VERTEX
  8
AM_VIS
  5
4ED
 10
6.00391
 20
3.62879
 30
0.000000
  70
    32
  0
VERTEX
  8
AM_VIS
  5
4EE
 10
6.00400
 20
3.62930
 30
0.000000
  70
    32
  0
VERTEX
  8
AM_VIS
  5
4EF
 10
6.00409
 20
3.62980
 30
0.000000
  70
    32
  0
VERTEX
  8
AM_VIS
  5
4F0
 10
6.00419
 20
3.63030
 30
0.000000
  70
    32
  0
VERTEX
  8
AM_VIS
  5
4F1
 10
6.00428
 20
3.63080
 30
0.000000
  70
    32
  0
VERTEX
  8
AM_VIS
  5
4F2
 10
6.00437
 20
3.63131
 30
0.000000
  70
    32
  0
VERTEX
  8
AM_VIS
  5
4F3
 10
6.00446
 20
3.63181
 30
0.000000
  70
    32
  0
VERTEX
  8
AM_VIS
  5
4F4
 10
6.00455
 20
3.63232
 30
0.000000
  70
    32
  0
VERTEX
  8
AM_VIS
  5
4F5
 10
6.00464
 20
3.63282
 30
0.000000
  70
    32
  0
VERTEX
  8
AM_VIS
  5
4F6
 10
6.00474
 20
3.63333
 30
0.000000
  70
    32
  0
VERTEX
  8
AM_VIS
  5
4F7
 10
6.00483
 20
3.63383
 30
0.000000
  70
    32
  0
VERTEX
  8
AM_VIS
  5
4F8
 10
6.00492
 20
3.63434
 30
0.000000
  70
    32
  0
VERTEX
  8
AM_VIS
  5
4F9
 10
6.00501
 20
3.63484
 30
0.000000
  70
    32
  0
VERTEX
  8
AM_VIS
  5
4FA
 10
6.00511
 20
3.63535
 30
0.000000
  70
    32
  0
VERTEX
  8
AM_VIS
  5
4FB
 10
6.00520
 20
3.63586
 30
0.000000
  70
    32
  0
VERTEX
  8
AM_VIS
  5
4FC
 10
6.00529
 20
3.63636
 30
0.000000
  70
    32
  0
VERTEX
  8
AM_VIS
  5
4FD
 10
6.00539
 20
3.63687
 30
0.000000
  70
    32
  0
VERTEX
  8
AM_VIS
  5
4FE
 10
6.00548
 20
3.63738
 30
0.000000
  70
    32
  0
VERTEX
  8
AM_VIS
  5
4FF
 10
6.00557
 20
3.63789
 30
0.000000
  70
    32
  0
VERTEX
  8
AM_VIS
  5
500
 10
6.00567
 20
3.63840
 30
0.000000
  70
    32
  0
VERTEX
  8
AM_VIS
  5
501
 10
6.00576
 20
3.63891
 30
0.000000
  70
    32
  0
VERTEX
  8
AM_VIS
  5
502
 10
6.00585
 20
3.63942
 30
0.000000
  70
    32
  0
VERTEX
  8
AM_VIS
  5
503
 10
6.00595
 20
3.63993
 30
0.000000
  70
    32
  0
VERTEX
  8
AM_VIS
  5
504
 10
6.00604
 20
3.64044
 30
0.000000
  70
    32
  0
VERTEX
  8
AM_VIS
  5
505
 10
6.00614
 20
3.64095
 30
0.000000
  70
    32
  0
VERTEX
  8
AM_VIS
  5
506
 10
6.00623
 20
3.64146
 30
0.000000
  70
    32
  0
VERTEX
  8
AM_VIS
  5
507
 10
6.00633
 20
3.64197
 30
0.000000
  70
    32
  0
VERTEX
  8
AM_VIS
  5
508
 10
6.00642
 20
3.64248
 30
0.000000
  70
    32
  0
VERTEX
  8
AM_VIS
  5
509
 10
6.00652
 20
3.64299
 30
0.000000
  70
    32
  0
VERTEX
  8
AM_VIS
  5
50A
 10
6.00661
 20
3.64351
 30
0.000000
  70
    32
  0
VERTEX
  8
AM_VIS
  5
50B
 10
6.00671
 20
3.64402
 30
0.000000
  70
    32
  0
VERTEX
  8
AM_VIS
  5
50C
 10
6.00680
 20
3.64453
 30
0.000000
  70
    32
  0
VERTEX
  8
AM_VIS
  5
50D
 10
6.00690
 20
3.64505
 30
0.000000
  70
    32
  0
VERTEX
  8
AM_VIS
  5
50E
 10
6.00699
 20
3.64556
 30
0.000000
  70
    32
  0
VERTEX
  8
AM_VIS
  5
50F
 10
6.00709
 20
3.64608
 30
0.000000
  70
    32
  0
VERTEX
  8
AM_VIS
  5
510
 10
6.00719
 20
3.64659
 30
0.000000
  70
    32
  0
VERTEX
  8
AM_VIS
  5
511
 10
6.00728
 20
3.64711
 30
0.000000
  70
    32
  0
VERTEX
  8
AM_VIS
  5
512
 10
6.00738
 20
3.64762
 30
0.000000
  70
    32
  0
VERTEX
  8
AM_VIS
  5
513
 10
6.00747
 20
3.64814
 30
0.000000
  70
    32
  0
VERTEX
  8
AM_VIS
  5
514
 10
6.00757
 20
3.64866
 30
0.000000
  70
    32
  0
VERTEX
  8
AM_VIS
  5
515
 10
6.00767
 20
3.64917
 30
0.000000
  70
    32
  0
VERTEX
  8
AM_VIS
  5
516
 10
6.00776
 20
3.64969
 30
0.000000
  70
    32
  0
VERTEX
  8
AM_VIS
  5
517
 10
6.00786
 20
3.65021
 30
0.000000
  70
    32
  0
VERTEX
  8
AM_VIS
  5
518
 10
6.00796
 20
3.65073
 30
0.000000
  70
    32
  0
VERTEX
  8
AM_VIS
  5
519
 10
6.00805
 20
3.65124
 30
0.000000
  70
    32
  0
VERTEX
  8
AM_VIS
  5
51A
 10
6.00815
 20
3.65176
 30
0.000000
  70
    32
  0
VERTEX
  8
AM_VIS
  5
51B
 10
6.00825
 20
3.65228
 30
0.000000
  70
    32
  0
VERTEX
  8
AM_VIS
  5
51C
 10
6.00834
 20
3.65280
 30
0.000000
  70
    32
  0
VERTEX
  8
AM_VIS
  5
51D
 10
6.00844
 20
3.65332
 30
0.000000
  70
    32
  0
VERTEX
  8
AM_VIS
  5
51E
 10
6.00854
 20
3.65384
 30
0.000000
  70
    32
  0
VERTEX
  8
AM_VIS
  5
51F
 10
6.00863
 20
3.65436
 30
0.000000
  70
    32
  0
VERTEX
  8
AM_VIS
  5
520
 10
6.00873
 20
3.65489
 30
0.000000
  70
    32
  0
VERTEX
  8
AM_VIS
  5
521
 10
6.00883
 20
3.65541
 30
0.000000
  70
    32
  0
VERTEX
  8
AM_VIS
  5
522
 10
6.00893
 20
3.65593
 30
0.000000
  70
    32
  0
VERTEX
  8
AM_VIS
  5
523
 10
6.00902
 20
3.65645
 30
0.000000
  70
    32
  0
VERTEX
  8
AM_VIS
  5
524
 10
6.00912
 20
3.65698
 30
0.000000
  70
    32
  0
VERTEX
  8
AM_VIS
  5
525
 10
6.00922
 20
3.65750
 30
0.000000
  70
    32
  0
VERTEX
  8
AM_VIS
  5
526
 10
6.00932
 20
3.65802
 30
0.000000
  70
    32
  0
VERTEX
  8
AM_VIS
  5
527
 10
6.00941
 20
3.65855
 30
0.000000
  70
    32
  0
VERTEX
  8
AM_VIS
  5
528
 10
6.00951
 20
3.65907
 30
0.000000
  70
    32
  0
VERTEX
  8
AM_VIS
  5
529
 10
6.00961
 20
3.65960
 30
0.000000
  70
    32
  0
VERTEX
  8
AM_VIS
  5
52A
 10
6.00971
 20
3.66012
 30
0.000000
  70
    32
  0
VERTEX
  8
AM_VIS
  5
52B
 10
6.00980
 20
3.66065
 30
0.000000
  70
    32
  0
VERTEX
  8
AM_VIS
  5
52C
 10
6.00990
 20
3.66117
 30
0.000000
  70
    32
  0
VERTEX
  8
AM_VIS
  5
52D
 10
6.01000
 20
3.66170
 30
0.000000
  70
    32
  0
VERTEX
  8
AM_VIS
  5
52E
 10
6.01010
 20
3.66223
 30
0.000000
  70
    32
  0
VERTEX
  8
AM_VIS
  5
52F
 10
6.01020
 20
3.66275
 30
0.000000
  70
    32
  0
VERTEX
  8
AM_VIS
  5
530
 10
6.01029
 20
3.66328
 30
0.000000
  70
    32
  0
VERTEX
  8
AM_VIS
  5
531
 10
6.01039
 20
3.66381
 30
0.000000
  70
    32
  0
VERTEX
  8
AM_VIS
  5
532
 10
6.01049
 20
3.66434
 30
0.000000
  70
    32
  0
VERTEX
  8
AM_VIS
  5
533
 10
6.01059
 20
3.66486
 30
0.000000
  70
    32
  0
VERTEX
  8
AM_VIS
  5
534
 10
6.01069
 20
3.66539
 30
0.000000
  70
    32
  0
VERTEX
  8
AM_VIS
  5
535
 10
6.01079
 20
3.66592
 30
0.000000
  70
    32
  0
VERTEX
  8
AM_VIS
  5
536
 10
6.01088
 20
3.66645
 30
0.000000
  70
    32
  0
VERTEX
  8
AM_VIS
  5
537
 10
6.01098
 20
3.66698
 30
0.000000
  70
    32
  0
VERTEX
  8
AM_VIS
  5
538
 10
6.01108
 20
3.66751
 30
0.000000
  70
    32
  0
VERTEX
  8
AM_VIS
  5
539
 10
6.01118
 20
3.66804
 30
0.000000
  70
    32
  0
VERTEX
  8
AM_VIS
  5
53A
 10
6.01128
 20
3.66858
 30
0.000000
  70
    32
  0
VERTEX
  8
AM_VIS
  5
53B
 10
6.01137
 20
3.66911
 30
0.000000
  70
    32
  0
VERTEX
  8
AM_VIS
  5
53C
 10
6.01147
 20
3.66964
 30
0.000000
  70
    32
  0
VERTEX
  8
AM_VIS
  5
53D
 10
6.01157
 20
3.67017
 30
0.000000
  70
    32
  0
VERTEX
  8
AM_VIS
  5
53E
 10
6.01167
 20
3.67071
 30
0.000000
  70
    32
  0
VERTEX
  8
AM_VIS
  5
53F
 10
6.01177
 20
3.67124
 30
0.000000
  70
    32
  0
VERTEX
  8
AM_VIS
  5
540
 10
6.01187
 20
3.67177
 30
0.000000
  70
    32
  0
VERTEX
  8
AM_VIS
  5
541
 10
6.01196
 20
3.67231
 30
0.000000
  70
    32
  0
VERTEX
  8
AM_VIS
  5
542
 10
6.01206
 20
3.67284
 30
0.000000
  70
    32
  0
VERTEX
  8
AM_VIS
  5
543
 10
6.01216
 20
3.67338
 30
0.000000
  70
    32
  0
VERTEX
  8
AM_VIS
  5
544
 10
6.01226
 20
3.67391
 30
0.000000
  70
    32
  0
VERTEX
  8
AM_VIS
  5
545
 10
6.01236
 20
3.67445
 30
0.000000
  70
    32
  0
VERTEX
  8
AM_VIS
  5
546
 10
6.01246
 20
3.67498
 30
0.000000
  70
    32
  0
VERTEX
  8
AM_VIS
  5
547
 10
6.01255
 20
3.67552
 30
0.000000
  70
    32
  0
VERTEX
  8
AM_VIS
  5
548
 10
6.01265
 20
3.67606
 30
0.000000
  70
    32
  0
VERTEX
  8
AM_VIS
  5
549
 10
6.01275
 20
3.67659
 30
0.000000
  70
    32
  0
VERTEX
  8
AM_VIS
  5
54A
 10
6.01285
 20
3.67713
 30
0.000000
  70
    32
  0
VERTEX
  8
AM_VIS
  5
54B
 10
6.01295
 20
3.67767
 30
0.000000
  70
    32
  0
VERTEX
  8
AM_VIS
  5
54C
 10
6.01305
 20
3.67821
 30
0.000000
  70
    32
  0
VERTEX
  8
AM_VIS
  5
54D
 10
6.01314
 20
3.67875
 30
0.000000
  70
    32
  0
VERTEX
  8
AM_VIS
  5
54E
 10
6.01324
 20
3.67929
 30
0.000000
  70
    32
  0
VERTEX
  8
AM_VIS
  5
54F
 10
6.01334
 20
3.67982
 30
0.000000
  70
    32
  0
VERTEX
  8
AM_VIS
  5
550
 10
6.01344
 20
3.68036
 30
0.000000
  70
    32
  0
VERTEX
  8
AM_VIS
  5
551
 10
6.01354
 20
3.68090
 30
0.000000
  70
    32
  0
VERTEX
  8
AM_VIS
  5
552
 10
6.01363
 20
3.68145
 30
0.000000
  70
    32
  0
VERTEX
  8
AM_VIS
  5
553
 10
6.01373
 20
3.68199
 30
0.000000
  70
    32
  0
VERTEX
  8
AM_VIS
  5
554
 10
6.01383
 20
3.68253
 30
0.000000
  70
    32
  0
VERTEX
  8
AM_VIS
  5
555
 10
6.01393
 20
3.68307
 30
0.000000
  70
    32
  0
VERTEX
  8
AM_VIS
  5
556
 10
6.01403
 20
3.68361
 30
0.000000
  70
    32
  0
VERTEX
  8
AM_VIS
  5
557
 10
6.01412
 20
3.68415
 30
0.000000
  70
    32
  0
VERTEX
  8
AM_VIS
  5
558
 10
6.01422
 20
3.68470
 30
0.000000
  70
    32
  0
VERTEX
  8
AM_VIS
  5
559
 10
6.01432
 20
3.68524
 30
0.000000
  70
    32
  0
VERTEX
  8
AM_VIS
  5
55A
 10
6.01442
 20
3.68578
 30
0.000000
  70
    32
  0
VERTEX
  8
AM_VIS
  5
55B
 10
6.01451
 20
3.68633
 30
0.000000
  70
    32
  0
VERTEX
  8
AM_VIS
  5
55C
 10
6.01461
 20
3.68687
 30
0.000000
  70
    32
  0
VERTEX
  8
AM_VIS
  5
55D
 10
6.01471
 20
3.68742
 30
0.000000
  70
    32
  0
VERTEX
  8
AM_VIS
  5
55E
 10
6.01481
 20
3.68796
 30
0.000000
  70
    32
  0
VERTEX
  8
AM_VIS
  5
55F
 10
6.01490
 20
3.68851
 30
0.000000
  70
    32
  0
VERTEX
  8
AM_VIS
  5
560
 10
6.01500
 20
3.68905
 30
0.000000
  70
    32
  0
VERTEX
  8
AM_VIS
  5
561
 10
6.01510
 20
3.68960
 30
0.000000
  70
    32
  0
VERTEX
  8
AM_VIS
  5
562
 10
6.01519
 20
3.69015
 30
0.000000
  70
    32
  0
VERTEX
  8
AM_VIS
  5
563
 10
6.01529
 20
3.69070
 30
0.000000
  70
    32
  0
VERTEX
  8
AM_VIS
  5
564
 10
6.01539
 20
3.69124
 30
0.000000
  70
    32
  0
VERTEX
  8
AM_VIS
  5
565
 10
6.01548
 20
3.69179
 30
0.000000
  70
    32
  0
VERTEX
  8
AM_VIS
  5
566
 10
6.01558
 20
3.69234
 30
0.000000
  70
    32
  0
VERTEX
  8
AM_VIS
  5
567
 10
6.01568
 20
3.69289
 30
0.000000
  70
    32
  0
VERTEX
  8
AM_VIS
  5
568
 10
6.01577
 20
3.69344
 30
0.000000
  70
    32
  0
VERTEX
  8
AM_VIS
  5
569
 10
6.01587
 20
3.69399
 30
0.000000
  70
    32
  0
VERTEX
  8
AM_VIS
  5
56A
 10
6.01597
 20
3.69454
 30
0.000000
  70
    32
  0
VERTEX
  8
AM_VIS
  5
56B
 10
6.01606
 20
3.69509
 30
0.000000
  70
    32
  0
VERTEX
  8
AM_VIS
  5
56C
 10
6.01616
 20
3.69564
 30
0.000000
  70
    32
  0
VERTEX
  8
AM_VIS
  5
56D
 10
6.01626
 20
3.69619
 30
0.000000
  70
    32
  0
VERTEX
  8
AM_VIS
  5
56E
 10
6.01635
 20
3.69674
 30
0.000000
  70
    32
  0
VERTEX
  8
AM_VIS
  5
56F
 10
6.01645
 20
3.69729
 30
0.000000
  70
    32
  0
VERTEX
  8
AM_VIS
  5
570
 10
6.01654
 20
3.69784
 30
0.000000
  70
    32
  0
VERTEX
  8
AM_VIS
  5
571
 10
6.01664
 20
3.69840
 30
0.000000
  70
    32
  0
VERTEX
  8
AM_VIS
  5
572
 10
6.01673
 20
3.69895
 30
0.000000
  70
    32
  0
VERTEX
  8
AM_VIS
  5
573
 10
6.01683
 20
3.69950
 30
0.000000
  70
    32
  0
VERTEX
  8
AM_VIS
  5
574
 10
6.01692
 20
3.70006
 30
0.000000
  70
    32
  0
VERTEX
  8
AM_VIS
  5
575
 10
6.01702
 20
3.70061
 30
0.000000
  70
    32
  0
VERTEX
  8
AM_VIS
  5
576
 10
6.01711
 20
3.70116
 30
0.000000
  70
    32
  0
VERTEX
  8
AM_VIS
  5
577
 10
6.01721
 20
3.70172
 30
0.000000
  70
    32
  0
VERTEX
  8
AM_VIS
  5
578
 10
6.01730
 20
3.70227
 30
0.000000
  70
    32
  0
VERTEX
  8
AM_VIS
  5
579
 10
6.01740
 20
3.70283
 30
0.000000
  70
    32
  0
VERTEX
  8
AM_VIS
  5
57A
 10
6.01749
 20
3.70339
 30
0.000000
  70
    32
  0
VERTEX
  8
AM_VIS
  5
57B
 10
6.01759
 20
3.70394
 30
0.000000
  70
    32
  0
VERTEX
  8
AM_VIS
  5
57C
 10
6.01768
 20
3.70450
 30
0.000000
  70
    32
  0
VERTEX
  8
AM_VIS
  5
57D
 10
6.01778
 20
3.70506
 30
0.000000
  70
    32
  0
VERTEX
  8
AM_VIS
  5
57E
 10
6.01787
 20
3.70561
 30
0.000000
  70
    32
  0
VERTEX
  8
AM_VIS
  5
57F
 10
6.01796
 20
3.70617
 30
0.000000
  70
    32
  0
VERTEX
  8
AM_VIS
  5
580
 10
6.01806
 20
3.70673
 30
0.000000
  70
    32
  0
VERTEX
  8
AM_VIS
  5
581
 10
6.01815
 20
3.70729
 30
0.000000
  70
    32
  0
VERTEX
  8
AM_VIS
  5
582
 10
6.01824
 20
3.70785
 30
0.000000
  70
    32
  0
VERTEX
  8
AM_VIS
  5
583
 10
6.01834
 20
3.70841
 30
0.000000
  70
    32
  0
VERTEX
  8
AM_VIS
  5
584
 10
6.01843
 20
3.70897
 30
0.000000
  70
    32
  0
VERTEX
  8
AM_VIS
  5
585
 10
6.01852
 20
3.70953
 30
0.000000
  70
    32
  0
VERTEX
  8
AM_VIS
  5
586
 10
6.01862
 20
3.71009
 30
0.000000
  70
    32
  0
VERTEX
  8
AM_VIS
  5
587
 10
6.01871
 20
3.71065
 30
0.000000
  70
    32
  0
VERTEX
  8
AM_VIS
  5
588
 10
6.01880
 20
3.71121
 30
0.000000
  70
    32
  0
VERTEX
  8
AM_VIS
  5
589
 10
6.01889
 20
3.71177
 30
0.000000
  70
    32
  0
VERTEX
  8
AM_VIS
  5
58A
 10
6.01898
 20
3.71233
 30
0.000000
  70
    32
  0
VERTEX
  8
AM_VIS
  5
58B
 10
6.01908
 20
3.71290
 30
0.000000
  70
    32
  0
VERTEX
  8
AM_VIS
  5
58C
 10
6.01917
 20
3.71346
 30
0.000000
  70
    32
  0
VERTEX
  8
AM_VIS
  5
58D
 10
6.01926
 20
3.71402
 30
0.000000
  70
    32
  0
VERTEX
  8
AM_VIS
  5
58E
 10
6.01935
 20
3.71459
 30
0.000000
  70
    32
  0
VERTEX
  8
AM_VIS
  5
58F
 10
6.01944
 20
3.71515
 30
0.000000
  70
    32
  0
VERTEX
  8
AM_VIS
  5
590
 10
6.01953
 20
3.71571
 30
0.000000
  70
    32
  0
VERTEX
  8
AM_VIS
  5
591
 10
6.01962
 20
3.71628
 30
0.000000
  70
    32
  0
VERTEX
  8
AM_VIS
  5
592
 10
6.01971
 20
3.71684
 30
0.000000
  70
    32
  0
VERTEX
  8
AM_VIS
  5
593
 10
6.01981
 20
3.71741
 30
0.000000
  70
    32
  0
VERTEX
  8
AM_VIS
  5
594
 10
6.01990
 20
3.71798
 30
0.000000
  70
    32
  0
VERTEX
  8
AM_VIS
  5
595
 10
6.01999
 20
3.71854
 30
0.000000
  70
    32
  0
VERTEX
  8
AM_VIS
  5
596
 10
6.02008
 20
3.71911
 30
0.000000
  70
    32
  0
VERTEX
  8
AM_VIS
  5
597
 10
6.02017
 20
3.71968
 30
0.000000
  70
    32
  0
VERTEX
  8
AM_VIS
  5
598
 10
6.02025
 20
3.72024
 30
0.000000
  70
    32
  0
VERTEX
  8
AM_VIS
  5
599
 10
6.02034
 20
3.72081
 30
0.000000
  70
    32
  0
VERTEX
  8
AM_VIS
  5
59A
 10
6.02043
 20
3.72138
 30
0.000000
  70
    32
  0
VERTEX
  8
AM_VIS
  5
59B
 10
6.02052
 20
3.72195
 30
0.000000
  70
    32
  0
VERTEX
  8
AM_VIS
  5
59C
 10
6.02061
 20
3.72252
 30
0.000000
  70
    32
  0
VERTEX
  8
AM_VIS
  5
59D
 10
6.02070
 20
3.72309
 30
0.000000
  70
    32
  0
VERTEX
  8
AM_VIS
  5
59E
 10
6.02079
 20
3.72366
 30
0.000000
  70
    32
  0
VERTEX
  8
AM_VIS
  5
59F
 10
6.02088
 20
3.72423
 30
0.000000
  70
    32
  0
VERTEX
  8
AM_VIS
  5
5A0
 10
6.02096
 20
3.72480
 30
0.000000
  70
    32
  0
VERTEX
  8
AM_VIS
  5
5A1
 10
6.02105
 20
3.72537
 30
0.000000
  70
    32
  0
VERTEX
  8
AM_VIS
  5
5A2
 10
6.02114
 20
3.72594
 30
0.000000
  70
    32
  0
VERTEX
  8
AM_VIS
  5
5A3
 10
6.02123
 20
3.72651
 30
0.000000
  70
    32
  0
VERTEX
  8
AM_VIS
  5
5A4
 10
6.02131
 20
3.72708
 30
0.000000
  70
    32
  0
VERTEX
  8
AM_VIS
  5
5A5
 10
6.02140
 20
3.72765
 30
0.000000
  70
    32
  0
VERTEX
  8
AM_VIS
  5
5A6
 10
6.02148
 20
3.72823
 30
0.000000
  70
    32
  0
VERTEX
  8
AM_VIS
  5
5A7
 10
6.02157
 20
3.72880
 30
0.000000
  70
    32
  0
VERTEX
  8
AM_VIS
  5
5A8
 10
6.02166
 20
3.72937
 30
0.000000
  70
    32
  0
VERTEX
  8
AM_VIS
  5
5A9
 10
6.02174
 20
3.72994
 30
0.000000
  70
    32
  0
VERTEX
  8
AM_VIS
  5
5AA
 10
6.02183
 20
3.73051
 30
0.000000
  70
    32
  0
VERTEX
  8
AM_VIS
  5
5AB
 10
6.02191
 20
3.73109
 30
0.000000
  70
    32
  0
VERTEX
  8
AM_VIS
  5
5AC
 10
6.02200
 20
3.73166
 30
0.000000
  70
    32
  0
VERTEX
  8
AM_VIS
  5
5AD
 10
6.02208
 20
3.73223
 30
0.000000
  70
    32
  0
VERTEX
  8
AM_VIS
  5
5AE
 10
6.02216
 20
3.73280
 30
0.000000
  70
    32
  0
VERTEX
  8
AM_VIS
  5
5AF
 10
6.02225
 20
3.73337
 30
0.000000
  70
    32
  0
VERTEX
  8
AM_VIS
  5
5B0
 10
6.02233
 20
3.73394
 30
0.000000
  70
    32
  0
VERTEX
  8
AM_VIS
  5
5B1
 10
6.02241
 20
3.73451
 30
0.000000
  70
    32
  0
VERTEX
  8
AM_VIS
  5
5B2
 10
6.02250
 20
3.73509
 30
0.000000
  70
    32
  0
VERTEX
  8
AM_VIS
  5
5B3
 10
6.02258
 20
3.73566
 30
0.000000
  70
    32
  0
VERTEX
  8
AM_VIS
  5
5B4
 10
6.02266
 20
3.73623
 30
0.000000
  70
    32
  0
VERTEX
  8
AM_VIS
  5
5B5
 10
6.02274
 20
3.73680
 30
0.000000
  70
    32
  0
VERTEX
  8
AM_VIS
  5
5B6
 10
6.02282
 20
3.73737
 30
0.000000
  70
    32
  0
VERTEX
  8
AM_VIS
  5
5B7
 10
6.02291
 20
3.73794
 30
0.000000
  70
    32
  0
VERTEX
  8
AM_VIS
  5
5B8
 10
6.02299
 20
3.73851
 30
0.000000
  70
    32
  0
VERTEX
  8
AM_VIS
  5
5B9
 10
6.02307
 20
3.73909
 30
0.000000
  70
    32
  0
VERTEX
  8
AM_VIS
  5
5BA
 10
6.02315
 20
3.73966
 30
0.000000
  70
    32
  0
VERTEX
  8
AM_VIS
  5
5BB
 10
6.02323
 20
3.74023
 30
0.000000
  70
    32
  0
VERTEX
  8
AM_VIS
  5
5BC
 10
6.02331
 20
3.74080
 30
0.000000
  70
    32
  0
VERTEX
  8
AM_VIS
  5
5BD
 10
6.02339
 20
3.74137
 30
0.000000
  70
    32
  0
VERTEX
  8
AM_VIS
  5
5BE
 10
6.02346
 20
3.74194
 30
0.000000
  70
    32
  0
VERTEX
  8
AM_VIS
  5
5BF
 10
6.02354
 20
3.74252
 30
0.000000
  70
    32
  0
VERTEX
  8
AM_VIS
  5
5C0
 10
6.02362
 20
3.74309
 30
0.000000
  70
    32
  0
VERTEX
  8
AM_VIS
  5
5C1
 10
6.02370
 20
3.74366
 30
0.000000
  70
    32
  0
VERTEX
  8
AM_VIS
  5
5C2
 10
6.02378
 20
3.74423
 30
0.000000
  70
    32
  0
VERTEX
  8
AM_VIS
  5
5C3
 10
6.02385
 20
3.74480
 30
0.000000
  70
    32
  0
VERTEX
  8
AM_VIS
  5
5C4
 10
6.02393
 20
3.74537
 30
0.000000
  70
    32
  0
VERTEX
  8
AM_VIS
  5
5C5
 10
6.02401
 20
3.74594
 30
0.000000
  70
    32
  0
VERTEX
  8
AM_VIS
  5
5C6
 10
6.02408
 20
3.74652
 30
0.000000
  70
    32
  0
VERTEX
  8
AM_VIS
  5
5C7
 10
6.02416
 20
3.74709
 30
0.000000
  70
    32
  0
VERTEX
  8
AM_VIS
  5
5C8
 10
6.02423
 20
3.74766
 30
0.000000
  70
    32
  0
VERTEX
  8
AM_VIS
  5
5C9
 10
6.02431
 20
3.74823
 30
0.000000
  70
    32
  0
VERTEX
  8
AM_VIS
  5
5CA
 10
6.02438
 20
3.74880
 30
0.000000
  70
    32
  0
VERTEX
  8
AM_VIS
  5
5CB
 10
6.02446
 20
3.74937
 30
0.000000
  70
    32
  0
VERTEX
  8
AM_VIS
  5
5CC
 10
6.02453
 20
3.74995
 30
0.000000
  70
    32
  0
VERTEX
  8
AM_VIS
  5
5CD
 10
6.02461
 20
3.75052
 30
0.000000
  70
    32
  0
VERTEX
  8
AM_VIS
  5
5CE
 10
6.02468
 20
3.75109
 30
0.000000
  70
    32
  0
VERTEX
  8
AM_VIS
  5
5CF
 10
6.02475
 20
3.75166
 30
0.000000
  70
    32
  0
VERTEX
  8
AM_VIS
  5
5D0
 10
6.02483
 20
3.75223
 30
0.000000
  70
    32
  0
VERTEX
  8
AM_VIS
  5
5D1
 10
6.02490
 20
3.75280
 30
0.000000
  70
    32
  0
VERTEX
  8
AM_VIS
  5
5D2
 10
6.02497
 20
3.75338
 30
0.000000
  70
    32
  0
VERTEX
  8
AM_VIS
  5
5D3
 10
6.02504
 20
3.75395
 30
0.000000
  70
    32
  0
VERTEX
  8
AM_VIS
  5
5D4
 10
6.02512
 20
3.75452
 30
0.000000
  70
    32
  0
VERTEX
  8
AM_VIS
  5
5D5
 10
6.02519
 20
3.75509
 30
0.000000
  70
    32
  0
VERTEX
  8
AM_VIS
  5
5D6
 10
6.02526
 20
3.75566
 30
0.000000
  70
    32
  0
VERTEX
  8
AM_VIS
  5
5D7
 10
6.02533
 20
3.75624
 30
0.000000
  70
    32
  0
VERTEX
  8
AM_VIS
  5
5D8
 10
6.02540
 20
3.75681
 30
0.000000
  70
    32
  0
VERTEX
  8
AM_VIS
  5
5D9
 10
6.02547
 20
3.75738
 30
0.000000
  70
    32
  0
VERTEX
  8
AM_VIS
  5
5DA
 10
6.02554
 20
3.75795
 30
0.000000
  70
    32
  0
VERTEX
  8
AM_VIS
  5
5DB
 10
6.02561
 20
3.75852
 30
0.000000
  70
    32
  0
VERTEX
  8
AM_VIS
  5
5DC
 10
6.02567
 20
3.75910
 30
0.000000
  70
    32
  0
VERTEX
  8
AM_VIS
  5
5DD
 10
6.02574
 20
3.75967
 30
0.000000
  70
    32
  0
VERTEX
  8
AM_VIS
  5
5DE
 10
6.02581
 20
3.76024
 30
0.000000
  70
    32
  0
VERTEX
  8
AM_VIS
  5
5DF
 10
6.02588
 20
3.76081
 30
0.000000
  70
    32
  0
VERTEX
  8
AM_VIS
  5
5E0
 10
6.02595
 20
3.76139
 30
0.000000
  70
    32
  0
VERTEX
  8
AM_VIS
  5
5E1
 10
6.02601
 20
3.76196
 30
0.000000
  70
    32
  0
VERTEX
  8
AM_VIS
  5
5E2
 10
6.02608
 20
3.76253
 30
0.000000
  70
    32
  0
VERTEX
  8
AM_VIS
  5
5E3
 10
6.02615
 20
3.76310
 30
0.000000
  70
    32
  0
VERTEX
  8
AM_VIS
  5
5E4
 10
6.02621
 20
3.76368
 30
0.000000
  70
    32
  0
VERTEX
  8
AM_VIS
  5
5E5
 10
6.02628
 20
3.76425
 30
0.000000
  70
    32
  0
VERTEX
  8
AM_VIS
  5
5E6
 10
6.02634
 20
3.76482
 30
0.000000
  70
    32
  0
VERTEX
  8
AM_VIS
  5
5E7
 10
6.02641
 20
3.76540
 30
0.000000
  70
    32
  0
VERTEX
  8
AM_VIS
  5
5E8
 10
6.02647
 20
3.76597
 30
0.000000
  70
    32
  0
VERTEX
  8
AM_VIS
  5
5E9
 10
6.02653
 20
3.76654
 30
0.000000
  70
    32
  0
VERTEX
  8
AM_VIS
  5
5EA
 10
6.02660
 20
3.76711
 30
0.000000
  70
    32
  0
VERTEX
  8
AM_VIS
  5
5EB
 10
6.02666
 20
3.76769
 30
0.000000
  70
    32
  0
VERTEX
  8
AM_VIS
  5
5EC
 10
6.02672
 20
3.76826
 30
0.000000
  70
    32
  0
VERTEX
  8
AM_VIS
  5
5ED
 10
6.02679
 20
3.76883
 30
0.000000
  70
    32
  0
VERTEX
  8
AM_VIS
  5
5EE
 10
6.02685
 20
3.76941
 30
0.000000
  70
    32
  0
VERTEX
  8
AM_VIS
  5
5EF
 10
6.02691
 20
3.76998
 30
0.000000
  70
    32
  0
VERTEX
  8
AM_VIS
  5
5F0
 10
6.02697
 20
3.77055
 30
0.000000
  70
    32
  0
VERTEX
  8
AM_VIS
  5
5F1
 10
6.02703
 20
3.77113
 30
0.000000
  70
    32
  0
VERTEX
  8
AM_VIS
  5
5F2
 10
6.02709
 20
3.77170
 30
0.000000
  70
    32
  0
VERTEX
  8
AM_VIS
  5
5F3
 10
6.02715
 20
3.77228
 30
0.000000
  70
    32
  0
VERTEX
  8
AM_VIS
  5
5F4
 10
6.02721
 20
3.77285
 30
0.000000
  70
    32
  0
VERTEX
  8
AM_VIS
  5
5F5
 10
6.02727
 20
3.77342
 30
0.000000
  70
    32
  0
VERTEX
  8
AM_VIS
  5
5F6
 10
6.02733
 20
3.77400
 30
0.000000
  70
    32
  0
VERTEX
  8
AM_VIS
  5
5F7
 10
6.02739
 20
3.77457
 30
0.000000
  70
    32
  0
VERTEX
  8
AM_VIS
  5
5F8
 10
6.02745
 20
3.77515
 30
0.000000
  70
    32
  0
VERTEX
  8
AM_VIS
  5
5F9
 10
6.02751
 20
3.77572
 30
0.000000
  70
    32
  0
VERTEX
  8
AM_VIS
  5
5FA
 10
6.02757
 20
3.77630
 30
0.000000
  70
    32
  0
VERTEX
  8
AM_VIS
  5
5FB
 10
6.02762
 20
3.77687
 30
0.000000
  70
    32
  0
VERTEX
  8
AM_VIS
  5
5FC
 10
6.02768
 20
3.77745
 30
0.000000
  70
    32
  0
VERTEX
  8
AM_VIS
  5
5FD
 10
6.02774
 20
3.77802
 30
0.000000
  70
    32
  0
VERTEX
  8
AM_VIS
  5
5FE
 10
6.02779
 20
3.77859
 30
0.000000
  70
    32
  0
VERTEX
  8
AM_VIS
  5
5FF
 10
6.02785
 20
3.77917
 30
0.000000
  70
    32
  0
VERTEX
  8
AM_VIS
  5
600
 10
6.02790
 20
3.77974
 30
0.000000
  70
    32
  0
VERTEX
  8
AM_VIS
  5
601
 10
6.02796
 20
3.78032
 30
0.000000
  70
    32
  0
VERTEX
  8
AM_VIS
  5
602
 10
6.02801
 20
3.78090
 30
0.000000
  70
    32
  0
VERTEX
  8
AM_VIS
  5
603
 10
6.02807
 20
3.78147
 30
0.000000
  70
    32
  0
VERTEX
  8
AM_VIS
  5
604
 10
6.02812
 20
3.78205
 30
0.000000
  70
    32
  0
VERTEX
  8
AM_VIS
  5
605
 10
6.02817
 20
3.78262
 30
0.000000
  70
    32
  0
VERTEX
  8
AM_VIS
  5
606
 10
6.02823
 20
3.78320
 30
0.000000
  70
    32
  0
VERTEX
  8
AM_VIS
  5
607
 10
6.02828
 20
3.78377
 30
0.000000
  70
    32
  0
VERTEX
  8
AM_VIS
  5
608
 10
6.02833
 20
3.78435
 30
0.000000
  70
    32
  0
VERTEX
  8
AM_VIS
  5
609
 10
6.02838
 20
3.78493
 30
0.000000
  70
    32
  0
VERTEX
  8
AM_VIS
  5
60A
 10
6.02843
 20
3.78550
 30
0.000000
  70
    32
  0
VERTEX
  8
AM_VIS
  5
60B
 10
6.02848
 20
3.78608
 30
0.000000
  70
    32
  0
VERTEX
  8
AM_VIS
  5
60C
 10
6.02853
 20
3.78665
 30
0.000000
  70
    32
  0
VERTEX
  8
AM_VIS
  5
60D
 10
6.02858
 20
3.78723
 30
0.000000
  70
    32
  0
VERTEX
  8
AM_VIS
  5
60E
 10
6.02863
 20
3.78781
 30
0.000000
  70
    32
  0
VERTEX
  8
AM_VIS
  5
60F
 10
6.02868
 20
3.78838
 30
0.000000
  70
    32
  0
VERTEX
  8
AM_VIS
  5
610
 10
6.02873
 20
3.78896
 30
0.000000
  70
    32
  0
VERTEX
  8
AM_VIS
  5
611
 10
6.02878
 20
3.78954
 30
0.000000
  70
    32
  0
VERTEX
  8
AM_VIS
  5
612
 10
6.02883
 20
3.79012
 30
0.000000
  70
    32
  0
VERTEX
  8
AM_VIS
  5
613
 10
6.02888
 20
3.79069
 30
0.000000
  70
    32
  0
VERTEX
  8
AM_VIS
  5
614
 10
6.02892
 20
3.79127
 30
0.000000
  70
    32
  0
VERTEX
  8
AM_VIS
  5
615
 10
6.02897
 20
3.79185
 30
0.000000
  70
    32
  0
VERTEX
  8
AM_VIS
  5
616
 10
6.02902
 20
3.79243
 30
0.000000
  70
    32
  0
VERTEX
  8
AM_VIS
  5
617
 10
6.02906
 20
3.79300
 30
0.000000
  70
    32
  0
VERTEX
  8
AM_VIS
  5
618
 10
6.02911
 20
3.79358
 30
0.000000
  70
    32
  0
VERTEX
  8
AM_VIS
  5
619
 10
6.02915
 20
3.79416
 30
0.000000
  70
    32
  0
VERTEX
  8
AM_VIS
  5
61A
 10
6.02920
 20
3.79474
 30
0.000000
  70
    32
  0
VERTEX
  8
AM_VIS
  5
61B
 10
6.02924
 20
3.79532
 30
0.000000
  70
    32
  0
VERTEX
  8
AM_VIS
  5
61C
 10
6.02928
 20
3.79590
 30
0.000000
  70
    32
  0
VERTEX
  8
AM_VIS
  5
61D
 10
6.02933
 20
3.79648
 30
0.000000
  70
    32
  0
VERTEX
  8
AM_VIS
  5
61E
 10
6.02937
 20
3.79705
 30
0.000000
  70
    32
  0
VERTEX
  8
AM_VIS
  5
61F
 10
6.02941
 20
3.79763
 30
0.000000
  70
    32
  0
VERTEX
  8
AM_VIS
  5
620
 10
6.02946
 20
3.79821
 30
0.000000
  70
    32
  0
VERTEX
  8
AM_VIS
  5
621
 10
6.02950
 20
3.79879
 30
0.000000
  70
    32
  0
VERTEX
  8
AM_VIS
  5
622
 10
6.02954
 20
3.79937
 30
0.000000
  70
    32
  0
VERTEX
  8
AM_VIS
  5
623
 10
6.02958
 20
3.79995
 30
0.000000
  70
    32
  0
VERTEX
  8
AM_VIS
  5
624
 10
6.02962
 20
3.80053
 30
0.000000
  70
    32
  0
VERTEX
  8
AM_VIS
  5
625
 10
6.02966
 20
3.80111
 30
0.000000
  70
    32
  0
VERTEX
  8
AM_VIS
  5
626
 10
6.02970
 20
3.80169
 30
0.000000
  70
    32
  0
VERTEX
  8
AM_VIS
  5
627
 10
6.02974
 20
3.80227
 30
0.000000
  70
    32
  0
VERTEX
  8
AM_VIS
  5
628
 10
6.02978
 20
3.80285
 30
0.000000
  70
    32
  0
VERTEX
  8
AM_VIS
  5
629
 10
6.02981
 20
3.80343
 30
0.000000
  70
    32
  0
VERTEX
  8
AM_VIS
  5
62A
 10
6.02985
 20
3.80401
 30
0.000000
  70
    32
  0
VERTEX
  8
AM_VIS
  5
62B
 10
6.02989
 20
3.80459
 30
0.000000
  70
    32
  0
VERTEX
  8
AM_VIS
  5
62C
 10
6.02993
 20
3.80517
 30
0.000000
  70
    32
  0
VERTEX
  8
AM_VIS
  5
62D
 10
6.02996
 20
3.80575
 30
0.000000
  70
    32
  0
VERTEX
  8
AM_VIS
  5
62E
 10
6.03000
 20
3.80633
 30
0.000000
  70
    32
  0
VERTEX
  8
AM_VIS
  5
62F
 10
6.03003
 20
3.80691
 30
0.000000
  70
    32
  0
VERTEX
  8
AM_VIS
  5
630
 10
6.03007
 20
3.80749
 30
0.000000
  70
    32
  0
VERTEX
  8
AM_VIS
  5
631
 10
6.03010
 20
3.80807
 30
0.000000
  70
    32
  0
VERTEX
  8
AM_VIS
  5
632
 10
6.03014
 20
3.80865
 30
0.000000
  70
    32
  0
VERTEX
  8
AM_VIS
  5
633
 10
6.03017
 20
3.80924
 30
0.000000
  70
    32
  0
VERTEX
  8
AM_VIS
  5
634
 10
6.03020
 20
3.80982
 30
0.000000
  70
    32
  0
VERTEX
  8
AM_VIS
  5
635
 10
6.03024
 20
3.81040
 30
0.000000
  70
    32
  0
VERTEX
  8
AM_VIS
  5
636
 10
6.03027
 20
3.81098
 30
0.000000
  70
    32
  0
VERTEX
  8
AM_VIS
  5
637
 10
6.03030
 20
3.81156
 30
0.000000
  70
    32
  0
VERTEX
  8
AM_VIS
  5
638
 10
6.03033
 20
3.81214
 30
0.000000
  70
    32
  0
VERTEX
  8
AM_VIS
  5
639
 10
6.03036
 20
3.81272
 30
0.000000
  70
    32
  0
VERTEX
  8
AM_VIS
  5
63A
 10
6.03039
 20
3.81330
 30
0.000000
  70
    32
  0
VERTEX
  8
AM_VIS
  5
63B
 10
6.03042
 20
3.81388
 30
0.000000
  70
    32
  0
VERTEX
  8
AM_VIS
  5
63C
 10
6.03045
 20
3.81446
 30
0.000000
  70
    32
  0
VERTEX
  8
AM_VIS
  5
63D
 10
6.03048
 20
3.81504
 30
0.000000
  70
    32
  0
VERTEX
  8
AM_VIS
  5
63E
 10
6.03051
 20
3.81562
 30
0.000000
  70
    32
  0
VERTEX
  8
AM_VIS
  5
63F
 10
6.03054
 20
3.81620
 30
0.000000
  70
    32
  0
VERTEX
  8
AM_VIS
  5
640
 10
6.03057
 20
3.81678
 30
0.000000
  70
    32
  0
VERTEX
  8
AM_VIS
  5
641
 10
6.03060
 20
3.81736
 30
0.000000
  70
    32
  0
VERTEX
  8
AM_VIS
  5
642
 10
6.03062
 20
3.81794
 30
0.000000
  70
    32
  0
VERTEX
  8
AM_VIS
  5
643
 10
6.03065
 20
3.81852
 30
0.000000
  70
    32
  0
VERTEX
  8
AM_VIS
  5
644
 10
6.03067
 20
3.81910
 30
0.000000
  70
    32
  0
VERTEX
  8
AM_VIS
  5
645
 10
6.03070
 20
3.81968
 30
0.000000
  70
    32
  0
VERTEX
  8
AM_VIS
  5
646
 10
6.03073
 20
3.82026
 30
0.000000
  70
    32
  0
VERTEX
  8
AM_VIS
  5
647
 10
6.03075
 20
3.82084
 30
0.000000
  70
    32
  0
VERTEX
  8
AM_VIS
  5
648
 10
6.03077
 20
3.82142
 30
0.000000
  70
    32
  0
VERTEX
  8
AM_VIS
  5
649
 10
6.03080
 20
3.82201
 30
0.000000
  70
    32
  0
VERTEX
  8
AM_VIS
  5
64A
 10
6.03082
 20
3.82259
 30
0.000000
  70
    32
  0
VERTEX
  8
AM_VIS
  5
64B
 10
6.03084
 20
3.82317
 30
0.000000
  70
    32
  0
VERTEX
  8
AM_VIS
  5
64C
 10
6.03087
 20
3.82375
 30
0.000000
  70
    32
  0
VERTEX
  8
AM_VIS
  5
64D
 10
6.03089
 20
3.82433
 30
0.000000
  70
    32
  0
VERTEX
  8
AM_VIS
  5
64E
 10
6.03091
 20
3.82491
 30
0.000000
  70
    32
  0
VERTEX
  8
AM_VIS
  5
64F
 10
6.03093
 20
3.82549
 30
0.000000
  70
    32
  0
VERTEX
  8
AM_VIS
  5
650
 10
6.03095
 20
3.82607
 30
0.000000
  70
    32
  0
VERTEX
  8
AM_VIS
  5
651
 10
6.03097
 20
3.82665
 30
0.000000
  70
    32
  0
VERTEX
  8
AM_VIS
  5
652
 10
6.03099
 20
3.82723
 30
0.000000
  70
    32
  0
VERTEX
  8
AM_VIS
  5
653
 10
6.03101
 20
3.82782
 30
0.000000
  70
    32
  0
VERTEX
  8
AM_VIS
  5
654
 10
6.03103
 20
3.82840
 30
0.000000
  70
    32
  0
VERTEX
  8
AM_VIS
  5
655
 10
6.03105
 20
3.82898
 30
0.000000
  70
    32
  0
VERTEX
  8
AM_VIS
  5
656
 10
6.03106
 20
3.82956
 30
0.000000
  70
    32
  0
VERTEX
  8
AM_VIS
  5
657
 10
6.03108
 20
3.83014
 30
0.000000
  70
    32
  0
VERTEX
  8
AM_VIS
  5
658
 10
6.03110
 20
3.83072
 30
0.000000
  70
    32
  0
VERTEX
  8
AM_VIS
  5
659
 10
6.03111
 20
3.83130
 30
0.000000
  70
    32
  0
VERTEX
  8
AM_VIS
  5
65A
 10
6.03113
 20
3.83189
 30
0.000000
  70
    32
  0
VERTEX
  8
AM_VIS
  5
65B
 10
6.03114
 20
3.83247
 30
0.000000
  70
    32
  0
VERTEX
  8
AM_VIS
  5
65C
 10
6.03116
 20
3.83305
 30
0.000000
  70
    32
  0
VERTEX
  8
AM_VIS
  5
65D
 10
6.03117
 20
3.83363
 30
0.000000
  70
    32
  0
VERTEX
  8
AM_VIS
  5
65E
 10
6.03119
 20
3.83421
 30
0.000000
  70
    32
  0
VERTEX
  8
AM_VIS
  5
65F
 10
6.03120
 20
3.83480
 30
0.000000
  70
    32
  0
VERTEX
  8
AM_VIS
  5
660
 10
6.03121
 20
3.83538
 30
0.000000
  70
    32
  0
VERTEX
  8
AM_VIS
  5
661
 10
6.03123
 20
3.83596
 30
0.000000
  70
    32
  0
VERTEX
  8
AM_VIS
  5
662
 10
6.03124
 20
3.83654
 30
0.000000
  70
    32
  0
VERTEX
  8
AM_VIS
  5
663
 10
6.03125
 20
3.83712
 30
0.000000
  70
    32
  0
VERTEX
  8
AM_VIS
  5
664
 10
6.03126
 20
3.83770
 30
0.000000
  70
    32
  0
VERTEX
  8
AM_VIS
  5
665
 10
6.03127
 20
3.83829
 30
0.000000
  70
    32
  0
VERTEX
  8
AM_VIS
  5
666
 10
6.03128
 20
3.83887
 30
0.000000
  70
    32
  0
VERTEX
  8
AM_VIS
  5
667
 10
6.03129
 20
3.83945
 30
0.000000
  70
    32
  0
VERTEX
  8
AM_VIS
  5
668
 10
6.03130
 20
3.84003
 30
0.000000
  70
    32
  0
VERTEX
  8
AM_VIS
  5
669
 10
6.03131
 20
3.84061
 30
0.000000
  70
    32
  0
VERTEX
  8
AM_VIS
  5
66A
 10
6.03132
 20
3.84120
 30
0.000000
  70
    32
  0
VERTEX
  8
AM_VIS
  5
66B
 10
6.03133
 20
3.84178
 30
0.000000
  70
    32
  0
VERTEX
  8
AM_VIS
  5
66C
 10
6.03133
 20
3.84236
 30
0.000000
  70
    32
  0
VERTEX
  8
AM_VIS
  5
66D
 10
6.03134
 20
3.84294
 30
0.000000
  70
    32
  0
VERTEX
  8
AM_VIS
  5
66E
 10
6.03135
 20
3.84352
 30
0.000000
  70
    32
  0
VERTEX
  8
AM_VIS
  5
66F
 10
6.03135
 20
3.84410
 30
0.000000
  70
    32
  0
VERTEX
  8
AM_VIS
  5
670
 10
6.03136
 20
3.84469
 30
0.000000
  70
    32
  0
VERTEX
  8
AM_VIS
  5
671
 10
6.03136
 20
3.84527
 30
0.000000
  70
    32
  0
VERTEX
  8
AM_VIS
  5
672
 10
6.03137
 20
3.84585
 30
0.000000
  70
    32
  0
VERTEX
  8
AM_VIS
  5
673
 10
6.03137
 20
3.84643
 30
0.000000
  70
    32
  0
VERTEX
  8
AM_VIS
  5
674
 10
6.03137
 20
3.84701
 30
0.000000
  70
    32
  0
VERTEX
  8
AM_VIS
  5
675
 10
6.03138
 20
3.84759
 30
0.000000
  70
    32
  0
VERTEX
  8
AM_VIS
  5
676
 10
6.03138
 20
3.84818
 30
0.000000
  70
    32
  0
VERTEX
  8
AM_VIS
  5
677
 10
6.03138
 20
3.84876
 30
0.000000
  70
    32
  0
VERTEX
  8
AM_VIS
  5
678
 10
6.03138
 20
3.84934
 30
0.000000
  70
    32
  0
VERTEX
  8
AM_VIS
  5
679
 10
6.03139
 20
3.84992
 30
0.000000
  70
    32
  0
VERTEX
  8
AM_VIS
  5
67A
 10
6.03139
 20
3.85050
 30
0.000000
  70
    32
  0
VERTEX
  8
AM_VIS
  5
67B
 10
6.03139
 20
3.85108
 30
0.000000
  70
    32
  0
SEQEND
  8
AM_VIS
  5
67C
  0
LINE
  5
32
  8
AM_VIS
 10
6.0261825388001613
 20
4.2676322317352202
 30
0.0
 11
6.7346347922214331
 21
4.9760844851564929
 31
0.0
  0
LINE
  5
33
  8
AM_VIS
 10
6.0261825388001613
 20
3.4345367385777692
 30
0.0
 11
6.7346347922214331
 21
2.726084485156496
 31
0.0
  0
POLYLINE
  8
AM_VIS
  5
67D
  66
     1
 10
0.000000
 20
0.000000
 30
0.000000
  70
     8
  0
VERTEX
  8
AM_VIS
  5
67E
 10
5.86569
 20
4.16648
 30
0.000000
  70
    32
  0
VERTEX
  8
AM_VIS
  5
67F
 10
5.86460
 20
4.16737
 30
0.000000
  70
    32
  0
VERTEX
  8
AM_VIS
  5
680
 10
5.86349
 20
4.16825
 30
0.000000
  70
    32
  0
VERTEX
  8
AM_VIS
  5
681
 10
5.86239
 20
4.16914
 30
0.000000
  70
    32
  0
VERTEX
  8
AM_VIS
  5
682
 10
5.86129
 20
4.17002
 30
0.000000
  70
    32
  0
VERTEX
  8
AM_VIS
  5
683
 10
5.86018
 20
4.17089
 30
0.000000
  70
    32
  0
VERTEX
  8
AM_VIS
  5
684
 10
5.85907
 20
4.17177
 30
0.000000
  70
    32
  0
VERTEX
  8
AM_VIS
  5
685
 10
5.85796
 20
4.17264
 30
0.000000
  70
    32
  0
VERTEX
  8
AM_VIS
  5
686
 10
5.85684
 20
4.17351
 30
0.000000
  70
    32
  0
VERTEX
  8
AM_VIS
  5
687
 10
5.85572
 20
4.17437
 30
0.000000
  70
    32
  0
VERTEX
  8
AM_VIS
  5
688
 10
5.85461
 20
4.17523
 30
0.000000
  70
    32
  0
VERTEX
  8
AM_VIS
  5
689
 10
5.85349
 20
4.17609
 30
0.000000
  70
    32
  0
VERTEX
  8
AM_VIS
  5
68A
 10
5.85236
 20
4.17695
 30
0.000000
  70
    32
  0
VERTEX
  8
AM_VIS
  5
68B
 10
5.85124
 20
4.17780
 30
0.000000
  70
    32
  0
VERTEX
  8
AM_VIS
  5
68C
 10
5.85011
 20
4.17864
 30
0.000000
  70
    32
  0
VERTEX
  8
AM_VIS
  5
68D
 10
5.84898
 20
4.17949
 30
0.000000
  70
    32
  0
VERTEX
  8
AM_VIS
  5
68E
 10
5.84785
 20
4.18033
 30
0.000000
  70
    32
  0
VERTEX
  8
AM_VIS
  5
68F
 10
5.84672
 20
4.18117
 30
0.000000
  70
    32
  0
VERTEX
  8
AM_VIS
  5
690
 10
5.84558
 20
4.18200
 30
0.000000
  70
    32
  0
VERTEX
  8
AM_VIS
  5
691
 10
5.84444
 20
4.18284
 30
0.000000
  70
    32
  0
VERTEX
  8
AM_VIS
  5
692
 10
5.84331
 20
4.18366
 30
0.000000
  70
    32
  0
VERTEX
  8
AM_VIS
  5
693
 10
5.84216
 20
4.18449
 30
0.000000
  70
    32
  0
VERTEX
  8
AM_VIS
  5
694
 10
5.84102
 20
4.18531
 30
0.000000
  70
    32
  0
VERTEX
  8
AM_VIS
  5
695
 10
5.83988
 20
4.18613
 30
0.000000
  70
    32
  0
VERTEX
  8
AM_VIS
  5
696
 10
5.83873
 20
4.18694
 30
0.000000
  70
    32
  0
VERTEX
  8
AM_VIS
  5
697
 10
5.83758
 20
4.18775
 30
0.000000
  70
    32
  0
VERTEX
  8
AM_VIS
  5
698
 10
5.83643
 20
4.18856
 30
0.000000
  70
    32
  0
VERTEX
  8
AM_VIS
  5
699
 10
5.83527
 20
4.18936
 30
0.000000
  70
    32
  0
VERTEX
  8
AM_VIS
  5
69A
 10
5.83412
 20
4.19017
 30
0.000000
  70
    32
  0
VERTEX
  8
AM_VIS
  5
69B
 10
5.83296
 20
4.19096
 30
0.000000
  70
    32
  0
VERTEX
  8
AM_VIS
  5
69C
 10
5.83180
 20
4.19176
 30
0.000000
  70
    32
  0
VERTEX
  8
AM_VIS
  5
69D
 10
5.83064
 20
4.19255
 30
0.000000
  70
    32
  0
VERTEX
  8
AM_VIS
  5
69E
 10
5.82948
 20
4.19334
 30
0.000000
  70
    32
  0
VERTEX
  8
AM_VIS
  5
69F
 10
5.82831
 20
4.19412
 30
0.000000
  70
    32
  0
VERTEX
  8
AM_VIS
  5
6A0
 10
5.82714
 20
4.19490
 30
0.000000
  70
    32
  0
VERTEX
  8
AM_VIS
  5
6A1
 10
5.82596
 20
4.19568
 30
0.000000
  70
    32
  0
VERTEX
  8
AM_VIS
  5
6A2
 10
5.82479
 20
4.19646
 30
0.000000
  70
    32
  0
VERTEX
  8
AM_VIS
  5
6A3
 10
5.82361
 20
4.19723
 30
0.000000
  70
    32
  0
VERTEX
  8
AM_VIS
  5
6A4
 10
5.82243
 20
4.19800
 30
0.000000
  70
    32
  0
VERTEX
  8
AM_VIS
  5
6A5
 10
5.82125
 20
4.19877
 30
0.000000
  70
    32
  0
VERTEX
  8
AM_VIS
  5
6A6
 10
5.82006
 20
4.19953
 30
0.000000
  70
    32
  0
VERTEX
  8
AM_VIS
  5
6A7
 10
5.81887
 20
4.20029
 30
0.000000
  70
    32
  0
VERTEX
  8
AM_VIS
  5
6A8
 10
5.81768
 20
4.20105
 30
0.000000
  70
    32
  0
VERTEX
  8
AM_VIS
  5
6A9
 10
5.81649
 20
4.20180
 30
0.000000
  70
    32
  0
VERTEX
  8
AM_VIS
  5
6AA
 10
5.81529
 20
4.20255
 30
0.000000
  70
    32
  0
VERTEX
  8
AM_VIS
  5
6AB
 10
5.81409
 20
4.20330
 30
0.000000
  70
    32
  0
VERTEX
  8
AM_VIS
  5
6AC
 10
5.81289
 20
4.20404
 30
0.000000
  70
    32
  0
VERTEX
  8
AM_VIS
  5
6AD
 10
5.81169
 20
4.20478
 30
0.000000
  70
    32
  0
VERTEX
  8
AM_VIS
  5
6AE
 10
5.81048
 20
4.20552
 30
0.000000
  70
    32
  0
VERTEX
  8
AM_VIS
  5
6AF
 10
5.80928
 20
4.20625
 30
0.000000
  70
    32
  0
VERTEX
  8
AM_VIS
  5
6B0
 10
5.80807
 20
4.20698
 30
0.000000
  70
    32
  0
VERTEX
  8
AM_VIS
  5
6B1
 10
5.80685
 20
4.20771
 30
0.000000
  70
    32
  0
VERTEX
  8
AM_VIS
  5
6B2
 10
5.80564
 20
4.20843
 30
0.000000
  70
    32
  0
VERTEX
  8
AM_VIS
  5
6B3
 10
5.80442
 20
4.20915
 30
0.000000
  70
    32
  0
VERTEX
  8
AM_VIS
  5
6B4
 10
5.80320
 20
4.20987
 30
0.000000
  70
    32
  0
VERTEX
  8
AM_VIS
  5
6B5
 10
5.80197
 20
4.21058
 30
0.000000
  70
    32
  0
VERTEX
  8
AM_VIS
  5
6B6
 10
5.80075
 20
4.21129
 30
0.000000
  70
    32
  0
VERTEX
  8
AM_VIS
  5
6B7
 10
5.79952
 20
4.21199
 30
0.000000
  70
    32
  0
VERTEX
  8
AM_VIS
  5
6B8
 10
5.79829
 20
4.21269
 30
0.000000
  70
    32
  0
VERTEX
  8
AM_VIS
  5
6B9
 10
5.79706
 20
4.21339
 30
0.000000
  70
    32
  0
VERTEX
  8
AM_VIS
  5
6BA
 10
5.79582
 20
4.21409
 30
0.000000
  70
    32
  0
VERTEX
  8
AM_VIS
  5
6BB
 10
5.79458
 20
4.21478
 30
0.000000
  70
    32
  0
VERTEX
  8
AM_VIS
  5
6BC
 10
5.79334
 20
4.21546
 30
0.000000
  70
    32
  0
VERTEX
  8
AM_VIS
  5
6BD
 10
5.79210
 20
4.21615
 30
0.000000
  70
    32
  0
VERTEX
  8
AM_VIS
  5
6BE
 10
5.79086
 20
4.21683
 30
0.000000
  70
    32
  0
VERTEX
  8
AM_VIS
  5
6BF
 10
5.78961
 20
4.21750
 30
0.000000
  70
    32
  0
VERTEX
  8
AM_VIS
  5
6C0
 10
5.78836
 20
4.21817
 30
0.000000
  70
    32
  0
VERTEX
  8
AM_VIS
  5
6C1
 10
5.78711
 20
4.21884
 30
0.000000
  70
    32
  0
VERTEX
  8
AM_VIS
  5
6C2
 10
5.78585
 20
4.21951
 30
0.000000
  70
    32
  0
VERTEX
  8
AM_VIS
  5
6C3
 10
5.78460
 20
4.22017
 30
0.000000
  70
    32
  0
VERTEX
  8
AM_VIS
  5
6C4
 10
5.78334
 20
4.22082
 30
0.000000
  70
    32
  0
VERTEX
  8
AM_VIS
  5
6C5
 10
5.78208
 20
4.22148
 30
0.000000
  70
    32
  0
VERTEX
  8
AM_VIS
  5
6C6
 10
5.78081
 20
4.22212
 30
0.000000
  70
    32
  0
VERTEX
  8
AM_VIS
  5
6C7
 10
5.77955
 20
4.22277
 30
0.000000
  70
    32
  0
VERTEX
  8
AM_VIS
  5
6C8
 10
5.77828
 20
4.22341
 30
0.000000
  70
    32
  0
VERTEX
  8
AM_VIS
  5
6C9
 10
5.77701
 20
4.22405
 30
0.000000
  70
    32
  0
VERTEX
  8
AM_VIS
  5
6CA
 10
5.77574
 20
4.22468
 30
0.000000
  70
    32
  0
VERTEX
  8
AM_VIS
  5
6CB
 10
5.77446
 20
4.22531
 30
0.000000
  70
    32
  0
VERTEX
  8
AM_VIS
  5
6CC
 10
5.77318
 20
4.22593
 30
0.000000
  70
    32
  0
VERTEX
  8
AM_VIS
  5
6CD
 10
5.77190
 20
4.22655
 30
0.000000
  70
    32
  0
VERTEX
  8
AM_VIS
  5
6CE
 10
5.77062
 20
4.22717
 30
0.000000
  70
    32
  0
VERTEX
  8
AM_VIS
  5
6CF
 10
5.76934
 20
4.22778
 30
0.000000
  70
    32
  0
VERTEX
  8
AM_VIS
  5
6D0
 10
5.76805
 20
4.22839
 30
0.000000
  70
    32
  0
VERTEX
  8
AM_VIS
  5
6D1
 10
5.76676
 20
4.22900
 30
0.000000
  70
    32
  0
VERTEX
  8
AM_VIS
  5
6D2
 10
5.76547
 20
4.22960
 30
0.000000
  70
    32
  0
VERTEX
  8
AM_VIS
  5
6D3
 10
5.76418
 20
4.23019
 30
0.000000
  70
    32
  0
VERTEX
  8
AM_VIS
  5
6D4
 10
5.76288
 20
4.23079
 30
0.000000
  70
    32
  0
VERTEX
  8
AM_VIS
  5
6D5
 10
5.76158
 20
4.23137
 30
0.000000
  70
    32
  0
VERTEX
  8
AM_VIS
  5
6D6
 10
5.76028
 20
4.23196
 30
0.000000
  70
    32
  0
VERTEX
  8
AM_VIS
  5
6D7
 10
5.75898
 20
4.23254
 30
0.000000
  70
    32
  0
VERTEX
  8
AM_VIS
  5
6D8
 10
5.75768
 20
4.23311
 30
0.000000
  70
    32
  0
VERTEX
  8
AM_VIS
  5
6D9
 10
5.75637
 20
4.23368
 30
0.000000
  70
    32
  0
VERTEX
  8
AM_VIS
  5
6DA
 10
5.75506
 20
4.23425
 30
0.000000
  70
    32
  0
VERTEX
  8
AM_VIS
  5
6DB
 10
5.75375
 20
4.23481
 30
0.000000
  70
    32
  0
VERTEX
  8
AM_VIS
  5
6DC
 10
5.75244
 20
4.23537
 30
0.000000
  70
    32
  0
VERTEX
  8
AM_VIS
  5
6DD
 10
5.75112
 20
4.23592
 30
0.000000
  70
    32
  0
VERTEX
  8
AM_VIS
  5
6DE
 10
5.74980
 20
4.23647
 30
0.000000
  70
    32
  0
VERTEX
  8
AM_VIS
  5
6DF
 10
5.74849
 20
4.23701
 30
0.000000
  70
    32
  0
VERTEX
  8
AM_VIS
  5
6E0
 10
5.74716
 20
4.23755
 30
0.000000
  70
    32
  0
VERTEX
  8
AM_VIS
  5
6E1
 10
5.74584
 20
4.23809
 30
0.000000
  70
    32
  0
VERTEX
  8
AM_VIS
  5
6E2
 10
5.74451
 20
4.23862
 30
0.000000
  70
    32
  0
VERTEX
  8
AM_VIS
  5
6E3
 10
5.74319
 20
4.23914
 30
0.000000
  70
    32
  0
VERTEX
  8
AM_VIS
  5
6E4
 10
5.74186
 20
4.23966
 30
0.000000
  70
    32
  0
VERTEX
  8
AM_VIS
  5
6E5
 10
5.74052
 20
4.24018
 30
0.000000
  70
    32
  0
VERTEX
  8
AM_VIS
  5
6E6
 10
5.73919
 20
4.24069
 30
0.000000
  70
    32
  0
VERTEX
  8
AM_VIS
  5
6E7
 10
5.73785
 20
4.24120
 30
0.000000
  70
    32
  0
VERTEX
  8
AM_VIS
  5
6E8
 10
5.73651
 20
4.24170
 30
0.000000
  70
    32
  0
VERTEX
  8
AM_VIS
  5
6E9
 10
5.73517
 20
4.24220
 30
0.000000
  70
    32
  0
VERTEX
  8
AM_VIS
  5
6EA
 10
5.73383
 20
4.24270
 30
0.000000
  70
    32
  0
VERTEX
  8
AM_VIS
  5
6EB
 10
5.73249
 20
4.24319
 30
0.000000
  70
    32
  0
VERTEX
  8
AM_VIS
  5
6EC
 10
5.73114
 20
4.24367
 30
0.000000
  70
    32
  0
VERTEX
  8
AM_VIS
  5
6ED
 10
5.72979
 20
4.24415
 30
0.000000
  70
    32
  0
VERTEX
  8
AM_VIS
  5
6EE
 10
5.72844
 20
4.24462
 30
0.000000
  70
    32
  0
VERTEX
  8
AM_VIS
  5
6EF
 10
5.72709
 20
4.24509
 30
0.000000
  70
    32
  0
VERTEX
  8
AM_VIS
  5
6F0
 10
5.72573
 20
4.24556
 30
0.000000
  70
    32
  0
VERTEX
  8
AM_VIS
  5
6F1
 10
5.72437
 20
4.24602
 30
0.000000
  70
    32
  0
VERTEX
  8
AM_VIS
  5
6F2
 10
5.72302
 20
4.24648
 30
0.000000
  70
    32
  0
VERTEX
  8
AM_VIS
  5
6F3
 10
5.72165
 20
4.24693
 30
0.000000
  70
    32
  0
VERTEX
  8
AM_VIS
  5
6F4
 10
5.72029
 20
4.24737
 30
0.000000
  70
    32
  0
VERTEX
  8
AM_VIS
  5
6F5
 10
5.71893
 20
4.24781
 30
0.000000
  70
    32
  0
VERTEX
  8
AM_VIS
  5
6F6
 10
5.71756
 20
4.24825
 30
0.000000
  70
    32
  0
VERTEX
  8
AM_VIS
  5
6F7
 10
5.71619
 20
4.24868
 30
0.000000
  70
    32
  0
VERTEX
  8
AM_VIS
  5
6F8
 10
5.71482
 20
4.24910
 30
0.000000
  70
    32
  0
VERTEX
  8
AM_VIS
  5
6F9
 10
5.71345
 20
4.24953
 30
0.000000
  70
    32
  0
VERTEX
  8
AM_VIS
  5
6FA
 10
5.71207
 20
4.24994
 30
0.000000
  70
    32
  0
VERTEX
  8
AM_VIS
  5
6FB
 10
5.71069
 20
4.25035
 30
0.000000
  70
    32
  0
VERTEX
  8
AM_VIS
  5
6FC
 10
5.70932
 20
4.25076
 30
0.000000
  70
    32
  0
VERTEX
  8
AM_VIS
  5
6FD
 10
5.70793
 20
4.25116
 30
0.000000
  70
    32
  0
VERTEX
  8
AM_VIS
  5
6FE
 10
5.70655
 20
4.25155
 30
0.000000
  70
    32
  0
VERTEX
  8
AM_VIS
  5
6FF
 10
5.70517
 20
4.25194
 30
0.000000
  70
    32
  0
VERTEX
  8
AM_VIS
  5
700
 10
5.70378
 20
4.25233
 30
0.000000
  70
    32
  0
VERTEX
  8
AM_VIS
  5
701
 10
5.70239
 20
4.25271
 30
0.000000
  70
    32
  0
VERTEX
  8
AM_VIS
  5
702
 10
5.70100
 20
4.25308
 30
0.000000
  70
    32
  0
VERTEX
  8
AM_VIS
  5
703
 10
5.69961
 20
4.25345
 30
0.000000
  70
    32
  0
VERTEX
  8
AM_VIS
  5
704
 10
5.69822
 20
4.25382
 30
0.000000
  70
    32
  0
VERTEX
  8
AM_VIS
  5
705
 10
5.69682
 20
4.25418
 30
0.000000
  70
    32
  0
VERTEX
  8
AM_VIS
  5
706
 10
5.69542
 20
4.25453
 30
0.000000
  70
    32
  0
VERTEX
  8
AM_VIS
  5
707
 10
5.69402
 20
4.25488
 30
0.000000
  70
    32
  0
VERTEX
  8
AM_VIS
  5
708
 10
5.69262
 20
4.25522
 30
0.000000
  70
    32
  0
VERTEX
  8
AM_VIS
  5
709
 10
5.69122
 20
4.25556
 30
0.000000
  70
    32
  0
VERTEX
  8
AM_VIS
  5
70A
 10
5.68981
 20
4.25589
 30
0.000000
  70
    32
  0
VERTEX
  8
AM_VIS
  5
70B
 10
5.68841
 20
4.25622
 30
0.000000
  70
    32
  0
VERTEX
  8
AM_VIS
  5
70C
 10
5.68700
 20
4.25654
 30
0.000000
  70
    32
  0
VERTEX
  8
AM_VIS
  5
70D
 10
5.68559
 20
4.25686
 30
0.000000
  70
    32
  0
VERTEX
  8
AM_VIS
  5
70E
 10
5.68417
 20
4.25717
 30
0.000000
  70
    32
  0
VERTEX
  8
AM_VIS
  5
70F
 10
5.68276
 20
4.25747
 30
0.000000
  70
    32
  0
VERTEX
  8
AM_VIS
  5
710
 10
5.68134
 20
4.25777
 30
0.000000
  70
    32
  0
VERTEX
  8
AM_VIS
  5
711
 10
5.67992
 20
4.25807
 30
0.000000
  70
    32
  0
VERTEX
  8
AM_VIS
  5
712
 10
5.67851
 20
4.25836
 30
0.000000
  70
    32
  0
VERTEX
  8
AM_VIS
  5
713
 10
5.67709
 20
4.25864
 30
0.000000
  70
    32
  0
VERTEX
  8
AM_VIS
  5
714
 10
5.67567
 20
4.25891
 30
0.000000
  70
    32
  0
VERTEX
  8
AM_VIS
  5
715
 10
5.67425
 20
4.25919
 30
0.000000
  70
    32
  0
VERTEX
  8
AM_VIS
  5
716
 10
5.67283
 20
4.25945
 30
0.000000
  70
    32
  0
VERTEX
  8
AM_VIS
  5
717
 10
5.67141
 20
4.25971
 30
0.000000
  70
    32
  0
VERTEX
  8
AM_VIS
  5
718
 10
5.66998
 20
4.25996
 30
0.000000
  70
    32
  0
VERTEX
  8
AM_VIS
  5
719
 10
5.66856
 20
4.26021
 30
0.000000
  70
    32
  0
VERTEX
  8
AM_VIS
  5
71A
 10
5.66714
 20
4.26045
 30
0.000000
  70
    32
  0
VERTEX
  8
AM_VIS
  5
71B
 10
5.66572
 20
4.26069
 30
0.000000
  70
    32
  0
VERTEX
  8
AM_VIS
  5
71C
 10
5.66429
 20
4.26092
 30
0.000000
  70
    32
  0
VERTEX
  8
AM_VIS
  5
71D
 10
5.66287
 20
4.26114
 30
0.000000
  70
    32
  0
VERTEX
  8
AM_VIS
  5
71E
 10
5.66144
 20
4.26136
 30
0.000000
  70
    32
  0
VERTEX
  8
AM_VIS
  5
71F
 10
5.66002
 20
4.26157
 30
0.000000
  70
    32
  0
VERTEX
  8
AM_VIS
  5
720
 10
5.65859
 20
4.26178
 30
0.000000
  70
    32
  0
VERTEX
  8
AM_VIS
  5
721
 10
5.65716
 20
4.26198
 30
0.000000
  70
    32
  0
VERTEX
  8
AM_VIS
  5
722
 10
5.65574
 20
4.26218
 30
0.000000
  70
    32
  0
VERTEX
  8
AM_VIS
  5
723
 10
5.65431
 20
4.26236
 30
0.000000
  70
    32
  0
VERTEX
  8
AM_VIS
  5
724
 10
5.65288
 20
4.26255
 30
0.000000
  70
    32
  0
VERTEX
  8
AM_VIS
  5
725
 10
5.65145
 20
4.26273
 30
0.000000
  70
    32
  0
VERTEX
  8
AM_VIS
  5
726
 10
5.65002
 20
4.26290
 30
0.000000
  70
    32
  0
VERTEX
  8
AM_VIS
  5
727
 10
5.64859
 20
4.26306
 30
0.000000
  70
    32
  0
VERTEX
  8
AM_VIS
  5
728
 10
5.64716
 20
4.26322
 30
0.000000
  70
    32
  0
VERTEX
  8
AM_VIS
  5
729
 10
5.64573
 20
4.26337
 30
0.000000
  70
    32
  0
VERTEX
  8
AM_VIS
  5
72A
 10
5.64430
 20
4.26352
 30
0.000000
  70
    32
  0
VERTEX
  8
AM_VIS
  5
72B
 10
5.64287
 20
4.26366
 30
0.000000
  70
    32
  0
VERTEX
  8
AM_VIS
  5
72C
 10
5.64144
 20
4.26380
 30
0.000000
  70
    32
  0
VERTEX
  8
AM_VIS
  5
72D
 10
5.64001
 20
4.26393
 30
0.000000
  70
    32
  0
VERTEX
  8
AM_VIS
  5
72E
 10
5.63857
 20
4.26405
 30
0.000000
  70
    32
  0
VERTEX
  8
AM_VIS
  5
72F
 10
5.63714
 20
4.26417
 30
0.000000
  70
    32
  0
VERTEX
  8
AM_VIS
  5
730
 10
5.63571
 20
4.26428
 30
0.000000
  70
    32
  0
VERTEX
  8
AM_VIS
  5
731
 10
5.63427
 20
4.26439
 30
0.000000
  70
    32
  0
VERTEX
  8
AM_VIS
  5
732
 10
5.63284
 20
4.26449
 30
0.000000
  70
    32
  0
VERTEX
  8
AM_VIS
  5
733
 10
5.63140
 20
4.26458
 30
0.000000
  70
    32
  0
VERTEX
  8
AM_VIS
  5
734
 10
5.62997
 20
4.26467
 30
0.000000
  70
    32
  0
VERTEX
  8
AM_VIS
  5
735
 10
5.62853
 20
4.26475
 30
0.000000
  70
    32
  0
VERTEX
  8
AM_VIS
  5
736
 10
5.62709
 20
4.26483
 30
0.000000
  70
    32
  0
VERTEX
  8
AM_VIS
  5
737
 10
5.62565
 20
4.26490
 30
0.000000
  70
    32
  0
VERTEX
  8
AM_VIS
  5
738
 10
5.62422
 20
4.26496
 30
0.000000
  70
    32
  0
VERTEX
  8
AM_VIS
  5
739
 10
5.62278
 20
4.26502
 30
0.000000
  70
    32
  0
VERTEX
  8
AM_VIS
  5
73A
 10
5.62134
 20
4.26507
 30
0.000000
  70
    32
  0
VERTEX
  8
AM_VIS
  5
73B
 10
5.61990
 20
4.26512
 30
0.000000
  70
    32
  0
VERTEX
  8
AM_VIS
  5
73C
 10
5.61846
 20
4.26516
 30
0.000000
  70
    32
  0
VERTEX
  8
AM_VIS
  5
73D
 10
5.61702
 20
4.26519
 30
0.000000
  70
    32
  0
VERTEX
  8
AM_VIS
  5
73E
 10
5.61558
 20
4.26522
 30
0.000000
  70
    32
  0
VERTEX
  8
AM_VIS
  5
73F
 10
5.61414
 20
4.26524
 30
0.000000
  70
    32
  0
VERTEX
  8
AM_VIS
  5
740
 10
5.61270
 20
4.26526
 30
0.000000
  70
    32
  0
VERTEX
  8
AM_VIS
  5
741
 10
5.61126
 20
4.26527
 30
0.000000
  70
    32
  0
VERTEX
  8
AM_VIS
  5
742
 10
5.60982
 20
4.26527
 30
0.000000
  70
    32
  0
VERTEX
  8
AM_VIS
  5
743
 10
5.60837
 20
4.26527
 30
0.000000
  70
    32
  0
VERTEX
  8
AM_VIS
  5
744
 10
5.60693
 20
4.26526
 30
0.000000
  70
    32
  0
VERTEX
  8
AM_VIS
  5
745
 10
5.60549
 20
4.26525
 30
0.000000
  70
    32
  0
VERTEX
  8
AM_VIS
  5
746
 10
5.60404
 20
4.26523
 30
0.000000
  70
    32
  0
VERTEX
  8
AM_VIS
  5
747
 10
5.60260
 20
4.26520
 30
0.000000
  70
    32
  0
VERTEX
  8
AM_VIS
  5
748
 10
5.60115
 20
4.26517
 30
0.000000
  70
    32
  0
VERTEX
  8
AM_VIS
  5
749
 10
5.59971
 20
4.26513
 30
0.000000
  70
    32
  0
VERTEX
  8
AM_VIS
  5
74A
 10
5.59826
 20
4.26509
 30
0.000000
  70
    32
  0
VERTEX
  8
AM_VIS
  5
74B
 10
5.59682
 20
4.26503
 30
0.000000
  70
    32
  0
VERTEX
  8
AM_VIS
  5
74C
 10
5.59537
 20
4.26498
 30
0.000000
  70
    32
  0
VERTEX
  8
AM_VIS
  5
74D
 10
5.59392
 20
4.26491
 30
0.000000
  70
    32
  0
VERTEX
  8
AM_VIS
  5
74E
 10
5.59248
 20
4.26484
 30
0.000000
  70
    32
  0
VERTEX
  8
AM_VIS
  5
74F
 10
5.59103
 20
4.26477
 30
0.000000
  70
    32
  0
VERTEX
  8
AM_VIS
  5
750
 10
5.58958
 20
4.26469
 30
0.000000
  70
    32
  0
VERTEX
  8
AM_VIS
  5
751
 10
5.58813
 20
4.26460
 30
0.000000
  70
    32
  0
VERTEX
  8
AM_VIS
  5
752
 10
5.58668
 20
4.26451
 30
0.000000
  70
    32
  0
VERTEX
  8
AM_VIS
  5
753
 10
5.58524
 20
4.26441
 30
0.000000
  70
    32
  0
VERTEX
  8
AM_VIS
  5
754
 10
5.58379
 20
4.26430
 30
0.000000
  70
    32
  0
VERTEX
  8
AM_VIS
  5
755
 10
5.58234
 20
4.26419
 30
0.000000
  70
    32
  0
VERTEX
  8
AM_VIS
  5
756
 10
5.58089
 20
4.26407
 30
0.000000
  70
    32
  0
VERTEX
  8
AM_VIS
  5
757
 10
5.57944
 20
4.26394
 30
0.000000
  70
    32
  0
VERTEX
  8
AM_VIS
  5
758
 10
5.57798
 20
4.26381
 30
0.000000
  70
    32
  0
VERTEX
  8
AM_VIS
  5
759
 10
5.57653
 20
4.26368
 30
0.000000
  70
    32
  0
VERTEX
  8
AM_VIS
  5
75A
 10
5.57508
 20
4.26353
 30
0.000000
  70
    32
  0
VERTEX
  8
AM_VIS
  5
75B
 10
5.57363
 20
4.26338
 30
0.000000
  70
    32
  0
VERTEX
  8
AM_VIS
  5
75C
 10
5.57218
 20
4.26323
 30
0.000000
  70
    32
  0
VERTEX
  8
AM_VIS
  5
75D
 10
5.57072
 20
4.26307
 30
0.000000
  70
    32
  0
VERTEX
  8
AM_VIS
  5
75E
 10
5.56927
 20
4.26290
 30
0.000000
  70
    32
  0
VERTEX
  8
AM_VIS
  5
75F
 10
5.56782
 20
4.26273
 30
0.000000
  70
    32
  0
VERTEX
  8
AM_VIS
  5
760
 10
5.56636
 20
4.26255
 30
0.000000
  70
    32
  0
VERTEX
  8
AM_VIS
  5
761
 10
5.56491
 20
4.26236
 30
0.000000
  70
    32
  0
VERTEX
  8
AM_VIS
  5
762
 10
5.56346
 20
4.26217
 30
0.000000
  70
    32
  0
VERTEX
  8
AM_VIS
  5
763
 10
5.56200
 20
4.26197
 30
0.000000
  70
    32
  0
VERTEX
  8
AM_VIS
  5
764
 10
5.56055
 20
4.26176
 30
0.000000
  70
    32
  0
VERTEX
  8
AM_VIS
  5
765
 10
5.55909
 20
4.26155
 30
0.000000
  70
    32
  0
VERTEX
  8
AM_VIS
  5
766
 10
5.55763
 20
4.26133
 30
0.000000
  70
    32
  0
VERTEX
  8
AM_VIS
  5
767
 10
5.55618
 20
4.26111
 30
0.000000
  70
    32
  0
VERTEX
  8
AM_VIS
  5
768
 10
5.55472
 20
4.26088
 30
0.000000
  70
    32
  0
VERTEX
  8
AM_VIS
  5
769
 10
5.55327
 20
4.26064
 30
0.000000
  70
    32
  0
VERTEX
  8
AM_VIS
  5
76A
 10
5.55181
 20
4.26040
 30
0.000000
  70
    32
  0
VERTEX
  8
AM_VIS
  5
76B
 10
5.55035
 20
4.26015
 30
0.000000
  70
    32
  0
VERTEX
  8
AM_VIS
  5
76C
 10
5.54889
 20
4.25989
 30
0.000000
  70
    32
  0
VERTEX
  8
AM_VIS
  5
76D
 10
5.54744
 20
4.25963
 30
0.000000
  70
    32
  0
VERTEX
  8
AM_VIS
  5
76E
 10
5.54598
 20
4.25936
 30
0.000000
  70
    32
  0
VERTEX
  8
AM_VIS
  5
76F
 10
5.54452
 20
4.25909
 30
0.000000
  70
    32
  0
VERTEX
  8
AM_VIS
  5
770
 10
5.54306
 20
4.25881
 30
0.000000
  70
    32
  0
VERTEX
  8
AM_VIS
  5
771
 10
5.54160
 20
4.25852
 30
0.000000
  70
    32
  0
VERTEX
  8
AM_VIS
  5
772
 10
5.54014
 20
4.25823
 30
0.000000
  70
    32
  0
VERTEX
  8
AM_VIS
  5
773
 10
5.53869
 20
4.25793
 30
0.000000
  70
    32
  0
VERTEX
  8
AM_VIS
  5
774
 10
5.53723
 20
4.25763
 30
0.000000
  70
    32
  0
VERTEX
  8
AM_VIS
  5
775
 10
5.53577
 20
4.25731
 30
0.000000
  70
    32
  0
VERTEX
  8
AM_VIS
  5
776
 10
5.53432
 20
4.25700
 30
0.000000
  70
    32
  0
VERTEX
  8
AM_VIS
  5
777
 10
5.53287
 20
4.25667
 30
0.000000
  70
    32
  0
VERTEX
  8
AM_VIS
  5
778
 10
5.53142
 20
4.25635
 30
0.000000
  70
    32
  0
VERTEX
  8
AM_VIS
  5
779
 10
5.52997
 20
4.25601
 30
0.000000
  70
    32
  0
VERTEX
  8
AM_VIS
  5
77A
 10
5.52852
 20
4.25567
 30
0.000000
  70
    32
  0
VERTEX
  8
AM_VIS
  5
77B
 10
5.52707
 20
4.25532
 30
0.000000
  70
    32
  0
VERTEX
  8
AM_VIS
  5
77C
 10
5.52563
 20
4.25497
 30
0.000000
  70
    32
  0
VERTEX
  8
AM_VIS
  5
77D
 10
5.52418
 20
4.25461
 30
0.000000
  70
    32
  0
VERTEX
  8
AM_VIS
  5
77E
 10
5.52274
 20
4.25425
 30
0.000000
  70
    32
  0
VERTEX
  8
AM_VIS
  5
77F
 10
5.52130
 20
4.25388
 30
0.000000
  70
    32
  0
VERTEX
  8
AM_VIS
  5
780
 10
5.51985
 20
4.25350
 30
0.000000
  70
    32
  0
VERTEX
  8
AM_VIS
  5
781
 10
5.51842
 20
4.25312
 30
0.000000
  70
    32
  0
VERTEX
  8
AM_VIS
  5
782
 10
5.51698
 20
4.25273
 30
0.000000
  70
    32
  0
VERTEX
  8
AM_VIS
  5
783
 10
5.51554
 20
4.25234
 30
0.000000
  70
    32
  0
VERTEX
  8
AM_VIS
  5
784
 10
5.51410
 20
4.25194
 30
0.000000
  70
    32
  0
VERTEX
  8
AM_VIS
  5
785
 10
5.51267
 20
4.25153
 30
0.000000
  70
    32
  0
VERTEX
  8
AM_VIS
  5
786
 10
5.51124
 20
4.25112
 30
0.000000
  70
    32
  0
VERTEX
  8
AM_VIS
  5
787
 10
5.50981
 20
4.25071
 30
0.000000
  70
    32
  0
VERTEX
  8
AM_VIS
  5
788
 10
5.50838
 20
4.25028
 30
0.000000
  70
    32
  0
VERTEX
  8
AM_VIS
  5
789
 10
5.50695
 20
4.24986
 30
0.000000
  70
    32
  0
VERTEX
  8
AM_VIS
  5
78A
 10
5.50552
 20
4.24942
 30
0.000000
  70
    32
  0
VERTEX
  8
AM_VIS
  5
78B
 10
5.50410
 20
4.24898
 30
0.000000
  70
    32
  0
VERTEX
  8
AM_VIS
  5
78C
 10
5.50267
 20
4.24854
 30
0.000000
  70
    32
  0
VERTEX
  8
AM_VIS
  5
78D
 10
5.50125
 20
4.24809
 30
0.000000
  70
    32
  0
VERTEX
  8
AM_VIS
  5
78E
 10
5.49983
 20
4.24763
 30
0.000000
  70
    32
  0
VERTEX
  8
AM_VIS
  5
78F
 10
5.49841
 20
4.24717
 30
0.000000
  70
    32
  0
VERTEX
  8
AM_VIS
  5
790
 10
5.49699
 20
4.24671
 30
0.000000
  70
    32
  0
VERTEX
  8
AM_VIS
  5
791
 10
5.49557
 20
4.24623
 30
0.000000
  70
    32
  0
VERTEX
  8
AM_VIS
  5
792
 10
5.49416
 20
4.24576
 30
0.000000
  70
    32
  0
VERTEX
  8
AM_VIS
  5
793
 10
5.49274
 20
4.24527
 30
0.000000
  70
    32
  0
VERTEX
  8
AM_VIS
  5
794
 10
5.49133
 20
4.24478
 30
0.000000
  70
    32
  0
VERTEX
  8
AM_VIS
  5
795
 10
5.48992
 20
4.24429
 30
0.000000
  70
    32
  0
VERTEX
  8
AM_VIS
  5
796
 10
5.48851
 20
4.24379
 30
0.000000
  70
    32
  0
VERTEX
  8
AM_VIS
  5
797
 10
5.48710
 20
4.24328
 30
0.000000
  70
    32
  0
VERTEX
  8
AM_VIS
  5
798
 10
5.48570
 20
4.24277
 30
0.000000
  70
    32
  0
VERTEX
  8
AM_VIS
  5
799
 10
5.48429
 20
4.24226
 30
0.000000
  70
    32
  0
VERTEX
  8
AM_VIS
  5
79A
 10
5.48289
 20
4.24174
 30
0.000000
  70
    32
  0
VERTEX
  8
AM_VIS
  5
79B
 10
5.48149
 20
4.24121
 30
0.000000
  70
    32
  0
VERTEX
  8
AM_VIS
  5
79C
 10
5.48009
 20
4.24068
 30
0.000000
  70
    32
  0
VERTEX
  8
AM_VIS
  5
79D
 10
5.47869
 20
4.24014
 30
0.000000
  70
    32
  0
VERTEX
  8
AM_VIS
  5
79E
 10
5.47730
 20
4.23960
 30
0.000000
  70
    32
  0
VERTEX
  8
AM_VIS
  5
79F
 10
5.47590
 20
4.23905
 30
0.000000
  70
    32
  0
VERTEX
  8
AM_VIS
  5
7A0
 10
5.47451
 20
4.23850
 30
0.000000
  70
    32
  0
VERTEX
  8
AM_VIS
  5
7A1
 10
5.47312
 20
4.23794
 30
0.000000
  70
    32
  0
VERTEX
  8
AM_VIS
  5
7A2
 10
5.47173
 20
4.23738
 30
0.000000
  70
    32
  0
VERTEX
  8
AM_VIS
  5
7A3
 10
5.47034
 20
4.23681
 30
0.000000
  70
    32
  0
VERTEX
  8
AM_VIS
  5
7A4
 10
5.46895
 20
4.23624
 30
0.000000
  70
    32
  0
VERTEX
  8
AM_VIS
  5
7A5
 10
5.46757
 20
4.23566
 30
0.000000
  70
    32
  0
VERTEX
  8
AM_VIS
  5
7A6
 10
5.46619
 20
4.23507
 30
0.000000
  70
    32
  0
VERTEX
  8
AM_VIS
  5
7A7
 10
5.46481
 20
4.23448
 30
0.000000
  70
    32
  0
VERTEX
  8
AM_VIS
  5
7A8
 10
5.46343
 20
4.23389
 30
0.000000
  70
    32
  0
VERTEX
  8
AM_VIS
  5
7A9
 10
5.46205
 20
4.23329
 30
0.000000
  70
    32
  0
VERTEX
  8
AM_VIS
  5
7AA
 10
5.46068
 20
4.23269
 30
0.000000
  70
    32
  0
VERTEX
  8
AM_VIS
  5
7AB
 10
5.45930
 20
4.23208
 30
0.000000
  70
    32
  0
VERTEX
  8
AM_VIS
  5
7AC
 10
5.45793
 20
4.23146
 30
0.000000
  70
    32
  0
VERTEX
  8
AM_VIS
  5
7AD
 10
5.45656
 20
4.23084
 30
0.000000
  70
    32
  0
VERTEX
  8
AM_VIS
  5
7AE
 10
5.45519
 20
4.23022
 30
0.000000
  70
    32
  0
VERTEX
  8
AM_VIS
  5
7AF
 10
5.45383
 20
4.22959
 30
0.000000
  70
    32
  0
VERTEX
  8
AM_VIS
  5
7B0
 10
5.45246
 20
4.22896
 30
0.000000
  70
    32
  0
VERTEX
  8
AM_VIS
  5
7B1
 10
5.45110
 20
4.22832
 30
0.000000
  70
    32
  0
VERTEX
  8
AM_VIS
  5
7B2
 10
5.44974
 20
4.22767
 30
0.000000
  70
    32
  0
VERTEX
  8
AM_VIS
  5
7B3
 10
5.44838
 20
4.22702
 30
0.000000
  70
    32
  0
VERTEX
  8
AM_VIS
  5
7B4
 10
5.44702
 20
4.22637
 30
0.000000
  70
    32
  0
VERTEX
  8
AM_VIS
  5
7B5
 10
5.44567
 20
4.22571
 30
0.000000
  70
    32
  0
VERTEX
  8
AM_VIS
  5
7B6
 10
5.44431
 20
4.22505
 30
0.000000
  70
    32
  0
VERTEX
  8
AM_VIS
  5
7B7
 10
5.44296
 20
4.22438
 30
0.000000
  70
    32
  0
VERTEX
  8
AM_VIS
  5
7B8
 10
5.44161
 20
4.22371
 30
0.000000
  70
    32
  0
VERTEX
  8
AM_VIS
  5
7B9
 10
5.44026
 20
4.22303
 30
0.000000
  70
    32
  0
VERTEX
  8
AM_VIS
  5
7BA
 10
5.43892
 20
4.22234
 30
0.000000
  70
    32
  0
VERTEX
  8
AM_VIS
  5
7BB
 10
5.43758
 20
4.22166
 30
0.000000
  70
    32
  0
VERTEX
  8
AM_VIS
  5
7BC
 10
5.43623
 20
4.22096
 30
0.000000
  70
    32
  0
VERTEX
  8
AM_VIS
  5
7BD
 10
5.43490
 20
4.22027
 30
0.000000
  70
    32
  0
VERTEX
  8
AM_VIS
  5
7BE
 10
5.43356
 20
4.21957
 30
0.000000
  70
    32
  0
VERTEX
  8
AM_VIS
  5
7BF
 10
5.43222
 20
4.21886
 30
0.000000
  70
    32
  0
VERTEX
  8
AM_VIS
  5
7C0
 10
5.43089
 20
4.21815
 30
0.000000
  70
    32
  0
VERTEX
  8
AM_VIS
  5
7C1
 10
5.42956
 20
4.21743
 30
0.000000
  70
    32
  0
VERTEX
  8
AM_VIS
  5
7C2
 10
5.42823
 20
4.21671
 30
0.000000
  70
    32
  0
VERTEX
  8
AM_VIS
  5
7C3
 10
5.42690
 20
4.21599
 30
0.000000
  70
    32
  0
VERTEX
  8
AM_VIS
  5
7C4
 10
5.42558
 20
4.21526
 30
0.000000
  70
    32
  0
VERTEX
  8
AM_VIS
  5
7C5
 10
5.42425
 20
4.21452
 30
0.000000
  70
    32
  0
VERTEX
  8
AM_VIS
  5
7C6
 10
5.42293
 20
4.21379
 30
0.000000
  70
    32
  0
VERTEX
  8
AM_VIS
  5
7C7
 10
5.42161
 20
4.21304
 30
0.000000
  70
    32
  0
VERTEX
  8
AM_VIS
  5
7C8
 10
5.42030
 20
4.21229
 30
0.000000
  70
    32
  0
VERTEX
  8
AM_VIS
  5
7C9
 10
5.41898
 20
4.21154
 30
0.000000
  70
    32
  0
VERTEX
  8
AM_VIS
  5
7CA
 10
5.41767
 20
4.21079
 30
0.000000
  70
    32
  0
VERTEX
  8
AM_VIS
  5
7CB
 10
5.41636
 20
4.21002
 30
0.000000
  70
    32
  0
VERTEX
  8
AM_VIS
  5
7CC
 10
5.41505
 20
4.20926
 30
0.000000
  70
    32
  0
VERTEX
  8
AM_VIS
  5
7CD
 10
5.41374
 20
4.20849
 30
0.000000
  70
    32
  0
VERTEX
  8
AM_VIS
  5
7CE
 10
5.41244
 20
4.20771
 30
0.000000
  70
    32
  0
VERTEX
  8
AM_VIS
  5
7CF
 10
5.41114
 20
4.20694
 30
0.000000
  70
    32
  0
VERTEX
  8
AM_VIS
  5
7D0
 10
5.40984
 20
4.20615
 30
0.000000
  70
    32
  0
VERTEX
  8
AM_VIS
  5
7D1
 10
5.40854
 20
4.20537
 30
0.000000
  70
    32
  0
VERTEX
  8
AM_VIS
  5
7D2
 10
5.40725
 20
4.20457
 30
0.000000
  70
    32
  0
VERTEX
  8
AM_VIS
  5
7D3
 10
5.40596
 20
4.20378
 30
0.000000
  70
    32
  0
VERTEX
  8
AM_VIS
  5
7D4
 10
5.40466
 20
4.20298
 30
0.000000
  70
    32
  0
VERTEX
  8
AM_VIS
  5
7D5
 10
5.40338
 20
4.20217
 30
0.000000
  70
    32
  0
VERTEX
  8
AM_VIS
  5
7D6
 10
5.40209
 20
4.20136
 30
0.000000
  70
    32
  0
VERTEX
  8
AM_VIS
  5
7D7
 10
5.40081
 20
4.20055
 30
0.000000
  70
    32
  0
VERTEX
  8
AM_VIS
  5
7D8
 10
5.39953
 20
4.19973
 30
0.000000
  70
    32
  0
VERTEX
  8
AM_VIS
  5
7D9
 10
5.39825
 20
4.19891
 30
0.000000
  70
    32
  0
VERTEX
  8
AM_VIS
  5
7DA
 10
5.39697
 20
4.19809
 30
0.000000
  70
    32
  0
VERTEX
  8
AM_VIS
  5
7DB
 10
5.39570
 20
4.19726
 30
0.000000
  70
    32
  0
VERTEX
  8
AM_VIS
  5
7DC
 10
5.39442
 20
4.19642
 30
0.000000
  70
    32
  0
VERTEX
  8
AM_VIS
  5
7DD
 10
5.39315
 20
4.19558
 30
0.000000
  70
    32
  0
VERTEX
  8
AM_VIS
  5
7DE
 10
5.39189
 20
4.19474
 30
0.000000
  70
    32
  0
VERTEX
  8
AM_VIS
  5
7DF
 10
5.39062
 20
4.19389
 30
0.000000
  70
    32
  0
VERTEX
  8
AM_VIS
  5
7E0
 10
5.38936
 20
4.19304
 30
0.000000
  70
    32
  0
VERTEX
  8
AM_VIS
  5
7E1
 10
5.38810
 20
4.19219
 30
0.000000
  70
    32
  0
VERTEX
  8
AM_VIS
  5
7E2
 10
5.38684
 20
4.19133
 30
0.000000
  70
    32
  0
VERTEX
  8
AM_VIS
  5
7E3
 10
5.38558
 20
4.19047
 30
0.000000
  70
    32
  0
VERTEX
  8
AM_VIS
  5
7E4
 10
5.38433
 20
4.18960
 30
0.000000
  70
    32
  0
VERTEX
  8
AM_VIS
  5
7E5
 10
5.38307
 20
4.18872
 30
0.000000
  70
    32
  0
VERTEX
  8
AM_VIS
  5
7E6
 10
5.38182
 20
4.18785
 30
0.000000
  70
    32
  0
VERTEX
  8
AM_VIS
  5
7E7
 10
5.38057
 20
4.18696
 30
0.000000
  70
    32
  0
VERTEX
  8
AM_VIS
  5
7E8
 10
5.37933
 20
4.18608
 30
0.000000
  70
    32
  0
VERTEX
  8
AM_VIS
  5
7E9
 10
5.37808
 20
4.18519
 30
0.000000
  70
    32
  0
VERTEX
  8
AM_VIS
  5
7EA
 10
5.37683
 20
4.18429
 30
0.000000
  70
    32
  0
VERTEX
  8
AM_VIS
  5
7EB
 10
5.37559
 20
4.18339
 30
0.000000
  70
    32
  0
VERTEX
  8
AM_VIS
  5
7EC
 10
5.37435
 20
4.18249
 30
0.000000
  70
    32
  0
VERTEX
  8
AM_VIS
  5
7ED
 10
5.37311
 20
4.18158
 30
0.000000
  70
    32
  0
VERTEX
  8
AM_VIS
  5
7EE
 10
5.37188
 20
4.18067
 30
0.000000
  70
    32
  0
VERTEX
  8
AM_VIS
  5
7EF
 10
5.37064
 20
4.17975
 30
0.000000
  70
    32
  0
VERTEX
  8
AM_VIS
  5
7F0
 10
5.36941
 20
4.17883
 30
0.000000
  70
    32
  0
VERTEX
  8
AM_VIS
  5
7F1
 10
5.36818
 20
4.17791
 30
0.000000
  70
    32
  0
VERTEX
  8
AM_VIS
  5
7F2
 10
5.36695
 20
4.17698
 30
0.000000
  70
    32
  0
VERTEX
  8
AM_VIS
  5
7F3
 10
5.36572
 20
4.17604
 30
0.000000
  70
    32
  0
VERTEX
  8
AM_VIS
  5
7F4
 10
5.36450
 20
4.17511
 30
0.000000
  70
    32
  0
VERTEX
  8
AM_VIS
  5
7F5
 10
5.36328
 20
4.17416
 30
0.000000
  70
    32
  0
VERTEX
  8
AM_VIS
  5
7F6
 10
5.36206
 20
4.17322
 30
0.000000
  70
    32
  0
VERTEX
  8
AM_VIS
  5
7F7
 10
5.36084
 20
4.17227
 30
0.000000
  70
    32
  0
VERTEX
  8
AM_VIS
  5
7F8
 10
5.35962
 20
4.17131
 30
0.000000
  70
    32
  0
VERTEX
  8
AM_VIS
  5
7F9
 10
5.35841
 20
4.17035
 30
0.000000
  70
    32
  0
VERTEX
  8
AM_VIS
  5
7FA
 10
5.35720
 20
4.16939
 30
0.000000
  70
    32
  0
VERTEX
  8
AM_VIS
  5
7FB
 10
5.35599
 20
4.16842
 30
0.000000
  70
    32
  0
VERTEX
  8
AM_VIS
  5
7FC
 10
5.35478
 20
4.16745
 30
0.000000
  70
    32
  0
VERTEX
  8
AM_VIS
  5
7FD
 10
5.35358
 20
4.16648
 30
0.000000
  70
    32
  0
SEQEND
  8
AM_VIS
  5
7FE
  0
LINE
  5
35
  8
AM_VIS
 10
6.734634792221434
 20
4.9760844851564938
 30
0.0
 11
6.7596347922214326
 21
5.0010844851564951
 31
0.0
  0
POLYLINE
  8
AM_VIS
  5
7FF
  66
     1
 10
0.000000
 20
0.000000
 30
0.000000
  70
     8
  0
VERTEX
  8
AM_VIS
  5
800
 10
6.02618
 20
4.26763
 30
0.000000
  70
    32
  0
VERTEX
  8
AM_VIS
  5
801
 10
6.02585
 20
4.26730
 30
0.000000
  70
    32
  0
VERTEX
  8
AM_VIS
  5
802
 10
6.02553
 20
4.26697
 30
0.000000
  70
    32
  0
VERTEX
  8
AM_VIS
  5
803
 10
6.02520
 20
4.26664
 30
0.000000
  70
    32
  0
VERTEX
  8
AM_VIS
  5
804
 10
6.02488
 20
4.26630
 30
0.000000
  70
    32
  0
VERTEX
  8
AM_VIS
  5
805
 10
6.02455
 20
4.26597
 30
0.000000
  70
    32
  0
VERTEX
  8
AM_VIS
  5
806
 10
6.02423
 20
4.26563
 30
0.000000
  70
    32
  0
VERTEX
  8
AM_VIS
  5
807
 10
6.02391
 20
4.26529
 30
0.000000
  70
    32
  0
VERTEX
  8
AM_VIS
  5
808
 10
6.02359
 20
4.26495
 30
0.000000
  70
    32
  0
VERTEX
  8
AM_VIS
  5
809
 10
6.02328
 20
4.26461
 30
0.000000
  70
    32
  0
VERTEX
  8
AM_VIS
  5
80A
 10
6.02296
 20
4.26427
 30
0.000000
  70
    32
  0
VERTEX
  8
AM_VIS
  5
80B
 10
6.02265
 20
4.26392
 30
0.000000
  70
    32
  0
VERTEX
  8
AM_VIS
  5
80C
 10
6.02234
 20
4.26358
 30
0.000000
  70
    32
  0
VERTEX
  8
AM_VIS
  5
80D
 10
6.02202
 20
4.26323
 30
0.000000
  70
    32
  0
VERTEX
  8
AM_VIS
  5
80E
 10
6.02172
 20
4.26288
 30
0.000000
  70
    32
  0
VERTEX
  8
AM_VIS
  5
80F
 10
6.02141
 20
4.26253
 30
0.000000
  70
    32
  0
VERTEX
  8
AM_VIS
  5
810
 10
6.02110
 20
4.26218
 30
0.000000
  70
    32
  0
VERTEX
  8
AM_VIS
  5
811
 10
6.02080
 20
4.26183
 30
0.000000
  70
    32
  0
VERTEX
  8
AM_VIS
  5
812
 10
6.02050
 20
4.26148
 30
0.000000
  70
    32
  0
VERTEX
  8
AM_VIS
  5
813
 10
6.02020
 20
4.26113
 30
0.000000
  70
    32
  0
VERTEX
  8
AM_VIS
  5
814
 10
6.01990
 20
4.26077
 30
0.000000
  70
    32
  0
VERTEX
  8
AM_VIS
  5
815
 10
6.01960
 20
4.26042
 30
0.000000
  70
    32
  0
VERTEX
  8
AM_VIS
  5
816
 10
6.01931
 20
4.26006
 30
0.000000
  70
    32
  0
VERTEX
  8
AM_VIS
  5
817
 10
6.01902
 20
4.25970
 30
0.000000
  70
    32
  0
VERTEX
  8
AM_VIS
  5
818
 10
6.01873
 20
4.25935
 30
0.000000
  70
    32
  0
VERTEX
  8
AM_VIS
  5
819
 10
6.01844
 20
4.25899
 30
0.000000
  70
    32
  0
VERTEX
  8
AM_VIS
  5
81A
 10
6.01815
 20
4.25863
 30
0.000000
  70
    32
  0
VERTEX
  8
AM_VIS
  5
81B
 10
6.01787
 20
4.25826
 30
0.000000
  70
    32
  0
VERTEX
  8
AM_VIS
  5
81C
 10
6.01758
 20
4.25790
 30
0.000000
  70
    32
  0
VERTEX
  8
AM_VIS
  5
81D
 10
6.01730
 20
4.25754
 30
0.000000
  70
    32
  0
VERTEX
  8
AM_VIS
  5
81E
 10
6.01702
 20
4.25717
 30
0.000000
  70
    32
  0
VERTEX
  8
AM_VIS
  5
81F
 10
6.01674
 20
4.25681
 30
0.000000
  70
    32
  0
VERTEX
  8
AM_VIS
  5
820
 10
6.01647
 20
4.25644
 30
0.000000
  70
    32
  0
VERTEX
  8
AM_VIS
  5
821
 10
6.01619
 20
4.25607
 30
0.000000
  70
    32
  0
VERTEX
  8
AM_VIS
  5
822
 10
6.01592
 20
4.25570
 30
0.000000
  70
    32
  0
VERTEX
  8
AM_VIS
  5
823
 10
6.01565
 20
4.25533
 30
0.000000
  70
    32
  0
VERTEX
  8
AM_VIS
  5
824
 10
6.01538
 20
4.25496
 30
0.000000
  70
    32
  0
VERTEX
  8
AM_VIS
  5
825
 10
6.01511
 20
4.25459
 30
0.000000
  70
    32
  0
VERTEX
  8
AM_VIS
  5
826
 10
6.01484
 20
4.25422
 30
0.000000
  70
    32
  0
VERTEX
  8
AM_VIS
  5
827
 10
6.01458
 20
4.25384
 30
0.000000
  70
    32
  0
VERTEX
  8
AM_VIS
  5
828
 10
6.01432
 20
4.25347
 30
0.000000
  70
    32
  0
VERTEX
  8
AM_VIS
  5
829
 10
6.01406
 20
4.25309
 30
0.000000
  70
    32
  0
VERTEX
  8
AM_VIS
  5
82A
 10
6.01380
 20
4.25272
 30
0.000000
  70
    32
  0
VERTEX
  8
AM_VIS
  5
82B
 10
6.01354
 20
4.25234
 30
0.000000
  70
    32
  0
VERTEX
  8
AM_VIS
  5
82C
 10
6.01328
 20
4.25196
 30
0.000000
  70
    32
  0
VERTEX
  8
AM_VIS
  5
82D
 10
6.01303
 20
4.25158
 30
0.000000
  70
    32
  0
VERTEX
  8
AM_VIS
  5
82E
 10
6.01278
 20
4.25120
 30
0.000000
  70
    32
  0
VERTEX
  8
AM_VIS
  5
82F
 10
6.01253
 20
4.25082
 30
0.000000
  70
    32
  0
VERTEX
  8
AM_VIS
  5
830
 10
6.01228
 20
4.25043
 30
0.000000
  70
    32
  0
VERTEX
  8
AM_VIS
  5
831
 10
6.01203
 20
4.25005
 30
0.000000
  70
    32
  0
VERTEX
  8
AM_VIS
  5
832
 10
6.01179
 20
4.24967
 30
0.000000
  70
    32
  0
VERTEX
  8
AM_VIS
  5
833
 10
6.01154
 20
4.24928
 30
0.000000
  70
    32
  0
VERTEX
  8
AM_VIS
  5
834
 10
6.01130
 20
4.24889
 30
0.000000
  70
    32
  0
VERTEX
  8
AM_VIS
  5
835
 10
6.01106
 20
4.24850
 30
0.000000
  70
    32
  0
VERTEX
  8
AM_VIS
  5
836
 10
6.01082
 20
4.24812
 30
0.000000
  70
    32
  0
VERTEX
  8
AM_VIS
  5
837
 10
6.01059
 20
4.24773
 30
0.000000
  70
    32
  0
VERTEX
  8
AM_VIS
  5
838
 10
6.01035
 20
4.24733
 30
0.000000
  70
    32
  0
VERTEX
  8
AM_VIS
  5
839
 10
6.01012
 20
4.24694
 30
0.000000
  70
    32
  0
VERTEX
  8
AM_VIS
  5
83A
 10
6.00989
 20
4.24655
 30
0.000000
  70
    32
  0
VERTEX
  8
AM_VIS
  5
83B
 10
6.00966
 20
4.24616
 30
0.000000
  70
    32
  0
VERTEX
  8
AM_VIS
  5
83C
 10
6.00943
 20
4.24576
 30
0.000000
  70
    32
  0
VERTEX
  8
AM_VIS
  5
83D
 10
6.00920
 20
4.24536
 30
0.000000
  70
    32
  0
VERTEX
  8
AM_VIS
  5
83E
 10
6.00898
 20
4.24497
 30
0.000000
  70
    32
  0
VERTEX
  8
AM_VIS
  5
83F
 10
6.00875
 20
4.24457
 30
0.000000
  70
    32
  0
VERTEX
  8
AM_VIS
  5
840
 10
6.00853
 20
4.24417
 30
0.000000
  70
    32
  0
VERTEX
  8
AM_VIS
  5
841
 10
6.00831
 20
4.24377
 30
0.000000
  70
    32
  0
VERTEX
  8
AM_VIS
  5
842
 10
6.00809
 20
4.24337
 30
0.000000
  70
    32
  0
VERTEX
  8
AM_VIS
  5
843
 10
6.00788
 20
4.24297
 30
0.000000
  70
    32
  0
VERTEX
  8
AM_VIS
  5
844
 10
6.00766
 20
4.24256
 30
0.000000
  70
    32
  0
VERTEX
  8
AM_VIS
  5
845
 10
6.00745
 20
4.24216
 30
0.000000
  70
    32
  0
VERTEX
  8
AM_VIS
  5
846
 10
6.00724
 20
4.24176
 30
0.000000
  70
    32
  0
VERTEX
  8
AM_VIS
  5
847
 10
6.00703
 20
4.24135
 30
0.000000
  70
    32
  0
VERTEX
  8
AM_VIS
  5
848
 10
6.00682
 20
4.24094
 30
0.000000
  70
    32
  0
VERTEX
  8
AM_VIS
  5
849
 10
6.00661
 20
4.24054
 30
0.000000
  70
    32
  0
VERTEX
  8
AM_VIS
  5
84A
 10
6.00641
 20
4.24013
 30
0.000000
  70
    32
  0
VERTEX
  8
AM_VIS
  5
84B
 10
6.00620
 20
4.23972
 30
0.000000
  70
    32
  0
VERTEX
  8
AM_VIS
  5
84C
 10
6.00600
 20
4.23931
 30
0.000000
  70
    32
  0
VERTEX
  8
AM_VIS
  5
84D
 10
6.00580
 20
4.23890
 30
0.000000
  70
    32
  0
VERTEX
  8
AM_VIS
  5
84E
 10
6.00560
 20
4.23848
 30
0.000000
  70
    32
  0
VERTEX
  8
AM_VIS
  5
84F
 10
6.00541
 20
4.23807
 30
0.000000
  70
    32
  0
VERTEX
  8
AM_VIS
  5
850
 10
6.00521
 20
4.23765
 30
0.000000
  70
    32
  0
VERTEX
  8
AM_VIS
  5
851
 10
6.00502
 20
4.23724
 30
0.000000
  70
    32
  0
VERTEX
  8
AM_VIS
  5
852
 10
6.00483
 20
4.23682
 30
0.000000
  70
    32
  0
VERTEX
  8
AM_VIS
  5
853
 10
6.00464
 20
4.23641
 30
0.000000
  70
    32
  0
VERTEX
  8
AM_VIS
  5
854
 10
6.00445
 20
4.23599
 30
0.000000
  70
    32
  0
VERTEX
  8
AM_VIS
  5
855
 10
6.00426
 20
4.23557
 30
0.000000
  70
    32
  0
VERTEX
  8
AM_VIS
  5
856
 10
6.00408
 20
4.23515
 30
0.000000
  70
    32
  0
VERTEX
  8
AM_VIS
  5
857
 10
6.00389
 20
4.23473
 30
0.000000
  70
    32
  0
VERTEX
  8
AM_VIS
  5
858
 10
6.00371
 20
4.23430
 30
0.000000
  70
    32
  0
VERTEX
  8
AM_VIS
  5
859
 10
6.00353
 20
4.23388
 30
0.000000
  70
    32
  0
VERTEX
  8
AM_VIS
  5
85A
 10
6.00335
 20
4.23346
 30
0.000000
  70
    32
  0
VERTEX
  8
AM_VIS
  5
85B
 10
6.00317
 20
4.23303
 30
0.000000
  70
    32
  0
VERTEX
  8
AM_VIS
  5
85C
 10
6.00300
 20
4.23261
 30
0.000000
  70
    32
  0
VERTEX
  8
AM_VIS
  5
85D
 10
6.00282
 20
4.23218
 30
0.000000
  70
    32
  0
VERTEX
  8
AM_VIS
  5
85E
 10
6.00265
 20
4.23175
 30
0.000000
  70
    32
  0
VERTEX
  8
AM_VIS
  5
85F
 10
6.00248
 20
4.23132
 30
0.000000
  70
    32
  0
VERTEX
  8
AM_VIS
  5
860
 10
6.00231
 20
4.23089
 30
0.000000
  70
    32
  0
VERTEX
  8
AM_VIS
  5
861
 10
6.00214
 20
4.23046
 30
0.000000
  70
    32
  0
VERTEX
  8
AM_VIS
  5
862
 10
6.00198
 20
4.23003
 30
0.000000
  70
    32
  0
VERTEX
  8
AM_VIS
  5
863
 10
6.00181
 20
4.22960
 30
0.000000
  70
    32
  0
VERTEX
  8
AM_VIS
  5
864
 10
6.00165
 20
4.22917
 30
0.000000
  70
    32
  0
VERTEX
  8
AM_VIS
  5
865
 10
6.00149
 20
4.22874
 30
0.000000
  70
    32
  0
VERTEX
  8
AM_VIS
  5
866
 10
6.00133
 20
4.22830
 30
0.000000
  70
    32
  0
VERTEX
  8
AM_VIS
  5
867
 10
6.00117
 20
4.22787
 30
0.000000
  70
    32
  0
VERTEX
  8
AM_VIS
  5
868
 10
6.00102
 20
4.22744
 30
0.000000
  70
    32
  0
VERTEX
  8
AM_VIS
  5
869
 10
6.00086
 20
4.22700
 30
0.000000
  70
    32
  0
VERTEX
  8
AM_VIS
  5
86A
 10
6.00071
 20
4.22657
 30
0.000000
  70
    32
  0
VERTEX
  8
AM_VIS
  5
86B
 10
6.00056
 20
4.22613
 30
0.000000
  70
    32
  0
VERTEX
  8
AM_VIS
  5
86C
 10
6.00041
 20
4.22570
 30
0.000000
  70
    32
  0
VERTEX
  8
AM_VIS
  5
86D
 10
6.00026
 20
4.22526
 30
0.000000
  70
    32
  0
VERTEX
  8
AM_VIS
  5
86E
 10
6.00011
 20
4.22482
 30
0.000000
  70
    32
  0
VERTEX
  8
AM_VIS
  5
86F
 10
5.99997
 20
4.22438
 30
0.000000
  70
    32
  0
VERTEX
  8
AM_VIS
  5
870
 10
5.99983
 20
4.22395
 30
0.000000
  70
    32
  0
VERTEX
  8
AM_VIS
  5
871
 10
5.99969
 20
4.22351
 30
0.000000
  70
    32
  0
VERTEX
  8
AM_VIS
  5
872
 10
5.99955
 20
4.22307
 30
0.000000
  70
    32
  0
VERTEX
  8
AM_VIS
  5
873
 10
5.99941
 20
4.22263
 30
0.000000
  70
    32
  0
VERTEX
  8
AM_VIS
  5
874
 10
5.99927
 20
4.22219
 30
0.000000
  70
    32
  0
VERTEX
  8
AM_VIS
  5
875
 10
5.99914
 20
4.22175
 30
0.000000
  70
    32
  0
VERTEX
  8
AM_VIS
  5
876
 10
5.99901
 20
4.22131
 30
0.000000
  70
    32
  0
VERTEX
  8
AM_VIS
  5
877
 10
5.99887
 20
4.22086
 30
0.000000
  70
    32
  0
VERTEX
  8
AM_VIS
  5
878
 10
5.99874
 20
4.22042
 30
0.000000
  70
    32
  0
VERTEX
  8
AM_VIS
  5
879
 10
5.99862
 20
4.21998
 30
0.000000
  70
    32
  0
VERTEX
  8
AM_VIS
  5
87A
 10
5.99849
 20
4.21954
 30
0.000000
  70
    32
  0
VERTEX
  8
AM_VIS
  5
87B
 10
5.99836
 20
4.21909
 30
0.000000
  70
    32
  0
VERTEX
  8
AM_VIS
  5
87C
 10
5.99824
 20
4.21865
 30
0.000000
  70
    32
  0
VERTEX
  8
AM_VIS
  5
87D
 10
5.99812
 20
4.21821
 30
0.000000
  70
    32
  0
VERTEX
  8
AM_VIS
  5
87E
 10
5.99800
 20
4.21776
 30
0.000000
  70
    32
  0
VERTEX
  8
AM_VIS
  5
87F
 10
5.99788
 20
4.21732
 30
0.000000
  70
    32
  0
VERTEX
  8
AM_VIS
  5
880
 10
5.99776
 20
4.21687
 30
0.000000
  70
    32
  0
VERTEX
  8
AM_VIS
  5
881
 10
5.99764
 20
4.21642
 30
0.000000
  70
    32
  0
VERTEX
  8
AM_VIS
  5
882
 10
5.99753
 20
4.21598
 30
0.000000
  70
    32
  0
VERTEX
  8
AM_VIS
  5
883
 10
5.99742
 20
4.21553
 30
0.000000
  70
    32
  0
VERTEX
  8
AM_VIS
  5
884
 10
5.99730
 20
4.21508
 30
0.000000
  70
    32
  0
VERTEX
  8
AM_VIS
  5
885
 10
5.99719
 20
4.21464
 30
0.000000
  70
    32
  0
VERTEX
  8
AM_VIS
  5
886
 10
5.99709
 20
4.21419
 30
0.000000
  70
    32
  0
VERTEX
  8
AM_VIS
  5
887
 10
5.99698
 20
4.21374
 30
0.000000
  70
    32
  0
VERTEX
  8
AM_VIS
  5
888
 10
5.99687
 20
4.21329
 30
0.000000
  70
    32
  0
VERTEX
  8
AM_VIS
  5
889
 10
5.99677
 20
4.21284
 30
0.000000
  70
    32
  0
VERTEX
  8
AM_VIS
  5
88A
 10
5.99666
 20
4.21239
 30
0.000000
  70
    32
  0
VERTEX
  8
AM_VIS
  5
88B
 10
5.99656
 20
4.21194
 30
0.000000
  70
    32
  0
VERTEX
  8
AM_VIS
  5
88C
 10
5.99646
 20
4.21149
 30
0.000000
  70
    32
  0
VERTEX
  8
AM_VIS
  5
88D
 10
5.99636
 20
4.21104
 30
0.000000
  70
    32
  0
VERTEX
  8
AM_VIS
  5
88E
 10
5.99627
 20
4.21059
 30
0.000000
  70
    32
  0
VERTEX
  8
AM_VIS
  5
88F
 10
5.99617
 20
4.21014
 30
0.000000
  70
    32
  0
VERTEX
  8
AM_VIS
  5
890
 10
5.99608
 20
4.20969
 30
0.000000
  70
    32
  0
VERTEX
  8
AM_VIS
  5
891
 10
5.99598
 20
4.20924
 30
0.000000
  70
    32
  0
VERTEX
  8
AM_VIS
  5
892
 10
5.99589
 20
4.20878
 30
0.000000
  70
    32
  0
VERTEX
  8
AM_VIS
  5
893
 10
5.99580
 20
4.20833
 30
0.000000
  70
    32
  0
VERTEX
  8
AM_VIS
  5
894
 10
5.99571
 20
4.20788
 30
0.000000
  70
    32
  0
VERTEX
  8
AM_VIS
  5
895
 10
5.99563
 20
4.20742
 30
0.000000
  70
    32
  0
VERTEX
  8
AM_VIS
  5
896
 10
5.99554
 20
4.20697
 30
0.000000
  70
    32
  0
VERTEX
  8
AM_VIS
  5
897
 10
5.99546
 20
4.20652
 30
0.000000
  70
    32
  0
VERTEX
  8
AM_VIS
  5
898
 10
5.99537
 20
4.20606
 30
0.000000
  70
    32
  0
VERTEX
  8
AM_VIS
  5
899
 10
5.99529
 20
4.20561
 30
0.000000
  70
    32
  0
VERTEX
  8
AM_VIS
  5
89A
 10
5.99521
 20
4.20515
 30
0.000000
  70
    32
  0
VERTEX
  8
AM_VIS
  5
89B
 10
5.99513
 20
4.20470
 30
0.000000
  70
    32
  0
VERTEX
  8
AM_VIS
  5
89C
 10
5.99505
 20
4.20424
 30
0.000000
  70
    32
  0
VERTEX
  8
AM_VIS
  5
89D
 10
5.99497
 20
4.20378
 30
0.000000
  70
    32
  0
VERTEX
  8
AM_VIS
  5
89E
 10
5.99490
 20
4.20333
 30
0.000000
  70
    32
  0
VERTEX
  8
AM_VIS
  5
89F
 10
5.99483
 20
4.20287
 30
0.000000
  70
    32
  0
VERTEX
  8
AM_VIS
  5
8A0
 10
5.99475
 20
4.20241
 30
0.000000
  70
    32
  0
VERTEX
  8
AM_VIS
  5
8A1
 10
5.99468
 20
4.20196
 30
0.000000
  70
    32
  0
VERTEX
  8
AM_VIS
  5
8A2
 10
5.99461
 20
4.20150
 30
0.000000
  70
    32
  0
VERTEX
  8
AM_VIS
  5
8A3
 10
5.99454
 20
4.20104
 30
0.000000
  70
    32
  0
VERTEX
  8
AM_VIS
  5
8A4
 10
5.99447
 20
4.20058
 30
0.000000
  70
    32
  0
VERTEX
  8
AM_VIS
  5
8A5
 10
5.99441
 20
4.20013
 30
0.000000
  70
    32
  0
VERTEX
  8
AM_VIS
  5
8A6
 10
5.99434
 20
4.19967
 30
0.000000
  70
    32
  0
VERTEX
  8
AM_VIS
  5
8A7
 10
5.99428
 20
4.19921
 30
0.000000
  70
    32
  0
VERTEX
  8
AM_VIS
  5
8A8
 10
5.99422
 20
4.19875
 30
0.000000
  70
    32
  0
VERTEX
  8
AM_VIS
  5
8A9
 10
5.99415
 20
4.19829
 30
0.000000
  70
    32
  0
VERTEX
  8
AM_VIS
  5
8AA
 10
5.99409
 20
4.19783
 30
0.000000
  70
    32
  0
VERTEX
  8
AM_VIS
  5
8AB
 10
5.99403
 20
4.19737
 30
0.000000
  70
    32
  0
VERTEX
  8
AM_VIS
  5
8AC
 10
5.99398
 20
4.19691
 30
0.000000
  70
    32
  0
VERTEX
  8
AM_VIS
  5
8AD
 10
5.99392
 20
4.19645
 30
0.000000
  70
    32
  0
VERTEX
  8
AM_VIS
  5
8AE
 10
5.99386
 20
4.19599
 30
0.000000
  70
    32
  0
VERTEX
  8
AM_VIS
  5
8AF
 10
5.99381
 20
4.19553
 30
0.000000
  70
    32
  0
VERTEX
  8
AM_VIS
  5
8B0
 10
5.99376
 20
4.19507
 30
0.000000
  70
    32
  0
VERTEX
  8
AM_VIS
  5
8B1
 10
5.99370
 20
4.19461
 30
0.000000
  70
    32
  0
VERTEX
  8
AM_VIS
  5
8B2
 10
5.99365
 20
4.19415
 30
0.000000
  70
    32
  0
VERTEX
  8
AM_VIS
  5
8B3
 10
5.99360
 20
4.19369
 30
0.000000
  70
    32
  0
VERTEX
  8
AM_VIS
  5
8B4
 10
5.99356
 20
4.19322
 30
0.000000
  70
    32
  0
VERTEX
  8
AM_VIS
  5
8B5
 10
5.99351
 20
4.19276
 30
0.000000
  70
    32
  0
VERTEX
  8
AM_VIS
  5
8B6
 10
5.99346
 20
4.19230
 30
0.000000
  70
    32
  0
VERTEX
  8
AM_VIS
  5
8B7
 10
5.99342
 20
4.19184
 30
0.000000
  70
    32
  0
VERTEX
  8
AM_VIS
  5
8B8
 10
5.99337
 20
4.19138
 30
0.000000
  70
    32
  0
VERTEX
  8
AM_VIS
  5
8B9
 10
5.99333
 20
4.19091
 30
0.000000
  70
    32
  0
VERTEX
  8
AM_VIS
  5
8BA
 10
5.99329
 20
4.19045
 30
0.000000
  70
    32
  0
VERTEX
  8
AM_VIS
  5
8BB
 10
5.99325
 20
4.18999
 30
0.000000
  70
    32
  0
VERTEX
  8
AM_VIS
  5
8BC
 10
5.99321
 20
4.18952
 30
0.000000
  70
    32
  0
VERTEX
  8
AM_VIS
  5
8BD
 10
5.99317
 20
4.18906
 30
0.000000
  70
    32
  0
VERTEX
  8
AM_VIS
  5
8BE
 10
5.99313
 20
4.18860
 30
0.000000
  70
    32
  0
VERTEX
  8
AM_VIS
  5
8BF
 10
5.99310
 20
4.18814
 30
0.000000
  70
    32
  0
VERTEX
  8
AM_VIS
  5
8C0
 10
5.99306
 20
4.18767
 30
0.000000
  70
    32
  0
VERTEX
  8
AM_VIS
  5
8C1
 10
5.99303
 20
4.18721
 30
0.000000
  70
    32
  0
VERTEX
  8
AM_VIS
  5
8C2
 10
5.99300
 20
4.18674
 30
0.000000
  70
    32
  0
VERTEX
  8
AM_VIS
  5
8C3
 10
5.99296
 20
4.18628
 30
0.000000
  70
    32
  0
VERTEX
  8
AM_VIS
  5
8C4
 10
5.99293
 20
4.18582
 30
0.000000
  70
    32
  0
VERTEX
  8
AM_VIS
  5
8C5
 10
5.99290
 20
4.18535
 30
0.000000
  70
    32
  0
VERTEX
  8
AM_VIS
  5
8C6
 10
5.99288
 20
4.18489
 30
0.000000
  70
    32
  0
VERTEX
  8
AM_VIS
  5
8C7
 10
5.99285
 20
4.18443
 30
0.000000
  70
    32
  0
VERTEX
  8
AM_VIS
  5
8C8
 10
5.99282
 20
4.18396
 30
0.000000
  70
    32
  0
VERTEX
  8
AM_VIS
  5
8C9
 10
5.99280
 20
4.18350
 30
0.000000
  70
    32
  0
VERTEX
  8
AM_VIS
  5
8CA
 10
5.99277
 20
4.18303
 30
0.000000
  70
    32
  0
VERTEX
  8
AM_VIS
  5
8CB
 10
5.99275
 20
4.18257
 30
0.000000
  70
    32
  0
VERTEX
  8
AM_VIS
  5
8CC
 10
5.99273
 20
4.18210
 30
0.000000
  70
    32
  0
VERTEX
  8
AM_VIS
  5
8CD
 10
5.99270
 20
4.18164
 30
0.000000
  70
    32
  0
VERTEX
  8
AM_VIS
  5
8CE
 10
5.99268
 20
4.18117
 30
0.000000
  70
    32
  0
VERTEX
  8
AM_VIS
  5
8CF
 10
5.99266
 20
4.18071
 30
0.000000
  70
    32
  0
VERTEX
  8
AM_VIS
  5
8D0
 10
5.99264
 20
4.18024
 30
0.000000
  70
    32
  0
VERTEX
  8
AM_VIS
  5
8D1
 10
5.99263
 20
4.17978
 30
0.000000
  70
    32
  0
VERTEX
  8
AM_VIS
  5
8D2
 10
5.99261
 20
4.17931
 30
0.000000
  70
    32
  0
VERTEX
  8
AM_VIS
  5
8D3
 10
5.99259
 20
4.17885
 30
0.000000
  70
    32
  0
VERTEX
  8
AM_VIS
  5
8D4
 10
5.99258
 20
4.17838
 30
0.000000
  70
    32
  0
VERTEX
  8
AM_VIS
  5
8D5
 10
5.99257
 20
4.17792
 30
0.000000
  70
    32
  0
VERTEX
  8
AM_VIS
  5
8D6
 10
5.99255
 20
4.17745
 30
0.000000
  70
    32
  0
VERTEX
  8
AM_VIS
  5
8D7
 10
5.99254
 20
4.17698
 30
0.000000
  70
    32
  0
VERTEX
  8
AM_VIS
  5
8D8
 10
5.99253
 20
4.17652
 30
0.000000
  70
    32
  0
VERTEX
  8
AM_VIS
  5
8D9
 10
5.99252
 20
4.17605
 30
0.000000
  70
    32
  0
VERTEX
  8
AM_VIS
  5
8DA
 10
5.99251
 20
4.17559
 30
0.000000
  70
    32
  0
VERTEX
  8
AM_VIS
  5
8DB
 10
5.99250
 20
4.17512
 30
0.000000
  70
    32
  0
VERTEX
  8
AM_VIS
  5
8DC
 10
5.99249
 20
4.17465
 30
0.000000
  70
    32
  0
VERTEX
  8
AM_VIS
  5
8DD
 10
5.99249
 20
4.17419
 30
0.000000
  70
    32
  0
VERTEX
  8
AM_VIS
  5
8DE
 10
5.99248
 20
4.17372
 30
0.000000
  70
    32
  0
VERTEX
  8
AM_VIS
  5
8DF
 10
5.99248
 20
4.17326
 30
0.000000
  70
    32
  0
VERTEX
  8
AM_VIS
  5
8E0
 10
5.99247
 20
4.17279
 30
0.000000
  70
    32
  0
VERTEX
  8
AM_VIS
  5
8E1
 10
5.99247
 20
4.17232
 30
0.000000
  70
    32
  0
VERTEX
  8
AM_VIS
  5
8E2
 10
5.99247
 20
4.17186
 30
0.000000
  70
    32
  0
VERTEX
  8
AM_VIS
  5
8E3
 10
5.99247
 20
4.17139
 30
0.000000
  70
    32
  0
VERTEX
  8
AM_VIS
  5
8E4
 10
5.99247
 20
4.17092
 30
0.000000
  70
    32
  0
VERTEX
  8
AM_VIS
  5
8E5
 10
5.99247
 20
4.17046
 30
0.000000
  70
    32
  0
VERTEX
  8
AM_VIS
  5
8E6
 10
5.99247
 20
4.16999
 30
0.000000
  70
    32
  0
VERTEX
  8
AM_VIS
  5
8E7
 10
5.99247
 20
4.16952
 30
0.000000
  70
    32
  0
VERTEX
  8
AM_VIS
  5
8E8
 10
5.99247
 20
4.16906
 30
0.000000
  70
    32
  0
VERTEX
  8
AM_VIS
  5
8E9
 10
5.99248
 20
4.16859
 30
0.000000
  70
    32
  0
VERTEX
  8
AM_VIS
  5
8EA
 10
5.99248
 20
4.16812
 30
0.000000
  70
    32
  0
VERTEX
  8
AM_VIS
  5
8EB
 10
5.99249
 20
4.16766
 30
0.000000
  70
    32
  0
VERTEX
  8
AM_VIS
  5
8EC
 10
5.99249
 20
4.16719
 30
0.000000
  70
    32
  0
VERTEX
  8
AM_VIS
  5
8ED
 10
5.99250
 20
4.16672
 30
0.000000
  70
    32
  0
VERTEX
  8
AM_VIS
  5
8EE
 10
5.99251
 20
4.16625
 30
0.000000
  70
    32
  0
VERTEX
  8
AM_VIS
  5
8EF
 10
5.99252
 20
4.16579
 30
0.000000
  70
    32
  0
VERTEX
  8
AM_VIS
  5
8F0
 10
5.99253
 20
4.16532
 30
0.000000
  70
    32
  0
VERTEX
  8
AM_VIS
  5
8F1
 10
5.99254
 20
4.16485
 30
0.000000
  70
    32
  0
VERTEX
  8
AM_VIS
  5
8F2
 10
5.99255
 20
4.16439
 30
0.000000
  70
    32
  0
VERTEX
  8
AM_VIS
  5
8F3
 10
5.99256
 20
4.16392
 30
0.000000
  70
    32
  0
VERTEX
  8
AM_VIS
  5
8F4
 10
5.99257
 20
4.16345
 30
0.000000
  70
    32
  0
VERTEX
  8
AM_VIS
  5
8F5
 10
5.99258
 20
4.16298
 30
0.000000
  70
    32
  0
VERTEX
  8
AM_VIS
  5
8F6
 10
5.99260
 20
4.16252
 30
0.000000
  70
    32
  0
VERTEX
  8
AM_VIS
  5
8F7
 10
5.99261
 20
4.16205
 30
0.000000
  70
    32
  0
VERTEX
  8
AM_VIS
  5
8F8
 10
5.99263
 20
4.16158
 30
0.000000
  70
    32
  0
VERTEX
  8
AM_VIS
  5
8F9
 10
5.99264
 20
4.16111
 30
0.000000
  70
    32
  0
VERTEX
  8
AM_VIS
  5
8FA
 10
5.99266
 20
4.16064
 30
0.000000
  70
    32
  0
VERTEX
  8
AM_VIS
  5
8FB
 10
5.99268
 20
4.16018
 30
0.000000
  70
    32
  0
VERTEX
  8
AM_VIS
  5
8FC
 10
5.99270
 20
4.15971
 30
0.000000
  70
    32
  0
VERTEX
  8
AM_VIS
  5
8FD
 10
5.99271
 20
4.15924
 30
0.000000
  70
    32
  0
VERTEX
  8
AM_VIS
  5
8FE
 10
5.99273
 20
4.15877
 30
0.000000
  70
    32
  0
VERTEX
  8
AM_VIS
  5
8FF
 10
5.99275
 20
4.15830
 30
0.000000
  70
    32
  0
VERTEX
  8
AM_VIS
  5
900
 10
5.99278
 20
4.15784
 30
0.000000
  70
    32
  0
VERTEX
  8
AM_VIS
  5
901
 10
5.99280
 20
4.15737
 30
0.000000
  70
    32
  0
VERTEX
  8
AM_VIS
  5
902
 10
5.99282
 20
4.15690
 30
0.000000
  70
    32
  0
VERTEX
  8
AM_VIS
  5
903
 10
5.99284
 20
4.15643
 30
0.000000
  70
    32
  0
VERTEX
  8
AM_VIS
  5
904
 10
5.99287
 20
4.15596
 30
0.000000
  70
    32
  0
VERTEX
  8
AM_VIS
  5
905
 10
5.99289
 20
4.15550
 30
0.000000
  70
    32
  0
VERTEX
  8
AM_VIS
  5
906
 10
5.99292
 20
4.15503
 30
0.000000
  70
    32
  0
VERTEX
  8
AM_VIS
  5
907
 10
5.99294
 20
4.15456
 30
0.000000
  70
    32
  0
VERTEX
  8
AM_VIS
  5
908
 10
5.99297
 20
4.15409
 30
0.000000
  70
    32
  0
VERTEX
  8
AM_VIS
  5
909
 10
5.99300
 20
4.15362
 30
0.000000
  70
    32
  0
VERTEX
  8
AM_VIS
  5
90A
 10
5.99302
 20
4.15316
 30
0.000000
  70
    32
  0
VERTEX
  8
AM_VIS
  5
90B
 10
5.99305
 20
4.15269
 30
0.000000
  70
    32
  0
VERTEX
  8
AM_VIS
  5
90C
 10
5.99308
 20
4.15222
 30
0.000000
  70
    32
  0
VERTEX
  8
AM_VIS
  5
90D
 10
5.99311
 20
4.15175
 30
0.000000
  70
    32
  0
VERTEX
  8
AM_VIS
  5
90E
 10
5.99314
 20
4.15128
 30
0.000000
  70
    32
  0
VERTEX
  8
AM_VIS
  5
90F
 10
5.99317
 20
4.15082
 30
0.000000
  70
    32
  0
VERTEX
  8
AM_VIS
  5
910
 10
5.99320
 20
4.15035
 30
0.000000
  70
    32
  0
VERTEX
  8
AM_VIS
  5
911
 10
5.99323
 20
4.14988
 30
0.000000
  70
    32
  0
VERTEX
  8
AM_VIS
  5
912
 10
5.99327
 20
4.14941
 30
0.000000
  70
    32
  0
VERTEX
  8
AM_VIS
  5
913
 10
5.99330
 20
4.14894
 30
0.000000
  70
    32
  0
VERTEX
  8
AM_VIS
  5
914
 10
5.99333
 20
4.14847
 30
0.000000
  70
    32
  0
VERTEX
  8
AM_VIS
  5
915
 10
5.99337
 20
4.14800
 30
0.000000
  70
    32
  0
VERTEX
  8
AM_VIS
  5
916
 10
5.99340
 20
4.14753
 30
0.000000
  70
    32
  0
VERTEX
  8
AM_VIS
  5
917
 10
5.99344
 20
4.14706
 30
0.000000
  70
    32
  0
VERTEX
  8
AM_VIS
  5
918
 10
5.99348
 20
4.14659
 30
0.000000
  70
    32
  0
VERTEX
  8
AM_VIS
  5
919
 10
5.99351
 20
4.14612
 30
0.000000
  70
    32
  0
VERTEX
  8
AM_VIS
  5
91A
 10
5.99355
 20
4.14565
 30
0.000000
  70
    32
  0
VERTEX
  8
AM_VIS
  5
91B
 10
5.99359
 20
4.14518
 30
0.000000
  70
    32
  0
VERTEX
  8
AM_VIS
  5
91C
 10
5.99363
 20
4.14471
 30
0.000000
  70
    32
  0
VERTEX
  8
AM_VIS
  5
91D
 10
5.99367
 20
4.14424
 30
0.000000
  70
    32
  0
VERTEX
  8
AM_VIS
  5
91E
 10
5.99371
 20
4.14377
 30
0.000000
  70
    32
  0
VERTEX
  8
AM_VIS
  5
91F
 10
5.99375
 20
4.14330
 30
0.000000
  70
    32
  0
VERTEX
  8
AM_VIS
  5
920
 10
5.99379
 20
4.14283
 30
0.000000
  70
    32
  0
VERTEX
  8
AM_VIS
  5
921
 10
5.99383
 20
4.14236
 30
0.000000
  70
    32
  0
VERTEX
  8
AM_VIS
  5
922
 10
5.99387
 20
4.14189
 30
0.000000
  70
    32
  0
VERTEX
  8
AM_VIS
  5
923
 10
5.99391
 20
4.14142
 30
0.000000
  70
    32
  0
VERTEX
  8
AM_VIS
  5
924
 10
5.99396
 20
4.14095
 30
0.000000
  70
    32
  0
VERTEX
  8
AM_VIS
  5
925
 10
5.99400
 20
4.14048
 30
0.000000
  70
    32
  0
VERTEX
  8
AM_VIS
  5
926
 10
5.99405
 20
4.14001
 30
0.000000
  70
    32
  0
VERTEX
  8
AM_VIS
  5
927
 10
5.99409
 20
4.13954
 30
0.000000
  70
    32
  0
VERTEX
  8
AM_VIS
  5
928
 10
5.99414
 20
4.13907
 30
0.000000
  70
    32
  0
VERTEX
  8
AM_VIS
  5
929
 10
5.99418
 20
4.13859
 30
0.000000
  70
    32
  0
VERTEX
  8
AM_VIS
  5
92A
 10
5.99423
 20
4.13812
 30
0.000000
  70
    32
  0
VERTEX
  8
AM_VIS
  5
92B
 10
5.99427
 20
4.13765
 30
0.000000
  70
    32
  0
VERTEX
  8
AM_VIS
  5
92C
 10
5.99432
 20
4.13718
 30
0.000000
  70
    32
  0
VERTEX
  8
AM_VIS
  5
92D
 10
5.99437
 20
4.13671
 30
0.000000
  70
    32
  0
VERTEX
  8
AM_VIS
  5
92E
 10
5.99442
 20
4.13624
 30
0.000000
  70
    32
  0
VERTEX
  8
AM_VIS
  5
92F
 10
5.99447
 20
4.13577
 30
0.000000
  70
    32
  0
VERTEX
  8
AM_VIS
  5
930
 10
5.99452
 20
4.13529
 30
0.000000
  70
    32
  0
VERTEX
  8
AM_VIS
  5
931
 10
5.99457
 20
4.13482
 30
0.000000
  70
    32
  0
VERTEX
  8
AM_VIS
  5
932
 10
5.99462
 20
4.13435
 30
0.000000
  70
    32
  0
VERTEX
  8
AM_VIS
  5
933
 10
5.99467
 20
4.13388
 30
0.000000
  70
    32
  0
VERTEX
  8
AM_VIS
  5
934
 10
5.99472
 20
4.13341
 30
0.000000
  70
    32
  0
VERTEX
  8
AM_VIS
  5
935
 10
5.99477
 20
4.13294
 30
0.000000
  70
    32
  0
VERTEX
  8
AM_VIS
  5
936
 10
5.99482
 20
4.13247
 30
0.000000
  70
    32
  0
VERTEX
  8
AM_VIS
  5
937
 10
5.99488
 20
4.13199
 30
0.000000
  70
    32
  0
VERTEX
  8
AM_VIS
  5
938
 10
5.99493
 20
4.13152
 30
0.000000
  70
    32
  0
VERTEX
  8
AM_VIS
  5
939
 10
5.99498
 20
4.13105
 30
0.000000
  70
    32
  0
VERTEX
  8
AM_VIS
  5
93A
 10
5.99504
 20
4.13058
 30
0.000000
  70
    32
  0
VERTEX
  8
AM_VIS
  5
93B
 10
5.99509
 20
4.13011
 30
0.000000
  70
    32
  0
VERTEX
  8
AM_VIS
  5
93C
 10
5.99514
 20
4.12964
 30
0.000000
  70
    32
  0
VERTEX
  8
AM_VIS
  5
93D
 10
5.99520
 20
4.12917
 30
0.000000
  70
    32
  0
VERTEX
  8
AM_VIS
  5
93E
 10
5.99526
 20
4.12869
 30
0.000000
  70
    32
  0
VERTEX
  8
AM_VIS
  5
93F
 10
5.99531
 20
4.12822
 30
0.000000
  70
    32
  0
VERTEX
  8
AM_VIS
  5
940
 10
5.99537
 20
4.12775
 30
0.000000
  70
    32
  0
VERTEX
  8
AM_VIS
  5
941
 10
5.99543
 20
4.12728
 30
0.000000
  70
    32
  0
VERTEX
  8
AM_VIS
  5
942
 10
5.99548
 20
4.12681
 30
0.000000
  70
    32
  0
VERTEX
  8
AM_VIS
  5
943
 10
5.99554
 20
4.12634
 30
0.000000
  70
    32
  0
VERTEX
  8
AM_VIS
  5
944
 10
5.99560
 20
4.12587
 30
0.000000
  70
    32
  0
VERTEX
  8
AM_VIS
  5
945
 10
5.99566
 20
4.12540
 30
0.000000
  70
    32
  0
VERTEX
  8
AM_VIS
  5
946
 10
5.99572
 20
4.12493
 30
0.000000
  70
    32
  0
VERTEX
  8
AM_VIS
  5
947
 10
5.99578
 20
4.12446
 30
0.000000
  70
    32
  0
VERTEX
  8
AM_VIS
  5
948
 10
5.99584
 20
4.12398
 30
0.000000
  70
    32
  0
VERTEX
  8
AM_VIS
  5
949
 10
5.99590
 20
4.12351
 30
0.000000
  70
    32
  0
VERTEX
  8
AM_VIS
  5
94A
 10
5.99596
 20
4.12304
 30
0.000000
  70
    32
  0
VERTEX
  8
AM_VIS
  5
94B
 10
5.99602
 20
4.12257
 30
0.000000
  70
    32
  0
VERTEX
  8
AM_VIS
  5
94C
 10
5.99608
 20
4.12210
 30
0.000000
  70
    32
  0
VERTEX
  8
AM_VIS
  5
94D
 10
5.99614
 20
4.12163
 30
0.000000
  70
    32
  0
VERTEX
  8
AM_VIS
  5
94E
 10
5.99620
 20
4.12116
 30
0.000000
  70
    32
  0
VERTEX
  8
AM_VIS
  5
94F
 10
5.99626
 20
4.12069
 30
0.000000
  70
    32
  0
VERTEX
  8
AM_VIS
  5
950
 10
5.99633
 20
4.12022
 30
0.000000
  70
    32
  0
VERTEX
  8
AM_VIS
  5
951
 10
5.99639
 20
4.11975
 30
0.000000
  70
    32
  0
VERTEX
  8
AM_VIS
  5
952
 10
5.99645
 20
4.11928
 30
0.000000
  70
    32
  0
VERTEX
  8
AM_VIS
  5
953
 10
5.99652
 20
4.11881
 30
0.000000
  70
    32
  0
VERTEX
  8
AM_VIS
  5
954
 10
5.99658
 20
4.11834
 30
0.000000
  70
    32
  0
VERTEX
  8
AM_VIS
  5
955
 10
5.99665
 20
4.11787
 30
0.000000
  70
    32
  0
VERTEX
  8
AM_VIS
  5
956
 10
5.99671
 20
4.11741
 30
0.000000
  70
    32
  0
VERTEX
  8
AM_VIS
  5
957
 10
5.99678
 20
4.11694
 30
0.000000
  70
    32
  0
VERTEX
  8
AM_VIS
  5
958
 10
5.99684
 20
4.11647
 30
0.000000
  70
    32
  0
VERTEX
  8
AM_VIS
  5
959
 10
5.99691
 20
4.11600
 30
0.000000
  70
    32
  0
VERTEX
  8
AM_VIS
  5
95A
 10
5.99697
 20
4.11553
 30
0.000000
  70
    32
  0
VERTEX
  8
AM_VIS
  5
95B
 10
5.99704
 20
4.11506
 30
0.000000
  70
    32
  0
VERTEX
  8
AM_VIS
  5
95C
 10
5.99710
 20
4.11459
 30
0.000000
  70
    32
  0
VERTEX
  8
AM_VIS
  5
95D
 10
5.99717
 20
4.11413
 30
0.000000
  70
    32
  0
VERTEX
  8
AM_VIS
  5
95E
 10
5.99724
 20
4.11366
 30
0.000000
  70
    32
  0
VERTEX
  8
AM_VIS
  5
95F
 10
5.99731
 20
4.11319
 30
0.000000
  70
    32
  0
VERTEX
  8
AM_VIS
  5
960
 10
5.99737
 20
4.11272
 30
0.000000
  70
    32
  0
VERTEX
  8
AM_VIS
  5
961
 10
5.99744
 20
4.11225
 30
0.000000
  70
    32
  0
VERTEX
  8
AM_VIS
  5
962
 10
5.99751
 20
4.11178
 30
0.000000
  70
    32
  0
VERTEX
  8
AM_VIS
  5
963
 10
5.99758
 20
4.11131
 30
0.000000
  70
    32
  0
VERTEX
  8
AM_VIS
  5
964
 10
5.99765
 20
4.11084
 30
0.000000
  70
    32
  0
VERTEX
  8
AM_VIS
  5
965
 10
5.99772
 20
4.11036
 30
0.000000
  70
    32
  0
VERTEX
  8
AM_VIS
  5
966
 10
5.99779
 20
4.10989
 30
0.000000
  70
    32
  0
VERTEX
  8
AM_VIS
  5
967
 10
5.99786
 20
4.10942
 30
0.000000
  70
    32
  0
VERTEX
  8
AM_VIS
  5
968
 10
5.99793
 20
4.10895
 30
0.000000
  70
    32
  0
VERTEX
  8
AM_VIS
  5
969
 10
5.99800
 20
4.10847
 30
0.000000
  70
    32
  0
VERTEX
  8
AM_VIS
  5
96A
 10
5.99808
 20
4.10800
 30
0.000000
  70
    32
  0
VERTEX
  8
AM_VIS
  5
96B
 10
5.99815
 20
4.10753
 30
0.000000
  70
    32
  0
VERTEX
  8
AM_VIS
  5
96C
 10
5.99822
 20
4.10705
 30
0.000000
  70
    32
  0
VERTEX
  8
AM_VIS
  5
96D
 10
5.99829
 20
4.10658
 30
0.000000
  70
    32
  0
VERTEX
  8
AM_VIS
  5
96E
 10
5.99837
 20
4.10610
 30
0.000000
  70
    32
  0
VERTEX
  8
AM_VIS
  5
96F
 10
5.99844
 20
4.10563
 30
0.000000
  70
    32
  0
VERTEX
  8
AM_VIS
  5
970
 10
5.99851
 20
4.10515
 30
0.000000
  70
    32
  0
VERTEX
  8
AM_VIS
  5
971
 10
5.99859
 20
4.10468
 30
0.000000
  70
    32
  0
VERTEX
  8
AM_VIS
  5
972
 10
5.99866
 20
4.10420
 30
0.000000
  70
    32
  0
VERTEX
  8
AM_VIS
  5
973
 10
5.99874
 20
4.10372
 30
0.000000
  70
    32
  0
VERTEX
  8
AM_VIS
  5
974
 10
5.99881
 20
4.10324
 30
0.000000
  70
    32
  0
VERTEX
  8
AM_VIS
  5
975
 10
5.99889
 20
4.10277
 30
0.000000
  70
    32
  0
VERTEX
  8
AM_VIS
  5
976
 10
5.99896
 20
4.10229
 30
0.000000
  70
    32
  0
VERTEX
  8
AM_VIS
  5
977
 10
5.99904
 20
4.10181
 30
0.000000
  70
    32
  0
VERTEX
  8
AM_VIS
  5
978
 10
5.99911
 20
4.10133
 30
0.000000
  70
    32
  0
VERTEX
  8
AM_VIS
  5
979
 10
5.99919
 20
4.10085
 30
0.000000
  70
    32
  0
VERTEX
  8
AM_VIS
  5
97A
 10
5.99927
 20
4.10037
 30
0.000000
  70
    32
  0
VERTEX
  8
AM_VIS
  5
97B
 10
5.99934
 20
4.09989
 30
0.000000
  70
    32
  0
VERTEX
  8
AM_VIS
  5
97C
 10
5.99942
 20
4.09941
 30
0.000000
  70
    32
  0
VERTEX
  8
AM_VIS
  5
97D
 10
5.99950
 20
4.09893
 30
0.000000
  70
    32
  0
VERTEX
  8
AM_VIS
  5
97E
 10
5.99958
 20
4.09845
 30
0.000000
  70
    32
  0
VERTEX
  8
AM_VIS
  5
97F
 10
5.99966
 20
4.09797
 30
0.000000
  70
    32
  0
VERTEX
  8
AM_VIS
  5
980
 10
5.99973
 20
4.09748
 30
0.000000
  70
    32
  0
VERTEX
  8
AM_VIS
  5
981
 10
5.99981
 20
4.09700
 30
0.000000
  70
    32
  0
VERTEX
  8
AM_VIS
  5
982
 10
5.99989
 20
4.09652
 30
0.000000
  70
    32
  0
VERTEX
  8
AM_VIS
  5
983
 10
5.99997
 20
4.09603
 30
0.000000
  70
    32
  0
VERTEX
  8
AM_VIS
  5
984
 10
6.00005
 20
4.09555
 30
0.000000
  70
    32
  0
VERTEX
  8
AM_VIS
  5
985
 10
6.00013
 20
4.09507
 30
0.000000
  70
    32
  0
VERTEX
  8
AM_VIS
  5
986
 10
6.00021
 20
4.09458
 30
0.000000
  70
    32
  0
VERTEX
  8
AM_VIS
  5
987
 10
6.00029
 20
4.09410
 30
0.000000
  70
    32
  0
VERTEX
  8
AM_VIS
  5
988
 10
6.00038
 20
4.09361
 30
0.000000
  70
    32
  0
VERTEX
  8
AM_VIS
  5
989
 10
6.00046
 20
4.09313
 30
0.000000
  70
    32
  0
VERTEX
  8
AM_VIS
  5
98A
 10
6.00054
 20
4.09264
 30
0.000000
  70
    32
  0
VERTEX
  8
AM_VIS
  5
98B
 10
6.00062
 20
4.09215
 30
0.000000
  70
    32
  0
VERTEX
  8
AM_VIS
  5
98C
 10
6.00070
 20
4.09167
 30
0.000000
  70
    32
  0
VERTEX
  8
AM_VIS
  5
98D
 10
6.00078
 20
4.09118
 30
0.000000
  70
    32
  0
VERTEX
  8
AM_VIS
  5
98E
 10
6.00087
 20
4.09069
 30
0.000000
  70
    32
  0
VERTEX
  8
AM_VIS
  5
98F
 10
6.00095
 20
4.09020
 30
0.000000
  70
    32
  0
VERTEX
  8
AM_VIS
  5
990
 10
6.00103
 20
4.08971
 30
0.000000
  70
    32
  0
VERTEX
  8
AM_VIS
  5
991
 10
6.00112
 20
4.08923
 30
0.000000
  70
    32
  0
VERTEX
  8
AM_VIS
  5
992
 10
6.00120
 20
4.08874
 30
0.000000
  70
    32
  0
VERTEX
  8
AM_VIS
  5
993
 10
6.00128
 20
4.08825
 30
0.000000
  70
    32
  0
VERTEX
  8
AM_VIS
  5
994
 10
6.00137
 20
4.08776
 30
0.000000
  70
    32
  0
VERTEX
  8
AM_VIS
  5
995
 10
6.00145
 20
4.08727
 30
0.000000
  70
    32
  0
VERTEX
  8
AM_VIS
  5
996
 10
6.00154
 20
4.08678
 30
0.000000
  70
    32
  0
VERTEX
  8
AM_VIS
  5
997
 10
6.00162
 20
4.08628
 30
0.000000
  70
    32
  0
VERTEX
  8
AM_VIS
  5
998
 10
6.00171
 20
4.08579
 30
0.000000
  70
    32
  0
VERTEX
  8
AM_VIS
  5
999
 10
6.00179
 20
4.08530
 30
0.000000
  70
    32
  0
VERTEX
  8
AM_VIS
  5
99A
 10
6.00188
 20
4.08481
 30
0.000000
  70
    32
  0
VERTEX
  8
AM_VIS
  5
99B
 10
6.00197
 20
4.08432
 30
0.000000
  70
    32
  0
VERTEX
  8
AM_VIS
  5
99C
 10
6.00205
 20
4.08382
 30
0.000000
  70
    32
  0
VERTEX
  8
AM_VIS
  5
99D
 10
6.00214
 20
4.08333
 30
0.000000
  70
    32
  0
VERTEX
  8
AM_VIS
  5
99E
 10
6.00222
 20
4.08283
 30
0.000000
  70
    32
  0
VERTEX
  8
AM_VIS
  5
99F
 10
6.00231
 20
4.08234
 30
0.000000
  70
    32
  0
VERTEX
  8
AM_VIS
  5
9A0
 10
6.00240
 20
4.08185
 30
0.000000
  70
    32
  0
VERTEX
  8
AM_VIS
  5
9A1
 10
6.00249
 20
4.08135
 30
0.000000
  70
    32
  0
VERTEX
  8
AM_VIS
  5
9A2
 10
6.00257
 20
4.08085
 30
0.000000
  70
    32
  0
VERTEX
  8
AM_VIS
  5
9A3
 10
6.00266
 20
4.08036
 30
0.000000
  70
    32
  0
VERTEX
  8
AM_VIS
  5
9A4
 10
6.00275
 20
4.07986
 30
0.000000
  70
    32
  0
VERTEX
  8
AM_VIS
  5
9A5
 10
6.00284
 20
4.07937
 30
0.000000
  70
    32
  0
VERTEX
  8
AM_VIS
  5
9A6
 10
6.00293
 20
4.07887
 30
0.000000
  70
    32
  0
VERTEX
  8
AM_VIS
  5
9A7
 10
6.00301
 20
4.07837
 30
0.000000
  70
    32
  0
VERTEX
  8
AM_VIS
  5
9A8
 10
6.00310
 20
4.07787
 30
0.000000
  70
    32
  0
VERTEX
  8
AM_VIS
  5
9A9
 10
6.00319
 20
4.07737
 30
0.000000
  70
    32
  0
VERTEX
  8
AM_VIS
  5
9AA
 10
6.00328
 20
4.07688
 30
0.000000
  70
    32
  0
VERTEX
  8
AM_VIS
  5
9AB
 10
6.00337
 20
4.07638
 30
0.000000
  70
    32
  0
VERTEX
  8
AM_VIS
  5
9AC
 10
6.00346
 20
4.07588
 30
0.000000
  70
    32
  0
VERTEX
  8
AM_VIS
  5
9AD
 10
6.00355
 20
4.07538
 30
0.000000
  70
    32
  0
VERTEX
  8
AM_VIS
  5
9AE
 10
6.00364
 20
4.07488
 30
0.000000
  70
    32
  0
VERTEX
  8
AM_VIS
  5
9AF
 10
6.00373
 20
4.07438
 30
0.000000
  70
    32
  0
VERTEX
  8
AM_VIS
  5
9B0
 10
6.00382
 20
4.07388
 30
0.000000
  70
    32
  0
VERTEX
  8
AM_VIS
  5
9B1
 10
6.00391
 20
4.07337
 30
0.000000
  70
    32
  0
VERTEX
  8
AM_VIS
  5
9B2
 10
6.00400
 20
4.07287
 30
0.000000
  70
    32
  0
VERTEX
  8
AM_VIS
  5
9B3
 10
6.00409
 20
4.07237
 30
0.000000
  70
    32
  0
VERTEX
  8
AM_VIS
  5
9B4
 10
6.00419
 20
4.07187
 30
0.000000
  70
    32
  0
VERTEX
  8
AM_VIS
  5
9B5
 10
6.00428
 20
4.07136
 30
0.000000
  70
    32
  0
VERTEX
  8
AM_VIS
  5
9B6
 10
6.00437
 20
4.07086
 30
0.000000
  70
    32
  0
VERTEX
  8
AM_VIS
  5
9B7
 10
6.00446
 20
4.07036
 30
0.000000
  70
    32
  0
VERTEX
  8
AM_VIS
  5
9B8
 10
6.00455
 20
4.06985
 30
0.000000
  70
    32
  0
VERTEX
  8
AM_VIS
  5
9B9
 10
6.00464
 20
4.06935
 30
0.000000
  70
    32
  0
VERTEX
  8
AM_VIS
  5
9BA
 10
6.00474
 20
4.06884
 30
0.000000
  70
    32
  0
VERTEX
  8
AM_VIS
  5
9BB
 10
6.00483
 20
4.06834
 30
0.000000
  70
    32
  0
VERTEX
  8
AM_VIS
  5
9BC
 10
6.00492
 20
4.06783
 30
0.000000
  70
    32
  0
VERTEX
  8
AM_VIS
  5
9BD
 10
6.00501
 20
4.06733
 30
0.000000
  70
    32
  0
VERTEX
  8
AM_VIS
  5
9BE
 10
6.00511
 20
4.06682
 30
0.000000
  70
    32
  0
VERTEX
  8
AM_VIS
  5
9BF
 10
6.00520
 20
4.06631
 30
0.000000
  70
    32
  0
VERTEX
  8
AM_VIS
  5
9C0
 10
6.00529
 20
4.06581
 30
0.000000
  70
    32
  0
VERTEX
  8
AM_VIS
  5
9C1
 10
6.00539
 20
4.06530
 30
0.000000
  70
    32
  0
VERTEX
  8
AM_VIS
  5
9C2
 10
6.00548
 20
4.06479
 30
0.000000
  70
    32
  0
VERTEX
  8
AM_VIS
  5
9C3
 10
6.00557
 20
4.06428
 30
0.000000
  70
    32
  0
VERTEX
  8
AM_VIS
  5
9C4
 10
6.00567
 20
4.06377
 30
0.000000
  70
    32
  0
VERTEX
  8
AM_VIS
  5
9C5
 10
6.00576
 20
4.06326
 30
0.000000
  70
    32
  0
VERTEX
  8
AM_VIS
  5
9C6
 10
6.00585
 20
4.06275
 30
0.000000
  70
    32
  0
VERTEX
  8
AM_VIS
  5
9C7
 10
6.00595
 20
4.06224
 30
0.000000
  70
    32
  0
VERTEX
  8
AM_VIS
  5
9C8
 10
6.00604
 20
4.06173
 30
0.000000
  70
    32
  0
VERTEX
  8
AM_VIS
  5
9C9
 10
6.00614
 20
4.06122
 30
0.000000
  70
    32
  0
VERTEX
  8
AM_VIS
  5
9CA
 10
6.00623
 20
4.06071
 30
0.000000
  70
    32
  0
VERTEX
  8
AM_VIS
  5
9CB
 10
6.00633
 20
4.06020
 30
0.000000
  70
    32
  0
VERTEX
  8
AM_VIS
  5
9CC
 10
6.00642
 20
4.05969
 30
0.000000
  70
    32
  0
VERTEX
  8
AM_VIS
  5
9CD
 10
6.00652
 20
4.05917
 30
0.000000
  70
    32
  0
VERTEX
  8
AM_VIS
  5
9CE
 10
6.00661
 20
4.05866
 30
0.000000
  70
    32
  0
VERTEX
  8
AM_VIS
  5
9CF
 10
6.00671
 20
4.05815
 30
0.000000
  70
    32
  0
VERTEX
  8
AM_VIS
  5
9D0
 10
6.00680
 20
4.05764
 30
0.000000
  70
    32
  0
VERTEX
  8
AM_VIS
  5
9D1
 10
6.00690
 20
4.05712
 30
0.000000
  70
    32
  0
VERTEX
  8
AM_VIS
  5
9D2
 10
6.00699
 20
4.05661
 30
0.000000
  70
    32
  0
VERTEX
  8
AM_VIS
  5
9D3
 10
6.00709
 20
4.05609
 30
0.000000
  70
    32
  0
VERTEX
  8
AM_VIS
  5
9D4
 10
6.00719
 20
4.05558
 30
0.000000
  70
    32
  0
VERTEX
  8
AM_VIS
  5
9D5
 10
6.00728
 20
4.05506
 30
0.000000
  70
    32
  0
VERTEX
  8
AM_VIS
  5
9D6
 10
6.00738
 20
4.05455
 30
0.000000
  70
    32
  0
VERTEX
  8
AM_VIS
  5
9D7
 10
6.00747
 20
4.05403
 30
0.000000
  70
    32
  0
VERTEX
  8
AM_VIS
  5
9D8
 10
6.00757
 20
4.05351
 30
0.000000
  70
    32
  0
VERTEX
  8
AM_VIS
  5
9D9
 10
6.00767
 20
4.05300
 30
0.000000
  70
    32
  0
VERTEX
  8
AM_VIS
  5
9DA
 10
6.00776
 20
4.05248
 30
0.000000
  70
    32
  0
VERTEX
  8
AM_VIS
  5
9DB
 10
6.00786
 20
4.05196
 30
0.000000
  70
    32
  0
VERTEX
  8
AM_VIS
  5
9DC
 10
6.00796
 20
4.05144
 30
0.000000
  70
    32
  0
VERTEX
  8
AM_VIS
  5
9DD
 10
6.00805
 20
4.05092
 30
0.000000
  70
    32
  0
VERTEX
  8
AM_VIS
  5
9DE
 10
6.00815
 20
4.05041
 30
0.000000
  70
    32
  0
VERTEX
  8
AM_VIS
  5
9DF
 10
6.00825
 20
4.04989
 30
0.000000
  70
    32
  0
VERTEX
  8
AM_VIS
  5
9E0
 10
6.00834
 20
4.04937
 30
0.000000
  70
    32
  0
VERTEX
  8
AM_VIS
  5
9E1
 10
6.00844
 20
4.04885
 30
0.000000
  70
    32
  0
VERTEX
  8
AM_VIS
  5
9E2
 10
6.00854
 20
4.04833
 30
0.000000
  70
    32
  0
VERTEX
  8
AM_VIS
  5
9E3
 10
6.00863
 20
4.04780
 30
0.000000
  70
    32
  0
VERTEX
  8
AM_VIS
  5
9E4
 10
6.00873
 20
4.04728
 30
0.000000
  70
    32
  0
VERTEX
  8
AM_VIS
  5
9E5
 10
6.00883
 20
4.04676
 30
0.000000
  70
    32
  0
VERTEX
  8
AM_VIS
  5
9E6
 10
6.00893
 20
4.04624
 30
0.000000
  70
    32
  0
VERTEX
  8
AM_VIS
  5
9E7
 10
6.00902
 20
4.04572
 30
0.000000
  70
    32
  0
VERTEX
  8
AM_VIS
  5
9E8
 10
6.00912
 20
4.04519
 30
0.000000
  70
    32
  0
VERTEX
  8
AM_VIS
  5
9E9
 10
6.00922
 20
4.04467
 30
0.000000
  70
    32
  0
VERTEX
  8
AM_VIS
  5
9EA
 10
6.00932
 20
4.04415
 30
0.000000
  70
    32
  0
VERTEX
  8
AM_VIS
  5
9EB
 10
6.00941
 20
4.04362
 30
0.000000
  70
    32
  0
VERTEX
  8
AM_VIS
  5
9EC
 10
6.00951
 20
4.04310
 30
0.000000
  70
    32
  0
VERTEX
  8
AM_VIS
  5
9ED
 10
6.00961
 20
4.04257
 30
0.000000
  70
    32
  0
VERTEX
  8
AM_VIS
  5
9EE
 10
6.00971
 20
4.04205
 30
0.000000
  70
    32
  0
VERTEX
  8
AM_VIS
  5
9EF
 10
6.00980
 20
4.04152
 30
0.000000
  70
    32
  0
VERTEX
  8
AM_VIS
  5
9F0
 10
6.00990
 20
4.04100
 30
0.000000
  70
    32
  0
VERTEX
  8
AM_VIS
  5
9F1
 10
6.01000
 20
4.04047
 30
0.000000
  70
    32
  0
VERTEX
  8
AM_VIS
  5
9F2
 10
6.01010
 20
4.03994
 30
0.000000
  70
    32
  0
VERTEX
  8
AM_VIS
  5
9F3
 10
6.01020
 20
4.03942
 30
0.000000
  70
    32
  0
VERTEX
  8
AM_VIS
  5
9F4
 10
6.01029
 20
4.03889
 30
0.000000
  70
    32
  0
VERTEX
  8
AM_VIS
  5
9F5
 10
6.01039
 20
4.03836
 30
0.000000
  70
    32
  0
VERTEX
  8
AM_VIS
  5
9F6
 10
6.01049
 20
4.03783
 30
0.000000
  70
    32
  0
VERTEX
  8
AM_VIS
  5
9F7
 10
6.01059
 20
4.03730
 30
0.000000
  70
    32
  0
VERTEX
  8
AM_VIS
  5
9F8
 10
6.01069
 20
4.03678
 30
0.000000
  70
    32
  0
VERTEX
  8
AM_VIS
  5
9F9
 10
6.01079
 20
4.03625
 30
0.000000
  70
    32
  0
VERTEX
  8
AM_VIS
  5
9FA
 10
6.01088
 20
4.03572
 30
0.000000
  70
    32
  0
VERTEX
  8
AM_VIS
  5
9FB
 10
6.01098
 20
4.03519
 30
0.000000
  70
    32
  0
VERTEX
  8
AM_VIS
  5
9FC
 10
6.01108
 20
4.03466
 30
0.000000
  70
    32
  0
VERTEX
  8
AM_VIS
  5
9FD
 10
6.01118
 20
4.03412
 30
0.000000
  70
    32
  0
VERTEX
  8
AM_VIS
  5
9FE
 10
6.01128
 20
4.03359
 30
0.000000
  70
    32
  0
VERTEX
  8
AM_VIS
  5
9FF
 10
6.01137
 20
4.03306
 30
0.000000
  70
    32
  0
VERTEX
  8
AM_VIS
  5
A00
 10
6.01147
 20
4.03253
 30
0.000000
  70
    32
  0
VERTEX
  8
AM_VIS
  5
A01
 10
6.01157
 20
4.03200
 30
0.000000
  70
    32
  0
VERTEX
  8
AM_VIS
  5
A02
 10
6.01167
 20
4.03146
 30
0.000000
  70
    32
  0
VERTEX
  8
AM_VIS
  5
A03
 10
6.01177
 20
4.03093
 30
0.000000
  70
    32
  0
VERTEX
  8
AM_VIS
  5
A04
 10
6.01187
 20
4.03040
 30
0.000000
  70
    32
  0
VERTEX
  8
AM_VIS
  5
A05
 10
6.01196
 20
4.02986
 30
0.000000
  70
    32
  0
VERTEX
  8
AM_VIS
  5
A06
 10
6.01206
 20
4.02933
 30
0.000000
  70
    32
  0
VERTEX
  8
AM_VIS
  5
A07
 10
6.01216
 20
4.02879
 30
0.000000
  70
    32
  0
VERTEX
  8
AM_VIS
  5
A08
 10
6.01226
 20
4.02826
 30
0.000000
  70
    32
  0
VERTEX
  8
AM_VIS
  5
A09
 10
6.01236
 20
4.02772
 30
0.000000
  70
    32
  0
VERTEX
  8
AM_VIS
  5
A0A
 10
6.01246
 20
4.02719
 30
0.000000
  70
    32
  0
VERTEX
  8
AM_VIS
  5
A0B
 10
6.01255
 20
4.02665
 30
0.000000
  70
    32
  0
VERTEX
  8
AM_VIS
  5
A0C
 10
6.01265
 20
4.02611
 30
0.000000
  70
    32
  0
VERTEX
  8
AM_VIS
  5
A0D
 10
6.01275
 20
4.02558
 30
0.000000
  70
    32
  0
VERTEX
  8
AM_VIS
  5
A0E
 10
6.01285
 20
4.02504
 30
0.000000
  70
    32
  0
VERTEX
  8
AM_VIS
  5
A0F
 10
6.01295
 20
4.02450
 30
0.000000
  70
    32
  0
VERTEX
  8
AM_VIS
  5
A10
 10
6.01305
 20
4.02396
 30
0.000000
  70
    32
  0
VERTEX
  8
AM_VIS
  5
A11
 10
6.01314
 20
4.02342
 30
0.000000
  70
    32
  0
VERTEX
  8
AM_VIS
  5
A12
 10
6.01324
 20
4.02288
 30
0.000000
  70
    32
  0
VERTEX
  8
AM_VIS
  5
A13
 10
6.01334
 20
4.02234
 30
0.000000
  70
    32
  0
VERTEX
  8
AM_VIS
  5
A14
 10
6.01344
 20
4.02180
 30
0.000000
  70
    32
  0
VERTEX
  8
AM_VIS
  5
A15
 10
6.01354
 20
4.02126
 30
0.000000
  70
    32
  0
VERTEX
  8
AM_VIS
  5
A16
 10
6.01363
 20
4.02072
 30
0.000000
  70
    32
  0
VERTEX
  8
AM_VIS
  5
A17
 10
6.01373
 20
4.02018
 30
0.000000
  70
    32
  0
VERTEX
  8
AM_VIS
  5
A18
 10
6.01383
 20
4.01964
 30
0.000000
  70
    32
  0
VERTEX
  8
AM_VIS
  5
A19
 10
6.01393
 20
4.01910
 30
0.000000
  70
    32
  0
VERTEX
  8
AM_VIS
  5
A1A
 10
6.01403
 20
4.01856
 30
0.000000
  70
    32
  0
VERTEX
  8
AM_VIS
  5
A1B
 10
6.01412
 20
4.01801
 30
0.000000
  70
    32
  0
VERTEX
  8
AM_VIS
  5
A1C
 10
6.01422
 20
4.01747
 30
0.000000
  70
    32
  0
VERTEX
  8
AM_VIS
  5
A1D
 10
6.01432
 20
4.01693
 30
0.000000
  70
    32
  0
VERTEX
  8
AM_VIS
  5
A1E
 10
6.01442
 20
4.01638
 30
0.000000
  70
    32
  0
VERTEX
  8
AM_VIS
  5
A1F
 10
6.01451
 20
4.01584
 30
0.000000
  70
    32
  0
VERTEX
  8
AM_VIS
  5
A20
 10
6.01461
 20
4.01530
 30
0.000000
  70
    32
  0
VERTEX
  8
AM_VIS
  5
A21
 10
6.01471
 20
4.01475
 30
0.000000
  70
    32
  0
VERTEX
  8
AM_VIS
  5
A22
 10
6.01481
 20
4.01421
 30
0.000000
  70
    32
  0
VERTEX
  8
AM_VIS
  5
A23
 10
6.01490
 20
4.01366
 30
0.000000
  70
    32
  0
VERTEX
  8
AM_VIS
  5
A24
 10
6.01500
 20
4.01311
 30
0.000000
  70
    32
  0
VERTEX
  8
AM_VIS
  5
A25
 10
6.01510
 20
4.01257
 30
0.000000
  70
    32
  0
VERTEX
  8
AM_VIS
  5
A26
 10
6.01519
 20
4.01202
 30
0.000000
  70
    32
  0
VERTEX
  8
AM_VIS
  5
A27
 10
6.01529
 20
4.01147
 30
0.000000
  70
    32
  0
VERTEX
  8
AM_VIS
  5
A28
 10
6.01539
 20
4.01093
 30
0.000000
  70
    32
  0
VERTEX
  8
AM_VIS
  5
A29
 10
6.01548
 20
4.01038
 30
0.000000
  70
    32
  0
VERTEX
  8
AM_VIS
  5
A2A
 10
6.01558
 20
4.00983
 30
0.000000
  70
    32
  0
VERTEX
  8
AM_VIS
  5
A2B
 10
6.01568
 20
4.00928
 30
0.000000
  70
    32
  0
VERTEX
  8
AM_VIS
  5
A2C
 10
6.01577
 20
4.00873
 30
0.000000
  70
    32
  0
VERTEX
  8
AM_VIS
  5
A2D
 10
6.01587
 20
4.00818
 30
0.000000
  70
    32
  0
VERTEX
  8
AM_VIS
  5
A2E
 10
6.01597
 20
4.00763
 30
0.000000
  70
    32
  0
VERTEX
  8
AM_VIS
  5
A2F
 10
6.01606
 20
4.00708
 30
0.000000
  70
    32
  0
VERTEX
  8
AM_VIS
  5
A30
 10
6.01616
 20
4.00653
 30
0.000000
  70
    32
  0
VERTEX
  8
AM_VIS
  5
A31
 10
6.01626
 20
4.00598
 30
0.000000
  70
    32
  0
VERTEX
  8
AM_VIS
  5
A32
 10
6.01635
 20
4.00543
 30
0.000000
  70
    32
  0
VERTEX
  8
AM_VIS
  5
A33
 10
6.01645
 20
4.00488
 30
0.000000
  70
    32
  0
VERTEX
  8
AM_VIS
  5
A34
 10
6.01654
 20
4.00433
 30
0.000000
  70
    32
  0
VERTEX
  8
AM_VIS
  5
A35
 10
6.01664
 20
4.00377
 30
0.000000
  70
    32
  0
VERTEX
  8
AM_VIS
  5
A36
 10
6.01673
 20
4.00322
 30
0.000000
  70
    32
  0
VERTEX
  8
AM_VIS
  5
A37
 10
6.01683
 20
4.00267
 30
0.000000
  70
    32
  0
VERTEX
  8
AM_VIS
  5
A38
 10
6.01692
 20
4.00211
 30
0.000000
  70
    32
  0
VERTEX
  8
AM_VIS
  5
A39
 10
6.01702
 20
4.00156
 30
0.000000
  70
    32
  0
VERTEX
  8
AM_VIS
  5
A3A
 10
6.01711
 20
4.00100
 30
0.000000
  70
    32
  0
VERTEX
  8
AM_VIS
  5
A3B
 10
6.01721
 20
4.00045
 30
0.000000
  70
    32
  0
VERTEX
  8
AM_VIS
  5
A3C
 10
6.01730
 20
3.99989
 30
0.000000
  70
    32
  0
VERTEX
  8
AM_VIS
  5
A3D
 10
6.01740
 20
3.99934
 30
0.000000
  70
    32
  0
VERTEX
  8
AM_VIS
  5
A3E
 10
6.01749
 20
3.99878
 30
0.000000
  70
    32
  0
VERTEX
  8
AM_VIS
  5
A3F
 10
6.01759
 20
3.99823
 30
0.000000
  70
    32
  0
VERTEX
  8
AM_VIS
  5
A40
 10
6.01768
 20
3.99767
 30
0.000000
  70
    32
  0
VERTEX
  8
AM_VIS
  5
A41
 10
6.01778
 20
3.99711
 30
0.000000
  70
    32
  0
VERTEX
  8
AM_VIS
  5
A42
 10
6.01787
 20
3.99655
 30
0.000000
  70
    32
  0
VERTEX
  8
AM_VIS
  5
A43
 10
6.01796
 20
3.99600
 30
0.000000
  70
    32
  0
VERTEX
  8
AM_VIS
  5
A44
 10
6.01806
 20
3.99544
 30
0.000000
  70
    32
  0
VERTEX
  8
AM_VIS
  5
A45
 10
6.01815
 20
3.99488
 30
0.000000
  70
    32
  0
VERTEX
  8
AM_VIS
  5
A46
 10
6.01824
 20
3.99432
 30
0.000000
  70
    32
  0
VERTEX
  8
AM_VIS
  5
A47
 10
6.01834
 20
3.99376
 30
0.000000
  70
    32
  0
VERTEX
  8
AM_VIS
  5
A48
 10
6.01843
 20
3.99320
 30
0.000000
  70
    32
  0
VERTEX
  8
AM_VIS
  5
A49
 10
6.01852
 20
3.99264
 30
0.000000
  70
    32
  0
VERTEX
  8
AM_VIS
  5
A4A
 10
6.01862
 20
3.99208
 30
0.000000
  70
    32
  0
VERTEX
  8
AM_VIS
  5
A4B
 10
6.01871
 20
3.99152
 30
0.000000
  70
    32
  0
VERTEX
  8
AM_VIS
  5
A4C
 10
6.01880
 20
3.99096
 30
0.000000
  70
    32
  0
VERTEX
  8
AM_VIS
  5
A4D
 10
6.01889
 20
3.99040
 30
0.000000
  70
    32
  0
VERTEX
  8
AM_VIS
  5
A4E
 10
6.01898
 20
3.98983
 30
0.000000
  70
    32
  0
VERTEX
  8
AM_VIS
  5
A4F
 10
6.01908
 20
3.98927
 30
0.000000
  70
    32
  0
VERTEX
  8
AM_VIS
  5
A50
 10
6.01917
 20
3.98871
 30
0.000000
  70
    32
  0
VERTEX
  8
AM_VIS
  5
A51
 10
6.01926
 20
3.98815
 30
0.000000
  70
    32
  0
VERTEX
  8
AM_VIS
  5
A52
 10
6.01935
 20
3.98758
 30
0.000000
  70
    32
  0
VERTEX
  8
AM_VIS
  5
A53
 10
6.01944
 20
3.98702
 30
0.000000
  70
    32
  0
VERTEX
  8
AM_VIS
  5
A54
 10
6.01953
 20
3.98645
 30
0.000000
  70
    32
  0
VERTEX
  8
AM_VIS
  5
A55
 10
6.01962
 20
3.98589
 30
0.000000
  70
    32
  0
VERTEX
  8
AM_VIS
  5
A56
 10
6.01971
 20
3.98532
 30
0.000000
  70
    32
  0
VERTEX
  8
AM_VIS
  5
A57
 10
6.01981
 20
3.98476
 30
0.000000
  70
    32
  0
VERTEX
  8
AM_VIS
  5
A58
 10
6.01990
 20
3.98419
 30
0.000000
  70
    32
  0
VERTEX
  8
AM_VIS
  5
A59
 10
6.01999
 20
3.98363
 30
0.000000
  70
    32
  0
VERTEX
  8
AM_VIS
  5
A5A
 10
6.02008
 20
3.98306
 30
0.000000
  70
    32
  0
VERTEX
  8
AM_VIS
  5
A5B
 10
6.02017
 20
3.98249
 30
0.000000
  70
    32
  0
VERTEX
  8
AM_VIS
  5
A5C
 10
6.02025
 20
3.98193
 30
0.000000
  70
    32
  0
VERTEX
  8
AM_VIS
  5
A5D
 10
6.02034
 20
3.98136
 30
0.000000
  70
    32
  0
VERTEX
  8
AM_VIS
  5
A5E
 10
6.02043
 20
3.98079
 30
0.000000
  70
    32
  0
VERTEX
  8
AM_VIS
  5
A5F
 10
6.02052
 20
3.98022
 30
0.000000
  70
    32
  0
VERTEX
  8
AM_VIS
  5
A60
 10
6.02061
 20
3.97965
 30
0.000000
  70
    32
  0
VERTEX
  8
AM_VIS
  5
A61
 10
6.02070
 20
3.97908
 30
0.000000
  70
    32
  0
VERTEX
  8
AM_VIS
  5
A62
 10
6.02079
 20
3.97851
 30
0.000000
  70
    32
  0
VERTEX
  8
AM_VIS
  5
A63
 10
6.02088
 20
3.97794
 30
0.000000
  70
    32
  0
VERTEX
  8
AM_VIS
  5
A64
 10
6.02096
 20
3.97737
 30
0.000000
  70
    32
  0
VERTEX
  8
AM_VIS
  5
A65
 10
6.02105
 20
3.97680
 30
0.000000
  70
    32
  0
VERTEX
  8
AM_VIS
  5
A66
 10
6.02114
 20
3.97623
 30
0.000000
  70
    32
  0
VERTEX
  8
AM_VIS
  5
A67
 10
6.02123
 20
3.97566
 30
0.000000
  70
    32
  0
VERTEX
  8
AM_VIS
  5
A68
 10
6.02131
 20
3.97509
 30
0.000000
  70
    32
  0
VERTEX
  8
AM_VIS
  5
A69
 10
6.02140
 20
3.97451
 30
0.000000
  70
    32
  0
VERTEX
  8
AM_VIS
  5
A6A
 10
6.02148
 20
3.97394
 30
0.000000
  70
    32
  0
VERTEX
  8
AM_VIS
  5
A6B
 10
6.02157
 20
3.97337
 30
0.000000
  70
    32
  0
VERTEX
  8
AM_VIS
  5
A6C
 10
6.02166
 20
3.97280
 30
0.000000
  70
    32
  0
VERTEX
  8
AM_VIS
  5
A6D
 10
6.02174
 20
3.97223
 30
0.000000
  70
    32
  0
VERTEX
  8
AM_VIS
  5
A6E
 10
6.02183
 20
3.97166
 30
0.000000
  70
    32
  0
VERTEX
  8
AM_VIS
  5
A6F
 10
6.02191
 20
3.97108
 30
0.000000
  70
    32
  0
VERTEX
  8
AM_VIS
  5
A70
 10
6.02200
 20
3.97051
 30
0.000000
  70
    32
  0
VERTEX
  8
AM_VIS
  5
A71
 10
6.02208
 20
3.96994
 30
0.000000
  70
    32
  0
VERTEX
  8
AM_VIS
  5
A72
 10
6.02216
 20
3.96937
 30
0.000000
  70
    32
  0
VERTEX
  8
AM_VIS
  5
A73
 10
6.02225
 20
3.96880
 30
0.000000
  70
    32
  0
VERTEX
  8
AM_VIS
  5
A74
 10
6.02233
 20
3.96823
 30
0.000000
  70
    32
  0
VERTEX
  8
AM_VIS
  5
A75
 10
6.02241
 20
3.96765
 30
0.000000
  70
    32
  0
VERTEX
  8
AM_VIS
  5
A76
 10
6.02250
 20
3.96708
 30
0.000000
  70
    32
  0
VERTEX
  8
AM_VIS
  5
A77
 10
6.02258
 20
3.96651
 30
0.000000
  70
    32
  0
VERTEX
  8
AM_VIS
  5
A78
 10
6.02266
 20
3.96594
 30
0.000000
  70
    32
  0
VERTEX
  8
AM_VIS
  5
A79
 10
6.02274
 20
3.96537
 30
0.000000
  70
    32
  0
VERTEX
  8
AM_VIS
  5
A7A
 10
6.02282
 20
3.96480
 30
0.000000
  70
    32
  0
VERTEX
  8
AM_VIS
  5
A7B
 10
6.02291
 20
3.96423
 30
0.000000
  70
    32
  0
VERTEX
  8
AM_VIS
  5
A7C
 10
6.02299
 20
3.96365
 30
0.000000
  70
    32
  0
VERTEX
  8
AM_VIS
  5
A7D
 10
6.02307
 20
3.96308
 30
0.000000
  70
    32
  0
VERTEX
  8
AM_VIS
  5
A7E
 10
6.02315
 20
3.96251
 30
0.000000
  70
    32
  0
VERTEX
  8
AM_VIS
  5
A7F
 10
6.02323
 20
3.96194
 30
0.000000
  70
    32
  0
VERTEX
  8
AM_VIS
  5
A80
 10
6.02331
 20
3.96137
 30
0.000000
  70
    32
  0
VERTEX
  8
AM_VIS
  5
A81
 10
6.02339
 20
3.96080
 30
0.000000
  70
    32
  0
VERTEX
  8
AM_VIS
  5
A82
 10
6.02346
 20
3.96023
 30
0.000000
  70
    32
  0
VERTEX
  8
AM_VIS
  5
A83
 10
6.02354
 20
3.95965
 30
0.000000
  70
    32
  0
VERTEX
  8
AM_VIS
  5
A84
 10
6.02362
 20
3.95908
 30
0.000000
  70
    32
  0
VERTEX
  8
AM_VIS
  5
A85
 10
6.02370
 20
3.95851
 30
0.000000
  70
    32
  0
VERTEX
  8
AM_VIS
  5
A86
 10
6.02378
 20
3.95794
 30
0.000000
  70
    32
  0
VERTEX
  8
AM_VIS
  5
A87
 10
6.02385
 20
3.95737
 30
0.000000
  70
    32
  0
VERTEX
  8
AM_VIS
  5
A88
 10
6.02393
 20
3.95680
 30
0.000000
  70
    32
  0
VERTEX
  8
AM_VIS
  5
A89
 10
6.02401
 20
3.95622
 30
0.000000
  70
    32
  0
VERTEX
  8
AM_VIS
  5
A8A
 10
6.02408
 20
3.95565
 30
0.000000
  70
    32
  0
VERTEX
  8
AM_VIS
  5
A8B
 10
6.02416
 20
3.95508
 30
0.000000
  70
    32
  0
VERTEX
  8
AM_VIS
  5
A8C
 10
6.02423
 20
3.95451
 30
0.000000
  70
    32
  0
VERTEX
  8
AM_VIS
  5
A8D
 10
6.02431
 20
3.95394
 30
0.000000
  70
    32
  0
VERTEX
  8
AM_VIS
  5
A8E
 10
6.02438
 20
3.95337
 30
0.000000
  70
    32
  0
VERTEX
  8
AM_VIS
  5
A8F
 10
6.02446
 20
3.95280
 30
0.000000
  70
    32
  0
VERTEX
  8
AM_VIS
  5
A90
 10
6.02453
 20
3.95222
 30
0.000000
  70
    32
  0
VERTEX
  8
AM_VIS
  5
A91
 10
6.02461
 20
3.95165
 30
0.000000
  70
    32
  0
VERTEX
  8
AM_VIS
  5
A92
 10
6.02468
 20
3.95108
 30
0.000000
  70
    32
  0
VERTEX
  8
AM_VIS
  5
A93
 10
6.02475
 20
3.95051
 30
0.000000
  70
    32
  0
VERTEX
  8
AM_VIS
  5
A94
 10
6.02483
 20
3.94994
 30
0.000000
  70
    32
  0
VERTEX
  8
AM_VIS
  5
A95
 10
6.02490
 20
3.94937
 30
0.000000
  70
    32
  0
VERTEX
  8
AM_VIS
  5
A96
 10
6.02497
 20
3.94879
 30
0.000000
  70
    32
  0
VERTEX
  8
AM_VIS
  5
A97
 10
6.02504
 20
3.94822
 30
0.000000
  70
    32
  0
VERTEX
  8
AM_VIS
  5
A98
 10
6.02512
 20
3.94765
 30
0.000000
  70
    32
  0
VERTEX
  8
AM_VIS
  5
A99
 10
6.02519
 20
3.94708
 30
0.000000
  70
    32
  0
VERTEX
  8
AM_VIS
  5
A9A
 10
6.02526
 20
3.94651
 30
0.000000
  70
    32
  0
VERTEX
  8
AM_VIS
  5
A9B
 10
6.02533
 20
3.94593
 30
0.000000
  70
    32
  0
VERTEX
  8
AM_VIS
  5
A9C
 10
6.02540
 20
3.94536
 30
0.000000
  70
    32
  0
VERTEX
  8
AM_VIS
  5
A9D
 10
6.02547
 20
3.94479
 30
0.000000
  70
    32
  0
VERTEX
  8
AM_VIS
  5
A9E
 10
6.02554
 20
3.94422
 30
0.000000
  70
    32
  0
VERTEX
  8
AM_VIS
  5
A9F
 10
6.02561
 20
3.94364
 30
0.000000
  70
    32
  0
VERTEX
  8
AM_VIS
  5
AA0
 10
6.02567
 20
3.94307
 30
0.000000
  70
    32
  0
VERTEX
  8
AM_VIS
  5
AA1
 10
6.02574
 20
3.94250
 30
0.000000
  70
    32
  0
VERTEX
  8
AM_VIS
  5
AA2
 10
6.02581
 20
3.94193
 30
0.000000
  70
    32
  0
VERTEX
  8
AM_VIS
  5
AA3
 10
6.02588
 20
3.94136
 30
0.000000
  70
    32
  0
VERTEX
  8
AM_VIS
  5
AA4
 10
6.02595
 20
3.94078
 30
0.000000
  70
    32
  0
VERTEX
  8
AM_VIS
  5
AA5
 10
6.02601
 20
3.94021
 30
0.000000
  70
    32
  0
VERTEX
  8
AM_VIS
  5
AA6
 10
6.02608
 20
3.93964
 30
0.000000
  70
    32
  0
VERTEX
  8
AM_VIS
  5
AA7
 10
6.02615
 20
3.93906
 30
0.000000
  70
    32
  0
VERTEX
  8
AM_VIS
  5
AA8
 10
6.02621
 20
3.93849
 30
0.000000
  70
    32
  0
VERTEX
  8
AM_VIS
  5
AA9
 10
6.02628
 20
3.93792
 30
0.000000
  70
    32
  0
VERTEX
  8
AM_VIS
  5
AAA
 10
6.02634
 20
3.93735
 30
0.000000
  70
    32
  0
VERTEX
  8
AM_VIS
  5
AAB
 10
6.02641
 20
3.93677
 30
0.000000
  70
    32
  0
VERTEX
  8
AM_VIS
  5
AAC
 10
6.02647
 20
3.93620
 30
0.000000
  70
    32
  0
VERTEX
  8
AM_VIS
  5
AAD
 10
6.02653
 20
3.93563
 30
0.000000
  70
    32
  0
VERTEX
  8
AM_VIS
  5
AAE
 10
6.02660
 20
3.93505
 30
0.000000
  70
    32
  0
VERTEX
  8
AM_VIS
  5
AAF
 10
6.02666
 20
3.93448
 30
0.000000
  70
    32
  0
VERTEX
  8
AM_VIS
  5
AB0
 10
6.02672
 20
3.93391
 30
0.000000
  70
    32
  0
VERTEX
  8
AM_VIS
  5
AB1
 10
6.02679
 20
3.93333
 30
0.000000
  70
    32
  0
VERTEX
  8
AM_VIS
  5
AB2
 10
6.02685
 20
3.93276
 30
0.000000
  70
    32
  0
VERTEX
  8
AM_VIS
  5
AB3
 10
6.02691
 20
3.93219
 30
0.000000
  70
    32
  0
VERTEX
  8
AM_VIS
  5
AB4
 10
6.02697
 20
3.93161
 30
0.000000
  70
    32
  0
VERTEX
  8
AM_VIS
  5
AB5
 10
6.02703
 20
3.93104
 30
0.000000
  70
    32
  0
VERTEX
  8
AM_VIS
  5
AB6
 10
6.02709
 20
3.93047
 30
0.000000
  70
    32
  0
VERTEX
  8
AM_VIS
  5
AB7
 10
6.02715
 20
3.92989
 30
0.000000
  70
    32
  0
VERTEX
  8
AM_VIS
  5
AB8
 10
6.02721
 20
3.92932
 30
0.000000
  70
    32
  0
VERTEX
  8
AM_VIS
  5
AB9
 10
6.02727
 20
3.92874
 30
0.000000
  70
    32
  0
VERTEX
  8
AM_VIS
  5
ABA
 10
6.02733
 20
3.92817
 30
0.000000
  70
    32
  0
VERTEX
  8
AM_VIS
  5
ABB
 10
6.02739
 20
3.92760
 30
0.000000
  70
    32
  0
VERTEX
  8
AM_VIS
  5
ABC
 10
6.02745
 20
3.92702
 30
0.000000
  70
    32
  0
VERTEX
  8
AM_VIS
  5
ABD
 10
6.02751
 20
3.92645
 30
0.000000
  70
    32
  0
VERTEX
  8
AM_VIS
  5
ABE
 10
6.02757
 20
3.92587
 30
0.000000
  70
    32
  0
VERTEX
  8
AM_VIS
  5
ABF
 10
6.02762
 20
3.92530
 30
0.000000
  70
    32
  0
VERTEX
  8
AM_VIS
  5
AC0
 10
6.02768
 20
3.92472
 30
0.000000
  70
    32
  0
VERTEX
  8
AM_VIS
  5
AC1
 10
6.02774
 20
3.92415
 30
0.000000
  70
    32
  0
VERTEX
  8
AM_VIS
  5
AC2
 10
6.02779
 20
3.92357
 30
0.000000
  70
    32
  0
VERTEX
  8
AM_VIS
  5
AC3
 10
6.02785
 20
3.92300
 30
0.000000
  70
    32
  0
VERTEX
  8
AM_VIS
  5
AC4
 10
6.02790
 20
3.92242
 30
0.000000
  70
    32
  0
VERTEX
  8
AM_VIS
  5
AC5
 10
6.02796
 20
3.92185
 30
0.000000
  70
    32
  0
VERTEX
  8
AM_VIS
  5
AC6
 10
6.02801
 20
3.92127
 30
0.000000
  70
    32
  0
VERTEX
  8
AM_VIS
  5
AC7
 10
6.02807
 20
3.92070
 30
0.000000
  70
    32
  0
VERTEX
  8
AM_VIS
  5
AC8
 10
6.02812
 20
3.92012
 30
0.000000
  70
    32
  0
VERTEX
  8
AM_VIS
  5
AC9
 10
6.02817
 20
3.91955
 30
0.000000
  70
    32
  0
VERTEX
  8
AM_VIS
  5
ACA
 10
6.02823
 20
3.91897
 30
0.000000
  70
    32
  0
VERTEX
  8
AM_VIS
  5
ACB
 10
6.02828
 20
3.91840
 30
0.000000
  70
    32
  0
VERTEX
  8
AM_VIS
  5
ACC
 10
6.02833
 20
3.91782
 30
0.000000
  70
    32
  0
VERTEX
  8
AM_VIS
  5
ACD
 10
6.02838
 20
3.91724
 30
0.000000
  70
    32
  0
VERTEX
  8
AM_VIS
  5
ACE
 10
6.02843
 20
3.91667
 30
0.000000
  70
    32
  0
VERTEX
  8
AM_VIS
  5
ACF
 10
6.02848
 20
3.91609
 30
0.000000
  70
    32
  0
VERTEX
  8
AM_VIS
  5
AD0
 10
6.02853
 20
3.91551
 30
0.000000
  70
    32
  0
VERTEX
  8
AM_VIS
  5
AD1
 10
6.02858
 20
3.91494
 30
0.000000
  70
    32
  0
VERTEX
  8
AM_VIS
  5
AD2
 10
6.02863
 20
3.91436
 30
0.000000
  70
    32
  0
VERTEX
  8
AM_VIS
  5
AD3
 10
6.02868
 20
3.91378
 30
0.000000
  70
    32
  0
VERTEX
  8
AM_VIS
  5
AD4
 10
6.02873
 20
3.91321
 30
0.000000
  70
    32
  0
VERTEX
  8
AM_VIS
  5
AD5
 10
6.02878
 20
3.91263
 30
0.000000
  70
    32
  0
VERTEX
  8
AM_VIS
  5
AD6
 10
6.02883
 20
3.91205
 30
0.000000
  70
    32
  0
VERTEX
  8
AM_VIS
  5
AD7
 10
6.02888
 20
3.91148
 30
0.000000
  70
    32
  0
VERTEX
  8
AM_VIS
  5
AD8
 10
6.02892
 20
3.91090
 30
0.000000
  70
    32
  0
VERTEX
  8
AM_VIS
  5
AD9
 10
6.02897
 20
3.91032
 30
0.000000
  70
    32
  0
VERTEX
  8
AM_VIS
  5
ADA
 10
6.02902
 20
3.90974
 30
0.000000
  70
    32
  0
VERTEX
  8
AM_VIS
  5
ADB
 10
6.02906
 20
3.90916
 30
0.000000
  70
    32
  0
VERTEX
  8
AM_VIS
  5
ADC
 10
6.02911
 20
3.90859
 30
0.000000
  70
    32
  0
VERTEX
  8
AM_VIS
  5
ADD
 10
6.02915
 20
3.90801
 30
0.000000
  70
    32
  0
VERTEX
  8
AM_VIS
  5
ADE
 10
6.02920
 20
3.90743
 30
0.000000
  70
    32
  0
VERTEX
  8
AM_VIS
  5
ADF
 10
6.02924
 20
3.90685
 30
0.000000
  70
    32
  0
VERTEX
  8
AM_VIS
  5
AE0
 10
6.02928
 20
3.90627
 30
0.000000
  70
    32
  0
VERTEX
  8
AM_VIS
  5
AE1
 10
6.02933
 20
3.90569
 30
0.000000
  70
    32
  0
VERTEX
  8
AM_VIS
  5
AE2
 10
6.02937
 20
3.90511
 30
0.000000
  70
    32
  0
VERTEX
  8
AM_VIS
  5
AE3
 10
6.02941
 20
3.90454
 30
0.000000
  70
    32
  0
VERTEX
  8
AM_VIS
  5
AE4
 10
6.02946
 20
3.90396
 30
0.000000
  70
    32
  0
VERTEX
  8
AM_VIS
  5
AE5
 10
6.02950
 20
3.90338
 30
0.000000
  70
    32
  0
VERTEX
  8
AM_VIS
  5
AE6
 10
6.02954
 20
3.90280
 30
0.000000
  70
    32
  0
VERTEX
  8
AM_VIS
  5
AE7
 10
6.02958
 20
3.90222
 30
0.000000
  70
    32
  0
VERTEX
  8
AM_VIS
  5
AE8
 10
6.02962
 20
3.90164
 30
0.000000
  70
    32
  0
VERTEX
  8
AM_VIS
  5
AE9
 10
6.02966
 20
3.90106
 30
0.000000
  70
    32
  0
VERTEX
  8
AM_VIS
  5
AEA
 10
6.02970
 20
3.90048
 30
0.000000
  70
    32
  0
VERTEX
  8
AM_VIS
  5
AEB
 10
6.02974
 20
3.89990
 30
0.000000
  70
    32
  0
VERTEX
  8
AM_VIS
  5
AEC
 10
6.02978
 20
3.89932
 30
0.000000
  70
    32
  0
VERTEX
  8
AM_VIS
  5
AED
 10
6.02981
 20
3.89874
 30
0.000000
  70
    32
  0
VERTEX
  8
AM_VIS
  5
AEE
 10
6.02985
 20
3.89816
 30
0.000000
  70
    32
  0
VERTEX
  8
AM_VIS
  5
AEF
 10
6.02989
 20
3.89758
 30
0.000000
  70
    32
  0
VERTEX
  8
AM_VIS
  5
AF0
 10
6.02993
 20
3.89700
 30
0.000000
  70
    32
  0
VERTEX
  8
AM_VIS
  5
AF1
 10
6.02996
 20
3.89642
 30
0.000000
  70
    32
  0
VERTEX
  8
AM_VIS
  5
AF2
 10
6.03000
 20
3.89584
 30
0.000000
  70
    32
  0
VERTEX
  8
AM_VIS
  5
AF3
 10
6.03003
 20
3.89525
 30
0.000000
  70
    32
  0
VERTEX
  8
AM_VIS
  5
AF4
 10
6.03007
 20
3.89467
 30
0.000000
  70
    32
  0
VERTEX
  8
AM_VIS
  5
AF5
 10
6.03010
 20
3.89409
 30
0.000000
  70
    32
  0
VERTEX
  8
AM_VIS
  5
AF6
 10
6.03014
 20
3.89351
 30
0.000000
  70
    32
  0
VERTEX
  8
AM_VIS
  5
AF7
 10
6.03017
 20
3.89293
 30
0.000000
  70
    32
  0
VERTEX
  8
AM_VIS
  5
AF8
 10
6.03020
 20
3.89235
 30
0.000000
  70
    32
  0
VERTEX
  8
AM_VIS
  5
AF9
 10
6.03024
 20
3.89177
 30
0.000000
  70
    32
  0
VERTEX
  8
AM_VIS
  5
AFA
 10
6.03027
 20
3.89119
 30
0.000000
  70
    32
  0
VERTEX
  8
AM_VIS
  5
AFB
 10
6.03030
 20
3.89061
 30
0.000000
  70
    32
  0
VERTEX
  8
AM_VIS
  5
AFC
 10
6.03033
 20
3.89003
 30
0.000000
  70
    32
  0
VERTEX
  8
AM_VIS
  5
AFD
 10
6.03036
 20
3.88945
 30
0.000000
  70
    32
  0
VERTEX
  8
AM_VIS
  5
AFE
 10
6.03039
 20
3.88887
 30
0.000000
  70
    32
  0
VERTEX
  8
AM_VIS
  5
AFF
 10
6.03042
 20
3.88829
 30
0.000000
  70
    32
  0
VERTEX
  8
AM_VIS
  5
B00
 10
6.03045
 20
3.88771
 30
0.000000
  70
    32
  0
VERTEX
  8
AM_VIS
  5
B01
 10
6.03048
 20
3.88713
 30
0.000000
  70
    32
  0
VERTEX
  8
AM_VIS
  5
B02
 10
6.03051
 20
3.88655
 30
0.000000
  70
    32
  0
VERTEX
  8
AM_VIS
  5
B03
 10
6.03054
 20
3.88597
 30
0.000000
  70
    32
  0
VERTEX
  8
AM_VIS
  5
B04
 10
6.03057
 20
3.88539
 30
0.000000
  70
    32
  0
VERTEX
  8
AM_VIS
  5
B05
 10
6.03060
 20
3.88481
 30
0.000000
  70
    32
  0
VERTEX
  8
AM_VIS
  5
B06
 10
6.03062
 20
3.88423
 30
0.000000
  70
    32
  0
VERTEX
  8
AM_VIS
  5
B07
 10
6.03065
 20
3.88365
 30
0.000000
  70
    32
  0
VERTEX
  8
AM_VIS
  5
B08
 10
6.03067
 20
3.88307
 30
0.000000
  70
    32
  0
VERTEX
  8
AM_VIS
  5
B09
 10
6.03070
 20
3.88249
 30
0.000000
  70
    32
  0
VERTEX
  8
AM_VIS
  5
B0A
 10
6.03073
 20
3.88191
 30
0.000000
  70
    32
  0
VERTEX
  8
AM_VIS
  5
B0B
 10
6.03075
 20
3.88133
 30
0.000000
  70
    32
  0
VERTEX
  8
AM_VIS
  5
B0C
 10
6.03077
 20
3.88074
 30
0.000000
  70
    32
  0
VERTEX
  8
AM_VIS
  5
B0D
 10
6.03080
 20
3.88016
 30
0.000000
  70
    32
  0
VERTEX
  8
AM_VIS
  5
B0E
 10
6.03082
 20
3.87958
 30
0.000000
  70
    32
  0
VERTEX
  8
AM_VIS
  5
B0F
 10
6.03084
 20
3.87900
 30
0.000000
  70
    32
  0
VERTEX
  8
AM_VIS
  5
B10
 10
6.03087
 20
3.87842
 30
0.000000
  70
    32
  0
VERTEX
  8
AM_VIS
  5
B11
 10
6.03089
 20
3.87784
 30
0.000000
  70
    32
  0
VERTEX
  8
AM_VIS
  5
B12
 10
6.03091
 20
3.87726
 30
0.000000
  70
    32
  0
VERTEX
  8
AM_VIS
  5
B13
 10
6.03093
 20
3.87668
 30
0.000000
  70
    32
  0
VERTEX
  8
AM_VIS
  5
B14
 10
6.03095
 20
3.87610
 30
0.000000
  70
    32
  0
VERTEX
  8
AM_VIS
  5
B15
 10
6.03097
 20
3.87552
 30
0.000000
  70
    32
  0
VERTEX
  8
AM_VIS
  5
B16
 10
6.03099
 20
3.87493
 30
0.000000
  70
    32
  0
VERTEX
  8
AM_VIS
  5
B17
 10
6.03101
 20
3.87435
 30
0.000000
  70
    32
  0
VERTEX
  8
AM_VIS
  5
B18
 10
6.03103
 20
3.87377
 30
0.000000
  70
    32
  0
VERTEX
  8
AM_VIS
  5
B19
 10
6.03105
 20
3.87319
 30
0.000000
  70
    32
  0
VERTEX
  8
AM_VIS
  5
B1A
 10
6.03106
 20
3.87261
 30
0.000000
  70
    32
  0
VERTEX
  8
AM_VIS
  5
B1B
 10
6.03108
 20
3.87203
 30
0.000000
  70
    32
  0
VERTEX
  8
AM_VIS
  5
B1C
 10
6.03110
 20
3.87145
 30
0.000000
  70
    32
  0
VERTEX
  8
AM_VIS
  5
B1D
 10
6.03111
 20
3.87086
 30
0.000000
  70
    32
  0
VERTEX
  8
AM_VIS
  5
B1E
 10
6.03113
 20
3.87028
 30
0.000000
  70
    32
  0
VERTEX
  8
AM_VIS
  5
B1F
 10
6.03114
 20
3.86970
 30
0.000000
  70
    32
  0
VERTEX
  8
AM_VIS
  5
B20
 10
6.03116
 20
3.86912
 30
0.000000
  70
    32
  0
VERTEX
  8
AM_VIS
  5
B21
 10
6.03117
 20
3.86854
 30
0.000000
  70
    32
  0
VERTEX
  8
AM_VIS
  5
B22
 10
6.03119
 20
3.86796
 30
0.000000
  70
    32
  0
VERTEX
  8
AM_VIS
  5
B23
 10
6.03120
 20
3.86737
 30
0.000000
  70
    32
  0
VERTEX
  8
AM_VIS
  5
B24
 10
6.03121
 20
3.86679
 30
0.000000
  70
    32
  0
VERTEX
  8
AM_VIS
  5
B25
 10
6.03123
 20
3.86621
 30
0.000000
  70
    32
  0
VERTEX
  8
AM_VIS
  5
B26
 10
6.03124
 20
3.86563
 30
0.000000
  70
    32
  0
VERTEX
  8
AM_VIS
  5
B27
 10
6.03125
 20
3.86505
 30
0.000000
  70
    32
  0
VERTEX
  8
AM_VIS
  5
B28
 10
6.03126
 20
3.86446
 30
0.000000
  70
    32
  0
VERTEX
  8
AM_VIS
  5
B29
 10
6.03127
 20
3.86388
 30
0.000000
  70
    32
  0
VERTEX
  8
AM_VIS
  5
B2A
 10
6.03128
 20
3.86330
 30
0.000000
  70
    32
  0
VERTEX
  8
AM_VIS
  5
B2B
 10
6.03129
 20
3.86272
 30
0.000000
  70
    32
  0
VERTEX
  8
AM_VIS
  5
B2C
 10
6.03130
 20
3.86214
 30
0.000000
  70
    32
  0
VERTEX
  8
AM_VIS
  5
B2D
 10
6.03131
 20
3.86156
 30
0.000000
  70
    32
  0
VERTEX
  8
AM_VIS
  5
B2E
 10
6.03132
 20
3.86097
 30
0.000000
  70
    32
  0
VERTEX
  8
AM_VIS
  5
B2F
 10
6.03133
 20
3.86039
 30
0.000000
  70
    32
  0
VERTEX
  8
AM_VIS
  5
B30
 10
6.03133
 20
3.85981
 30
0.000000
  70
    32
  0
VERTEX
  8
AM_VIS
  5
B31
 10
6.03134
 20
3.85923
 30
0.000000
  70
    32
  0
VERTEX
  8
AM_VIS
  5
B32
 10
6.03135
 20
3.85865
 30
0.000000
  70
    32
  0
VERTEX
  8
AM_VIS
  5
B33
 10
6.03135
 20
3.85807
 30
0.000000
  70
    32
  0
VERTEX
  8
AM_VIS
  5
B34
 10
6.03136
 20
3.85748
 30
0.000000
  70
    32
  0
VERTEX
  8
AM_VIS
  5
B35
 10
6.03136
 20
3.85690
 30
0.000000
  70
    32
  0
VERTEX
  8
AM_VIS
  5
B36
 10
6.03137
 20
3.85632
 30
0.000000
  70
    32
  0
VERTEX
  8
AM_VIS
  5
B37
 10
6.03137
 20
3.85574
 30
0.000000
  70
    32
  0
VERTEX
  8
AM_VIS
  5
B38
 10
6.03137
 20
3.85516
 30
0.000000
  70
    32
  0
VERTEX
  8
AM_VIS
  5
B39
 10
6.03138
 20
3.85458
 30
0.000000
  70
    32
  0
VERTEX
  8
AM_VIS
  5
B3A
 10
6.03138
 20
3.85399
 30
0.000000
  70
    32
  0
VERTEX
  8
AM_VIS
  5
B3B
 10
6.03138
 20
3.85341
 30
0.000000
  70
    32
  0
VERTEX
  8
AM_VIS
  5
B3C
 10
6.03138
 20
3.85283
 30
0.000000
  70
    32
  0
VERTEX
  8
AM_VIS
  5
B3D
 10
6.03139
 20
3.85225
 30
0.000000
  70
    32
  0
VERTEX
  8
AM_VIS
  5
B3E
 10
6.03139
 20
3.85167
 30
0.000000
  70
    32
  0
VERTEX
  8
AM_VIS
  5
B3F
 10
6.03139
 20
3.85108
 30
0.000000
  70
    32
  0
SEQEND
  8
AM_VIS
  5
B40
  0
LINE
  5
37
  8
AM_VIS
 10
8.1763311007354993
 20
4.2557556996030197
 30
0.0
 11
8.1763311007354993
 21
3.851084485056754
 31
0.0
  0
ARC
  5
38
  8
AM_VIS
 10
7.7154252390903952
 20
3.8394307178840599
 30
0.0
 40
0.4103297329045416
 50
139.29431560951761
 51
178.3717898942202
  0
ARC
  5
39
  8
AM_VIS
 10
7.7268619702919228
 20
3.8409092035426791
 30
0.0
 40
0.4071828861831639
 50
1.432271715215069
 51
40.824881436170891
  0
LINE
  5
3A
  8
AM_HID
 10
6.6096347922214331
 20
4.8510844851564938
 30
0.0
 11
8.1763311007354993
 21
4.8510844851564938
 31
0.0
  0
LINE
  5
3B
  8
AM_HID
 10
6.6096347922214331
 20
2.8510844851564938
 30
0.0
 11
8.1763311007354993
 21
2.8510844851564938
 31
0.0
  0
LINE
  5
3C
  8
AM_HID
 10
6.7596347922214353
 20
2.7260844851564978
 30
0.0
 11
6.7596347922214353
 21
2.7010844851564961
 31
0.0
  0
LINE
  5
3D
  8
AM_VIS
 10
4.4596347922214328
 20
4.976084485156492
 30
0.0
 11
4.4596347922214337
 21
2.7260844851564978
 31
0.0
  0
LINE
  5
3E
  8
AM_VIS
 10
6.7596347922214326
 20
5.0010844851564942
 30
0.0
 11
8.1263311007355004
 21
5.0010844851564942
 31
0.0
  0
LINE
  5
3F
  8
AM_VIS
 10
6.7596347922214326
 20
2.7010844851564939
 30
0.0
 11
8.1263311007355004
 21
2.7010844851564939
 31
0.0
  0
LINE
  5
40
  8
AM_HID
 10
6.609634792221434
 20
5.0010844851564906
 30
0.0
 11
6.609634792221434
 21
4.8510844851564929
 31
0.0
  0
LINE
  5
41
  8
AM_HID
 10
6.609634792221434
 20
2.8510844851564952
 30
0.0
 11
6.609634792221434
 21
2.7010844851564979
 31
0.0
  0
LINE
  5
42
  8
AM_HID
 10
4.609634792221434
 20
5.0010844851564906
 30
0.0
 11
4.609634792221434
 21
2.7010844851564979
 31
0.0
  0
LINE
  5
43
  8
AM_HID
 10
6.7596347922214353
 20
5.0010844851564942
 30
0.0
 11
6.7596347922214353
 21
4.976084485156492
 31
0.0
  0
LINE
  5
44
  8
AM_HID
 10
6.734634792221434
 20
2.7260844851564978
 30
0.0
 11
6.7596347922214344
 21
2.7260844851564978
 31
0.0
  0
ARC
  5
45
  8
AM_VIS
 10
7.7196347922214343
 20
3.851084485156496
 30
0.0
 40
0.40625
 50
219.0723075591803
 51
320.92769244081938
  0
LINE
  5
46
  8
AM_VIS
 10
6.734634792221434
 20
2.7010844851564979
 30
0.0
 11
4.484634792221434
 21
2.7010844851564979
 31
0.0
  0
ARC
  5
47
  8
AM_VIS
 10
5.609634792221434
 20
3.851084485156492
 30
0.0
 40
0.40625
 50
129.07230755918039
 51
230.9276924408191
  0
CIRCLE
  5
48
  8
AM_VIS
 10
5.609634792221434
 20
3.851084485156492
 30
0.0
 40
0.3125
  0
ARC
  5
49
  8
AM_VIS
 10
5.609634792221434
 20
3.851084485156496
 30
0.0
 40
0.40625
 50
309.07230755918027
 51
50.927692440819257
  0
LINE
  5
4A
  8
AM_VIS
 10
8.1763311007355011
 20
2.7510844851564951
 30
0.0
 11
8.1763311007355011
 21
3.4464132707099679
 31
0.0
  0
LINE
  5
4B
  8
AM_VIS
 10
8.1763311007354993
 20
4.2557556996030197
 30
0.0
 11
8.1763311007354993
 21
4.9510844851564944
 31
0.0
  0
CIRCLE
  5
4C
  8
AM_VIS
 10
7.7196347922214343
 20
3.851084485156496
 30
0.0
 40
0.3125
  0
LINE
  5
4D
  8
AM_HID
 10
6.734634792221434
 20
4.976084485156492
 30
0.0
 11
6.7596347922214344
 21
4.976084485156492
 31
0.0
  0
ARC
  5
4E
  8
AM_VIS
 10
7.7196347922214343
 20
3.851084485156492
 30
0.0
 40
0.40625
 50
39.072307559180501
 51
140.92769244081961
  0
LINE
  5
4F
  8
AM_VIS
 10
6.734634792221434
 20
5.0010844851564906
 30
0.0
 11
4.484634792221434
 21
5.0010844851564906
 31
0.0
  0
ARC
  5
50
  8
AM_HID
 10
6.734634792221434
 20
2.7260844851564978
 30
0.0
 40
0.025
 50
314.99999999999528
 51
0.0
  0
ARC
  5
51
  8
AM_VIS
 10
6.734634792221434
 20
2.7260844851564978
 30
0.0
 40
0.025
 50
270.0
 51
314.99999999999528
  0
ARC
  5
52
  8
AM_VIS
 10
4.484634792221434
 20
2.7260844851564978
 30
0.0
 40
0.025
 50
180.0
 51
270.0
  0
ARC
  5
53
  8
AM_VIS
 10
8.1263311007355004
 20
2.7510844851564951
 30
0.0
 40
0.05
 50
270.0
 51
0.0
  0
ARC
  5
54
  8
AM_VIS
 10
8.1263311007355004
 20
4.9510844851564944
 30
0.0
 40
0.05
 50
0.0
 51
90.0
  0
ARC
  5
55
  8
AM_VIS
 10
4.484634792221434
 20
4.976084485156492
 30
0.0
 40
0.025
 50
90.0
 51
180.0
  0
ARC
  5
56
  8
AM_VIS
 10
6.734634792221434
 20
4.976084485156492
 30
0.0
 40
0.025
 50
45.000000000004277
 51
90.0
  0
ARC
  5
57
  8
AM_HID
 10
6.734634792221434
 20
4.976084485156492
 30
0.0
 40
0.025
 50
0.0
 51
45.000000000004277
  0
INSERT
  5
171
  8
0
  2
*U7
 10
0.0
 20
0.0
 30
0.0
  0
INSERT
  5
172
  8
0
  2
*U8
 10
0.0
 20
0.0
 30
0.0
  0
LINE
  5
17D
  8
0
 10
5.609634792221434
 20
5.0635844851564906
 30
0.0
 11
5.609634792221434
 21
6.057780306970467
 31
0.0
  0
LINE
  5
17E
  8
0
 10
8.1763311007355011
 20
5.0135844851564944
 30
0.0
 11
8.1763311007355011
 21
6.057780306970467
 31
0.0
  0
LINE
  5
17F
  8
0
 10
5.734634792221434
 20
5.8777803069704682
 30
0.0
 11
6.5970231447845542
 21
5.8777803069704682
 31
0.0
  0
LINE
  5
180
  8
0
 10
8.0513311007355011
 20
5.8777803069704682
 30
0.0
 11
7.2160546414528124
 21
5.8777803069704682
 31
0.0
  0
SOLID
  5
181
  8
0
 10
5.734634792221434
 20
5.8986136403038012
 30
0.0
 11
5.734634792221434
 21
5.8569469736371351
 31
0.0
 12
5.609634792221434
 22
5.8777803069704682
 32
0.0
 13
5.609634792221434
 23
5.8777803069704682
 33
0.0
  0
SOLID
  5
182
  8
0
 10
8.0513311007355011
 20
5.8986136403038012
 30
0.0
 11
8.0513311007355011
 21
5.8569469736371351
 31
0.0
 12
8.1763311007355011
 22
5.8777803069704682
 32
0.0
 13
8.1763311007355011
 23
5.8777803069704682
 33
0.0
  0
INSERT
  5
183
  8
0
  2
*U9
 10
0.0
 20
0.0
 30
0.0
  0
ENDSEC
  0
EOF
