  0
SECTION
  2
HEADER
  9
$ACADVER
  1
AC1012
  9
$DWGCODEPAGE
  3
ANSI_1252
  9
$INSBASE
 10
152.7733332314941
 20
210.4136359332195
 30
0.0
  9
$EXTMIN
 10
151.7090750115048
 20
209.7703876220543
 30
0.0
  9
$EXTMAX
 10
153.8375914514834
 20
210.4156748275304
 30
0.0
  9
$LIMMIN
 10
0.0
 20
0.0
  9
$LIMMAX
 10
12.0
 20
9.0
  9
$ORTHOMODE
 70
     0
  9
$REGENMODE
 70
     1
  9
$FILLMODE
 70
     1
  9
$QTEXTMODE
 70
     0
  9
$MIRRTEXT
 70
     1
  9
$DRAGMODE
 70
     2
  9
$LTSCALE
 40
1.0
  9
$OSMODE
 70
    35
  9
$ATTMODE
 70
     1
  9
$TEXTSIZE
 40
2.0
  9
$TRACEWID
 40
0.05
  9
$TEXTSTYLE
  7
DAVES
  9
$CLAYER
  8
0
  9
$CELTYPE
  6
BYLAYER
  9
$CECOLOR
 62
   256
  9
$CELTSCALE
 40
1.0
  9
$DELOBJ
 70
     1
  9
$DISPSILH
 70
     0
  9
$DIMSCALE
 40
8.0
  9
$DIMASZ
 40
0.1875
  9
$DIMEXO
 40
0.0625
  9
$DIMDLI
 40
0.375
  9
$DIMRND
 40
0.0
  9
$DIMDLE
 40
0.0
  9
$DIMEXE
 40
0.1875
  9
$DIMTP
 40
0.0
  9
$DIMTM
 40
0.0
  9
$DIMTXT
 40
0.18
  9
$DIMCEN
 40
0.0625
  9
$DIMTSZ
 40
0.0
  9
$DIMTOL
 70
     0
  9
$DIMLIM
 70
     0
  9
$DIMTIH
 70
     1
  9
$DIMTOH
 70
     1
  9
$DIMSE1
 70
     0
  9
$DIMSE2
 70
     0
  9
$DIMTAD
 70
     0
  9
$DIMZIN
 70
     0
  9
$DIMBLK
  1

  9
$DIMASO
 70
     1
  9
$DIMSHO
 70
     1
  9
$DIMPOST
  1

  9
$DIMAPOST
  1

  9
$DIMALT
 70
     0
  9
$DIMALTD
 70
     2
  9
$DIMALTF
 40
25.4
  9
$DIMLFAC
 40
1.0
  9
$DIMTOFL
 70
     0
  9
$DIMTVP
 40
0.0
  9
$DIMTIX
 70
     0
  9
$DIMSOXD
 70
     0
  9
$DIMSAH
 70
     0
  9
$DIMBLK1
  1

  9
$DIMBLK2
  1

  9
$DIMSTYLE
  2
STANDARD
  9
$DIMCLRD
 70
     0
  9
$DIMCLRE
 70
     0
  9
$DIMCLRT
 70
     0
  9
$DIMTFAC
 40
1.0
  9
$DIMGAP
 40
0.0625
  9
$DIMJUST
 70
     0
  9
$DIMSD1
 70
     0
  9
$DIMSD2
 70
     0
  9
$DIMTOLJ
 70
     1
  9
$DIMTZIN
 70
     0
  9
$DIMALTZ
 70
     0
  9
$DIMALTTZ
 70
     0
  9
$DIMFIT
 70
     3
  9
$DIMUPT
 70
     0
  9
$DIMUNIT
 70
     7
  9
$DIMDEC
 70
     4
  9
$DIMTDEC
 70
     1
  9
$DIMALTU
 70
     2
  9
$DIMALTTD
 70
     2
  9
$DIMTXSTY
  7
STANDARD
  9
$DIMAUNIT
 70
     0
  9
$LUNITS
 70
     5
  9
$LUPREC
 70
     4
  9
$SKETCHINC
 40
0.1
  9
$FILLETRAD
 40
0.0
  9
$AUNITS
 70
     0
  9
$AUPREC
 70
     1
  9
$MENU
  1
acad
  9
$ELEVATION
 40
0.0
  9
$PELEVATION
 40
0.0
  9
$THICKNESS
 40
0.0
  9
$LIMCHECK
 70
     0
  9
$BLIPMODE
 70
     0
  9
$CHAMFERA
 40
0.5
  9
$CHAMFERB
 40
0.5
  9
$CHAMFERC
 40
1.0
  9
$CHAMFERD
 40
0.0
  9
$SKPOLY
 70
     0
  9
$TDCREATE
 40
2451142.539204861
  9
$TDUPDATE
 40
2452692.226607638
  9
$TDINDWG
 40
0.5869285880
  9
$TDUSRTIMER
 40
0.5869285880
  9
$USRTIMER
 70
     1
  9
$ANGBASE
 50
0.0
  9
$ANGDIR
 70
     0
  9
$PDMODE
 70
    35
  9
$PDSIZE
 40
3.0
  9
$PLINEWID
 40
0.0
  9
$COORDS
 70
     1
  9
$SPLFRAME
 70
     0
  9
$SPLINETYPE
 70
     6
  9
$SPLINESEGS
 70
     8
  9
$ATTDIA
 70
     0
  9
$ATTREQ
 70
     1
  9
$HANDLING
 70
 22529
  9
$HANDSEED
  5
49
  9
$SURFTAB1
 70
     6
  9
$SURFTAB2
 70
     6
  9
$SURFTYPE
 70
     6
  9
$SURFU
 70
     6
  9
$SURFV
 70
     6
  9
$UCSNAME
  2

  9
$UCSORG
 10
0.0
 20
0.0
 30
0.0
  9
$UCSXDIR
 10
1.0
 20
0.0
 30
0.0
  9
$UCSYDIR
 10
0.0
 20
1.0
 30
0.0
  9
$PUCSNAME
  2

  9
$PUCSORG
 10
0.0
 20
0.0
 30
0.0
  9
$PUCSXDIR
 10
1.0
 20
0.0
 30
0.0
  9
$PUCSYDIR
 10
0.0
 20
1.0
 30
0.0
  9
$USERI1
 70
     0
  9
$USERI2
 70
     0
  9
$USERI3
 70
     0
  9
$USERI4
 70
     0
  9
$USERI5
 70
     0
  9
$USERR1
 40
0.0
  9
$USERR2
 40
0.0
  9
$USERR3
 40
0.0
  9
$USERR4
 40
0.0
  9
$USERR5
 40
0.0
  9
$WORLDVIEW
 70
     1
  9
$SHADEDGE
 70
     3
  9
$SHADEDIF
 70
    70
  9
$TILEMODE
 70
     1
  9
$MAXACTVP
 70
    48
  9
$PINSBASE
 10
0.0
 20
0.0
 30
0.0
  9
$PLIMCHECK
 70
     0
  9
$PEXTMIN
 10
1.000000000000000E+20
 20
1.000000000000000E+20
 30
1.000000000000000E+20
  9
$PEXTMAX
 10
-1.000000000000000E+20
 20
-1.000000000000000E+20
 30
-1.000000000000000E+20
  9
$PLIMMIN
 10
0.0
 20
0.0
  9
$PLIMMAX
 10
12.0
 20
9.0
  9
$UNITMODE
 70
     0
  9
$VISRETAIN
 70
     1
  9
$PLINEGEN
 70
     0
  9
$PSLTSCALE
 70
     1
  9
$TREEDEPTH
 70
  3020
  9
$PICKSTYLE
 70
     1
  9
$CMLSTYLE
  2
STANDARD
  9
$CMLJUST
 70
     0
  9
$CMLSCALE
 40
1.0
  9
$SAVEIMAGES
 70
     1
  0
ENDSEC
  0
SECTION
  2
CLASSES
  0
CLASS
  1
LWPOLYLINE
  2
AcDbPolyline
  3
AutoCAD 2000
 90
    32768
280
     0
281
     1
  0
CLASS
  1
DICTIONARYVAR
  2
AcDbDictionaryVar
  3
AutoCAD 2000
 90
    32768
280
     0
281
     0
  0
CLASS
  1
HATCH
  2
AcDbHatch
  3
AutoCAD 2000
 90
    32768
280
     0
281
     1
  0
CLASS
  1
IDBUFFER
  2
AcDbIdBuffer
  3
AutoCAD 2000
 90
    32768
280
     0
281
     0
  0
CLASS
  1
ACDBDICTIONARYWDFLT
  2
AcDbDictionaryWithDefault
  3
AutoCAD 2000
 90
    32768
280
     0
281
     0
  0
CLASS
  1
ACDBPLACEHOLDER
  2
AcDbPlaceHolder
  3
AutoCAD 2000
 90
    32768
280
     0
281
     0
  0
CLASS
  1
LAYOUT
  2
AcDbLayout
  3
AutoCAD 2000
 90
    32768
280
     0
281
     0
  0
CLASS
  1
LONG_TRANSACTION
  2
AcDbLongTransaction
  3
AutoCAD 2000
 90
    32768
280
     0
281
     0
  0
CLASS
  1
LWPOLYLINE
  2
AcDbPolyline
  3
AutoCAD 2000
 90
    32768
280
     0
281
     1
  0
CLASS
  1
HATCH
  2
AcDbHatch
  3
AutoCAD 2000
 90
    32768
280
     0
281
     1
  0
CLASS
  1
XRECORD
  2
AcDbXrecord
  3
AutoCAD 2000
 90
    32768
280
     0
281
     0
  0
ENDSEC
  0
SECTION
  2
TABLES
  0
TABLE
  2
VPORT
  5
12
330
0
100
AcDbSymbolTable
 70
     2
  0
VPORT
  5
44
330
12
100
AcDbSymbolTableRecord
100
AcDbViewportTableRecord
  2
*ACTIVE
 70
     0
 10
0.0
 20
0.0
 11
1.0
 21
1.0
 12
152.7733332314941
 22
210.0930312247924
 13
0.0
 23
0.0
 14
0.5
 24
0.5
 15
0.5
 25
0.5
 16
0.0
 26
0.0
 36
1.0
 17
0.0
 27
0.0
 37
0.0
 40
1.366859083387167
 41
1.565159574468085
 42
50.0
 43
0.0
 44
0.0
 50
0.0
 51
0.0
 71
     0
 72
   100
 73
     1
 74
     0
 75
     0
 76
     0
 77
     0
 78
     0
  0
ENDTAB
  0
TABLE
  2
LTYPE
  5
D
330
0
100
AcDbSymbolTable
 70
     1
  0
LTYPE
  5
E
330
D
100
AcDbSymbolTableRecord
100
AcDbLinetypeTableRecord
  2
BYBLOCK
 70
     0
  3

 72
    65
 73
     0
 40
0.0
  0
LTYPE
  5
F
330
D
100
AcDbSymbolTableRecord
100
AcDbLinetypeTableRecord
  2
BYLAYER
 70
     0
  3

 72
    65
 73
     0
 40
0.0
  0
LTYPE
  5
5
330
D
100
AcDbSymbolTableRecord
100
AcDbLinetypeTableRecord
  2
CONTINUOUS
 70
     0
  3
Solid line
 72
    65
 73
     0
 40
0.0
  0
ENDTAB
  0
TABLE
  2
LAYER
  5
A
330
0
100
AcDbSymbolTable
 70
     1
  0
LAYER
  5
4
330
A
100
AcDbSymbolTableRecord
100
AcDbLayerTableRecord
  2
0
 70
     0
 62
     7
  6
CONTINUOUS
  0
ENDTAB
  0
TABLE
  2
STYLE
  5
B
330
0
100
AcDbSymbolTable
 70
     2
  0
STYLE
  5
C
330
B
100
AcDbSymbolTableRecord
100
AcDbTextStyleTableRecord
  2
STANDARD
 70
     0
 40
0.0
 41
1.0
 50
0.0
 71
     0
 42
4.779603093141017
  3
txt
  4

  0
STYLE
  5
1B
330
B
100
AcDbSymbolTableRecord
100
AcDbTextStyleTableRecord
  2
DAVES
 70
     0
 40
2.0
 41
0.85
 50
0.0
 71
     0
 42
2.0
  3
romantic.ttf
  4

1001
ACAD
1000
Romantic
1071
      514
  0
ENDTAB
  0
TABLE
  2
VIEW
  5
10
330
0
100
AcDbSymbolTable
 70
     0
  0
ENDTAB
  0
TABLE
  2
UCS
  5
11
330
0
100
AcDbSymbolTable
 70
     0
  0
ENDTAB
  0
TABLE
  2
APPID
  5
14
330
0
100
AcDbSymbolTable
 70
     2
  0
APPID
  5
15
330
14
100
AcDbSymbolTableRecord
100
AcDbRegAppTableRecord
  2
ACAD
 70
     0
  0
APPID
  5
37
330
14
100
AcDbSymbolTableRecord
100
AcDbRegAppTableRecord
  2
CONTENTBLOCKDESCRIPTION
 70
     0
  0
ENDTAB
  0
TABLE
  2
DIMSTYLE
  5
16
330
0
100
AcDbSymbolTable
 70
     1
  0
DIMSTYLE
105
1D
330
16
100
AcDbSymbolTableRecord
100
AcDbDimStyleTableRecord
  2
STANDARD
 70
     0
  3

  4

  5

  6

  7

 40
8.0
 41
0.18
 42
0.0625
 43
0.38
 44
0.18
 45
0.0
 46
0.0
 47
0.0
 48
0.0
140
0.18
141
0.09
142
0.0
143
25.4
144
1.0
145
0.0
146
1.0
147
0.0625
 71
     0
 72
     0
 73
     1
 74
     1
 75
     0
 76
     0
 77
     0
 78
     0
170
     0
171
     2
172
     0
173
     0
174
     0
175
     0
176
     0
177
     0
178
     0
270
     7
271
     4
272
     1
273
     2
274
     2
340
C
275
     0
280
     0
281
     0
282
     0
283
     1
284
     0
285
     0
286
     0
287
     3
288
     0
  0
ENDTAB
  0
TABLE
  2
BLOCK_RECORD
  5
1
330
0
100
AcDbSymbolTable
 70
     0
  0
BLOCK_RECORD
  5
2
102
{ACAD_XDICTIONARY
360
45
102
}
330
1
100
AcDbSymbolTableRecord
100
AcDbBlockTableRecord
  2
*MODEL_SPACE
  0
BLOCK_RECORD
  5
7
102
{ACAD_XDICTIONARY
360
47
102
}
330
1
100
AcDbSymbolTableRecord
100
AcDbBlockTableRecord
  2
*PAPER_SPACE
  0
ENDTAB
  0
ENDSEC
  0
SECTION
  2
BLOCKS
  0
BLOCK
  5
3
330
2
100
AcDbEntity
  8
0
100
AcDbBlockBegin
  2
*MODEL_SPACE
 70
     0
 10
0.0
 20
0.0
 30
0.0
  3
*MODEL_SPACE
  1

  0
ENDBLK
  5
6
330
2
100
AcDbEntity
  8
0
100
AcDbBlockEnd
  0
BLOCK
  5
8
330
7
100
AcDbEntity
 67
     1
  8
0
100
AcDbBlockBegin
  2
*PAPER_SPACE
 70
     0
 10
0.0
 20
0.0
 30
0.0
  3
*PAPER_SPACE
  1

  0
ENDBLK
  5
9
330
7
100
AcDbEntity
 67
     1
  8
0
100
AcDbBlockEnd
  0
ENDSEC
  0
SECTION
  2
ENTITIES
  0
ARC
  5
1E
330
2
100
AcDbEntity
  8
0
100
AcDbCircle
 10
152.6764392242102
 20
208.2042287059471
 30
0.0
 40
2.211530859963539
100
AcDbArc
 50
87.48889086304497
 51
102.5522925635083
  0
ARC
  5
1F
330
2
100
AcDbEntity
  8
0
100
AcDbCircle
 10
152.7733332314941
 20
209.1790553199857
 30
0.0
 40
1.002064933471277
100
AcDbArc
 50
55.95387594460502
 51
124.0461240553953
  0
LINE
  5
20
330
2
100
AcDbEntity
  8
0
100
AcDbLine
 10
152.1134621662908
 20
209.8939810379535
 30
0.0
 11
152.1134621662908
 21
209.8436005917555
 31
0.0
  0
LINE
  5
21
330
2
100
AcDbEntity
  8
0
100
AcDbLine
 10
152.1134621662908
 20
209.8939810379535
 30
0.0
 11
152.2123170463669
 21
209.8939810379535
 31
0.0
  0
LINE
  5
22
330
2
100
AcDbEntity
  8
0
100
AcDbLine
 10
151.9882847840239
 20
209.8436005917555
 30
0.0
 11
152.1134621662908
 21
209.8436005917555
 31
0.0
  0
ARC
  5
23
330
2
100
AcDbEntity
  8
0
100
AcDbCircle
 10
151.8581014024721
 20
210.0514525974931
 30
0.0
 40
0.1489610488659801
100
AcDbArc
 50
133.1705105135962
 51
179.999999999989
  0
ARC
  5
24
330
2
100
AcDbEntity
  8
0
100
AcDbCircle
 10
152.2007850359977
 20
209.6861550018068
 30
0.0
 40
0.6498346917146921
100
AcDbArc
 50
111.2347041342597
 51
133.1705105136003
  0
ARC
  5
25
330
2
100
AcDbEntity
  8
0
100
AcDbCircle
 10
152.3785984710872
 20
209.3608895625323
 30
0.0
 40
1.018546707259718
100
AcDbArc
 50
100.3385429614409
 51
113.932055404059
  0
LINE
  5
26
330
2
100
AcDbEntity
  8
0
100
AcDbLine
 10
151.9903903536062
 20
209.8436005917555
 30
0.0
 11
151.9903903536062
 21
209.7703876220574
 31
0.0
  0
ARC
  5
27
330
2
100
AcDbEntity
  8
0
100
AcDbCircle
 10
151.8949424780783
 20
210.032999997804
 30
0.0
 40
0.1867161693417986
100
AcDbArc
 50
174.328371814492
 51
230.011446694789
  0
ARC
  5
28
330
2
100
AcDbEntity
  8
0
100
AcDbCircle
 10
152.1326240441776
 20
210.2805783637098
 30
0.0
 40
0.5296461229958226
100
AcDbArc
 50
227.5222844993033
 51
254.4223101148675
  0
LINE
  5
29
330
2
100
AcDbEntity
  8
0
100
AcDbLine
 10
152.2123170463669
 20
209.8939810379535
 30
0.0
 11
152.2123170463669
 21
210.009353441707
 31
0.0
  0
ARC
  5
2A
330
2
100
AcDbEntity
  8
0
100
AcDbCircle
 10
152.8702272387779
 20
208.204228705947
 30
0.0
 40
2.21153085996362
100
AcDbArc
 50
77.44770743649209
 51
92.51110913695347
  0
LINE
  5
2B
330
2
100
AcDbEntity
  8
0
100
AcDbLine
 10
153.3343494166212
 20
209.8939810379535
 30
0.0
 11
153.3343494166212
 21
210.0093534417069
 31
0.0
  0
ARC
  5
2C
330
2
100
AcDbEntity
  8
0
100
AcDbCircle
 10
153.688565060516
 20
210.0514525974931
 30
0.0
 40
0.1489610488659801
100
AcDbArc
 50
0.0000000000109481
 51
46.82948948640379
  0
ARC
  5
2D
330
2
100
AcDbEntity
  8
0
100
AcDbCircle
 10
153.168067991901
 20
209.3608895625323
 30
0.0
 40
1.018546707259718
100
AcDbArc
 50
66.06794459594095
 51
79.66145703855907
  0
ARC
  5
2E
330
2
100
AcDbEntity
  8
0
100
AcDbCircle
 10
153.3458814269904
 20
209.6861550018068
 30
0.0
 40
0.6498346917146921
100
AcDbArc
 50
46.82948948639967
 51
68.76529586574027
  0
ARC
  5
2F
330
2
100
AcDbEntity
  8
0
100
AcDbCircle
 10
153.6517239849098
 20
210.032999997804
 30
0.0
 40
0.1867161693417986
100
AcDbArc
 50
309.9885533052109
 51
5.671628185507921
  0
LINE
  5
30
330
2
100
AcDbEntity
  8
0
100
AcDbLine
 10
153.4332042966973
 20
209.8939810379535
 30
0.0
 11
153.3343494166212
 21
209.8939810379535
 31
0.0
  0
ARC
  5
31
330
2
100
AcDbEntity
  8
0
100
AcDbCircle
 10
153.4140424188106
 20
210.2805783637098
 30
0.0
 40
0.5296461229958226
100
AcDbArc
 50
285.5776898851324
 51
312.4777155006967
  0
LINE
  5
32
330
2
100
AcDbEntity
  8
0
100
AcDbLine
 10
153.556276109382
 20
209.8436005917555
 30
0.0
 11
153.556276109382
 21
209.7703876220574
 31
0.0
  0
LINE
  5
33
330
2
100
AcDbEntity
  8
0
100
AcDbLine
 10
153.5583816789642
 20
209.8436005917555
 30
0.0
 11
153.4332042966974
 21
209.8436005917555
 31
0.0
  0
LINE
  5
34
330
2
100
AcDbEntity
  8
0
100
AcDbLine
 10
153.4332042966973
 20
209.8939810379535
 30
0.0
 11
153.4332042966974
 21
209.8436005917555
 31
0.0
  0
ENDSEC
  0
SECTION
  2
OBJECTS
  0
DICTIONARY
  5
1A
330
0
100
AcDbDictionary
  3
ACAD_GROUP
350
18
  3
ACAD_LAYOUT
350
3B
  3
ACAD_MLINESTYLE
350
19
  3
ACAD_PLOTSETTINGS
350
3C
  3
CONTENTDICTIONARY
350
36
1001
ACAD
1000
TREAT_AS_HARD
1070
     0
  0
DICTIONARY
  5
45
330
2
100
AcDbDictionary
  3
ACAD_LAYOUTSELFREF
350
46
  0
DICTIONARY
  5
47
330
7
100
AcDbDictionary
  3
ACAD_LAYOUTSELFREF
350
48
  0
DICTIONARY
  5
18
102
{ACAD_REACTORS
330
1A
102
}
330
1A
100
AcDbDictionary
1001
ACAD
1000
TREAT_AS_HARD
1070
     0
  0
DICTIONARY
  5
3B
102
{ACAD_REACTORS
330
1A
102
}
330
1A
100
AcDbDictionary
1001
ACAD
1000
TREAT_AS_HARD
1070
     0
  0
DICTIONARY
  5
19
102
{ACAD_REACTORS
330
1A
102
}
330
1A
100
AcDbDictionary
  3
STANDARD
350
1C
1001
ACAD
1000
TREAT_AS_HARD
1070
     0
  0
DICTIONARY
  5
3C
102
{ACAD_REACTORS
330
1A
102
}
330
1A
100
AcDbDictionary
1001
ACAD
1000
TREAT_AS_HARD
1070
     0
  0
DICTIONARY
  5
36
102
{ACAD_REACTORS
330
1A
102
}
330
1A
100
AcDbDictionary
1001
CONTENTBLOCKDESCRIPTION
1071
        0
1000
2-1/8" wide steel caprail^M^Jfits over 1-1/2" bar
1001
ACAD
1000
TREAT_AS_HARD
1070
     0
  0
XRECORD
  5
46
102
{ACAD_REACTORS
330
45
102
}
330
45
100
AcDbXrecord
340
2
  0
XRECORD
  5
48
102
{ACAD_REACTORS
330
47
102
}
330
47
100
AcDbXrecord
340
7
  0
MLINESTYLE
  5
1C
102
{ACAD_REACTORS
330
19
102
}
330
19
100
AcDbMlineStyle
  2
STANDARD
 70
     0
  3

 62
   256
 51
90.0
 52
90.0
 71
     2
 49
0.5
 62
   256
  6
BYLAYER
 49
-0.5
 62
   256
  6
BYLAYER
  0
ENDSEC
  0
EOF
