  0
SECTION
  2
HEADER
  9
$ACADVER
  1
AC1009
  9
$INSBASE
 10
0.0
 20
0.0
 30
0.0
  9
$EXTMIN
 10
3.4939763205174601
 20
0.0694027979259313
 30
0.0
  9
$EXTMAX
 10
10.36019369714567
 20
6.698564697844275
 30
0.0
  9
$LIMMIN
 10
0.0
 20
0.0
  9
$LIMMAX
 10
12.0
 20
9.0
  9
$ORTHOMODE
 70
     1
  9
$REGENMODE
 70
     0
  9
$FILLMODE
 70
     1
  9
$QTEXTMODE
 70
     0
  9
$MIRRTEXT
 70
     0
  9
$DRAGMODE
 70
     2
  9
$LTSCALE
 40
1.0
  9
$OSMODE
 70
    55
  9
$ATTMODE
 70
     1
  9
$TEXTSIZE
 40
0.12
  9
$TRACEWID
 40
0.05
  9
$TEXTSTYLE
  7
ADESK1
  9
$CLAYER
  8
0
  9
$CELTYPE
  6
BYLAYER
  9
$CECOLOR
 62
   256
  9
$DIMSCALE
 40
1.0
  9
$DIMASZ
 40
0.125
  9
$DIMEXO
 40
0.0625
  9
$DIMDLI
 40
0.38
  9
$DIMRND
 40
0.0
  9
$DIMDLE
 40
0.0
  9
$DIMEXE
 40
0.18
  9
$DIMTP
 40
0.0
  9
$DIMTM
 40
0.0
  9
$DIMTXT
 40
0.09375
  9
$DIMCEN
 40
-0.125
  9
$DIMTSZ
 40
0.0
  9
$DIMTOL
 70
     0
  9
$DIMLIM
 70
     0
  9
$DIMTIH
 70
     0
  9
$DIMTOH
 70
     0
  9
$DIMSE1
 70
     0
  9
$DIMSE2
 70
     0
  9
$DIMTAD
 70
     0
  9
$DIMZIN
 70
     3
  9
$DIMBLK
  1

  9
$DIMASO
 70
     0
  9
$DIMSHO
 70
     1
  9
$DIMPOST
  1

  9
$DIMAPOST
  1

  9
$DIMALT
 70
     0
  9
$DIMALTD
 70
     2
  9
$DIMALTF
 40
25.399999999999999
  9
$DIMLFAC
 40
1.0
  9
$DIMTOFL
 70
     1
  9
$DIMTVP
 40
0.0
  9
$DIMTIX
 70
     0
  9
$DIMSOXD
 70
     0
  9
$DIMSAH
 70
     0
  9
$DIMBLK1
  1

  9
$DIMBLK2
  1

  9
$DIMSTYLE
  2
STANDARD
  9
$DIMCLRD
 70
     0
  9
$DIMCLRE
 70
     0
  9
$DIMCLRT
 70
     0
  9
$DIMTFAC
 40
1.0
  9
$DIMGAP
 40
0.09
  9
$LUNITS
 70
     4
  9
$LUPREC
 70
     4
  9
$SKETCHINC
 40
0.1
  9
$FILLETRAD
 40
0.5
  9
$AUNITS
 70
     0
  9
$AUPREC
 70
     4
  9
$MENU
  1
.
  9
$ELEVATION
 40
0.0
  9
$PELEVATION
 40
0.0
  9
$THICKNESS
 40
0.0
  9
$LIMCHECK
 70
     0
  9
$BLIPMODE
 70
     0
  9
$CHAMFERA
 40
0.5
  9
$CHAMFERB
 40
0.5
  9
$SKPOLY
 70
     0
  9
$TDCREATE
 40
2451065.3838062501
  9
$TDUPDATE
 40
2453913.5780229862
  9
$TDINDWG
 40
0.0653471296
  9
$TDUSRTIMER
 40
0.0653471296
  9
$USRTIMER
 70
     1
  9
$ANGBASE
 50
0.0
  9
$ANGDIR
 70
     0
  9
$PDMODE
 70
    34
  9
$PDSIZE
 40
3.0
  9
$PLINEWID
 40
0.0
  9
$COORDS
 70
     1
  9
$SPLFRAME
 70
     0
  9
$SPLINETYPE
 70
     6
  9
$SPLINESEGS
 70
     8
  9
$ATTDIA
 70
     0
  9
$ATTREQ
 70
     1
  9
$HANDLING
 70
     1
  9
$HANDSEED
  5
1FC
  9
$SURFTAB1
 70
     6
  9
$SURFTAB2
 70
     6
  9
$SURFTYPE
 70
     6
  9
$SURFU
 70
     6
  9
$SURFV
 70
     6
  9
$UCSNAME
  2

  9
$UCSORG
 10
0.0
 20
0.0
 30
0.0
  9
$UCSXDIR
 10
1.0
 20
0.0
 30
0.0
  9
$UCSYDIR
 10
0.0
 20
1.0
 30
0.0
  9
$PUCSNAME
  2

  9
$PUCSORG
 10
0.0
 20
0.0
 30
0.0
  9
$PUCSXDIR
 10
1.0
 20
0.0
 30
0.0
  9
$PUCSYDIR
 10
0.0
 20
1.0
 30
0.0
  9
$USERI1
 70
     0
  9
$USERI2
 70
     0
  9
$USERI3
 70
     0
  9
$USERI4
 70
     0
  9
$USERI5
 70
     0
  9
$USERR1
 40
0.0
  9
$USERR2
 40
0.0
  9
$USERR3
 40
0.0
  9
$USERR4
 40
0.0
  9
$USERR5
 40
0.0
  9
$WORLDVIEW
 70
     1
  9
$SHADEDGE
 70
     3
  9
$SHADEDIF
 70
    70
  9
$TILEMODE
 70
     1
  9
$MAXACTVP
 70
    48
  9
$PLIMCHECK
 70
     0
  9
$PEXTMIN
 10
2.6417260730035421
 20
-0.6227071282996671
 30
0.0
  9
$PEXTMAX
 10
9.6040523731006964
 20
7.4644569554119897
 30
0.0
  9
$PLIMMIN
 10
-0.1579164520023376
 20
-0.2812499887361301
  9
$PLIMMAX
 10
10.84208330770177
 20
8.2187497709679782
  9
$UNITMODE
 70
     0
  9
$VISRETAIN
 70
     1
  9
$PLINEGEN
 70
     0
  9
$PSLTSCALE
 70
     1
  0
ENDSEC
  0
SECTION
  2
TABLES
  0
TABLE
  2
VPORT
 70
     2
  0
VPORT
  2
*ACTIVE
 70
     0
 10
0.0
 20
0.0
 11
1.0
 21
1.0
 12
3.9900986090371129
 22
0.9252715222940043
 13
0.0
 23
0.0
 14
0.5
 24
0.5
 15
0.5
 25
0.5
 16
0.0
 26
0.0
 36
1.0
 17
6.5381247202690274
 27
3.4665892332351329
 37
0.0
 40
9.5608122642292663
 41
2.7225274725274722
 42
50.0
 43
0.0
 44
0.0
 50
0.0
 51
0.0
 71
     0
 72
   100
 73
     1
 74
     1
 75
     0
 76
     0
 77
     0
 78
     0
  0
ENDTAB
  0
TABLE
  2
LTYPE
 70
    18
  0
LTYPE
  2
CONTINUOUS
 70
     0
  3
Solid line
 72
    65
 73
     0
 40
0.0
  0
LTYPE
  2
HIDDEN
 70
     0
  3
__ __ __ __ __ __ __ __ __ __ __ __ __ __ __ __
 72
    65
 73
     2
 40
0.375
 49
0.25
 49
-0.125
  0
LTYPE
  2
PHANTOM2
 70
     0
  3
Phantom (.5x) ___ _ _ ___ _ _ ___ _ _ ___ _ _
 72
    65
 73
     6
 40
1.25
 49
0.625
 49
-0.125
 49
0.125
 49
-0.125
 49
0.125
 49
-0.125
  0
LTYPE
  2
CENTER
 70
     0
  3
Center ____ _ ____ _ ____ _ ____ _ ____ _ ____
 72
    65
 73
     4
 40
2.0
 49
1.25
 49
-0.25
 49
0.25
 49
-0.25
  0
LTYPE
  2
ASULTYPE
 70
     0
  3
Solid line
 72
    65
 73
     2
 40
3.0
 49
2.5
 49
0.5
  0
LTYPE
  2
ASVLTYPE
 70
     0
  3
__ __ __ __ __ __ __ __ __ __ __ __ __ __ __ __ __ __ __ __ __
 72
    65
 73
     2
 40
0.75
 49
0.5
 49
-0.25
  0
LTYPE
  2
AM_ISO02W050
 70
     0
  3
__ __ __ __ __ __ __ __ __ __ __ __ __ __ __
 72
    65
 73
     2
 40
7.5
 49
6.0
 49
-1.5
  0
LTYPE
  2
AM_ISO08W050
 70
     0
  3
____ . ____ . ____ . ____ . ____ . ____ . ____
 72
    65
 73
     4
 40
18.0
 49
12.0
 49
-1.5
 49
3.0
 49
-1.5
  0
LTYPE
  2
AM_ISO09W050
 70
     0
  3
_____ . . _____ . . _____ . . ____ .. ____
 72
    65
 73
     6
 40
22.5
 49
12.0
 49
-1.5
 49
3.0
 49
-1.5
 49
3.0
 49
-1.5
  0
LTYPE
  2
AMCONSTR
 70
     0
  3
_______________________
 72
    65
 73
     2
 40
9999.0
 49
9999.0
 49
0.0
  0
LTYPE
  2
AM_ISO08W050X2
 70
     0
  3
__ . __ . __ . __ . __ . __
 72
    65
 73
     4
 40
9.0
 49
6.0
 49
-0.75
 49
1.5
 49
-0.75
  0
LTYPE
  2
AM_ISO02W050X2
 70
     0
  3
 _ _ _ _ _ _ _ _ _ _ _ _
 72
    65
 73
     2
 40
3.75
 49
3.0
 49
-0.75
  0
LTYPE
  2
AMZIGZAG
 70
     0
  3
/\/-/\/-/\/-/\/-/\/-/\/
 72
    65
 73
     2
 40
11.0001
 49
0.0001
 49
-11.0
  0
LTYPE
  2
CENTER2
 70
     0
  3
Center (.5x) ___ _ ___ _ ___ _ ___ _ ___ _ ___
 72
    65
 73
     4
 40
1.125
 49
0.75
 49
-0.125
 49
0.125
 49
-0.125
  0
LTYPE
  2
HIDDEN2
 70
     0
  3
Hidden (.5x) _ _ _ _ _ _ _ _ _ _ _ _ _ _ _ _ _
 72
    65
 73
     2
 40
0.1875
 49
0.125
 49
-0.0625
  0
LTYPE
  2
AMZIGZAG2
 70
     0
  3
/\/-/\/-/\/-/\/-/\/-/\/
 72
    65
 73
     2
 40
0.4401
 49
0.0001
 49
-0.4400000000000001
  0
LTYPE
  2
ACANSTGB
 70
     0
  3
__ . . __ . .
 72
    65
 73
     6
 40
0.35433070866
 49
0.15748031496
 49
-0.03937007874
 49
0.03937007874
 49
-0.03937007874
 49
0.03937007874
 49
-0.03937007874
  0
LTYPE
  2
ACANSTGL
 70
     0
  3
_ _ _ _ _
 72
    65
 73
     2
 40
0.11811023622
 49
0.07874015748
 49
-0.03937007874
  0
ENDTAB
  0
TABLE
  2
LAYER
 70
     4
  0
LAYER
  2
0
 70
     0
 62
     7
  6
CONTINUOUS
  0
LAYER
  2
AM_VIS
 70
     0
 62
     7
  6
CONTINUOUS
  0
LAYER
  2
AM_HID
 70
     0
 62
     7
  6
HIDDEN
  0
LAYER
  2
KEE10
 70
     0
 62
     7
  6
CONTINUOUS
  0
ENDTAB
  0
TABLE
  2
STYLE
 70
     6
  0
STYLE
  2
STANDARD
 70
     0
 40
0.0
 41
1.0
 50
0.0
 71
     0
 42
0.2
  3
txt
  4

  0
STYLE
  2
ADESK1
 70
     0
 40
0.0
 41
1.0
 50
0.0
 71
     0
 42
0.12
  3
romans.shx
  4

  0
STYLE
  2

 70
     1
 40
0.0
 41
1.0
 50
0.0
 71
     0
 42
0.12
  3
ltypeshp.shx
  4

  0
STYLE
  2
ACANSTS
 70
     0
 40
1.0
 41
1.0
 50
0.0
 71
     0
 42
0.12
  3
romans.shx
  4

  0
STYLE
  2
ACANSGDT
 70
     0
 40
0.0
 41
1.0
 50
0.0
 71
     0
 42
0.12
  3
amgdtans.shx
  4

  0
STYLE
  2
ACANSTSB
 70
     0
 40
1.0
 41
1.0
 50
0.0
 71
     0
 42
0.2
  3
romans.shx
  4

  0
ENDTAB
  0
TABLE
  2
VIEW
 70
     0
  0
ENDTAB
  0
TABLE
  2
UCS
 70
     0
  0
ENDTAB
  0
TABLE
  2
APPID
 70
    13
  0
APPID
  2
ACAD
 70
     0
  0
APPID
  2
GENIUS_GENDIM_13
 70
     0
  0
APPID
  2
GENIUS_GENDTOL_13
 70
     0
  0
APPID
  2
GENIUS_GE3DTOL_13
 70
     0
  0
APPID
  2
MCAD_NO_VIS
 70
     0
  0
APPID
  2
ACAD_TEMP_GRAPHIC
 70
     0
  0
APPID
  2
AD_DRAW
 70
     0
  0
APPID
  2
ACATTRIBSERVICES
 70
     0
  0
APPID
  2
ASURF_PCURVE_APPNAME
 70
     0
  0
APPID
  2
AMG_3D2D_5_0
 70
     0
  0
APPID
  2
DESIGNERASSEMBLIES
 70
     0
  0
APPID
  2
ACADM_DIM_EDIT
 70
     0
  0
APPID
  2
AMDT_DM_ADJ
 70
     0
  0
ENDTAB
  0
TABLE
  2
DIMSTYLE
 70
     7
  0
DIMSTYLE
  2
STANDARD
 70
     0
  3

  4

  5

  6

  7

 40
1.0
 41
0.18
 42
0.0625
 43
0.38
 44
0.18
 45
0.0
 46
0.0
 47
0.0
 48
0.0
140
0.18
141
0.09
142
0.0
143
25.399999999999999
144
1.0
145
0.0
146
1.0
147
0.09
 71
     0
 72
     0
 73
     1
 74
     1
 75
     0
 76
     0
 77
     0
 78
     0
170
     0
171
     2
172
     0
173
     0
174
     0
175
     0
176
     0
177
     0
178
     0
  0
DIMSTYLE
  2
AM_ANSI
 70
     0
  3

  4
mm
  5

  6

  7

 40
1.0
 41
0.1
 42
0.05
 43
0.5
 44
0.1
 45
0.0
 46
0.0
 47
0.1
 48
0.1
140
0.12
141
0.0
142
0.0
143
25.399999999999999
144
1.0
145
0.0
146
0.71
147
0.06
 71
     0
 72
     0
 73
     1
 74
     1
 75
     0
 76
     0
 77
     0
 78
     7
170
     0
171
     2
172
     0
173
     0
174
     0
175
     0
176
   256
177
   256
178
     2
  0
DIMSTYLE
  2
AM_ANSI$3
 70
     0
  3

  4
mm
  5

  6

  7

 40
1.0
 41
0.1
 42
0.05
 43
0.5
 44
0.1
 45
0.0
 46
0.0
 47
0.1
 48
0.1
140
0.12
141
0.0
142
0.0
143
25.399999999999999
144
1.0
145
0.0
146
0.71
147
0.06
 71
     0
 72
     0
 73
     1
 74
     1
 75
     0
 76
     0
 77
     0
 78
     7
170
     0
171
     2
172
     0
173
     0
174
     0
175
     0
176
   256
177
   256
178
     2
  0
DIMSTYLE
  2
AM_ANSI$4
 70
     0
  3

  4
mm
  5

  6

  7

 40
1.0
 41
0.1
 42
0.05
 43
0.5
 44
0.1
 45
0.0
 46
0.0
 47
0.1
 48
0.1
140
0.12
141
0.0
142
0.0
143
25.399999999999999
144
1.0
145
0.0
146
0.71
147
0.06
 71
     0
 72
     0
 73
     1
 74
     1
 75
     0
 76
     0
 77
     0
 78
     7
170
     0
171
     2
172
     0
173
     0
174
     0
175
     0
176
   256
177
   256
178
     2
  0
DIMSTYLE
  2
AM_ANSI$7
 70
     0
  3

  4
mm
  5

  6

  7

 40
1.0
 41
0.1
 42
0.05
 43
0.5
 44
0.1
 45
0.0
 46
0.0
 47
0.1
 48
0.1
140
0.24
141
0.0
142
0.0
143
25.399999999999999
144
1.0
145
0.0
146
0.71
147
0.06
 71
     0
 72
     0
 73
     1
 74
     1
 75
     0
 76
     0
 77
     0
 78
     7
170
     0
171
     2
172
     0
173
     0
174
     0
175
     0
176
   256
177
   256
178
     2
  0
DIMSTYLE
  2
AM_ANSI$SF
 70
     0
  3

  4
mm
  5

  6

  7

 40
1.0
 41
0.1
 42
0.05
 43
0.5
 44
0.1
 45
0.0
 46
0.0
 47
0.1
 48
0.1
140
0.12
141
0.0
142
0.0
143
25.399999999999999
144
1.0
145
0.0
146
0.71
147
0.06
 71
     0
 72
     0
 73
     1
 74
     1
 75
     1
 76
     1
 77
     0
 78
     7
170
     0
171
     2
172
     0
173
     0
174
     0
175
     0
176
   256
177
   256
178
     2
  0
DIMSTYLE
  2
AM_ANSI$SH
 70
     0
  3

  4
mm
  5

  6
GENAXEH
  7

 40
1.0
 41
0.1
 42
0.05
 43
0.5
 44
0.1
 45
0.0
 46
0.0
 47
0.1
 48
0.1
140
0.12
141
0.0
142
0.0
143
25.399999999999999
144
1.0
145
0.0
146
0.71
147
0.06
 71
     0
 72
     0
 73
     1
 74
     1
 75
     1
 76
     1
 77
     0
 78
     7
170
     0
171
     2
172
     0
173
     1
174
     0
175
     0
176
   256
177
   256
178
     2
  0
ENDTAB
  0
ENDSEC
  0
SECTION
  2
BLOCKS
  0
BLOCK
  8
0
  2
$MODEL_SPACE
 70
     0
 10
0.0
 20
0.0
 30
0.0
  3
$MODEL_SPACE
  1

  0
ENDBLK
  5
A
  8
0
  0
BLOCK
 67
     1
  8
0
  2
$PAPER_SPACE
 70
     0
 10
0.0
 20
0.0
 30
0.0
  3
$PAPER_SPACE
  1

  0
ENDBLK
  5
F
 67
     1
  8
0
  0
BLOCK
  8
0
  2
*U0
 70
     1
 10
0.0
 20
0.0
 30
0.0
  3
*U0
  1

  0
ENDBLK
  5
140
  8
0
  0
BLOCK
  8
0
  2
GENAXEH
 70
     0
 10
0.0
 20
0.0
 30
0.0
  3
GENAXEH
  1

  0
LINE
  5
17D
  8
0
 10
-1.0
 20
0.0
 30
0.0
 11
1.0
 21
0.0
 31
0.0
  0
ENDBLK
  5
17F
  8
0
  0
BLOCK
  8
0
  2
_DOT
 70
     0
 10
0.0
 20
0.0
 30
0.0
  3
_DOT
  1

  0
POLYLINE
  5
186
  8
0
  6
BYBLOCK
 62
     0
 66
     1
 10
0.0
 20
0.0
 30
0.0
 70
     1
 40
0.5
 41
0.5
  0
VERTEX
  5
187
  8
0
  6
BYBLOCK
 62
     0
 10
-0.25
 20
0.0
 30
0.0
 42
1.0
  0
VERTEX
  5
188
  8
0
  6
BYBLOCK
 62
     0
 10
0.25
 20
0.0
 30
0.0
 42
1.0
  0
SEQEND
  5
189
  8
0
  6
BYBLOCK
 62
     0
  0
LINE
  5
18A
  8
0
  6
BYBLOCK
 62
     0
 10
-0.5
 20
0.0
 30
0.0
 11
-1.0
 21
0.0
 31
0.0
  0
ENDBLK
  5
18C
  8
0
  0
BLOCK
  8
0
  2
2D
 70
     0
 10
0.0
 20
0.0
 30
0.0
  3
2D
  1

  0
INSERT
  5
190
  8
0
  2
*U4
 10
0.0
 20
0.0
 30
0.0
  0
INSERT
  5
191
  8
0
  2
*U5
 10
0.0
 20
0.0
 30
0.0
  0
INSERT
  5
192
  8
0
  2
*U6
 10
0.0
 20
0.0
 30
0.0
  0
ENDBLK
  5
194
  8
0
  0
BLOCK
  8
0
  2
*U4
 70
     1
 10
0.0
 20
0.0
 30
0.0
  3
*U4
  1

  0
TEXT
  5
1E5
  8
KEE10
 10
-0.167740653382606
 20
0.7944046258072062
 30
0.0
 40
0.140625
  1
KEE
  0
ENDBLK
  5
1E7
  8
0
  0
BLOCK
  8
0
  2
*U5
 70
     1
 10
0.0
 20
0.0
 30
0.0
  3
*U5
  1

  0
TEXT
  5
1E9
  8
KEE10
 10
-0.308365653382606
 20
0.4858688129746218
 30
0.0
 40
0.140625
  1
KLAMP
  0
ENDBLK
  5
1EB
  8
0
  0
BLOCK
  8
0
  2
*U6
 70
     1
 10
0.0
 20
0.0
 30
0.0
  3
*U6
  1

  0
TEXT
  5
1ED
  8
KEE10
 10
-0.202896903382606
 20
0.2018753139112972
 30
0.0
 40
0.140625
  1
10-8
  0
ENDBLK
  5
1EF
  8
0
  0
BLOCK
  8
0
  2
*U7
 70
     1
 10
0.0
 20
0.0
 30
0.0
  3
*U7
  1

  0
TEXT
  5
1F1
  8
KEE10
 10
7.455401472290335
 20
2.7978974461716928
 30
0.0
 40
0.1265625
  1
KEE
  0
ENDBLK
  5
1F3
  8
0
  0
BLOCK
  8
0
  2
*U8
 70
     1
 10
0.0
 20
0.0
 30
0.0
  3
*U8
  1

  0
TEXT
  5
1F5
  8
KEE10
 10
7.3288389722903347
 20
2.5202152146223669
 30
0.0
 40
0.1265625
  1
KLAMP
  0
ENDBLK
  5
1F7
  8
0
  0
BLOCK
  8
0
  2
*U9
 70
     1
 10
0.0
 20
0.0
 30
0.0
  3
*U9
  1

  0
TEXT
  5
1F9
  8
0
 10
10.23435441143139
 20
1.0575662152014
 30
0.0
 40
0.084375
  1
2-1/2"
 50
90.0
  7
ADESK1
  0
ENDBLK
  5
1FB
  8
0
  0
ENDSEC
  0
SECTION
  2
ENTITIES
  0
POINT
  5
26
  8
0
 10
0.0
 20
0.0
 30
0.0
  0
POINT
  5
27
  8
0
 10
0.0
 20
0.0
 30
0.0
  0
CIRCLE
  5
28
  8
AM_VIS
 10
5.6314763205174589
 20
0.9379217420004534
 30
0.0
 40
0.253125
  0
LINE
  5
2A
  8
AM_VIS
 10
7.76897632051746
 20
0.2944027979259323
 30
0.0
 11
3.4939763205174601
 21
0.2944027979259323
 31
0.0
  0
LINE
  5
2B
  8
AM_VIS
 10
3.4939763205174601
 20
0.0694027979259322
 30
0.0
 11
3.4939763205174601
 21
0.2944027979259323
 31
0.0
  0
LINE
  5
2C
  8
AM_VIS
 10
3.4939763205174601
 20
0.0694027979259322
 30
0.0
 11
7.76897632051746
 21
0.0694027979259322
 31
0.0
  0
LINE
  5
2D
  8
AM_VIS
 10
7.76897632051746
 20
0.0694027979259322
 30
0.0
 11
7.76897632051746
 21
0.2944027979259323
 31
0.0
  0
LINE
  5
2E
  8
AM_VIS
 10
5.0461668342423831
 20
1.5232522519729861
 30
0.0
 11
6.2167858067925366
 21
1.5232522519729861
 31
0.0
  0
LINE
  5
2F
  8
AM_VIS
 10
5.0461668342423831
 20
0.2944027979259323
 30
0.0
 11
5.0461668342423831
 21
2.0333010468039041
 31
0.0
  0
LINE
  5
30
  8
AM_VIS
 10
6.554285806792536
 20
2.0333010468039081
 30
0.0
 11
6.2167858067925357
 21
2.0333010468039081
 31
0.0
  0
LINE
  5
31
  8
AM_VIS
 10
5.0461668342423831
 20
2.0333010468039072
 30
0.0
 11
4.7086668342423827
 21
2.0333010468039081
 31
0.0
  0
LINE
  5
32
  8
AM_VIS
 10
8.8377263205174597
 20
1.5094027979259319
 30
0.0
 11
8.8377263205174597
 21
3.5704493241706561
 31
0.0
  0
LINE
  5
33
  8
AM_VIS
 10
4.5627263205174584
 20
1.509402797925931
 30
0.0
 11
4.5627263205174566
 21
3.5704493241706552
 31
0.0
  0
LINE
  5
34
  8
AM_VIS
 10
8.8377263200034601
 20
3.5806465480140601
 30
0.0
 11
8.8377263200034601
 21
3.5704493241706561
 31
0.0
  0
ARC
  5
35
  8
AM_VIS
 10
8.8613513205165688
 20
3.8044027979252348
 30
0.0
 40
0.224999999998942
 50
194.47751218581431
 51
263.97283343904593
  0
LINE
  5
36
  8
AM_VIS
 10
8.5545797051059047
 20
3.7481527979261351
 30
0.0
 11
8.6434960072933542
 21
3.7481527979261351
 31
0.0
  0
ARC
  5
37
  8
AM_VIS
 10
7.6801013205174611
 20
3.8044027979259321
 30
0.0
 40
0.2249999999999992
 50
270.00000000000011
 51
345.5224878140707
  0
LINE
  5
38
  8
AM_VIS
 10
7.8979566337415639
 20
3.7481527979261351
 30
0.0
 11
7.986872935929016
 21
3.7481527979261351
 31
0.0
  0
LINE
  5
39
  8
AM_VIS
 10
7.986872935929016
 20
3.7481527979259321
 30
0.0
 11
8.5545797051059047
 21
3.7481527979259321
 31
0.0
  0
ARC
  5
3A
  8
AM_HID
 10
8.2644876803922038
 20
4.336481068274777
 30
0.0
 40
0.9371947784786211
 50
270.38141343096697
 51
287.86249115412619
  0
ARC
  5
3D
  8
AM_HID
 10
8.2769649606427116
 20
4.3364810682747557
 30
0.0
 40
0.9371947784785991
 50
252.1375088458737
 51
269.6185865690332
  0
LINE
  5
3E
  8
AM_VIS
 10
4.5627263210314544
 20
3.5806465480140601
 30
0.0
 11
4.5627263210314544
 21
3.5704493241706552
 31
0.0
  0
ARC
  5
3F
  8
AM_VIS
 10
4.5391013205183457
 20
3.8044027979252339
 30
0.0
 40
0.2249999999989427
 50
276.02716656095407
 51
345.52248781418552
  0
LINE
  5
40
  8
AM_VIS
 10
4.7569566337415621
 20
3.7481527979261351
 30
0.0
 11
4.8458729359290134
 21
3.7481527979261351
 31
0.0
  0
ARC
  5
41
  8
AM_VIS
 10
5.720351320517457
 20
3.8044027979259312
 30
0.0
 40
0.2249999999999994
 50
194.47751218592961
 51
270.0
  0
LINE
  5
42
  8
AM_VIS
 10
5.413579705105902
 20
3.7481527979259308
 30
0.0
 11
4.8458729359290134
 21
3.7481527979259308
 31
0.0
  0
LINE
  5
43
  8
AM_VIS
 10
5.4135797051059011
 20
3.7481527979261351
 30
0.0
 11
5.5024960072933533
 21
3.7481527979261351
 31
0.0
  0
ARC
  5
44
  8
AM_HID
 10
5.1234876803922047
 20
4.336481068274761
 30
0.0
 40
0.9371947784786056
 50
270.3814134309668
 51
287.8624911541263
  0
ARC
  5
45
  8
AM_HID
 10
5.135964960642708
 20
4.336481068274745
 30
0.0
 40
0.9371947784785897
 50
252.13750884587361
 51
269.61858656903331
  0
LINE
  5
46
  8
AM_VIS
 10
6.2167858067925366
 20
0.2944027979259323
 30
0.0
 11
6.2167858067925366
 21
2.033301046803905
 31
0.0
  0
LINE
  5
47
  8
AM_VIS
 10
6.554285806792536
 20
0.2944027979259323
 30
0.0
 11
6.554285806792536
 21
2.0333010468039059
 31
0.0
  0
LINE
  5
48
  8
AM_VIS
 10
4.7086668342423827
 20
0.2944027979259323
 30
0.0
 11
4.7086668342423827
 21
2.0333010468039041
 31
0.0
  0
LINE
  5
49
  8
AM_HID
 10
6.9533513205174611
 20
0.0694027979259322
 30
0.0
 11
6.9533513205174611
 21
0.2944027979259323
 31
0.0
  0
LINE
  5
4A
  8
AM_HID
 10
7.4596013205174598
 20
0.0694027979259322
 30
0.0
 11
7.4596013205174598
 21
0.2944027979259323
 31
0.0
  0
LINE
  5
4B
  8
AM_HID
 10
3.8033513205174598
 20
0.0694027979259322
 30
0.0
 11
3.8033513205174598
 21
0.2944027979259323
 31
0.0
  0
LINE
  5
4C
  8
AM_HID
 10
4.3096013205174604
 20
0.0694027979259322
 30
0.0
 11
4.3096013205174604
 21
0.2944027979259323
 31
0.0
  0
LINE
  5
4D
  8
AM_VIS
 10
5.720351320517457
 20
3.5794027979259311
 30
0.0
 11
7.6801013205174602
 21
3.5794027979259311
 31
0.0
  0
LINE
  5
4E
  8
AM_VIS
 10
4.5627263205174584
 20
1.5094027979259319
 30
0.0
 11
4.7086668342423819
 21
1.5094027979259319
 31
0.0
  0
LINE
  5
4F
  8
AM_VIS
 10
6.554285806792536
 20
1.509402797925931
 30
0.0
 11
8.8377263205174597
 21
1.509402797925931
 31
0.0
  0
LINE
  5
50
  8
AM_HID
 10
8.5519763205174595
 20
3.7481527979259321
 30
0.0
 11
8.5519763205174595
 21
3.4444027979259322
 31
0.0
  0
LINE
  5
51
  8
AM_HID
 10
7.9894763205174604
 20
3.7481527979259321
 30
0.0
 11
7.9894763205174604
 21
3.4444027979259322
 31
0.0
  0
LINE
  5
52
  8
AM_HID
 10
4.8484763205174568
 20
3.4444027979259308
 30
0.0
 11
4.8484763205174568
 21
3.7481527979259308
 31
0.0
  0
LINE
  5
53
  8
AM_HID
 10
5.4109763205174568
 20
3.4444027979259308
 30
0.0
 11
5.4109763205174568
 21
3.7481527979259308
 31
0.0
  0
LINE
  5
54
  8
AM_HID
 10
4.5627263205174584
 20
3.4444027979259308
 30
0.0
 11
4.8484763205174586
 21
3.4444027979259308
 31
0.0
  0
LINE
  5
55
  8
AM_HID
 10
5.4109763205174568
 20
3.4444027979259308
 30
0.0
 11
7.9894763205174604
 21
3.4444027979259308
 31
0.0
  0
LINE
  5
56
  8
AM_HID
 10
8.5519763205174595
 20
3.4444027979259308
 30
0.0
 11
8.8377263205174597
 21
3.4444027979259308
 31
0.0
  0
LINE
  5
57
  8
AM_HID
 10
4.5627263205174584
 20
1.644402797925931
 30
0.0
 11
8.8377263205174597
 21
1.644402797925931
 31
0.0
  0
LINE
  5
58
  8
AM_VIS
 10
3.4939763205174601
 20
4.6791896978442731
 30
0.0
 11
3.4939763205174601
 21
6.6479396978442749
 31
0.0
  0
LINE
  5
59
  8
AM_HID
 10
7.76897632051746
 20
4.6791896978442731
 30
0.0
 11
4.5627263205174593
 21
4.6791896978442731
 31
0.0
  0
LINE
  5
5A
  8
AM_VIS
 10
4.5627263205174593
 20
4.6791896978442731
 30
0.0
 11
3.4939763205174601
 21
4.6791896978442731
 31
0.0
  0
LINE
  5
5B
  8
AM_HID
 10
7.76897632051746
 20
6.6479396978442749
 30
0.0
 11
7.76897632051746
 21
4.6791896978442731
 31
0.0
  0
LINE
  5
5C
  8
AM_VIS
 10
3.4939763205174601
 20
6.6479396978442749
 30
0.0
 11
4.5627263205174566
 21
6.6479396978442749
 31
0.0
  0
LINE
  5
5D
  8
AM_HID
 10
4.5627263205174566
 20
6.6479396978442749
 30
0.0
 11
7.76897632051746
 21
6.6479396978442749
 31
0.0
  0
CIRCLE
  5
5E
  8
AM_VIS
 10
4.0564763205174597
 20
5.6635646978442731
 30
0.0
 40
0.253125
  0
CIRCLE
  5
5F
  8
AM_HID
 10
7.20647632051746
 20
5.6635646978442731
 30
0.0
 40
0.253125
  0
LINE
  5
60
  8
AM_HID
 10
5.0461668342423831
 20
5.494814697844272
 30
0.0
 11
6.2167858067925366
 21
5.494814697844272
 31
0.0
  0
LINE
  5
61
  8
AM_HID
 10
6.2167858067925366
 20
5.8323146978442706
 30
0.0
 11
5.0461668342423831
 21
5.8323146978442706
 31
0.0
  0
LINE
  5
62
  8
AM_HID
 10
5.0461668342423831
 20
6.5635646978442743
 30
0.0
 11
5.0461668342423831
 21
5.8323146978442733
 31
0.0
  0
LINE
  5
63
  8
AM_HID
 10
5.0461668342423831
 20
5.4948146978442738
 30
0.0
 11
5.0461668342423831
 21
4.7635646978442736
 31
0.0
  0
LINE
  5
64
  8
AM_HID
 10
6.2167858067925383
 20
5.8323146978442733
 30
0.0
 11
6.2167858067925383
 21
6.5635646978442743
 31
0.0
  0
LINE
  5
65
  8
AM_HID
 10
6.2167858067925366
 20
4.7635646978442736
 30
0.0
 11
6.2167858067925366
 21
5.4948146978442738
 31
0.0
  0
LINE
  5
66
  8
AM_HID
 10
6.554285806792536
 20
6.5635646978442743
 30
0.0
 11
6.554285806792536
 21
4.7635646978442736
 31
0.0
  0
LINE
  5
67
  8
AM_HID
 10
4.7086668342423827
 20
4.7635646978442736
 30
0.0
 11
4.7086668342423827
 21
6.5635646978442743
 31
0.0
  0
LINE
  5
68
  8
AM_VIS
 10
8.8377263205174597
 20
4.6285646978442747
 30
0.0
 11
8.8377263205174597
 21
5.5277209420763533
 31
0.0
  0
LINE
  5
69
  8
AM_VIS
 10
8.8377263205174597
 20
5.7994084536121964
 30
0.0
 11
8.8377263205174597
 21
6.698564697844275
 31
0.0
  0
LINE
  5
6A
  8
AM_VIS
 10
4.5627263205174593
 20
4.6285646978442729
 30
0.0
 11
4.5627263205174584
 21
5.5277209420763489
 31
0.0
  0
LINE
  5
6B
  8
AM_VIS
 10
4.5627263205174584
 20
5.7994084536121946
 30
0.0
 11
4.5627263205174584
 21
6.6985646978442741
 31
0.0
  0
LINE
  5
6C
  8
AM_VIS
 10
8.8377263200034601
 20
5.7994084536121964
 30
0.0
 11
8.8377263200034601
 21
5.6635646978442731
 31
0.0
  0
LINE
  5
6D
  8
AM_VIS
 10
8.8377263200034601
 20
5.6635646978442731
 30
0.0
 11
8.8377263200034601
 21
5.5277209420763507
 31
0.0
  0
ARC
  5
6E
  8
AM_VIS
 10
8.2745149183353934
 20
5.6530763072990853
 30
0.0
 40
0.3692967596140863
 50
1.628210105779528
 51
40.705684390482119
  0
ARC
  5
6F
  8
AM_VIS
 10
8.2745149183353934
 20
5.6740530883894618
 30
0.0
 40
0.3692967596140857
 50
319.29431560951781
 51
358.37178989422051
  0
ARC
  5
70
  8
AM_VIS
 10
8.2707263205174595
 20
5.6635646978442722
 30
0.0
 40
0.365625
 50
39.072307559180352
 51
140.92769244081961
  0
ARC
  5
71
  8
AM_VIS
 10
8.2669377226995202
 20
5.6530763072990871
 30
0.0
 40
0.3692967596140803
 50
139.2943156095175
 51
178.3717898942208
  0
CIRCLE
  5
72
  8
AM_VIS
 10
8.2707263205174595
 20
5.6635646978442749
 30
0.0
 40
0.28125
  0
ARC
  5
73
  8
AM_VIS
 10
8.2669377226995202
 20
5.6740530883894591
 30
0.0
 40
0.369296759614082
 50
181.6282101057792
 51
220.7056843904823
  0
ARC
  5
74
  8
AM_VIS
 10
8.2707263205174595
 20
5.6635646978442749
 30
0.0
 40
0.365625
 50
219.0723075591805
 51
320.9276924408195
  0
LINE
  5
75
  8
AM_VIS
 10
4.5627263210314544
 20
5.6635646978442722
 30
0.0
 11
4.5627263210314544
 21
5.5277209420763489
 31
0.0
  0
LINE
  5
76
  8
AM_VIS
 10
4.5627263210314544
 20
5.7994084536121946
 30
0.0
 11
4.5627263210314544
 21
5.6635646978442722
 31
0.0
  0
ARC
  5
77
  8
AM_VIS
 10
5.1259377226995229
 20
5.6530763072990817
 30
0.0
 40
0.3692967596140873
 50
139.29431560951781
 51
178.37178989422031
  0
ARC
  5
78
  8
AM_VIS
 10
5.1259377226995264
 20
5.6740530883894618
 30
0.0
 40
0.3692967596140897
 50
181.6282101057798
 51
220.70568439048211
  0
ARC
  5
79
  8
AM_VIS
 10
5.1297263205174568
 20
5.6635646978442713
 30
0.0
 40
0.365625
 50
39.072307559180381
 51
140.92769244081961
  0
ARC
  5
7A
  8
AM_VIS
 10
5.1335149183353899
 20
5.65307630729908
 30
0.0
 40
0.3692967596140888
 50
1.628210105780167
 51
40.705684390482517
  0
CIRCLE
  5
7B
  8
AM_VIS
 10
5.1297263205174568
 20
5.6635646978442731
 30
0.0
 40
0.28125
  0
ARC
  5
7C
  8
AM_VIS
 10
5.1297263205174586
 20
5.6635646978442731
 30
0.0
 40
0.365625
 50
219.0723075591803
 51
320.92769244081938
  0
ARC
  5
7D
  8
AM_VIS
 10
5.1335149183353801
 20
5.6740530883894671
 30
0.0
 40
0.3692967596140997
 50
319.29431560951798
 51
358.37178989421949
  0
LINE
  5
7E
  8
AM_HID
 10
5.8846013205174588
 20
5.8323146978442733
 30
0.0
 11
5.8846013205174588
 21
5.4948146978442738
 31
0.0
  0
LINE
  5
7F
  8
AM_HID
 10
5.37835132051746
 20
5.8323146978442733
 30
0.0
 11
5.37835132051746
 21
5.4948146978442738
 31
0.0
  0
LINE
  5
80
  8
AM_VIS
 10
4.5627263205174566
 20
6.6985646978442741
 30
0.0
 11
8.8377263205174579
 21
6.698564697844275
 31
0.0
  0
LINE
  5
81
  8
AM_VIS
 10
4.5627263205174593
 20
4.628564697844272
 30
0.0
 11
8.8377263205174597
 21
4.6285646978442738
 31
0.0
  0
LINE
  5
82
  8
AM_HID
 10
4.5627263205174566
 20
6.5635646978442734
 30
0.0
 11
8.8377263205174579
 21
6.5635646978442743
 31
0.0
  0
LINE
  5
83
  8
AM_HID
 10
4.5627263205174593
 20
4.7635646978442727
 30
0.0
 11
8.8377263205174597
 21
4.7635646978442736
 31
0.0
  0
INSERT
  5
19C
  8
0
  2
*U7
 10
0.0
 20
0.0
 30
0.0
  0
INSERT
  5
19D
  8
0
  2
*U8
 10
0.0
 20
0.0
 30
0.0
  0
LINE
  5
19F
  8
0
 10
8.89397632051746
 20
2.5399260610482939
 30
0.0
 11
10.36019369714567
 21
2.5399260610482939
 31
0.0
  0
LINE
  5
1A0
  8
0
 10
7.8252263205174604
 20
0.0694027979259322
 30
0.0
 11
10.36019369714567
 21
0.0694027979259313
 31
0.0
  0
LINE
  5
1A1
  8
0
 10
10.198193697145671
 20
2.4274260610482941
 30
0.0
 11
10.198193697145671
 21
1.6207090723442561
 31
0.0
  0
LINE
  5
1A2
  8
0
 10
10.198193697145671
 20
0.1819027979259315
 30
0.0
 11
10.198193697145671
 21
0.9886197866299701
 31
0.0
  0
SOLID
  5
1A3
  8
0
 10
10.17944369714567
 20
2.4274260610482941
 30
0.0
 11
10.21694369714567
 21
2.4274260610482941
 31
0.0
 12
10.198193697145671
 22
2.5399260610482939
 32
0.0
 13
10.198193697145671
 23
2.5399260610482939
 33
0.0
  0
SOLID
  5
1A4
  8
0
 10
10.17944369714567
 20
0.1819027979259315
 30
0.0
 11
10.21694369714567
 21
0.1819027979259315
 31
0.0
 12
10.198193697145671
 22
0.0694027979259313
 32
0.0
 13
10.198193697145671
 23
0.0694027979259313
 33
0.0
  0
INSERT
  5
1A5
  8
0
  2
*U9
 10
0.0
 20
0.0
 30
0.0
  0
ENDSEC
  0
EOF
