  0
SECTION
  2
HEADER
  9
$ACADVER
  1
AC1009
  9
$INSBASE
 10
0.0
 20
0.0
 30
0.0
  9
$EXTMIN
 10
-10.386740373881819
 20
-0.0473925529287076
 30
0.0
  9
$EXTMAX
 10
0.9380813402329589
 20
9.6555793968351011
 30
0.0
  9
$LIMMIN
 10
0.0
 20
0.0
  9
$LIMMAX
 10
12.0
 20
9.0
  9
$ORTHOMODE
 70
     1
  9
$REGENMODE
 70
     1
  9
$FILLMODE
 70
     1
  9
$QTEXTMODE
 70
     0
  9
$MIRRTEXT
 70
     0
  9
$DRAGMODE
 70
     2
  9
$LTSCALE
 40
1.0
  9
$OSMODE
 70
    39
  9
$ATTMODE
 70
     1
  9
$TEXTSIZE
 40
0.0891389223585435
  9
$TRACEWID
 40
0.05
  9
$TEXTSTYLE
  7
STANDARD
  9
$CLAYER
  8
0
  9
$CELTYPE
  6
BYLAYER
  9
$CECOLOR
 62
   256
  9
$DIMSCALE
 40
1.0
  9
$DIMASZ
 40
0.18
  9
$DIMEXO
 40
0.0625
  9
$DIMDLI
 40
0.38
  9
$DIMRND
 40
0.0
  9
$DIMDLE
 40
0.0
  9
$DIMEXE
 40
0.18
  9
$DIMTP
 40
0.0
  9
$DIMTM
 40
0.0
  9
$DIMTXT
 40
0.18
  9
$DIMCEN
 40
0.09
  9
$DIMTSZ
 40
0.0
  9
$DIMTOL
 70
     0
  9
$DIMLIM
 70
     0
  9
$DIMTIH
 70
     1
  9
$DIMTOH
 70
     1
  9
$DIMSE1
 70
     0
  9
$DIMSE2
 70
     0
  9
$DIMTAD
 70
     0
  9
$DIMZIN
 70
     4
  9
$DIMBLK
  1

  9
$DIMASO
 70
     1
  9
$DIMSHO
 70
     1
  9
$DIMPOST
  1

  9
$DIMAPOST
  1

  9
$DIMALT
 70
     0
  9
$DIMALTD
 70
     2
  9
$DIMALTF
 40
25.399999999999999
  9
$DIMLFAC
 40
1.0
  9
$DIMTOFL
 70
     0
  9
$DIMTVP
 40
0.0
  9
$DIMTIX
 70
     0
  9
$DIMSOXD
 70
     0
  9
$DIMSAH
 70
     0
  9
$DIMBLK1
  1

  9
$DIMBLK2
  1

  9
$DIMSTYLE
  2
STANDARD
  9
$DIMCLRD
 70
     0
  9
$DIMCLRE
 70
     0
  9
$DIMCLRT
 70
     0
  9
$DIMTFAC
 40
1.0
  9
$DIMGAP
 40
0.09
  9
$LUNITS
 70
     2
  9
$LUPREC
 70
     4
  9
$SKETCHINC
 40
0.1
  9
$FILLETRAD
 40
0.0
  9
$AUNITS
 70
     0
  9
$AUPREC
 70
     0
  9
$MENU
  1
.
  9
$ELEVATION
 40
0.0
  9
$PELEVATION
 40
0.0
  9
$THICKNESS
 40
0.0
  9
$LIMCHECK
 70
     0
  9
$BLIPMODE
 70
     0
  9
$CHAMFERA
 40
0.5
  9
$CHAMFERB
 40
0.5
  9
$SKPOLY
 70
     0
  9
$TDCREATE
 40
2452053.3935915511
  9
$TDUPDATE
 40
2453031.6313981591
  9
$TDINDWG
 40
0.2852040856
  9
$TDUSRTIMER
 40
0.2852021181
  9
$USRTIMER
 70
     1
  9
$ANGBASE
 50
0.0
  9
$ANGDIR
 70
     0
  9
$PDMODE
 70
     0
  9
$PDSIZE
 40
0.0
  9
$PLINEWID
 40
0.0
  9
$COORDS
 70
     1
  9
$SPLFRAME
 70
     0
  9
$SPLINETYPE
 70
     6
  9
$SPLINESEGS
 70
     8
  9
$ATTDIA
 70
     0
  9
$ATTREQ
 70
     1
  9
$HANDLING
 70
 22529
  9
$HANDSEED
  5
46B
  9
$SURFTAB1
 70
     6
  9
$SURFTAB2
 70
     6
  9
$SURFTYPE
 70
     6
  9
$SURFU
 70
     6
  9
$SURFV
 70
     6
  9
$UCSNAME
  2

  9
$UCSORG
 10
0.0
 20
0.0
 30
0.0
  9
$UCSXDIR
 10
1.0
 20
0.0
 30
0.0
  9
$UCSYDIR
 10
0.0
 20
1.0
 30
0.0
  9
$PUCSNAME
  2

  9
$PUCSORG
 10
0.0
 20
0.0
 30
0.0
  9
$PUCSXDIR
 10
1.0
 20
0.0
 30
0.0
  9
$PUCSYDIR
 10
0.0
 20
1.0
 30
0.0
  9
$USERI1
 70
     0
  9
$USERI2
 70
     0
  9
$USERI3
 70
     0
  9
$USERI4
 70
     0
  9
$USERI5
 70
     0
  9
$USERR1
 40
0.0
  9
$USERR2
 40
0.0
  9
$USERR3
 40
0.0
  9
$USERR4
 40
0.0
  9
$USERR5
 40
0.0
  9
$WORLDVIEW
 70
     1
  9
$SHADEDGE
 70
     3
  9
$SHADEDIF
 70
    70
  9
$TILEMODE
 70
     1
  9
$MAXACTVP
 70
    64
  9
$PLIMCHECK
 70
     0
  9
$PEXTMIN
 10
1.04775008441895
 20
0.7937500251559762
 30
0.0
  9
$PEXTMAX
 10
9.4297507597705472
 20
7.1437502264037827
 30
0.0
  9
$PLIMMIN
 10
-0.2812495194082185
 20
-0.2812499887361301
  9
$PLIMMAX
 10
10.71875024029589
 20
8.2187497709679782
  9
$UNITMODE
 70
     0
  9
$VISRETAIN
 70
     1
  9
$PLINEGEN
 70
     0
  9
$PSLTSCALE
 70
     1
  0
ENDSEC
  0
SECTION
  2
TABLES
  0
TABLE
  2
VPORT
 70
     3
  0
VPORT
  2
*ACTIVE
 70
     0
 10
0.0
 20
0.0
 11
1.0
 21
1.0
 12
0.3452479461215656
 22
4.8041868680071751
 13
0.0
 23
0.0
 14
0.5
 24
0.5
 15
0.5
 25
0.5
 16
0.0
 26
0.0
 36
1.0
 17
0.0
 27
0.0
 37
0.0
 40
11.344311788863029
 41
2.100352112676056
 42
50.0
 43
0.0
 44
0.0
 50
0.0
 51
0.0
 71
     8
 72
   100
 73
     1
 74
     2
 75
     0
 76
     0
 77
     0
 78
     0
  0
ENDTAB
  0
TABLE
  2
LTYPE
 70
     1
  0
LTYPE
  2
CONTINUOUS
 70
     0
  3
Solid line
 72
    65
 73
     0
 40
0.0
  0
ENDTAB
  0
TABLE
  2
LAYER
 70
     2
  0
LAYER
  2
0
 70
     0
 62
     7
  6
CONTINUOUS
  0
LAYER
  2
DEFPOINTS
 70
     0
 62
     7
  6
CONTINUOUS
  0
ENDTAB
  0
TABLE
  2
STYLE
 70
     1
  0
STYLE
  2
STANDARD
 70
     0
 40
0.0
 41
1.0
 50
0.0
 71
     0
 42
0.0891389223585435
  3
txt
  4

  0
ENDTAB
  0
TABLE
  2
VIEW
 70
     0
  0
ENDTAB
  0
TABLE
  2
UCS
 70
     0
  0
ENDTAB
  0
TABLE
  2
APPID
 70
     6
  0
APPID
  2
ACAD
 70
     0
  0
APPID
  2
AVE_RENDER
 70
     0
  0
APPID
  2
AVE_FINISH
 70
     0
  0
APPID
  2
CONTENTBLOCKDESCRIPTION
 70
     0
  0
APPID
  2
CONTENTTABDATA
 70
     0
  0
APPID
  2
CONTENTCURRENTTAB
 70
     0
  0
ENDTAB
  0
TABLE
  2
DIMSTYLE
 70
     1
  0
DIMSTYLE
  2
STANDARD
 70
     0
  3

  4

  5

  6

  7

 40
1.0
 41
0.18
 42
0.0625
 43
0.38
 44
0.18
 45
0.0
 46
0.0
 47
0.0
 48
0.0
140
0.18
141
0.09
142
0.0
143
25.399999999999999
144
1.0
145
0.0
146
1.0
147
0.09
 71
     0
 72
     0
 73
     1
 74
     1
 75
     0
 76
     0
 77
     0
 78
     0
170
     0
171
     2
172
     0
173
     0
174
     0
175
     0
176
     0
177
     0
178
     0
  0
ENDTAB
  0
ENDSEC
  0
SECTION
  2
BLOCKS
  0
BLOCK
  8
0
  2
$MODEL_SPACE
 70
     0
 10
0.0
 20
0.0
 30
0.0
  3
$MODEL_SPACE
  1

  0
ENDBLK
  5
21
  8
0
  0
BLOCK
 67
     1
  8
0
  2
$PAPER_SPACE
 70
     0
 10
0.0
 20
0.0
 30
0.0
  3
$PAPER_SPACE
  1

  0
ENDBLK
  5
1D
 67
     1
  8
0
  0
BLOCK
  8
0
  2
*D1
 70
     1
 10
0.0
 20
0.0
 30
0.0
  3
*D1
  1

  0
LINE
  5
3EF
  8
0
 62
     0
 10
-8.6616025405491364
 20
8.8711099574964756
 30
0.0
 11
-8.6616025405491364
 21
8.4728177175642045
 31
0.0
  0
LINE
  5
3F0
  8
0
 62
     0
 10
-8.1090015220070875
 20
8.8711099574964756
 30
0.0
 11
-8.1090015220070875
 21
8.4728177175642045
 31
0.0
  0
LINE
  5
3F1
  8
0
 62
     0
 10
-8.4816025405491366
 20
8.6528177175642043
 30
0.0
 11
-8.2890015220070872
 21
8.6528177175642043
 31
0.0
  0
LINE
  5
3F2
  8
0
 62
     0
 10
-8.1090015220070875
 20
8.6528177175642043
 30
0.0
 11
-7.9290015220070869
 21
8.6528177175642043
 31
0.0
  0
SOLID
  5
3F3
  8
0
 62
     0
 10
-8.4816025405491366
 20
8.6828177175642036
 30
0.0
 11
-8.4816025405491366
 21
8.6228177175642031
 31
0.0
 12
-8.6616025405491364
 22
8.6528177175642043
 32
0.0
 13
-8.6616025405491364
 23
8.6528177175642043
 33
0.0
  0
SOLID
  5
3F4
  8
0
 62
     0
 10
-8.2890015220070872
 20
8.6828177175642036
 30
0.0
 11
-8.2890015220070872
 21
8.6228177175642031
 31
0.0
 12
-8.1090015220070875
 22
8.6528177175642043
 32
0.0
 13
-8.1090015220070875
 23
8.6528177175642043
 33
0.0
  0
TEXT
  5
3F5
  8
0
 62
     0
 10
-7.8390015220070861
 20
8.5628177175642044
 30
0.0
 40
0.18
  1
.55
  0
POINT
  5
3F6
  8
DEFPOINTS
 62
     0
 10
-8.6616025405491364
 20
8.9336099574964756
 30
0.0
  0
POINT
  5
3F7
  8
DEFPOINTS
 62
     0
 10
-8.1090015220070875
 20
8.9336099574964756
 30
0.0
  0
POINT
  5
3F8
  8
DEFPOINTS
 62
     0
 10
-8.1090015220070875
 20
8.6528177175642043
 30
0.0
  0
ENDBLK
  5
389
  8
0
  0
BLOCK
  8
0
  2
*D2
 70
     1
 10
0.0
 20
0.0
 30
0.0
  3
*D2
  1

  0
LINE
  5
3E5
  8
0
 62
     0
 10
-8.9104042992037407
 20
7.511435184558418
 30
0.0
 11
-8.9104042992037407
 21
7.2712060341127653
 31
0.0
  0
LINE
  5
3E6
  8
0
 62
     0
 10
-7.8562206204649803
 20
7.511435184558418
 30
0.0
 11
-7.8562206204649803
 21
7.2712060341127653
 31
0.0
  0
LINE
  5
3E7
  8
0
 62
     0
 10
-9.0904042992037404
 20
7.4512060341127651
 30
0.0
 11
-9.2704042992037401
 21
7.4512060341127651
 31
0.0
  0
LINE
  5
3E8
  8
0
 62
     0
 10
-7.6762206204649797
 20
7.4512060341127651
 30
0.0
 11
-7.4962206204649791
 21
7.4512060341127651
 31
0.0
  0
SOLID
  5
3E9
  8
0
 62
     0
 10
-9.0904042992037404
 20
7.4812060341127653
 30
0.0
 11
-9.0904042992037404
 21
7.4212060341127639
 31
0.0
 12
-8.9104042992037407
 22
7.4512060341127651
 32
0.0
 13
-8.9104042992037407
 23
7.4512060341127651
 33
0.0
  0
SOLID
  5
3EA
  8
0
 62
     0
 10
-7.6762206204649797
 20
7.4812060341127653
 30
0.0
 11
-7.6762206204649797
 21
7.4212060341127639
 31
0.0
 12
-7.8562206204649803
 22
7.4512060341127651
 32
0.0
 13
-7.8562206204649803
 23
7.4512060341127651
 33
0.0
  0
TEXT
  5
3EB
  8
0
 62
     0
 10
-8.6083124598343606
 20
7.3612060341127652
 30
0.0
 40
0.18
  1
1.05
  0
POINT
  5
3EC
  8
DEFPOINTS
 62
     0
 10
-8.9104042992037407
 20
7.573935184558418
 30
0.0
  0
POINT
  5
3ED
  8
DEFPOINTS
 62
     0
 10
-7.8562206204649803
 20
7.573935184558418
 30
0.0
  0
POINT
  5
3EE
  8
DEFPOINTS
 62
     0
 10
-7.8562206204649803
 20
7.4512060341127651
 30
0.0
  0
ENDBLK
  5
396
  8
0
  0
BLOCK
  8
0
  2
*D3
 70
     1
 10
0.0
 20
0.0
 30
0.0
  3
*D3
  1

  0
LINE
  5
400
  8
0
 62
     0
 10
-9.2622812040731546
 20
6.5205797473596396
 30
0.0
 11
-9.2622812040731546
 21
0.3670796745690019
 31
0.0
  0
LINE
  5
401
  8
0
 62
     0
 10
-0.4834350502270009
 20
4.7128874396673321
 30
0.0
 11
-0.4834350502270011
 21
0.3670796745690019
 31
0.0
  0
LINE
  5
402
  8
0
 62
     0
 10
-9.0822812040731549
 20
0.5470796745690018
 30
0.0
 11
-5.2328581271500783
 21
0.5470796745690018
 31
0.0
  0
LINE
  5
403
  8
0
 62
     0
 10
-0.6634350502270011
 20
0.5470796745690018
 30
0.0
 11
-4.5128581271500767
 21
0.5470796745690018
 31
0.0
  0
SOLID
  5
404
  8
0
 62
     0
 10
-9.0822812040731549
 20
0.5770796745690017
 30
0.0
 11
-9.0822812040731549
 21
0.5170796745690016
 31
0.0
 12
-9.2622812040731546
 22
0.5470796745690018
 32
0.0
 13
-9.2622812040731546
 23
0.5470796745690018
 33
0.0
  0
SOLID
  5
405
  8
0
 62
     0
 10
-0.6634350502270011
 20
0.5770796745690017
 30
0.0
 11
-0.6634350502270011
 21
0.5170796745690016
 31
0.0
 12
-0.4834350502270011
 22
0.5470796745690018
 32
0.0
 13
-0.4834350502270011
 23
0.5470796745690018
 33
0.0
  0
TEXT
  5
406
  8
0
 62
     0
 10
-5.1428581271500766
 20
0.4570796745690017
 30
0.0
 40
0.18
  1
8.78
  0
POINT
  5
407
  8
DEFPOINTS
 62
     0
 10
-9.2622812040731546
 20
6.5830797473596396
 30
0.0
  0
POINT
  5
408
  8
DEFPOINTS
 62
     0
 10
-0.4834350502270009
 20
4.7753874396673321
 30
0.0
  0
POINT
  5
409
  8
DEFPOINTS
 62
     0
 10
-0.4834350502270011
 20
0.5470796745690018
 30
0.0
  0
ENDBLK
  5
40B
  8
0
  0
BLOCK
  8
0
  2
*D4
 70
     1
 10
0.0
 20
0.0
 30
0.0
  3
*D4
  1

  0
LINE
  5
40E
  8
0
 62
     0
 10
-4.3343965886885396
 20
0.9965412858211806
 30
0.0
 11
0.8780813402329583
 21
0.996541285821179
 31
0.0
  0
LINE
  5
40F
  8
0
 62
     0
 10
-4.3343965886885396
 20
8.1305904607095911
 30
0.0
 11
0.8780813402329599
 21
8.1305904607095894
 31
0.0
  0
LINE
  5
410
  8
0
 62
     0
 10
0.6980813402329587
 20
1.176541285821179
 30
0.0
 11
0.6980813402329594
 21
4.3835658732653844
 31
0.0
  0
LINE
  5
411
  8
0
 62
     0
 10
0.6980813402329602
 20
7.9505904607095887
 30
0.0
 11
0.6980813402329594
 21
4.7435658732653829
 31
0.0
  0
SOLID
  5
412
  8
0
 62
     0
 10
0.6680813402329587
 20
1.176541285821179
 30
0.0
 11
0.7280813402329587
 21
1.176541285821179
 31
0.0
 12
0.6980813402329587
 22
0.9965412858211792
 32
0.0
 13
0.6980813402329587
 23
0.9965412858211792
 33
0.0
  0
SOLID
  5
413
  8
0
 62
     0
 10
0.6680813402329602
 20
7.9505904607095887
 30
0.0
 11
0.7280813402329603
 21
7.9505904607095887
 31
0.0
 12
0.6980813402329602
 22
8.1305904607095894
 32
0.0
 13
0.6980813402329602
 23
8.1305904607095894
 33
0.0
  0
TEXT
  5
414
  8
0
 62
     0
 10
0.4580813402329588
 20
4.4735658732653842
 30
0.0
 40
0.18
  1
7.13
  0
POINT
  5
415
  8
DEFPOINTS
 62
     0
 10
-4.3968965886885396
 20
0.9965412858211806
 30
0.0
  0
POINT
  5
416
  8
DEFPOINTS
 62
     0
 10
-4.3968965886885396
 20
8.1305904607095911
 30
0.0
  0
POINT
  5
417
  8
DEFPOINTS
 62
     0
 10
0.6980813402329602
 20
8.1305904607095894
 30
0.0
  0
ENDBLK
  5
419
  8
0
  0
ENDSEC
  0
SECTION
  2
ENTITIES
  0
LINE
  5
CA
  8
0
 10
-9.2622812040731546
 20
6.5830797473596396
 30
0.0
 11
-7.5122812040731528
 21
6.5830797473596396
 31
0.0
  0
ARC
  5
13C
  8
0
 10
-4.145046335815457
 20
5.3689994309464764
 30
0.0
 40
1.682692307692307
 50
272.3744806296188
 51
0.7999970269451723
  0
LINE
  5
13D
  8
0
 10
-9.2622812040731546
 20
6.5830797473596396
 30
0.0
 11
-9.2622812040731546
 21
5.621541285821178
 31
0.0
  0
LINE
  5
13E
  8
0
 10
-7.5122812040731528
 20
6.5830797473596396
 30
0.0
 11
-7.5122812040731528
 21
5.8330797473596387
 31
0.0
  0
ARC
  5
150
  8
0
 10
-3.9199197299487429
 20
5.8543682993721848
 30
0.0
 40
2.17218307853565
 50
104.28489561332169
 51
265.89719573169822
  0
ARC
  5
15A
  8
0
 10
-3.5538914373191308
 20
5.0146727741792061
 30
0.0
 40
3.0797662080663391
 50
355.5438594191059
 51
107.0304277719837
  0
ARC
  5
15B
  8
0
 10
-4.3693300950344929
 20
4.8838520476290581
 30
0.0
 40
3.8874085031598771
 50
269.59369925262251
 51
358.40115313976452
  0
ARC
  5
15C
  8
0
 10
-4.3387108985027094
 20
5.9293827971025452
 30
0.0
 40
4.9331846661120462
 50
176.42229354323541
 51
269.32419481457839
  0
ARC
  5
15D
  8
0
 10
-4.0240240087318506
 20
4.7759284583576651
 30
0.0
 40
1.790589040238074
 50
359.98268832916489
 51
20.870992945665019
  0
ARC
  5
15F
  8
0
 10
-2.404831364884525
 20
5.3932989045068993
 30
0.0
 40
0.0576923076923077
 50
20.87099294566509
 51
180.79999702694531
  0
ARC
  5
161
  8
0
 10
-4.48818044261973
 20
5.068789065453589
 30
0.0
 40
2.2737548897210229
 50
272.12115374728381
 51
352.58597303175787
  0
ARC
  5
162
  8
0
 10
-4.1494243700691431
 20
6.1663149143024683
 30
0.0
 40
3.379327116822946
 50
185.6591289473503
 51
265.67924442325659
  0
ARC
  5
163
  8
0
 10
-4.2501965359453839
 20
5.4760576502779816
 30
0.0
 40
1.4189414991603959
 50
278.2007512385116
 51
62.030592511937982
  0
ARC
  5
16C
  8
0
 10
-3.566261209956215
 20
4.9940269845844671
 30
0.0
 40
1.7353352542235889
 50
351.10578557665832
 51
90.609233058777207
  0
ARC
  5
3D4
  8
0
 10
-4.3387108985027094
 20
5.9293827971025452
 30
0.0
 40
4.548324555970618
 50
176.42229354323541
 51
269.32419481457839
  0
LINE
  5
3D5
  8
0
 10
-8.8774210939317264
 20
6.5830797473596396
 30
0.0
 11
-8.8774210939317264
 21
5.621541285821178
 31
0.0
  0
LINE
  5
3D6
  8
0
 10
-7.897141314214581
 20
6.5830797473596396
 30
0.0
 11
-7.897141314214581
 21
5.8330797473596387
 31
0.0
  0
ARC
  5
3D7
  8
0
 10
-4.1494243700691431
 20
6.1663149143024683
 30
0.0
 40
3.764187226964375
 50
185.6591289473503
 51
265.67924442325659
  0
ARC
  5
3D8
  8
0
 10
-4.48818044261973
 20
5.068789065453589
 30
0.0
 40
2.6586149998624511
 50
272.12115374728381
 51
352.58597303175787
  0
ARC
  5
3D9
  8
0
 10
-4.3693300950344929
 20
4.8838520476290581
 30
0.0
 40
3.502548393018448
 50
269.59369925262251
 51
358.40115313976452
  0
ARC
  5
3DA
  8
0
 10
-3.5538914373191308
 20
5.0146727741792061
 30
0.0
 40
2.69490609792491
 50
355.5438594191059
 51
107.0304277719837
  0
ARC
  5
3DB
  8
0
 10
-3.9199197299487429
 20
5.8543682993721848
 30
0.0
 40
1.787322968394222
 50
104.28489561332169
 51
265.89719573169822
  0
VIEWPORT
  5
2E
 67
     1
  8
0
 10
5.2187503604438348
 20
3.968749891115924
 30
0.0
 40
17.157696883371148
 41
8.9929997457669462
 68
     1
 69
     1
1001
ACAD
1000
MVIEW
1002
{
1070
    16
1010
0.0
1020
0.0
1030
0.0
1010
0.0
1020
0.0
1030
1.0
1040
0.0
1040
8.9929997457669462
1040
5.2187503604438348
1040
3.968749891115924
1040
50.0
1040
0.0
1040
0.0
1070
     0
1070
   100
1070
     1
1070
     1
1070
     0
1070
     0
1070
     0
1070
     0
1040
0.0
1040
0.0
1040
0.0
1040
0.5
1040
0.5
1040
0.5
1040
0.5
1070
     0
1002
{
1002
}
1002
}
  0
VIEWPORT
  5
30
 67
     1
  8
0
 10
5.2387504220947489
 20
3.968750125779879
 30
0.0
 40
8.3820006753515983
 41
6.3500002012478074
 68
     2
 69
     2
1001
ACAD
1000
MVIEW
1002
{
1070
    16
1010
0.0
1020
0.0
1030
0.0
1010
0.0
1020
0.0
1030
1.0
1040
0.0
1040
9.2454283402629365
1040
6.0
1040
4.5
1040
50.0
1040
0.0
1040
0.0
1070
     0
1070
   100
1070
     1
1070
     3
1070
     0
1070
     0
1070
     0
1070
     0
1040
0.0
1040
0.0
1040
0.0
1040
0.5
1040
0.5
1040
0.5
1040
0.5
1070
     0
1002
{
1002
}
1002
}
  0
ENDSEC
  0
EOF
