  0
SECTION
  2
HEADER
  9
$ACADVER
  1
AC1009
  9
$INSBASE
 10
0.0
 20
0.0
 30
0.0
  9
$EXTMIN
 10
12.78798431073138
 20
2.7573598255822058
 30
0.0
  9
$EXTMAX
 10
16.95528806891237
 20
5.6785981481195931
 30
0.0
  9
$LIMMIN
 10
0.0
 20
0.0
  9
$LIMMAX
 10
12.0
 20
9.0
  9
$ORTHOMODE
 70
     1
  9
$REGENMODE
 70
     0
  9
$FILLMODE
 70
     1
  9
$QTEXTMODE
 70
     0
  9
$MIRRTEXT
 70
     0
  9
$DRAGMODE
 70
     2
  9
$LTSCALE
 40
1.0
  9
$OSMODE
 70
    55
  9
$ATTMODE
 70
     1
  9
$TEXTSIZE
 40
0.2
  9
$TRACEWID
 40
0.05
  9
$TEXTSTYLE
  7
STANDARD
  9
$CLAYER
  8
0
  9
$CELTYPE
  6
BYLAYER
  9
$CECOLOR
 62
   256
  9
$DIMSCALE
 40
1.0
  9
$DIMASZ
 40
0.125
  9
$DIMEXO
 40
0.0625
  9
$DIMDLI
 40
0.38
  9
$DIMRND
 40
0.0
  9
$DIMDLE
 40
0.0
  9
$DIMEXE
 40
0.18
  9
$DIMTP
 40
0.0
  9
$DIMTM
 40
0.0
  9
$DIMTXT
 40
0.09375
  9
$DIMCEN
 40
-0.125
  9
$DIMTSZ
 40
0.0
  9
$DIMTOL
 70
     0
  9
$DIMLIM
 70
     0
  9
$DIMTIH
 70
     0
  9
$DIMTOH
 70
     0
  9
$DIMSE1
 70
     0
  9
$DIMSE2
 70
     0
  9
$DIMTAD
 70
     0
  9
$DIMZIN
 70
     3
  9
$DIMBLK
  1

  9
$DIMASO
 70
     0
  9
$DIMSHO
 70
     1
  9
$DIMPOST
  1

  9
$DIMAPOST
  1

  9
$DIMALT
 70
     0
  9
$DIMALTD
 70
     2
  9
$DIMALTF
 40
25.399999999999999
  9
$DIMLFAC
 40
1.0
  9
$DIMTOFL
 70
     1
  9
$DIMTVP
 40
0.0
  9
$DIMTIX
 70
     0
  9
$DIMSOXD
 70
     0
  9
$DIMSAH
 70
     0
  9
$DIMBLK1
  1

  9
$DIMBLK2
  1

  9
$DIMSTYLE
  2
STANDARD
  9
$DIMCLRD
 70
     0
  9
$DIMCLRE
 70
     0
  9
$DIMCLRT
 70
     0
  9
$DIMTFAC
 40
1.0
  9
$DIMGAP
 40
0.09
  9
$LUNITS
 70
     4
  9
$LUPREC
 70
     4
  9
$SKETCHINC
 40
0.1
  9
$FILLETRAD
 40
0.0
  9
$AUNITS
 70
     0
  9
$AUPREC
 70
     4
  9
$MENU
  1
.
  9
$ELEVATION
 40
0.0
  9
$PELEVATION
 40
0.0
  9
$THICKNESS
 40
0.0
  9
$LIMCHECK
 70
     0
  9
$BLIPMODE
 70
     0
  9
$CHAMFERA
 40
0.125
  9
$CHAMFERB
 40
0.5
  9
$SKPOLY
 70
     0
  9
$TDCREATE
 40
2451086.9109346061
  9
$TDUPDATE
 40
2453913.5543160192
  9
$TDINDWG
 40
0.0620737269
  9
$TDUSRTIMER
 40
0.0620737269
  9
$USRTIMER
 70
     1
  9
$ANGBASE
 50
0.0
  9
$ANGDIR
 70
     0
  9
$PDMODE
 70
    34
  9
$PDSIZE
 40
3.0
  9
$PLINEWID
 40
0.0
  9
$COORDS
 70
     1
  9
$SPLFRAME
 70
     0
  9
$SPLINETYPE
 70
     6
  9
$SPLINESEGS
 70
     8
  9
$ATTDIA
 70
     0
  9
$ATTREQ
 70
     1
  9
$HANDLING
 70
     1
  9
$HANDSEED
  5
76D
  9
$SURFTAB1
 70
     6
  9
$SURFTAB2
 70
     6
  9
$SURFTYPE
 70
     6
  9
$SURFU
 70
     6
  9
$SURFV
 70
     6
  9
$UCSNAME
  2

  9
$UCSORG
 10
0.0
 20
0.0
 30
0.0
  9
$UCSXDIR
 10
1.0
 20
0.0
 30
0.0
  9
$UCSYDIR
 10
0.0
 20
1.0
 30
0.0
  9
$PUCSNAME
  2

  9
$PUCSORG
 10
0.0
 20
0.0
 30
0.0
  9
$PUCSXDIR
 10
1.0
 20
0.0
 30
0.0
  9
$PUCSYDIR
 10
0.0
 20
1.0
 30
0.0
  9
$USERI1
 70
     0
  9
$USERI2
 70
     0
  9
$USERI3
 70
     0
  9
$USERI4
 70
     0
  9
$USERI5
 70
     0
  9
$USERR1
 40
0.0
  9
$USERR2
 40
0.0
  9
$USERR3
 40
0.0
  9
$USERR4
 40
0.0
  9
$USERR5
 40
0.0
  9
$WORLDVIEW
 70
     1
  9
$SHADEDGE
 70
     3
  9
$SHADEDIF
 70
    70
  9
$TILEMODE
 70
     1
  9
$MAXACTVP
 70
    48
  9
$PLIMCHECK
 70
     0
  9
$PEXTMIN
 10
12.37961912282233
 20
2.4386098255822048
 30
0.0
  9
$PEXTMAX
 10
17.363653256821419
 20
5.4511098255822059
 30
0.0
  9
$PLIMMIN
 10
-0.1579164520023376
 20
-0.2812499887361301
  9
$PLIMMAX
 10
10.84208330770177
 20
8.2187497709679782
  9
$UNITMODE
 70
     0
  9
$VISRETAIN
 70
     1
  9
$PLINEGEN
 70
     0
  9
$PSLTSCALE
 70
     1
  0
ENDSEC
  0
SECTION
  2
TABLES
  0
TABLE
  2
VPORT
 70
     2
  0
VPORT
  2
*ACTIVE
 70
     0
 10
0.0
 20
0.0
 11
1.0
 21
1.0
 12
1.015740610782881
 22
0.2731191612686938
 13
0.0
 23
0.0
 14
0.5
 24
0.5
 15
0.5
 25
0.5
 16
0.0
 26
0.0
 36
1.0
 17
14.896130378147109
 27
3.9448598255822058
 37
0.0
 40
2.9539998738181801
 41
2.4795698924731182
 42
50.0
 43
0.0
 44
0.0
 50
0.0
 51
0.0
 71
     0
 72
   100
 73
     1
 74
     1
 75
     0
 76
     0
 77
     0
 78
     0
  0
ENDTAB
  0
TABLE
  2
LTYPE
 70
    18
  0
LTYPE
  2
CONTINUOUS
 70
     0
  3
Solid line
 72
    65
 73
     0
 40
0.0
  0
LTYPE
  2
HIDDEN
 70
     0
  3
__ __ __ __ __ __ __ __ __ __ __ __ __ __ __ __
 72
    65
 73
     2
 40
0.375
 49
0.25
 49
-0.125
  0
LTYPE
  2
PHANTOM2
 70
     0
  3
Phantom (.5x) ___ _ _ ___ _ _ ___ _ _ ___ _ _
 72
    65
 73
     6
 40
1.25
 49
0.625
 49
-0.125
 49
0.125
 49
-0.125
 49
0.125
 49
-0.125
  0
LTYPE
  2
CENTER
 70
     0
  3
Center ____ _ ____ _ ____ _ ____ _ ____ _ ____
 72
    65
 73
     4
 40
2.0
 49
1.25
 49
-0.25
 49
0.25
 49
-0.25
  0
LTYPE
  2
ASULTYPE
 70
     0
  3
Solid line
 72
    65
 73
     2
 40
3.0
 49
2.5
 49
0.5
  0
LTYPE
  2
ASVLTYPE
 70
     0
  3
__ __ __ __ __ __ __ __ __ __ __ __ __ __ __ __ __ __ __ __ __
 72
    65
 73
     2
 40
0.75
 49
0.5
 49
-0.25
  0
LTYPE
  2
AM_ISO02W050
 70
     0
  3
__ __ __ __ __ __ __ __ __ __ __ __ __ __ __
 72
    65
 73
     2
 40
7.5
 49
6.0
 49
-1.5
  0
LTYPE
  2
AM_ISO08W050
 70
     0
  3
____ . ____ . ____ . ____ . ____ . ____ . ____
 72
    65
 73
     4
 40
18.0
 49
12.0
 49
-1.5
 49
3.0
 49
-1.5
  0
LTYPE
  2
AM_ISO09W050
 70
     0
  3
_____ . . _____ . . _____ . . ____ .. ____
 72
    65
 73
     6
 40
22.5
 49
12.0
 49
-1.5
 49
3.0
 49
-1.5
 49
3.0
 49
-1.5
  0
LTYPE
  2
AMCONSTR
 70
     0
  3
_______________________
 72
    65
 73
     2
 40
9999.0
 49
9999.0
 49
0.0
  0
LTYPE
  2
AM_ISO08W050X2
 70
     0
  3
__ . __ . __ . __ . __ . __
 72
    65
 73
     4
 40
9.0
 49
6.0
 49
-0.75
 49
1.5
 49
-0.75
  0
LTYPE
  2
AM_ISO02W050X2
 70
     0
  3
 _ _ _ _ _ _ _ _ _ _ _ _
 72
    65
 73
     2
 40
3.75
 49
3.0
 49
-0.75
  0
LTYPE
  2
AMZIGZAG
 70
     0
  3
/\/-/\/-/\/-/\/-/\/-/\/
 72
    65
 73
     2
 40
11.0001
 49
0.0001
 49
-11.0
  0
LTYPE
  2
CENTER2
 70
     0
  3
Center (.5x) ___ _ ___ _ ___ _ ___ _ ___ _ ___
 72
    65
 73
     4
 40
1.125
 49
0.75
 49
-0.125
 49
0.125
 49
-0.125
  0
LTYPE
  2
HIDDEN2
 70
     0
  3
Hidden (.5x) _ _ _ _ _ _ _ _ _ _ _ _ _ _ _ _ _
 72
    65
 73
     2
 40
0.1875
 49
0.125
 49
-0.0625
  0
LTYPE
  2
AMZIGZAG2
 70
     0
  3
/\/-/\/-/\/-/\/-/\/-/\/
 72
    65
 73
     2
 40
0.4401
 49
0.0001
 49
-0.4400000000000001
  0
LTYPE
  2
ACANSTGB
 70
     0
  3
__ . . __ . .
 72
    65
 73
     6
 40
0.35433070866
 49
0.15748031496
 49
-0.03937007874
 49
0.03937007874
 49
-0.03937007874
 49
0.03937007874
 49
-0.03937007874
  0
LTYPE
  2
ACANSTGL
 70
     0
  3
_ _ _ _ _
 72
    65
 73
     2
 40
0.11811023622
 49
0.07874015748
 49
-0.03937007874
  0
ENDTAB
  0
TABLE
  2
LAYER
 70
     4
  0
LAYER
  2
0
 70
     0
 62
     7
  6
CONTINUOUS
  0
LAYER
  2
AM_VIS
 70
     0
 62
     7
  6
CONTINUOUS
  0
LAYER
  2
AM_HID
 70
     0
 62
     7
  6
HIDDEN
  0
LAYER
  2
KEE10
 70
     0
 62
     7
  6
CONTINUOUS
  0
ENDTAB
  0
TABLE
  2
STYLE
 70
     5
  0
STYLE
  2
STANDARD
 70
     0
 40
0.0
 41
1.0
 50
0.0
 71
     0
 42
0.2
  3
txt
  4

  0
STYLE
  2

 70
     1
 40
0.0
 41
1.0
 50
0.0
 71
     0
 42
0.2
  3
ltypeshp.shx
  4

  0
STYLE
  2
ACANSTS
 70
     0
 40
1.0
 41
1.0
 50
0.0
 71
     0
 42
0.2
  3
romans.shx
  4

  0
STYLE
  2
ACANSGDT
 70
     0
 40
0.0
 41
1.0
 50
0.0
 71
     0
 42
0.2
  3
amgdtans.shx
  4

  0
STYLE
  2
ACANSTSB
 70
     0
 40
1.0
 41
1.0
 50
0.0
 71
     0
 42
0.2
  3
romans.shx
  4

  0
ENDTAB
  0
TABLE
  2
VIEW
 70
     0
  0
ENDTAB
  0
TABLE
  2
UCS
 70
     0
  0
ENDTAB
  0
TABLE
  2
APPID
 70
    13
  0
APPID
  2
ACAD
 70
     0
  0
APPID
  2
GENIUS_GENDIM_13
 70
     0
  0
APPID
  2
GENIUS_GENDTOL_13
 70
     0
  0
APPID
  2
GENIUS_GE3DTOL_13
 70
     0
  0
APPID
  2
MCAD_NO_VIS
 70
     0
  0
APPID
  2
ACAD_TEMP_GRAPHIC
 70
     0
  0
APPID
  2
AD_DRAW
 70
     0
  0
APPID
  2
ACATTRIBSERVICES
 70
     0
  0
APPID
  2
ASURF_PCURVE_APPNAME
 70
     0
  0
APPID
  2
AMG_3D2D_5_0
 70
     0
  0
APPID
  2
DESIGNERASSEMBLIES
 70
     0
  0
APPID
  2
ACADM_DIM_EDIT
 70
     0
  0
APPID
  2
AMDT_DM_ADJ
 70
     0
  0
ENDTAB
  0
TABLE
  2
DIMSTYLE
 70
     7
  0
DIMSTYLE
  2
STANDARD
 70
     0
  3

  4

  5

  6

  7

 40
1.0
 41
0.18
 42
0.0625
 43
0.38
 44
0.18
 45
0.0
 46
0.0
 47
0.0
 48
0.0
140
0.18
141
0.09
142
0.0
143
25.399999999999999
144
1.0
145
0.0
146
1.0
147
0.09
 71
     0
 72
     0
 73
     1
 74
     1
 75
     0
 76
     0
 77
     0
 78
     0
170
     0
171
     2
172
     0
173
     0
174
     0
175
     0
176
     0
177
     0
178
     0
  0
DIMSTYLE
  2
AM_ANSI
 70
     0
  3

  4
mm
  5

  6

  7

 40
1.0
 41
0.1
 42
0.05
 43
0.5
 44
0.1
 45
0.0
 46
0.0
 47
0.1
 48
0.1
140
0.12
141
0.0
142
0.0
143
25.399999999999999
144
1.0
145
0.0
146
0.71
147
0.06
 71
     0
 72
     0
 73
     1
 74
     1
 75
     0
 76
     0
 77
     0
 78
     7
170
     0
171
     2
172
     0
173
     0
174
     0
175
     0
176
   256
177
   256
178
     2
  0
DIMSTYLE
  2
AM_ANSI$3
 70
     0
  3

  4
mm
  5

  6

  7

 40
1.0
 41
0.1
 42
0.05
 43
0.5
 44
0.1
 45
0.0
 46
0.0
 47
0.1
 48
0.1
140
0.12
141
0.0
142
0.0
143
25.399999999999999
144
1.0
145
0.0
146
0.71
147
0.06
 71
     0
 72
     0
 73
     1
 74
     1
 75
     0
 76
     0
 77
     0
 78
     7
170
     0
171
     2
172
     0
173
     0
174
     0
175
     0
176
   256
177
   256
178
     2
  0
DIMSTYLE
  2
AM_ANSI$4
 70
     0
  3

  4
mm
  5

  6

  7

 40
1.0
 41
0.1
 42
0.05
 43
0.5
 44
0.1
 45
0.0
 46
0.0
 47
0.1
 48
0.1
140
0.12
141
0.0
142
0.0
143
25.399999999999999
144
1.0
145
0.0
146
0.71
147
0.06
 71
     0
 72
     0
 73
     1
 74
     1
 75
     0
 76
     0
 77
     0
 78
     7
170
     0
171
     2
172
     0
173
     0
174
     0
175
     0
176
   256
177
   256
178
     2
  0
DIMSTYLE
  2
AM_ANSI$7
 70
     0
  3

  4
mm
  5

  6

  7

 40
1.0
 41
0.1
 42
0.05
 43
0.5
 44
0.1
 45
0.0
 46
0.0
 47
0.1
 48
0.1
140
0.24
141
0.0
142
0.0
143
25.399999999999999
144
1.0
145
0.0
146
0.71
147
0.06
 71
     0
 72
     0
 73
     1
 74
     1
 75
     0
 76
     0
 77
     0
 78
     7
170
     0
171
     2
172
     0
173
     0
174
     0
175
     0
176
   256
177
   256
178
     2
  0
DIMSTYLE
  2
AM_ANSI$SF
 70
     0
  3

  4
mm
  5

  6

  7

 40
1.0
 41
0.1
 42
0.05
 43
0.5
 44
0.1
 45
0.0
 46
0.0
 47
0.1
 48
0.1
140
0.12
141
0.0
142
0.0
143
25.399999999999999
144
1.0
145
0.0
146
0.71
147
0.06
 71
     0
 72
     0
 73
     1
 74
     1
 75
     1
 76
     1
 77
     0
 78
     7
170
     0
171
     2
172
     0
173
     0
174
     0
175
     0
176
   256
177
   256
178
     2
  0
DIMSTYLE
  2
AM_ANSI$SH
 70
     0
  3

  4
mm
  5

  6
GENAXEH
  7

 40
1.0
 41
0.1
 42
0.05
 43
0.5
 44
0.1
 45
0.0
 46
0.0
 47
0.1
 48
0.1
140
0.12
141
0.0
142
0.0
143
25.399999999999999
144
1.0
145
0.0
146
0.71
147
0.06
 71
     0
 72
     0
 73
     1
 74
     1
 75
     1
 76
     1
 77
     0
 78
     7
170
     0
171
     2
172
     0
173
     1
174
     0
175
     0
176
   256
177
   256
178
     2
  0
ENDTAB
  0
ENDSEC
  0
SECTION
  2
BLOCKS
  0
BLOCK
  8
0
  2
$MODEL_SPACE
 70
     0
 10
0.0
 20
0.0
 30
0.0
  3
$MODEL_SPACE
  1

  0
ENDBLK
  5
A
  8
0
  0
BLOCK
 67
     1
  8
0
  2
$PAPER_SPACE
 70
     0
 10
0.0
 20
0.0
 30
0.0
  3
$PAPER_SPACE
  1

  0
ENDBLK
  5
F
 67
     1
  8
0
  0
BLOCK
  8
0
  2
*U0
 70
     1
 10
0.0
 20
0.0
 30
0.0
  3
*U0
  1

  0
ENDBLK
  5
107
  8
0
  0
BLOCK
  8
0
  2
GENAXEH
 70
     0
 10
0.0
 20
0.0
 30
0.0
  3
GENAXEH
  1

  0
LINE
  5
145
  8
0
 10
-1.0
 20
0.0
 30
0.0
 11
1.0
 21
0.0
 31
0.0
  0
ENDBLK
  5
147
  8
0
  0
BLOCK
  8
0
  2
_DOT
 70
     0
 10
0.0
 20
0.0
 30
0.0
  3
_DOT
  1

  0
POLYLINE
  5
151
  8
0
  6
BYBLOCK
 62
     0
 66
     1
 10
0.0
 20
0.0
 30
0.0
 70
     1
 40
0.5
 41
0.5
  0
VERTEX
  5
152
  8
0
  6
BYBLOCK
 62
     0
 10
-0.25
 20
0.0
 30
0.0
 42
1.0
  0
VERTEX
  5
153
  8
0
  6
BYBLOCK
 62
     0
 10
0.25
 20
0.0
 30
0.0
 42
1.0
  0
SEQEND
  5
154
  8
0
  6
BYBLOCK
 62
     0
  0
LINE
  5
155
  8
0
  6
BYBLOCK
 62
     0
 10
-0.5
 20
0.0
 30
0.0
 11
-1.0
 21
0.0
 31
0.0
  0
ENDBLK
  5
157
  8
0
  0
BLOCK
  8
0
  2
2D
 70
     0
 10
0.0
 20
0.0
 30
0.0
  3
2D
  1

  0
INSERT
  5
15B
  8
0
  2
*U4
 10
0.0
 20
0.0
 30
0.0
  0
INSERT
  5
15C
  8
0
  2
*U5
 10
0.0
 20
0.0
 30
0.0
  0
INSERT
  5
15D
  8
0
  2
*U6
 10
0.0
 20
0.0
 30
0.0
  0
ENDBLK
  5
15F
  8
0
  0
BLOCK
  8
0
  2
*U4
 70
     1
 10
0.0
 20
0.0
 30
0.0
  3
*U4
  1

  0
TEXT
  5
18C
  8
KEE10
 10
-0.167740653382606
 20
0.7944046258072062
 30
0.0
 40
0.140625
  1
KEE
  0
ENDBLK
  5
18E
  8
0
  0
BLOCK
  8
0
  2
*U5
 70
     1
 10
0.0
 20
0.0
 30
0.0
  3
*U5
  1

  0
TEXT
  5
190
  8
KEE10
 10
-0.308365653382606
 20
0.4858688129746218
 30
0.0
 40
0.140625
  1
KLAMP
  0
ENDBLK
  5
192
  8
0
  0
BLOCK
  8
0
  2
*U6
 70
     1
 10
0.0
 20
0.0
 30
0.0
  3
*U6
  1

  0
TEXT
  5
194
  8
KEE10
 10
-0.202896903382606
 20
0.2018753139112972
 30
0.0
 40
0.140625
  1
10-8
  0
ENDBLK
  5
196
  8
0
  0
BLOCK
  8
0
  2
*U7
 70
     1
 10
0.0
 20
0.0
 30
0.0
  3
*U7
  1

  0
TEXT
  5
198
  8
KEE10
 10
13.74207059493474
 20
3.2432364085581549
 30
0.0
 40
0.140625
  1
KEE
  0
ENDBLK
  5
19A
  8
0
  0
BLOCK
  8
0
  2
*U8
 70
     1
 10
0.0
 20
0.0
 30
0.0
  3
*U8
  1

  0
TEXT
  5
19C
  8
KEE10
 10
13.60144559493474
 20
2.934700595725571
 30
0.0
 40
0.140625
  1
KLAMP
  0
ENDBLK
  5
19E
  8
0
  0
BLOCK
  8
0
  2
*U9
 70
     1
 10
0.0
 20
0.0
 30
0.0
  3
*U9
  1

  0
TEXT
  5
1A0
  8
0
 10
15.908413068912379
 20
5.4517231481195942
 30
0.0
 40
0.09375
  1
1-5/8"
  0
ENDBLK
  5
1A2
  8
0
  0
ENDSEC
  0
SECTION
  2
ENTITIES
  0
LINE
  5
25
  8
AM_VIS
 10
15.33028806891237
 20
2.7573598255822058
 30
0.0
 11
15.33028806891237
 21
5.1323598255822063
 31
0.0
  0
LINE
  5
27
  8
AM_VIS
 10
13.93798431073137
 20
3.6419366531192479
 30
0.0
 11
13.93798431073137
 21
4.2477829980451629
 31
0.0
  0
POLYLINE
  8
AM_VIS
  5
1A3
  66
     1
 10
0.000000
 20
0.000000
 30
0.000000
  70
     8
  0
VERTEX
  8
AM_VIS
  5
1A4
 10
14.4291
 20
4.21554
 30
0.000000
  70
    32
  0
VERTEX
  8
AM_VIS
  5
1A5
 10
14.4286
 20
4.21477
 30
0.000000
  70
    32
  0
VERTEX
  8
AM_VIS
  5
1A6
 10
14.4282
 20
4.21399
 30
0.000000
  70
    32
  0
VERTEX
  8
AM_VIS
  5
1A7
 10
14.4278
 20
4.21321
 30
0.000000
  70
    32
  0
VERTEX
  8
AM_VIS
  5
1A8
 10
14.4274
 20
4.21242
 30
0.000000
  70
    32
  0
VERTEX
  8
AM_VIS
  5
1A9
 10
14.4270
 20
4.21163
 30
0.000000
  70
    32
  0
VERTEX
  8
AM_VIS
  5
1AA
 10
14.4266
 20
4.21084
 30
0.000000
  70
    32
  0
VERTEX
  8
AM_VIS
  5
1AB
 10
14.4262
 20
4.21005
 30
0.000000
  70
    32
  0
VERTEX
  8
AM_VIS
  5
1AC
 10
14.4258
 20
4.20925
 30
0.000000
  70
    32
  0
VERTEX
  8
AM_VIS
  5
1AD
 10
14.4254
 20
4.20846
 30
0.000000
  70
    32
  0
VERTEX
  8
AM_VIS
  5
1AE
 10
14.4250
 20
4.20766
 30
0.000000
  70
    32
  0
VERTEX
  8
AM_VIS
  5
1AF
 10
14.4247
 20
4.20685
 30
0.000000
  70
    32
  0
VERTEX
  8
AM_VIS
  5
1B0
 10
14.4243
 20
4.20605
 30
0.000000
  70
    32
  0
VERTEX
  8
AM_VIS
  5
1B1
 10
14.4239
 20
4.20524
 30
0.000000
  70
    32
  0
VERTEX
  8
AM_VIS
  5
1B2
 10
14.4236
 20
4.20443
 30
0.000000
  70
    32
  0
VERTEX
  8
AM_VIS
  5
1B3
 10
14.4232
 20
4.20361
 30
0.000000
  70
    32
  0
VERTEX
  8
AM_VIS
  5
1B4
 10
14.4229
 20
4.20280
 30
0.000000
  70
    32
  0
VERTEX
  8
AM_VIS
  5
1B5
 10
14.4225
 20
4.20198
 30
0.000000
  70
    32
  0
VERTEX
  8
AM_VIS
  5
1B6
 10
14.4222
 20
4.20116
 30
0.000000
  70
    32
  0
VERTEX
  8
AM_VIS
  5
1B7
 10
14.4218
 20
4.20034
 30
0.000000
  70
    32
  0
VERTEX
  8
AM_VIS
  5
1B8
 10
14.4215
 20
4.19951
 30
0.000000
  70
    32
  0
VERTEX
  8
AM_VIS
  5
1B9
 10
14.4212
 20
4.19868
 30
0.000000
  70
    32
  0
VERTEX
  8
AM_VIS
  5
1BA
 10
14.4208
 20
4.19786
 30
0.000000
  70
    32
  0
VERTEX
  8
AM_VIS
  5
1BB
 10
14.4205
 20
4.19702
 30
0.000000
  70
    32
  0
VERTEX
  8
AM_VIS
  5
1BC
 10
14.4202
 20
4.19619
 30
0.000000
  70
    32
  0
VERTEX
  8
AM_VIS
  5
1BD
 10
14.4199
 20
4.19536
 30
0.000000
  70
    32
  0
VERTEX
  8
AM_VIS
  5
1BE
 10
14.4196
 20
4.19452
 30
0.000000
  70
    32
  0
VERTEX
  8
AM_VIS
  5
1BF
 10
14.4193
 20
4.19368
 30
0.000000
  70
    32
  0
VERTEX
  8
AM_VIS
  5
1C0
 10
14.4190
 20
4.19284
 30
0.000000
  70
    32
  0
VERTEX
  8
AM_VIS
  5
1C1
 10
14.4187
 20
4.19200
 30
0.000000
  70
    32
  0
VERTEX
  8
AM_VIS
  5
1C2
 10
14.4184
 20
4.19115
 30
0.000000
  70
    32
  0
VERTEX
  8
AM_VIS
  5
1C3
 10
14.4181
 20
4.19031
 30
0.000000
  70
    32
  0
VERTEX
  8
AM_VIS
  5
1C4
 10
14.4178
 20
4.18946
 30
0.000000
  70
    32
  0
VERTEX
  8
AM_VIS
  5
1C5
 10
14.4176
 20
4.18861
 30
0.000000
  70
    32
  0
VERTEX
  8
AM_VIS
  5
1C6
 10
14.4173
 20
4.18776
 30
0.000000
  70
    32
  0
VERTEX
  8
AM_VIS
  5
1C7
 10
14.4170
 20
4.18691
 30
0.000000
  70
    32
  0
VERTEX
  8
AM_VIS
  5
1C8
 10
14.4167
 20
4.18606
 30
0.000000
  70
    32
  0
VERTEX
  8
AM_VIS
  5
1C9
 10
14.4165
 20
4.18520
 30
0.000000
  70
    32
  0
VERTEX
  8
AM_VIS
  5
1CA
 10
14.4162
 20
4.18434
 30
0.000000
  70
    32
  0
VERTEX
  8
AM_VIS
  5
1CB
 10
14.4160
 20
4.18349
 30
0.000000
  70
    32
  0
VERTEX
  8
AM_VIS
  5
1CC
 10
14.4157
 20
4.18263
 30
0.000000
  70
    32
  0
VERTEX
  8
AM_VIS
  5
1CD
 10
14.4155
 20
4.18177
 30
0.000000
  70
    32
  0
VERTEX
  8
AM_VIS
  5
1CE
 10
14.4152
 20
4.18091
 30
0.000000
  70
    32
  0
VERTEX
  8
AM_VIS
  5
1CF
 10
14.4150
 20
4.18004
 30
0.000000
  70
    32
  0
VERTEX
  8
AM_VIS
  5
1D0
 10
14.4148
 20
4.17918
 30
0.000000
  70
    32
  0
VERTEX
  8
AM_VIS
  5
1D1
 10
14.4145
 20
4.17831
 30
0.000000
  70
    32
  0
VERTEX
  8
AM_VIS
  5
1D2
 10
14.4143
 20
4.17745
 30
0.000000
  70
    32
  0
VERTEX
  8
AM_VIS
  5
1D3
 10
14.4141
 20
4.17658
 30
0.000000
  70
    32
  0
VERTEX
  8
AM_VIS
  5
1D4
 10
14.4138
 20
4.17571
 30
0.000000
  70
    32
  0
VERTEX
  8
AM_VIS
  5
1D5
 10
14.4136
 20
4.17484
 30
0.000000
  70
    32
  0
VERTEX
  8
AM_VIS
  5
1D6
 10
14.4134
 20
4.17397
 30
0.000000
  70
    32
  0
VERTEX
  8
AM_VIS
  5
1D7
 10
14.4132
 20
4.17310
 30
0.000000
  70
    32
  0
VERTEX
  8
AM_VIS
  5
1D8
 10
14.4130
 20
4.17223
 30
0.000000
  70
    32
  0
VERTEX
  8
AM_VIS
  5
1D9
 10
14.4128
 20
4.17136
 30
0.000000
  70
    32
  0
VERTEX
  8
AM_VIS
  5
1DA
 10
14.4126
 20
4.17048
 30
0.000000
  70
    32
  0
VERTEX
  8
AM_VIS
  5
1DB
 10
14.4124
 20
4.16961
 30
0.000000
  70
    32
  0
VERTEX
  8
AM_VIS
  5
1DC
 10
14.4122
 20
4.16874
 30
0.000000
  70
    32
  0
VERTEX
  8
AM_VIS
  5
1DD
 10
14.4120
 20
4.16786
 30
0.000000
  70
    32
  0
VERTEX
  8
AM_VIS
  5
1DE
 10
14.4118
 20
4.16699
 30
0.000000
  70
    32
  0
VERTEX
  8
AM_VIS
  5
1DF
 10
14.4116
 20
4.16611
 30
0.000000
  70
    32
  0
VERTEX
  8
AM_VIS
  5
1E0
 10
14.4114
 20
4.16523
 30
0.000000
  70
    32
  0
VERTEX
  8
AM_VIS
  5
1E1
 10
14.4113
 20
4.16436
 30
0.000000
  70
    32
  0
VERTEX
  8
AM_VIS
  5
1E2
 10
14.4111
 20
4.16348
 30
0.000000
  70
    32
  0
VERTEX
  8
AM_VIS
  5
1E3
 10
14.4109
 20
4.16260
 30
0.000000
  70
    32
  0
VERTEX
  8
AM_VIS
  5
1E4
 10
14.4108
 20
4.16172
 30
0.000000
  70
    32
  0
VERTEX
  8
AM_VIS
  5
1E5
 10
14.4106
 20
4.16084
 30
0.000000
  70
    32
  0
VERTEX
  8
AM_VIS
  5
1E6
 10
14.4104
 20
4.15997
 30
0.000000
  70
    32
  0
VERTEX
  8
AM_VIS
  5
1E7
 10
14.4103
 20
4.15909
 30
0.000000
  70
    32
  0
VERTEX
  8
AM_VIS
  5
1E8
 10
14.4101
 20
4.15821
 30
0.000000
  70
    32
  0
VERTEX
  8
AM_VIS
  5
1E9
 10
14.4099
 20
4.15733
 30
0.000000
  70
    32
  0
VERTEX
  8
AM_VIS
  5
1EA
 10
14.4098
 20
4.15645
 30
0.000000
  70
    32
  0
VERTEX
  8
AM_VIS
  5
1EB
 10
14.4096
 20
4.15557
 30
0.000000
  70
    32
  0
VERTEX
  8
AM_VIS
  5
1EC
 10
14.4095
 20
4.15468
 30
0.000000
  70
    32
  0
VERTEX
  8
AM_VIS
  5
1ED
 10
14.4093
 20
4.15379
 30
0.000000
  70
    32
  0
VERTEX
  8
AM_VIS
  5
1EE
 10
14.4092
 20
4.15290
 30
0.000000
  70
    32
  0
VERTEX
  8
AM_VIS
  5
1EF
 10
14.4091
 20
4.15201
 30
0.000000
  70
    32
  0
VERTEX
  8
AM_VIS
  5
1F0
 10
14.4089
 20
4.15111
 30
0.000000
  70
    32
  0
VERTEX
  8
AM_VIS
  5
1F1
 10
14.4088
 20
4.15021
 30
0.000000
  70
    32
  0
VERTEX
  8
AM_VIS
  5
1F2
 10
14.4086
 20
4.14931
 30
0.000000
  70
    32
  0
VERTEX
  8
AM_VIS
  5
1F3
 10
14.4085
 20
4.14841
 30
0.000000
  70
    32
  0
VERTEX
  8
AM_VIS
  5
1F4
 10
14.4084
 20
4.14750
 30
0.000000
  70
    32
  0
VERTEX
  8
AM_VIS
  5
1F5
 10
14.4083
 20
4.14659
 30
0.000000
  70
    32
  0
VERTEX
  8
AM_VIS
  5
1F6
 10
14.4081
 20
4.14567
 30
0.000000
  70
    32
  0
VERTEX
  8
AM_VIS
  5
1F7
 10
14.4080
 20
4.14476
 30
0.000000
  70
    32
  0
VERTEX
  8
AM_VIS
  5
1F8
 10
14.4079
 20
4.14384
 30
0.000000
  70
    32
  0
VERTEX
  8
AM_VIS
  5
1F9
 10
14.4078
 20
4.14291
 30
0.000000
  70
    32
  0
VERTEX
  8
AM_VIS
  5
1FA
 10
14.4076
 20
4.14199
 30
0.000000
  70
    32
  0
VERTEX
  8
AM_VIS
  5
1FB
 10
14.4075
 20
4.14106
 30
0.000000
  70
    32
  0
VERTEX
  8
AM_VIS
  5
1FC
 10
14.4074
 20
4.14013
 30
0.000000
  70
    32
  0
VERTEX
  8
AM_VIS
  5
1FD
 10
14.4073
 20
4.13919
 30
0.000000
  70
    32
  0
VERTEX
  8
AM_VIS
  5
1FE
 10
14.4072
 20
4.13826
 30
0.000000
  70
    32
  0
VERTEX
  8
AM_VIS
  5
1FF
 10
14.4071
 20
4.13732
 30
0.000000
  70
    32
  0
VERTEX
  8
AM_VIS
  5
200
 10
14.4070
 20
4.13637
 30
0.000000
  70
    32
  0
VERTEX
  8
AM_VIS
  5
201
 10
14.4069
 20
4.13543
 30
0.000000
  70
    32
  0
VERTEX
  8
AM_VIS
  5
202
 10
14.4068
 20
4.13448
 30
0.000000
  70
    32
  0
VERTEX
  8
AM_VIS
  5
203
 10
14.4067
 20
4.13353
 30
0.000000
  70
    32
  0
VERTEX
  8
AM_VIS
  5
204
 10
14.4066
 20
4.13257
 30
0.000000
  70
    32
  0
VERTEX
  8
AM_VIS
  5
205
 10
14.4065
 20
4.13162
 30
0.000000
  70
    32
  0
VERTEX
  8
AM_VIS
  5
206
 10
14.4064
 20
4.13065
 30
0.000000
  70
    32
  0
VERTEX
  8
AM_VIS
  5
207
 10
14.4063
 20
4.12969
 30
0.000000
  70
    32
  0
VERTEX
  8
AM_VIS
  5
208
 10
14.4062
 20
4.12873
 30
0.000000
  70
    32
  0
VERTEX
  8
AM_VIS
  5
209
 10
14.4061
 20
4.12776
 30
0.000000
  70
    32
  0
VERTEX
  8
AM_VIS
  5
20A
 10
14.4060
 20
4.12678
 30
0.000000
  70
    32
  0
VERTEX
  8
AM_VIS
  5
20B
 10
14.4059
 20
4.12581
 30
0.000000
  70
    32
  0
VERTEX
  8
AM_VIS
  5
20C
 10
14.4058
 20
4.12483
 30
0.000000
  70
    32
  0
VERTEX
  8
AM_VIS
  5
20D
 10
14.4058
 20
4.12385
 30
0.000000
  70
    32
  0
VERTEX
  8
AM_VIS
  5
20E
 10
14.4057
 20
4.12287
 30
0.000000
  70
    32
  0
VERTEX
  8
AM_VIS
  5
20F
 10
14.4056
 20
4.12188
 30
0.000000
  70
    32
  0
VERTEX
  8
AM_VIS
  5
210
 10
14.4055
 20
4.12089
 30
0.000000
  70
    32
  0
VERTEX
  8
AM_VIS
  5
211
 10
14.4054
 20
4.11990
 30
0.000000
  70
    32
  0
VERTEX
  8
AM_VIS
  5
212
 10
14.4054
 20
4.11891
 30
0.000000
  70
    32
  0
VERTEX
  8
AM_VIS
  5
213
 10
14.4053
 20
4.11791
 30
0.000000
  70
    32
  0
VERTEX
  8
AM_VIS
  5
214
 10
14.4052
 20
4.11691
 30
0.000000
  70
    32
  0
VERTEX
  8
AM_VIS
  5
215
 10
14.4051
 20
4.11590
 30
0.000000
  70
    32
  0
VERTEX
  8
AM_VIS
  5
216
 10
14.4051
 20
4.11490
 30
0.000000
  70
    32
  0
VERTEX
  8
AM_VIS
  5
217
 10
14.4050
 20
4.11389
 30
0.000000
  70
    32
  0
VERTEX
  8
AM_VIS
  5
218
 10
14.4049
 20
4.11288
 30
0.000000
  70
    32
  0
VERTEX
  8
AM_VIS
  5
219
 10
14.4049
 20
4.11186
 30
0.000000
  70
    32
  0
VERTEX
  8
AM_VIS
  5
21A
 10
14.4048
 20
4.11084
 30
0.000000
  70
    32
  0
VERTEX
  8
AM_VIS
  5
21B
 10
14.4048
 20
4.10982
 30
0.000000
  70
    32
  0
VERTEX
  8
AM_VIS
  5
21C
 10
14.4047
 20
4.10880
 30
0.000000
  70
    32
  0
VERTEX
  8
AM_VIS
  5
21D
 10
14.4046
 20
4.10777
 30
0.000000
  70
    32
  0
VERTEX
  8
AM_VIS
  5
21E
 10
14.4046
 20
4.10674
 30
0.000000
  70
    32
  0
VERTEX
  8
AM_VIS
  5
21F
 10
14.4045
 20
4.10571
 30
0.000000
  70
    32
  0
VERTEX
  8
AM_VIS
  5
220
 10
14.4045
 20
4.10468
 30
0.000000
  70
    32
  0
VERTEX
  8
AM_VIS
  5
221
 10
14.4044
 20
4.10364
 30
0.000000
  70
    32
  0
VERTEX
  8
AM_VIS
  5
222
 10
14.4044
 20
4.10260
 30
0.000000
  70
    32
  0
VERTEX
  8
AM_VIS
  5
223
 10
14.4043
 20
4.10156
 30
0.000000
  70
    32
  0
VERTEX
  8
AM_VIS
  5
224
 10
14.4043
 20
4.10051
 30
0.000000
  70
    32
  0
VERTEX
  8
AM_VIS
  5
225
 10
14.4042
 20
4.09946
 30
0.000000
  70
    32
  0
VERTEX
  8
AM_VIS
  5
226
 10
14.4042
 20
4.09841
 30
0.000000
  70
    32
  0
VERTEX
  8
AM_VIS
  5
227
 10
14.4041
 20
4.09735
 30
0.000000
  70
    32
  0
VERTEX
  8
AM_VIS
  5
228
 10
14.4041
 20
4.09629
 30
0.000000
  70
    32
  0
VERTEX
  8
AM_VIS
  5
229
 10
14.4041
 20
4.09523
 30
0.000000
  70
    32
  0
VERTEX
  8
AM_VIS
  5
22A
 10
14.4040
 20
4.09417
 30
0.000000
  70
    32
  0
VERTEX
  8
AM_VIS
  5
22B
 10
14.4040
 20
4.09310
 30
0.000000
  70
    32
  0
VERTEX
  8
AM_VIS
  5
22C
 10
14.4039
 20
4.09204
 30
0.000000
  70
    32
  0
VERTEX
  8
AM_VIS
  5
22D
 10
14.4039
 20
4.09096
 30
0.000000
  70
    32
  0
VERTEX
  8
AM_VIS
  5
22E
 10
14.4039
 20
4.08989
 30
0.000000
  70
    32
  0
VERTEX
  8
AM_VIS
  5
22F
 10
14.4038
 20
4.08881
 30
0.000000
  70
    32
  0
VERTEX
  8
AM_VIS
  5
230
 10
14.4038
 20
4.08773
 30
0.000000
  70
    32
  0
VERTEX
  8
AM_VIS
  5
231
 10
14.4038
 20
4.08665
 30
0.000000
  70
    32
  0
VERTEX
  8
AM_VIS
  5
232
 10
14.4037
 20
4.08556
 30
0.000000
  70
    32
  0
VERTEX
  8
AM_VIS
  5
233
 10
14.4037
 20
4.08447
 30
0.000000
  70
    32
  0
VERTEX
  8
AM_VIS
  5
234
 10
14.4037
 20
4.08338
 30
0.000000
  70
    32
  0
VERTEX
  8
AM_VIS
  5
235
 10
14.4037
 20
4.08229
 30
0.000000
  70
    32
  0
VERTEX
  8
AM_VIS
  5
236
 10
14.4036
 20
4.08119
 30
0.000000
  70
    32
  0
VERTEX
  8
AM_VIS
  5
237
 10
14.4036
 20
4.08009
 30
0.000000
  70
    32
  0
VERTEX
  8
AM_VIS
  5
238
 10
14.4036
 20
4.07898
 30
0.000000
  70
    32
  0
VERTEX
  8
AM_VIS
  5
239
 10
14.4036
 20
4.07788
 30
0.000000
  70
    32
  0
VERTEX
  8
AM_VIS
  5
23A
 10
14.4035
 20
4.07677
 30
0.000000
  70
    32
  0
VERTEX
  8
AM_VIS
  5
23B
 10
14.4035
 20
4.07566
 30
0.000000
  70
    32
  0
VERTEX
  8
AM_VIS
  5
23C
 10
14.4035
 20
4.07454
 30
0.000000
  70
    32
  0
VERTEX
  8
AM_VIS
  5
23D
 10
14.4035
 20
4.07343
 30
0.000000
  70
    32
  0
VERTEX
  8
AM_VIS
  5
23E
 10
14.4035
 20
4.07231
 30
0.000000
  70
    32
  0
VERTEX
  8
AM_VIS
  5
23F
 10
14.4035
 20
4.07118
 30
0.000000
  70
    32
  0
VERTEX
  8
AM_VIS
  5
240
 10
14.4034
 20
4.07006
 30
0.000000
  70
    32
  0
VERTEX
  8
AM_VIS
  5
241
 10
14.4034
 20
4.06893
 30
0.000000
  70
    32
  0
VERTEX
  8
AM_VIS
  5
242
 10
14.4034
 20
4.06780
 30
0.000000
  70
    32
  0
VERTEX
  8
AM_VIS
  5
243
 10
14.4034
 20
4.06666
 30
0.000000
  70
    32
  0
VERTEX
  8
AM_VIS
  5
244
 10
14.4034
 20
4.06553
 30
0.000000
  70
    32
  0
VERTEX
  8
AM_VIS
  5
245
 10
14.4034
 20
4.06439
 30
0.000000
  70
    32
  0
VERTEX
  8
AM_VIS
  5
246
 10
14.4034
 20
4.06325
 30
0.000000
  70
    32
  0
VERTEX
  8
AM_VIS
  5
247
 10
14.4033
 20
4.06210
 30
0.000000
  70
    32
  0
VERTEX
  8
AM_VIS
  5
248
 10
14.4033
 20
4.06095
 30
0.000000
  70
    32
  0
VERTEX
  8
AM_VIS
  5
249
 10
14.4033
 20
4.05980
 30
0.000000
  70
    32
  0
VERTEX
  8
AM_VIS
  5
24A
 10
14.4033
 20
4.05865
 30
0.000000
  70
    32
  0
VERTEX
  8
AM_VIS
  5
24B
 10
14.4033
 20
4.05749
 30
0.000000
  70
    32
  0
VERTEX
  8
AM_VIS
  5
24C
 10
14.4033
 20
4.05633
 30
0.000000
  70
    32
  0
VERTEX
  8
AM_VIS
  5
24D
 10
14.4033
 20
4.05517
 30
0.000000
  70
    32
  0
VERTEX
  8
AM_VIS
  5
24E
 10
14.4033
 20
4.05400
 30
0.000000
  70
    32
  0
VERTEX
  8
AM_VIS
  5
24F
 10
14.4033
 20
4.05284
 30
0.000000
  70
    32
  0
VERTEX
  8
AM_VIS
  5
250
 10
14.4033
 20
4.05166
 30
0.000000
  70
    32
  0
VERTEX
  8
AM_VIS
  5
251
 10
14.4033
 20
4.05049
 30
0.000000
  70
    32
  0
VERTEX
  8
AM_VIS
  5
252
 10
14.4033
 20
4.04932
 30
0.000000
  70
    32
  0
VERTEX
  8
AM_VIS
  5
253
 10
14.4033
 20
4.04814
 30
0.000000
  70
    32
  0
VERTEX
  8
AM_VIS
  5
254
 10
14.4033
 20
4.04695
 30
0.000000
  70
    32
  0
VERTEX
  8
AM_VIS
  5
255
 10
14.4033
 20
4.04577
 30
0.000000
  70
    32
  0
VERTEX
  8
AM_VIS
  5
256
 10
14.4033
 20
4.04458
 30
0.000000
  70
    32
  0
VERTEX
  8
AM_VIS
  5
257
 10
14.4033
 20
4.04339
 30
0.000000
  70
    32
  0
VERTEX
  8
AM_VIS
  5
258
 10
14.4033
 20
4.04220
 30
0.000000
  70
    32
  0
VERTEX
  8
AM_VIS
  5
259
 10
14.4033
 20
4.04100
 30
0.000000
  70
    32
  0
VERTEX
  8
AM_VIS
  5
25A
 10
14.4033
 20
4.03981
 30
0.000000
  70
    32
  0
VERTEX
  8
AM_VIS
  5
25B
 10
14.4033
 20
4.03860
 30
0.000000
  70
    32
  0
VERTEX
  8
AM_VIS
  5
25C
 10
14.4033
 20
4.03740
 30
0.000000
  70
    32
  0
VERTEX
  8
AM_VIS
  5
25D
 10
14.4033
 20
4.03619
 30
0.000000
  70
    32
  0
VERTEX
  8
AM_VIS
  5
25E
 10
14.4033
 20
4.03498
 30
0.000000
  70
    32
  0
VERTEX
  8
AM_VIS
  5
25F
 10
14.4033
 20
4.03377
 30
0.000000
  70
    32
  0
VERTEX
  8
AM_VIS
  5
260
 10
14.4033
 20
4.03256
 30
0.000000
  70
    32
  0
VERTEX
  8
AM_VIS
  5
261
 10
14.4033
 20
4.03134
 30
0.000000
  70
    32
  0
VERTEX
  8
AM_VIS
  5
262
 10
14.4033
 20
4.03012
 30
0.000000
  70
    32
  0
VERTEX
  8
AM_VIS
  5
263
 10
14.4034
 20
4.02889
 30
0.000000
  70
    32
  0
VERTEX
  8
AM_VIS
  5
264
 10
14.4034
 20
4.02767
 30
0.000000
  70
    32
  0
VERTEX
  8
AM_VIS
  5
265
 10
14.4034
 20
4.02644
 30
0.000000
  70
    32
  0
VERTEX
  8
AM_VIS
  5
266
 10
14.4034
 20
4.02521
 30
0.000000
  70
    32
  0
VERTEX
  8
AM_VIS
  5
267
 10
14.4034
 20
4.02397
 30
0.000000
  70
    32
  0
VERTEX
  8
AM_VIS
  5
268
 10
14.4034
 20
4.02273
 30
0.000000
  70
    32
  0
VERTEX
  8
AM_VIS
  5
269
 10
14.4034
 20
4.02149
 30
0.000000
  70
    32
  0
VERTEX
  8
AM_VIS
  5
26A
 10
14.4034
 20
4.02025
 30
0.000000
  70
    32
  0
VERTEX
  8
AM_VIS
  5
26B
 10
14.4034
 20
4.01900
 30
0.000000
  70
    32
  0
VERTEX
  8
AM_VIS
  5
26C
 10
14.4034
 20
4.01776
 30
0.000000
  70
    32
  0
VERTEX
  8
AM_VIS
  5
26D
 10
14.4034
 20
4.01650
 30
0.000000
  70
    32
  0
VERTEX
  8
AM_VIS
  5
26E
 10
14.4035
 20
4.01525
 30
0.000000
  70
    32
  0
VERTEX
  8
AM_VIS
  5
26F
 10
14.4035
 20
4.01399
 30
0.000000
  70
    32
  0
VERTEX
  8
AM_VIS
  5
270
 10
14.4035
 20
4.01273
 30
0.000000
  70
    32
  0
VERTEX
  8
AM_VIS
  5
271
 10
14.4035
 20
4.01147
 30
0.000000
  70
    32
  0
VERTEX
  8
AM_VIS
  5
272
 10
14.4035
 20
4.01021
 30
0.000000
  70
    32
  0
VERTEX
  8
AM_VIS
  5
273
 10
14.4035
 20
4.00894
 30
0.000000
  70
    32
  0
VERTEX
  8
AM_VIS
  5
274
 10
14.4035
 20
4.00767
 30
0.000000
  70
    32
  0
VERTEX
  8
AM_VIS
  5
275
 10
14.4035
 20
4.00639
 30
0.000000
  70
    32
  0
VERTEX
  8
AM_VIS
  5
276
 10
14.4035
 20
4.00512
 30
0.000000
  70
    32
  0
VERTEX
  8
AM_VIS
  5
277
 10
14.4036
 20
4.00384
 30
0.000000
  70
    32
  0
VERTEX
  8
AM_VIS
  5
278
 10
14.4036
 20
4.00256
 30
0.000000
  70
    32
  0
VERTEX
  8
AM_VIS
  5
279
 10
14.4036
 20
4.00127
 30
0.000000
  70
    32
  0
VERTEX
  8
AM_VIS
  5
27A
 10
14.4036
 20
3.99999
 30
0.000000
  70
    32
  0
VERTEX
  8
AM_VIS
  5
27B
 10
14.4036
 20
3.99870
 30
0.000000
  70
    32
  0
VERTEX
  8
AM_VIS
  5
27C
 10
14.4036
 20
3.99740
 30
0.000000
  70
    32
  0
VERTEX
  8
AM_VIS
  5
27D
 10
14.4036
 20
3.99611
 30
0.000000
  70
    32
  0
VERTEX
  8
AM_VIS
  5
27E
 10
14.4036
 20
3.99481
 30
0.000000
  70
    32
  0
VERTEX
  8
AM_VIS
  5
27F
 10
14.4037
 20
3.99351
 30
0.000000
  70
    32
  0
VERTEX
  8
AM_VIS
  5
280
 10
14.4037
 20
3.99221
 30
0.000000
  70
    32
  0
VERTEX
  8
AM_VIS
  5
281
 10
14.4037
 20
3.99090
 30
0.000000
  70
    32
  0
VERTEX
  8
AM_VIS
  5
282
 10
14.4037
 20
3.98959
 30
0.000000
  70
    32
  0
VERTEX
  8
AM_VIS
  5
283
 10
14.4037
 20
3.98828
 30
0.000000
  70
    32
  0
VERTEX
  8
AM_VIS
  5
284
 10
14.4037
 20
3.98696
 30
0.000000
  70
    32
  0
VERTEX
  8
AM_VIS
  5
285
 10
14.4037
 20
3.98565
 30
0.000000
  70
    32
  0
VERTEX
  8
AM_VIS
  5
286
 10
14.4037
 20
3.98433
 30
0.000000
  70
    32
  0
VERTEX
  8
AM_VIS
  5
287
 10
14.4038
 20
3.98300
 30
0.000000
  70
    32
  0
VERTEX
  8
AM_VIS
  5
288
 10
14.4038
 20
3.98168
 30
0.000000
  70
    32
  0
VERTEX
  8
AM_VIS
  5
289
 10
14.4038
 20
3.98035
 30
0.000000
  70
    32
  0
VERTEX
  8
AM_VIS
  5
28A
 10
14.4038
 20
3.97902
 30
0.000000
  70
    32
  0
VERTEX
  8
AM_VIS
  5
28B
 10
14.4038
 20
3.97769
 30
0.000000
  70
    32
  0
VERTEX
  8
AM_VIS
  5
28C
 10
14.4038
 20
3.97635
 30
0.000000
  70
    32
  0
VERTEX
  8
AM_VIS
  5
28D
 10
14.4038
 20
3.97501
 30
0.000000
  70
    32
  0
VERTEX
  8
AM_VIS
  5
28E
 10
14.4038
 20
3.97367
 30
0.000000
  70
    32
  0
VERTEX
  8
AM_VIS
  5
28F
 10
14.4038
 20
3.97232
 30
0.000000
  70
    32
  0
VERTEX
  8
AM_VIS
  5
290
 10
14.4038
 20
3.97098
 30
0.000000
  70
    32
  0
VERTEX
  8
AM_VIS
  5
291
 10
14.4039
 20
3.96963
 30
0.000000
  70
    32
  0
VERTEX
  8
AM_VIS
  5
292
 10
14.4039
 20
3.96827
 30
0.000000
  70
    32
  0
VERTEX
  8
AM_VIS
  5
293
 10
14.4039
 20
3.96692
 30
0.000000
  70
    32
  0
VERTEX
  8
AM_VIS
  5
294
 10
14.4039
 20
3.96556
 30
0.000000
  70
    32
  0
VERTEX
  8
AM_VIS
  5
295
 10
14.4039
 20
3.96420
 30
0.000000
  70
    32
  0
VERTEX
  8
AM_VIS
  5
296
 10
14.4039
 20
3.96283
 30
0.000000
  70
    32
  0
VERTEX
  8
AM_VIS
  5
297
 10
14.4039
 20
3.96147
 30
0.000000
  70
    32
  0
VERTEX
  8
AM_VIS
  5
298
 10
14.4039
 20
3.96010
 30
0.000000
  70
    32
  0
VERTEX
  8
AM_VIS
  5
299
 10
14.4039
 20
3.95873
 30
0.000000
  70
    32
  0
VERTEX
  8
AM_VIS
  5
29A
 10
14.4039
 20
3.95735
 30
0.000000
  70
    32
  0
VERTEX
  8
AM_VIS
  5
29B
 10
14.4039
 20
3.95598
 30
0.000000
  70
    32
  0
VERTEX
  8
AM_VIS
  5
29C
 10
14.4039
 20
3.95460
 30
0.000000
  70
    32
  0
VERTEX
  8
AM_VIS
  5
29D
 10
14.4039
 20
3.95321
 30
0.000000
  70
    32
  0
VERTEX
  8
AM_VIS
  5
29E
 10
14.4039
 20
3.95183
 30
0.000000
  70
    32
  0
VERTEX
  8
AM_VIS
  5
29F
 10
14.4039
 20
3.95044
 30
0.000000
  70
    32
  0
VERTEX
  8
AM_VIS
  5
2A0
 10
14.4039
 20
3.94905
 30
0.000000
  70
    32
  0
VERTEX
  8
AM_VIS
  5
2A1
 10
14.4039
 20
3.94765
 30
0.000000
  70
    32
  0
VERTEX
  8
AM_VIS
  5
2A2
 10
14.4039
 20
3.94626
 30
0.000000
  70
    32
  0
VERTEX
  8
AM_VIS
  5
2A3
 10
14.4039
 20
3.94486
 30
0.000000
  70
    32
  0
SEQEND
  8
AM_VIS
  5
2A4
  0
ARC
  5
2A
  8
AM_VIS
 10
13.92633054345894
 20
3.949069378713236
 30
0.0
 40
0.4103297329045501
 50
49.294315609518058
 51
88.371789894219816
  0
LINE
  5
2B
  8
AM_VIS
 10
12.78798431073138
 20
2.7573598255822058
 30
0.0
 11
15.087984310731381
 21
2.7573598255822058
 31
0.0
  0
POLYLINE
  8
AM_VIS
  5
2A5
  66
     1
 10
0.000000
 20
0.000000
 30
0.000000
  70
     8
  0
VERTEX
  8
AM_VIS
  5
2A6
 10
14.9630
 20
4.88445
 30
0.000000
  70
    32
  0
VERTEX
  8
AM_VIS
  5
2A7
 10
14.9618
 20
4.88309
 30
0.000000
  70
    32
  0
VERTEX
  8
AM_VIS
  5
2A8
 10
14.9605
 20
4.88171
 30
0.000000
  70
    32
  0
VERTEX
  8
AM_VIS
  5
2A9
 10
14.9593
 20
4.88034
 30
0.000000
  70
    32
  0
VERTEX
  8
AM_VIS
  5
2AA
 10
14.9580
 20
4.87896
 30
0.000000
  70
    32
  0
VERTEX
  8
AM_VIS
  5
2AB
 10
14.9567
 20
4.87759
 30
0.000000
  70
    32
  0
VERTEX
  8
AM_VIS
  5
2AC
 10
14.9555
 20
4.87620
 30
0.000000
  70
    32
  0
VERTEX
  8
AM_VIS
  5
2AD
 10
14.9542
 20
4.87482
 30
0.000000
  70
    32
  0
VERTEX
  8
AM_VIS
  5
2AE
 10
14.9529
 20
4.87343
 30
0.000000
  70
    32
  0
VERTEX
  8
AM_VIS
  5
2AF
 10
14.9516
 20
4.87203
 30
0.000000
  70
    32
  0
VERTEX
  8
AM_VIS
  5
2B0
 10
14.9504
 20
4.87062
 30
0.000000
  70
    32
  0
VERTEX
  8
AM_VIS
  5
2B1
 10
14.9491
 20
4.86921
 30
0.000000
  70
    32
  0
VERTEX
  8
AM_VIS
  5
2B2
 10
14.9478
 20
4.86778
 30
0.000000
  70
    32
  0
VERTEX
  8
AM_VIS
  5
2B3
 10
14.9465
 20
4.86636
 30
0.000000
  70
    32
  0
VERTEX
  8
AM_VIS
  5
2B4
 10
14.9452
 20
4.86492
 30
0.000000
  70
    32
  0
VERTEX
  8
AM_VIS
  5
2B5
 10
14.9438
 20
4.86348
 30
0.000000
  70
    32
  0
VERTEX
  8
AM_VIS
  5
2B6
 10
14.9425
 20
4.86203
 30
0.000000
  70
    32
  0
VERTEX
  8
AM_VIS
  5
2B7
 10
14.9412
 20
4.86058
 30
0.000000
  70
    32
  0
VERTEX
  8
AM_VIS
  5
2B8
 10
14.9399
 20
4.85912
 30
0.000000
  70
    32
  0
VERTEX
  8
AM_VIS
  5
2B9
 10
14.9385
 20
4.85765
 30
0.000000
  70
    32
  0
VERTEX
  8
AM_VIS
  5
2BA
 10
14.9372
 20
4.85617
 30
0.000000
  70
    32
  0
VERTEX
  8
AM_VIS
  5
2BB
 10
14.9358
 20
4.85469
 30
0.000000
  70
    32
  0
VERTEX
  8
AM_VIS
  5
2BC
 10
14.9345
 20
4.85320
 30
0.000000
  70
    32
  0
VERTEX
  8
AM_VIS
  5
2BD
 10
14.9331
 20
4.85170
 30
0.000000
  70
    32
  0
VERTEX
  8
AM_VIS
  5
2BE
 10
14.9317
 20
4.85020
 30
0.000000
  70
    32
  0
VERTEX
  8
AM_VIS
  5
2BF
 10
14.9303
 20
4.84869
 30
0.000000
  70
    32
  0
VERTEX
  8
AM_VIS
  5
2C0
 10
14.9290
 20
4.84718
 30
0.000000
  70
    32
  0
VERTEX
  8
AM_VIS
  5
2C1
 10
14.9276
 20
4.84565
 30
0.000000
  70
    32
  0
VERTEX
  8
AM_VIS
  5
2C2
 10
14.9262
 20
4.84412
 30
0.000000
  70
    32
  0
VERTEX
  8
AM_VIS
  5
2C3
 10
14.9248
 20
4.84259
 30
0.000000
  70
    32
  0
VERTEX
  8
AM_VIS
  5
2C4
 10
14.9234
 20
4.84105
 30
0.000000
  70
    32
  0
VERTEX
  8
AM_VIS
  5
2C5
 10
14.9220
 20
4.83950
 30
0.000000
  70
    32
  0
VERTEX
  8
AM_VIS
  5
2C6
 10
14.9206
 20
4.83794
 30
0.000000
  70
    32
  0
VERTEX
  8
AM_VIS
  5
2C7
 10
14.9191
 20
4.83638
 30
0.000000
  70
    32
  0
VERTEX
  8
AM_VIS
  5
2C8
 10
14.9177
 20
4.83481
 30
0.000000
  70
    32
  0
VERTEX
  8
AM_VIS
  5
2C9
 10
14.9163
 20
4.83324
 30
0.000000
  70
    32
  0
VERTEX
  8
AM_VIS
  5
2CA
 10
14.9148
 20
4.83166
 30
0.000000
  70
    32
  0
VERTEX
  8
AM_VIS
  5
2CB
 10
14.9134
 20
4.83007
 30
0.000000
  70
    32
  0
VERTEX
  8
AM_VIS
  5
2CC
 10
14.9120
 20
4.82847
 30
0.000000
  70
    32
  0
VERTEX
  8
AM_VIS
  5
2CD
 10
14.9105
 20
4.82687
 30
0.000000
  70
    32
  0
VERTEX
  8
AM_VIS
  5
2CE
 10
14.9090
 20
4.82527
 30
0.000000
  70
    32
  0
VERTEX
  8
AM_VIS
  5
2CF
 10
14.9076
 20
4.82366
 30
0.000000
  70
    32
  0
VERTEX
  8
AM_VIS
  5
2D0
 10
14.9061
 20
4.82204
 30
0.000000
  70
    32
  0
VERTEX
  8
AM_VIS
  5
2D1
 10
14.9046
 20
4.82041
 30
0.000000
  70
    32
  0
VERTEX
  8
AM_VIS
  5
2D2
 10
14.9032
 20
4.81878
 30
0.000000
  70
    32
  0
VERTEX
  8
AM_VIS
  5
2D3
 10
14.9017
 20
4.81714
 30
0.000000
  70
    32
  0
VERTEX
  8
AM_VIS
  5
2D4
 10
14.9002
 20
4.81550
 30
0.000000
  70
    32
  0
VERTEX
  8
AM_VIS
  5
2D5
 10
14.8987
 20
4.81385
 30
0.000000
  70
    32
  0
VERTEX
  8
AM_VIS
  5
2D6
 10
14.8972
 20
4.81219
 30
0.000000
  70
    32
  0
VERTEX
  8
AM_VIS
  5
2D7
 10
14.8957
 20
4.81053
 30
0.000000
  70
    32
  0
VERTEX
  8
AM_VIS
  5
2D8
 10
14.8942
 20
4.80887
 30
0.000000
  70
    32
  0
VERTEX
  8
AM_VIS
  5
2D9
 10
14.8927
 20
4.80719
 30
0.000000
  70
    32
  0
VERTEX
  8
AM_VIS
  5
2DA
 10
14.8912
 20
4.80551
 30
0.000000
  70
    32
  0
VERTEX
  8
AM_VIS
  5
2DB
 10
14.8896
 20
4.80383
 30
0.000000
  70
    32
  0
VERTEX
  8
AM_VIS
  5
2DC
 10
14.8881
 20
4.80213
 30
0.000000
  70
    32
  0
VERTEX
  8
AM_VIS
  5
2DD
 10
14.8866
 20
4.80044
 30
0.000000
  70
    32
  0
VERTEX
  8
AM_VIS
  5
2DE
 10
14.8850
 20
4.79873
 30
0.000000
  70
    32
  0
VERTEX
  8
AM_VIS
  5
2DF
 10
14.8835
 20
4.79702
 30
0.000000
  70
    32
  0
VERTEX
  8
AM_VIS
  5
2E0
 10
14.8820
 20
4.79531
 30
0.000000
  70
    32
  0
VERTEX
  8
AM_VIS
  5
2E1
 10
14.8804
 20
4.79359
 30
0.000000
  70
    32
  0
VERTEX
  8
AM_VIS
  5
2E2
 10
14.8789
 20
4.79186
 30
0.000000
  70
    32
  0
VERTEX
  8
AM_VIS
  5
2E3
 10
14.8773
 20
4.79013
 30
0.000000
  70
    32
  0
VERTEX
  8
AM_VIS
  5
2E4
 10
14.8757
 20
4.78839
 30
0.000000
  70
    32
  0
VERTEX
  8
AM_VIS
  5
2E5
 10
14.8742
 20
4.78665
 30
0.000000
  70
    32
  0
VERTEX
  8
AM_VIS
  5
2E6
 10
14.8726
 20
4.78490
 30
0.000000
  70
    32
  0
VERTEX
  8
AM_VIS
  5
2E7
 10
14.8710
 20
4.78314
 30
0.000000
  70
    32
  0
VERTEX
  8
AM_VIS
  5
2E8
 10
14.8694
 20
4.78138
 30
0.000000
  70
    32
  0
VERTEX
  8
AM_VIS
  5
2E9
 10
14.8678
 20
4.77962
 30
0.000000
  70
    32
  0
VERTEX
  8
AM_VIS
  5
2EA
 10
14.8663
 20
4.77785
 30
0.000000
  70
    32
  0
VERTEX
  8
AM_VIS
  5
2EB
 10
14.8647
 20
4.77607
 30
0.000000
  70
    32
  0
VERTEX
  8
AM_VIS
  5
2EC
 10
14.8631
 20
4.77429
 30
0.000000
  70
    32
  0
VERTEX
  8
AM_VIS
  5
2ED
 10
14.8615
 20
4.77250
 30
0.000000
  70
    32
  0
VERTEX
  8
AM_VIS
  5
2EE
 10
14.8599
 20
4.77070
 30
0.000000
  70
    32
  0
VERTEX
  8
AM_VIS
  5
2EF
 10
14.8582
 20
4.76890
 30
0.000000
  70
    32
  0
VERTEX
  8
AM_VIS
  5
2F0
 10
14.8566
 20
4.76710
 30
0.000000
  70
    32
  0
VERTEX
  8
AM_VIS
  5
2F1
 10
14.8550
 20
4.76529
 30
0.000000
  70
    32
  0
VERTEX
  8
AM_VIS
  5
2F2
 10
14.8534
 20
4.76348
 30
0.000000
  70
    32
  0
VERTEX
  8
AM_VIS
  5
2F3
 10
14.8518
 20
4.76165
 30
0.000000
  70
    32
  0
VERTEX
  8
AM_VIS
  5
2F4
 10
14.8501
 20
4.75983
 30
0.000000
  70
    32
  0
VERTEX
  8
AM_VIS
  5
2F5
 10
14.8485
 20
4.75800
 30
0.000000
  70
    32
  0
VERTEX
  8
AM_VIS
  5
2F6
 10
14.8468
 20
4.75616
 30
0.000000
  70
    32
  0
VERTEX
  8
AM_VIS
  5
2F7
 10
14.8452
 20
4.75432
 30
0.000000
  70
    32
  0
VERTEX
  8
AM_VIS
  5
2F8
 10
14.8436
 20
4.75247
 30
0.000000
  70
    32
  0
VERTEX
  8
AM_VIS
  5
2F9
 10
14.8419
 20
4.75062
 30
0.000000
  70
    32
  0
VERTEX
  8
AM_VIS
  5
2FA
 10
14.8403
 20
4.74876
 30
0.000000
  70
    32
  0
VERTEX
  8
AM_VIS
  5
2FB
 10
14.8386
 20
4.74690
 30
0.000000
  70
    32
  0
VERTEX
  8
AM_VIS
  5
2FC
 10
14.8369
 20
4.74503
 30
0.000000
  70
    32
  0
VERTEX
  8
AM_VIS
  5
2FD
 10
14.8353
 20
4.74316
 30
0.000000
  70
    32
  0
VERTEX
  8
AM_VIS
  5
2FE
 10
14.8336
 20
4.74128
 30
0.000000
  70
    32
  0
VERTEX
  8
AM_VIS
  5
2FF
 10
14.8319
 20
4.73940
 30
0.000000
  70
    32
  0
VERTEX
  8
AM_VIS
  5
300
 10
14.8303
 20
4.73752
 30
0.000000
  70
    32
  0
VERTEX
  8
AM_VIS
  5
301
 10
14.8286
 20
4.73562
 30
0.000000
  70
    32
  0
VERTEX
  8
AM_VIS
  5
302
 10
14.8269
 20
4.73373
 30
0.000000
  70
    32
  0
VERTEX
  8
AM_VIS
  5
303
 10
14.8252
 20
4.73182
 30
0.000000
  70
    32
  0
VERTEX
  8
AM_VIS
  5
304
 10
14.8235
 20
4.72992
 30
0.000000
  70
    32
  0
VERTEX
  8
AM_VIS
  5
305
 10
14.8218
 20
4.72800
 30
0.000000
  70
    32
  0
VERTEX
  8
AM_VIS
  5
306
 10
14.8201
 20
4.72609
 30
0.000000
  70
    32
  0
VERTEX
  8
AM_VIS
  5
307
 10
14.8184
 20
4.72417
 30
0.000000
  70
    32
  0
VERTEX
  8
AM_VIS
  5
308
 10
14.8167
 20
4.72224
 30
0.000000
  70
    32
  0
VERTEX
  8
AM_VIS
  5
309
 10
14.8150
 20
4.72031
 30
0.000000
  70
    32
  0
VERTEX
  8
AM_VIS
  5
30A
 10
14.8133
 20
4.71837
 30
0.000000
  70
    32
  0
VERTEX
  8
AM_VIS
  5
30B
 10
14.8116
 20
4.71643
 30
0.000000
  70
    32
  0
VERTEX
  8
AM_VIS
  5
30C
 10
14.8099
 20
4.71449
 30
0.000000
  70
    32
  0
VERTEX
  8
AM_VIS
  5
30D
 10
14.8081
 20
4.71254
 30
0.000000
  70
    32
  0
VERTEX
  8
AM_VIS
  5
30E
 10
14.8064
 20
4.71058
 30
0.000000
  70
    32
  0
VERTEX
  8
AM_VIS
  5
30F
 10
14.8047
 20
4.70862
 30
0.000000
  70
    32
  0
VERTEX
  8
AM_VIS
  5
310
 10
14.8030
 20
4.70666
 30
0.000000
  70
    32
  0
VERTEX
  8
AM_VIS
  5
311
 10
14.8012
 20
4.70469
 30
0.000000
  70
    32
  0
VERTEX
  8
AM_VIS
  5
312
 10
14.7995
 20
4.70272
 30
0.000000
  70
    32
  0
VERTEX
  8
AM_VIS
  5
313
 10
14.7978
 20
4.70074
 30
0.000000
  70
    32
  0
VERTEX
  8
AM_VIS
  5
314
 10
14.7960
 20
4.69876
 30
0.000000
  70
    32
  0
VERTEX
  8
AM_VIS
  5
315
 10
14.7943
 20
4.69677
 30
0.000000
  70
    32
  0
VERTEX
  8
AM_VIS
  5
316
 10
14.7925
 20
4.69478
 30
0.000000
  70
    32
  0
VERTEX
  8
AM_VIS
  5
317
 10
14.7908
 20
4.69279
 30
0.000000
  70
    32
  0
VERTEX
  8
AM_VIS
  5
318
 10
14.7890
 20
4.69079
 30
0.000000
  70
    32
  0
VERTEX
  8
AM_VIS
  5
319
 10
14.7873
 20
4.68879
 30
0.000000
  70
    32
  0
VERTEX
  8
AM_VIS
  5
31A
 10
14.7855
 20
4.68678
 30
0.000000
  70
    32
  0
VERTEX
  8
AM_VIS
  5
31B
 10
14.7838
 20
4.68477
 30
0.000000
  70
    32
  0
VERTEX
  8
AM_VIS
  5
31C
 10
14.7820
 20
4.68275
 30
0.000000
  70
    32
  0
VERTEX
  8
AM_VIS
  5
31D
 10
14.7802
 20
4.68073
 30
0.000000
  70
    32
  0
VERTEX
  8
AM_VIS
  5
31E
 10
14.7785
 20
4.67870
 30
0.000000
  70
    32
  0
VERTEX
  8
AM_VIS
  5
31F
 10
14.7767
 20
4.67667
 30
0.000000
  70
    32
  0
VERTEX
  8
AM_VIS
  5
320
 10
14.7749
 20
4.67464
 30
0.000000
  70
    32
  0
VERTEX
  8
AM_VIS
  5
321
 10
14.7731
 20
4.67260
 30
0.000000
  70
    32
  0
VERTEX
  8
AM_VIS
  5
322
 10
14.7714
 20
4.67056
 30
0.000000
  70
    32
  0
VERTEX
  8
AM_VIS
  5
323
 10
14.7696
 20
4.66852
 30
0.000000
  70
    32
  0
VERTEX
  8
AM_VIS
  5
324
 10
14.7678
 20
4.66647
 30
0.000000
  70
    32
  0
VERTEX
  8
AM_VIS
  5
325
 10
14.7660
 20
4.66441
 30
0.000000
  70
    32
  0
VERTEX
  8
AM_VIS
  5
326
 10
14.7642
 20
4.66236
 30
0.000000
  70
    32
  0
VERTEX
  8
AM_VIS
  5
327
 10
14.7624
 20
4.66030
 30
0.000000
  70
    32
  0
VERTEX
  8
AM_VIS
  5
328
 10
14.7606
 20
4.65823
 30
0.000000
  70
    32
  0
VERTEX
  8
AM_VIS
  5
329
 10
14.7589
 20
4.65616
 30
0.000000
  70
    32
  0
VERTEX
  8
AM_VIS
  5
32A
 10
14.7571
 20
4.65409
 30
0.000000
  70
    32
  0
VERTEX
  8
AM_VIS
  5
32B
 10
14.7553
 20
4.65201
 30
0.000000
  70
    32
  0
VERTEX
  8
AM_VIS
  5
32C
 10
14.7535
 20
4.64993
 30
0.000000
  70
    32
  0
VERTEX
  8
AM_VIS
  5
32D
 10
14.7517
 20
4.64785
 30
0.000000
  70
    32
  0
VERTEX
  8
AM_VIS
  5
32E
 10
14.7499
 20
4.64576
 30
0.000000
  70
    32
  0
VERTEX
  8
AM_VIS
  5
32F
 10
14.7480
 20
4.64367
 30
0.000000
  70
    32
  0
VERTEX
  8
AM_VIS
  5
330
 10
14.7462
 20
4.64158
 30
0.000000
  70
    32
  0
VERTEX
  8
AM_VIS
  5
331
 10
14.7444
 20
4.63948
 30
0.000000
  70
    32
  0
VERTEX
  8
AM_VIS
  5
332
 10
14.7426
 20
4.63738
 30
0.000000
  70
    32
  0
VERTEX
  8
AM_VIS
  5
333
 10
14.7408
 20
4.63527
 30
0.000000
  70
    32
  0
VERTEX
  8
AM_VIS
  5
334
 10
14.7390
 20
4.63316
 30
0.000000
  70
    32
  0
VERTEX
  8
AM_VIS
  5
335
 10
14.7372
 20
4.63105
 30
0.000000
  70
    32
  0
VERTEX
  8
AM_VIS
  5
336
 10
14.7354
 20
4.62894
 30
0.000000
  70
    32
  0
VERTEX
  8
AM_VIS
  5
337
 10
14.7335
 20
4.62682
 30
0.000000
  70
    32
  0
VERTEX
  8
AM_VIS
  5
338
 10
14.7317
 20
4.62470
 30
0.000000
  70
    32
  0
VERTEX
  8
AM_VIS
  5
339
 10
14.7299
 20
4.62257
 30
0.000000
  70
    32
  0
VERTEX
  8
AM_VIS
  5
33A
 10
14.7281
 20
4.62044
 30
0.000000
  70
    32
  0
VERTEX
  8
AM_VIS
  5
33B
 10
14.7263
 20
4.61831
 30
0.000000
  70
    32
  0
VERTEX
  8
AM_VIS
  5
33C
 10
14.7244
 20
4.61618
 30
0.000000
  70
    32
  0
VERTEX
  8
AM_VIS
  5
33D
 10
14.7226
 20
4.61404
 30
0.000000
  70
    32
  0
VERTEX
  8
AM_VIS
  5
33E
 10
14.7208
 20
4.61190
 30
0.000000
  70
    32
  0
VERTEX
  8
AM_VIS
  5
33F
 10
14.7190
 20
4.60976
 30
0.000000
  70
    32
  0
VERTEX
  8
AM_VIS
  5
340
 10
14.7171
 20
4.60761
 30
0.000000
  70
    32
  0
VERTEX
  8
AM_VIS
  5
341
 10
14.7153
 20
4.60546
 30
0.000000
  70
    32
  0
VERTEX
  8
AM_VIS
  5
342
 10
14.7135
 20
4.60331
 30
0.000000
  70
    32
  0
VERTEX
  8
AM_VIS
  5
343
 10
14.7116
 20
4.60115
 30
0.000000
  70
    32
  0
VERTEX
  8
AM_VIS
  5
344
 10
14.7098
 20
4.59899
 30
0.000000
  70
    32
  0
VERTEX
  8
AM_VIS
  5
345
 10
14.7080
 20
4.59683
 30
0.000000
  70
    32
  0
VERTEX
  8
AM_VIS
  5
346
 10
14.7061
 20
4.59467
 30
0.000000
  70
    32
  0
VERTEX
  8
AM_VIS
  5
347
 10
14.7043
 20
4.59250
 30
0.000000
  70
    32
  0
VERTEX
  8
AM_VIS
  5
348
 10
14.7025
 20
4.59033
 30
0.000000
  70
    32
  0
VERTEX
  8
AM_VIS
  5
349
 10
14.7006
 20
4.58816
 30
0.000000
  70
    32
  0
VERTEX
  8
AM_VIS
  5
34A
 10
14.6988
 20
4.58599
 30
0.000000
  70
    32
  0
VERTEX
  8
AM_VIS
  5
34B
 10
14.6970
 20
4.58381
 30
0.000000
  70
    32
  0
VERTEX
  8
AM_VIS
  5
34C
 10
14.6951
 20
4.58163
 30
0.000000
  70
    32
  0
VERTEX
  8
AM_VIS
  5
34D
 10
14.6933
 20
4.57945
 30
0.000000
  70
    32
  0
VERTEX
  8
AM_VIS
  5
34E
 10
14.6915
 20
4.57726
 30
0.000000
  70
    32
  0
VERTEX
  8
AM_VIS
  5
34F
 10
14.6896
 20
4.57507
 30
0.000000
  70
    32
  0
VERTEX
  8
AM_VIS
  5
350
 10
14.6878
 20
4.57288
 30
0.000000
  70
    32
  0
VERTEX
  8
AM_VIS
  5
351
 10
14.6860
 20
4.57069
 30
0.000000
  70
    32
  0
VERTEX
  8
AM_VIS
  5
352
 10
14.6841
 20
4.56850
 30
0.000000
  70
    32
  0
VERTEX
  8
AM_VIS
  5
353
 10
14.6823
 20
4.56630
 30
0.000000
  70
    32
  0
VERTEX
  8
AM_VIS
  5
354
 10
14.6805
 20
4.56410
 30
0.000000
  70
    32
  0
VERTEX
  8
AM_VIS
  5
355
 10
14.6786
 20
4.56190
 30
0.000000
  70
    32
  0
VERTEX
  8
AM_VIS
  5
356
 10
14.6768
 20
4.55970
 30
0.000000
  70
    32
  0
VERTEX
  8
AM_VIS
  5
357
 10
14.6750
 20
4.55749
 30
0.000000
  70
    32
  0
VERTEX
  8
AM_VIS
  5
358
 10
14.6731
 20
4.55528
 30
0.000000
  70
    32
  0
VERTEX
  8
AM_VIS
  5
359
 10
14.6713
 20
4.55307
 30
0.000000
  70
    32
  0
VERTEX
  8
AM_VIS
  5
35A
 10
14.6695
 20
4.55086
 30
0.000000
  70
    32
  0
VERTEX
  8
AM_VIS
  5
35B
 10
14.6676
 20
4.54865
 30
0.000000
  70
    32
  0
VERTEX
  8
AM_VIS
  5
35C
 10
14.6658
 20
4.54643
 30
0.000000
  70
    32
  0
VERTEX
  8
AM_VIS
  5
35D
 10
14.6640
 20
4.54421
 30
0.000000
  70
    32
  0
VERTEX
  8
AM_VIS
  5
35E
 10
14.6621
 20
4.54199
 30
0.000000
  70
    32
  0
VERTEX
  8
AM_VIS
  5
35F
 10
14.6603
 20
4.53977
 30
0.000000
  70
    32
  0
VERTEX
  8
AM_VIS
  5
360
 10
14.6585
 20
4.53755
 30
0.000000
  70
    32
  0
VERTEX
  8
AM_VIS
  5
361
 10
14.6566
 20
4.53532
 30
0.000000
  70
    32
  0
VERTEX
  8
AM_VIS
  5
362
 10
14.6548
 20
4.53309
 30
0.000000
  70
    32
  0
VERTEX
  8
AM_VIS
  5
363
 10
14.6530
 20
4.53087
 30
0.000000
  70
    32
  0
VERTEX
  8
AM_VIS
  5
364
 10
14.6512
 20
4.52863
 30
0.000000
  70
    32
  0
VERTEX
  8
AM_VIS
  5
365
 10
14.6493
 20
4.52640
 30
0.000000
  70
    32
  0
VERTEX
  8
AM_VIS
  5
366
 10
14.6475
 20
4.52417
 30
0.000000
  70
    32
  0
VERTEX
  8
AM_VIS
  5
367
 10
14.6457
 20
4.52193
 30
0.000000
  70
    32
  0
VERTEX
  8
AM_VIS
  5
368
 10
14.6439
 20
4.51969
 30
0.000000
  70
    32
  0
VERTEX
  8
AM_VIS
  5
369
 10
14.6420
 20
4.51746
 30
0.000000
  70
    32
  0
VERTEX
  8
AM_VIS
  5
36A
 10
14.6402
 20
4.51522
 30
0.000000
  70
    32
  0
VERTEX
  8
AM_VIS
  5
36B
 10
14.6384
 20
4.51297
 30
0.000000
  70
    32
  0
VERTEX
  8
AM_VIS
  5
36C
 10
14.6366
 20
4.51073
 30
0.000000
  70
    32
  0
VERTEX
  8
AM_VIS
  5
36D
 10
14.6348
 20
4.50848
 30
0.000000
  70
    32
  0
VERTEX
  8
AM_VIS
  5
36E
 10
14.6329
 20
4.50624
 30
0.000000
  70
    32
  0
VERTEX
  8
AM_VIS
  5
36F
 10
14.6311
 20
4.50399
 30
0.000000
  70
    32
  0
VERTEX
  8
AM_VIS
  5
370
 10
14.6293
 20
4.50174
 30
0.000000
  70
    32
  0
VERTEX
  8
AM_VIS
  5
371
 10
14.6275
 20
4.49949
 30
0.000000
  70
    32
  0
VERTEX
  8
AM_VIS
  5
372
 10
14.6257
 20
4.49724
 30
0.000000
  70
    32
  0
VERTEX
  8
AM_VIS
  5
373
 10
14.6239
 20
4.49499
 30
0.000000
  70
    32
  0
VERTEX
  8
AM_VIS
  5
374
 10
14.6221
 20
4.49273
 30
0.000000
  70
    32
  0
VERTEX
  8
AM_VIS
  5
375
 10
14.6203
 20
4.49048
 30
0.000000
  70
    32
  0
VERTEX
  8
AM_VIS
  5
376
 10
14.6185
 20
4.48822
 30
0.000000
  70
    32
  0
VERTEX
  8
AM_VIS
  5
377
 10
14.6167
 20
4.48597
 30
0.000000
  70
    32
  0
VERTEX
  8
AM_VIS
  5
378
 10
14.6149
 20
4.48371
 30
0.000000
  70
    32
  0
VERTEX
  8
AM_VIS
  5
379
 10
14.6131
 20
4.48145
 30
0.000000
  70
    32
  0
VERTEX
  8
AM_VIS
  5
37A
 10
14.6113
 20
4.47919
 30
0.000000
  70
    32
  0
VERTEX
  8
AM_VIS
  5
37B
 10
14.6095
 20
4.47693
 30
0.000000
  70
    32
  0
VERTEX
  8
AM_VIS
  5
37C
 10
14.6077
 20
4.47467
 30
0.000000
  70
    32
  0
VERTEX
  8
AM_VIS
  5
37D
 10
14.6059
 20
4.47240
 30
0.000000
  70
    32
  0
VERTEX
  8
AM_VIS
  5
37E
 10
14.6041
 20
4.47014
 30
0.000000
  70
    32
  0
VERTEX
  8
AM_VIS
  5
37F
 10
14.6024
 20
4.46788
 30
0.000000
  70
    32
  0
VERTEX
  8
AM_VIS
  5
380
 10
14.6006
 20
4.46561
 30
0.000000
  70
    32
  0
VERTEX
  8
AM_VIS
  5
381
 10
14.5988
 20
4.46335
 30
0.000000
  70
    32
  0
VERTEX
  8
AM_VIS
  5
382
 10
14.5970
 20
4.46108
 30
0.000000
  70
    32
  0
VERTEX
  8
AM_VIS
  5
383
 10
14.5953
 20
4.45881
 30
0.000000
  70
    32
  0
VERTEX
  8
AM_VIS
  5
384
 10
14.5935
 20
4.45655
 30
0.000000
  70
    32
  0
VERTEX
  8
AM_VIS
  5
385
 10
14.5917
 20
4.45428
 30
0.000000
  70
    32
  0
VERTEX
  8
AM_VIS
  5
386
 10
14.5900
 20
4.45201
 30
0.000000
  70
    32
  0
VERTEX
  8
AM_VIS
  5
387
 10
14.5882
 20
4.44974
 30
0.000000
  70
    32
  0
VERTEX
  8
AM_VIS
  5
388
 10
14.5864
 20
4.44747
 30
0.000000
  70
    32
  0
VERTEX
  8
AM_VIS
  5
389
 10
14.5847
 20
4.44520
 30
0.000000
  70
    32
  0
VERTEX
  8
AM_VIS
  5
38A
 10
14.5829
 20
4.44293
 30
0.000000
  70
    32
  0
VERTEX
  8
AM_VIS
  5
38B
 10
14.5812
 20
4.44066
 30
0.000000
  70
    32
  0
VERTEX
  8
AM_VIS
  5
38C
 10
14.5794
 20
4.43839
 30
0.000000
  70
    32
  0
VERTEX
  8
AM_VIS
  5
38D
 10
14.5777
 20
4.43612
 30
0.000000
  70
    32
  0
VERTEX
  8
AM_VIS
  5
38E
 10
14.5759
 20
4.43384
 30
0.000000
  70
    32
  0
VERTEX
  8
AM_VIS
  5
38F
 10
14.5742
 20
4.43157
 30
0.000000
  70
    32
  0
VERTEX
  8
AM_VIS
  5
390
 10
14.5725
 20
4.42930
 30
0.000000
  70
    32
  0
VERTEX
  8
AM_VIS
  5
391
 10
14.5707
 20
4.42703
 30
0.000000
  70
    32
  0
VERTEX
  8
AM_VIS
  5
392
 10
14.5690
 20
4.42476
 30
0.000000
  70
    32
  0
VERTEX
  8
AM_VIS
  5
393
 10
14.5673
 20
4.42248
 30
0.000000
  70
    32
  0
VERTEX
  8
AM_VIS
  5
394
 10
14.5655
 20
4.42021
 30
0.000000
  70
    32
  0
VERTEX
  8
AM_VIS
  5
395
 10
14.5638
 20
4.41794
 30
0.000000
  70
    32
  0
VERTEX
  8
AM_VIS
  5
396
 10
14.5621
 20
4.41567
 30
0.000000
  70
    32
  0
VERTEX
  8
AM_VIS
  5
397
 10
14.5604
 20
4.41339
 30
0.000000
  70
    32
  0
VERTEX
  8
AM_VIS
  5
398
 10
14.5587
 20
4.41112
 30
0.000000
  70
    32
  0
VERTEX
  8
AM_VIS
  5
399
 10
14.5570
 20
4.40884
 30
0.000000
  70
    32
  0
VERTEX
  8
AM_VIS
  5
39A
 10
14.5553
 20
4.40656
 30
0.000000
  70
    32
  0
VERTEX
  8
AM_VIS
  5
39B
 10
14.5536
 20
4.40426
 30
0.000000
  70
    32
  0
VERTEX
  8
AM_VIS
  5
39C
 10
14.5518
 20
4.40196
 30
0.000000
  70
    32
  0
VERTEX
  8
AM_VIS
  5
39D
 10
14.5501
 20
4.39965
 30
0.000000
  70
    32
  0
VERTEX
  8
AM_VIS
  5
39E
 10
14.5484
 20
4.39733
 30
0.000000
  70
    32
  0
VERTEX
  8
AM_VIS
  5
39F
 10
14.5467
 20
4.39500
 30
0.000000
  70
    32
  0
VERTEX
  8
AM_VIS
  5
3A0
 10
14.5449
 20
4.39266
 30
0.000000
  70
    32
  0
VERTEX
  8
AM_VIS
  5
3A1
 10
14.5432
 20
4.39032
 30
0.000000
  70
    32
  0
VERTEX
  8
AM_VIS
  5
3A2
 10
14.5415
 20
4.38797
 30
0.000000
  70
    32
  0
VERTEX
  8
AM_VIS
  5
3A3
 10
14.5397
 20
4.38562
 30
0.000000
  70
    32
  0
VERTEX
  8
AM_VIS
  5
3A4
 10
14.5380
 20
4.38325
 30
0.000000
  70
    32
  0
VERTEX
  8
AM_VIS
  5
3A5
 10
14.5363
 20
4.38088
 30
0.000000
  70
    32
  0
VERTEX
  8
AM_VIS
  5
3A6
 10
14.5345
 20
4.37850
 30
0.000000
  70
    32
  0
VERTEX
  8
AM_VIS
  5
3A7
 10
14.5328
 20
4.37611
 30
0.000000
  70
    32
  0
VERTEX
  8
AM_VIS
  5
3A8
 10
14.5311
 20
4.37371
 30
0.000000
  70
    32
  0
VERTEX
  8
AM_VIS
  5
3A9
 10
14.5293
 20
4.37131
 30
0.000000
  70
    32
  0
VERTEX
  8
AM_VIS
  5
3AA
 10
14.5276
 20
4.36890
 30
0.000000
  70
    32
  0
VERTEX
  8
AM_VIS
  5
3AB
 10
14.5259
 20
4.36649
 30
0.000000
  70
    32
  0
VERTEX
  8
AM_VIS
  5
3AC
 10
14.5241
 20
4.36406
 30
0.000000
  70
    32
  0
VERTEX
  8
AM_VIS
  5
3AD
 10
14.5224
 20
4.36163
 30
0.000000
  70
    32
  0
VERTEX
  8
AM_VIS
  5
3AE
 10
14.5206
 20
4.35919
 30
0.000000
  70
    32
  0
VERTEX
  8
AM_VIS
  5
3AF
 10
14.5189
 20
4.35675
 30
0.000000
  70
    32
  0
VERTEX
  8
AM_VIS
  5
3B0
 10
14.5172
 20
4.35430
 30
0.000000
  70
    32
  0
VERTEX
  8
AM_VIS
  5
3B1
 10
14.5154
 20
4.35184
 30
0.000000
  70
    32
  0
VERTEX
  8
AM_VIS
  5
3B2
 10
14.5137
 20
4.34937
 30
0.000000
  70
    32
  0
VERTEX
  8
AM_VIS
  5
3B3
 10
14.5119
 20
4.34690
 30
0.000000
  70
    32
  0
VERTEX
  8
AM_VIS
  5
3B4
 10
14.5102
 20
4.34442
 30
0.000000
  70
    32
  0
VERTEX
  8
AM_VIS
  5
3B5
 10
14.5085
 20
4.34193
 30
0.000000
  70
    32
  0
VERTEX
  8
AM_VIS
  5
3B6
 10
14.5067
 20
4.33944
 30
0.000000
  70
    32
  0
VERTEX
  8
AM_VIS
  5
3B7
 10
14.5050
 20
4.33694
 30
0.000000
  70
    32
  0
VERTEX
  8
AM_VIS
  5
3B8
 10
14.5033
 20
4.33443
 30
0.000000
  70
    32
  0
VERTEX
  8
AM_VIS
  5
3B9
 10
14.5015
 20
4.33192
 30
0.000000
  70
    32
  0
VERTEX
  8
AM_VIS
  5
3BA
 10
14.4998
 20
4.32940
 30
0.000000
  70
    32
  0
VERTEX
  8
AM_VIS
  5
3BB
 10
14.4981
 20
4.32687
 30
0.000000
  70
    32
  0
VERTEX
  8
AM_VIS
  5
3BC
 10
14.4964
 20
4.32434
 30
0.000000
  70
    32
  0
VERTEX
  8
AM_VIS
  5
3BD
 10
14.4946
 20
4.32180
 30
0.000000
  70
    32
  0
VERTEX
  8
AM_VIS
  5
3BE
 10
14.4929
 20
4.31926
 30
0.000000
  70
    32
  0
VERTEX
  8
AM_VIS
  5
3BF
 10
14.4912
 20
4.31671
 30
0.000000
  70
    32
  0
VERTEX
  8
AM_VIS
  5
3C0
 10
14.4895
 20
4.31415
 30
0.000000
  70
    32
  0
VERTEX
  8
AM_VIS
  5
3C1
 10
14.4878
 20
4.31158
 30
0.000000
  70
    32
  0
VERTEX
  8
AM_VIS
  5
3C2
 10
14.4861
 20
4.30901
 30
0.000000
  70
    32
  0
VERTEX
  8
AM_VIS
  5
3C3
 10
14.4844
 20
4.30644
 30
0.000000
  70
    32
  0
VERTEX
  8
AM_VIS
  5
3C4
 10
14.4826
 20
4.30386
 30
0.000000
  70
    32
  0
VERTEX
  8
AM_VIS
  5
3C5
 10
14.4809
 20
4.30127
 30
0.000000
  70
    32
  0
VERTEX
  8
AM_VIS
  5
3C6
 10
14.4792
 20
4.29867
 30
0.000000
  70
    32
  0
VERTEX
  8
AM_VIS
  5
3C7
 10
14.4776
 20
4.29607
 30
0.000000
  70
    32
  0
VERTEX
  8
AM_VIS
  5
3C8
 10
14.4759
 20
4.29347
 30
0.000000
  70
    32
  0
VERTEX
  8
AM_VIS
  5
3C9
 10
14.4742
 20
4.29085
 30
0.000000
  70
    32
  0
VERTEX
  8
AM_VIS
  5
3CA
 10
14.4725
 20
4.28824
 30
0.000000
  70
    32
  0
VERTEX
  8
AM_VIS
  5
3CB
 10
14.4708
 20
4.28561
 30
0.000000
  70
    32
  0
VERTEX
  8
AM_VIS
  5
3CC
 10
14.4691
 20
4.28298
 30
0.000000
  70
    32
  0
VERTEX
  8
AM_VIS
  5
3CD
 10
14.4675
 20
4.28035
 30
0.000000
  70
    32
  0
VERTEX
  8
AM_VIS
  5
3CE
 10
14.4658
 20
4.27771
 30
0.000000
  70
    32
  0
VERTEX
  8
AM_VIS
  5
3CF
 10
14.4641
 20
4.27506
 30
0.000000
  70
    32
  0
VERTEX
  8
AM_VIS
  5
3D0
 10
14.4625
 20
4.27241
 30
0.000000
  70
    32
  0
VERTEX
  8
AM_VIS
  5
3D1
 10
14.4608
 20
4.26975
 30
0.000000
  70
    32
  0
VERTEX
  8
AM_VIS
  5
3D2
 10
14.4592
 20
4.26709
 30
0.000000
  70
    32
  0
VERTEX
  8
AM_VIS
  5
3D3
 10
14.4576
 20
4.26442
 30
0.000000
  70
    32
  0
VERTEX
  8
AM_VIS
  5
3D4
 10
14.4559
 20
4.26175
 30
0.000000
  70
    32
  0
VERTEX
  8
AM_VIS
  5
3D5
 10
14.4543
 20
4.25907
 30
0.000000
  70
    32
  0
VERTEX
  8
AM_VIS
  5
3D6
 10
14.4527
 20
4.25639
 30
0.000000
  70
    32
  0
VERTEX
  8
AM_VIS
  5
3D7
 10
14.4510
 20
4.25370
 30
0.000000
  70
    32
  0
VERTEX
  8
AM_VIS
  5
3D8
 10
14.4494
 20
4.25101
 30
0.000000
  70
    32
  0
VERTEX
  8
AM_VIS
  5
3D9
 10
14.4478
 20
4.24831
 30
0.000000
  70
    32
  0
VERTEX
  8
AM_VIS
  5
3DA
 10
14.4462
 20
4.24561
 30
0.000000
  70
    32
  0
VERTEX
  8
AM_VIS
  5
3DB
 10
14.4446
 20
4.24290
 30
0.000000
  70
    32
  0
VERTEX
  8
AM_VIS
  5
3DC
 10
14.4430
 20
4.24018
 30
0.000000
  70
    32
  0
VERTEX
  8
AM_VIS
  5
3DD
 10
14.4415
 20
4.23746
 30
0.000000
  70
    32
  0
VERTEX
  8
AM_VIS
  5
3DE
 10
14.4399
 20
4.23474
 30
0.000000
  70
    32
  0
VERTEX
  8
AM_VIS
  5
3DF
 10
14.4383
 20
4.23201
 30
0.000000
  70
    32
  0
VERTEX
  8
AM_VIS
  5
3E0
 10
14.4368
 20
4.22928
 30
0.000000
  70
    32
  0
VERTEX
  8
AM_VIS
  5
3E1
 10
14.4352
 20
4.22654
 30
0.000000
  70
    32
  0
VERTEX
  8
AM_VIS
  5
3E2
 10
14.4337
 20
4.22380
 30
0.000000
  70
    32
  0
VERTEX
  8
AM_VIS
  5
3E3
 10
14.4321
 20
4.22105
 30
0.000000
  70
    32
  0
VERTEX
  8
AM_VIS
  5
3E4
 10
14.4306
 20
4.21830
 30
0.000000
  70
    32
  0
VERTEX
  8
AM_VIS
  5
3E5
 10
14.4291
 20
4.21554
 30
0.000000
  70
    32
  0
SEQEND
  8
AM_VIS
  5
3E6
  0
ARC
  5
2D
  8
AM_VIS
 10
19.6473835797775
 20
1.9916525401036591
 30
0.0
 40
5.5055874000032441
 50
145.9080808938786
 51
148.30279620495619
  0
POLYLINE
  8
AM_HID
  5
3E7
  66
     1
 10
0.000000
 20
0.000000
 30
0.000000
  70
     8
  0
VERTEX
  8
AM_HID
  5
3E8
 10
14.4291
 20
3.67418
 30
0.000000
  70
    32
  0
VERTEX
  8
AM_HID
  5
3E9
 10
14.4282
 20
3.67577
 30
0.000000
  70
    32
  0
VERTEX
  8
AM_HID
  5
3EA
 10
14.4273
 20
3.67737
 30
0.000000
  70
    32
  0
VERTEX
  8
AM_HID
  5
3EB
 10
14.4264
 20
3.67898
 30
0.000000
  70
    32
  0
VERTEX
  8
AM_HID
  5
3EC
 10
14.4256
 20
3.68058
 30
0.000000
  70
    32
  0
VERTEX
  8
AM_HID
  5
3ED
 10
14.4247
 20
3.68218
 30
0.000000
  70
    32
  0
VERTEX
  8
AM_HID
  5
3EE
 10
14.4238
 20
3.68379
 30
0.000000
  70
    32
  0
VERTEX
  8
AM_HID
  5
3EF
 10
14.4230
 20
3.68540
 30
0.000000
  70
    32
  0
VERTEX
  8
AM_HID
  5
3F0
 10
14.4221
 20
3.68701
 30
0.000000
  70
    32
  0
VERTEX
  8
AM_HID
  5
3F1
 10
14.4212
 20
3.68862
 30
0.000000
  70
    32
  0
VERTEX
  8
AM_HID
  5
3F2
 10
14.4204
 20
3.69023
 30
0.000000
  70
    32
  0
VERTEX
  8
AM_HID
  5
3F3
 10
14.4195
 20
3.69184
 30
0.000000
  70
    32
  0
VERTEX
  8
AM_HID
  5
3F4
 10
14.4187
 20
3.69346
 30
0.000000
  70
    32
  0
VERTEX
  8
AM_HID
  5
3F5
 10
14.4179
 20
3.69508
 30
0.000000
  70
    32
  0
VERTEX
  8
AM_HID
  5
3F6
 10
14.4170
 20
3.69669
 30
0.000000
  70
    32
  0
VERTEX
  8
AM_HID
  5
3F7
 10
14.4162
 20
3.69831
 30
0.000000
  70
    32
  0
VERTEX
  8
AM_HID
  5
3F8
 10
14.4153
 20
3.69994
 30
0.000000
  70
    32
  0
VERTEX
  8
AM_HID
  5
3F9
 10
14.4145
 20
3.70156
 30
0.000000
  70
    32
  0
VERTEX
  8
AM_HID
  5
3FA
 10
14.4137
 20
3.70318
 30
0.000000
  70
    32
  0
VERTEX
  8
AM_HID
  5
3FB
 10
14.4129
 20
3.70481
 30
0.000000
  70
    32
  0
VERTEX
  8
AM_HID
  5
3FC
 10
14.4120
 20
3.70644
 30
0.000000
  70
    32
  0
VERTEX
  8
AM_HID
  5
3FD
 10
14.4112
 20
3.70807
 30
0.000000
  70
    32
  0
VERTEX
  8
AM_HID
  5
3FE
 10
14.4104
 20
3.70970
 30
0.000000
  70
    32
  0
VERTEX
  8
AM_HID
  5
3FF
 10
14.4096
 20
3.71133
 30
0.000000
  70
    32
  0
VERTEX
  8
AM_HID
  5
400
 10
14.4088
 20
3.71296
 30
0.000000
  70
    32
  0
VERTEX
  8
AM_HID
  5
401
 10
14.4080
 20
3.71460
 30
0.000000
  70
    32
  0
VERTEX
  8
AM_HID
  5
402
 10
14.4072
 20
3.71623
 30
0.000000
  70
    32
  0
VERTEX
  8
AM_HID
  5
403
 10
14.4064
 20
3.71787
 30
0.000000
  70
    32
  0
VERTEX
  8
AM_HID
  5
404
 10
14.4056
 20
3.71951
 30
0.000000
  70
    32
  0
VERTEX
  8
AM_HID
  5
405
 10
14.4048
 20
3.72115
 30
0.000000
  70
    32
  0
VERTEX
  8
AM_HID
  5
406
 10
14.4041
 20
3.72279
 30
0.000000
  70
    32
  0
VERTEX
  8
AM_HID
  5
407
 10
14.4033
 20
3.72444
 30
0.000000
  70
    32
  0
VERTEX
  8
AM_HID
  5
408
 10
14.4025
 20
3.72608
 30
0.000000
  70
    32
  0
VERTEX
  8
AM_HID
  5
409
 10
14.4017
 20
3.72773
 30
0.000000
  70
    32
  0
VERTEX
  8
AM_HID
  5
40A
 10
14.4010
 20
3.72938
 30
0.000000
  70
    32
  0
VERTEX
  8
AM_HID
  5
40B
 10
14.4002
 20
3.73103
 30
0.000000
  70
    32
  0
VERTEX
  8
AM_HID
  5
40C
 10
14.3994
 20
3.73268
 30
0.000000
  70
    32
  0
VERTEX
  8
AM_HID
  5
40D
 10
14.3987
 20
3.73433
 30
0.000000
  70
    32
  0
VERTEX
  8
AM_HID
  5
40E
 10
14.3979
 20
3.73598
 30
0.000000
  70
    32
  0
VERTEX
  8
AM_HID
  5
40F
 10
14.3972
 20
3.73764
 30
0.000000
  70
    32
  0
VERTEX
  8
AM_HID
  5
410
 10
14.3965
 20
3.73930
 30
0.000000
  70
    32
  0
VERTEX
  8
AM_HID
  5
411
 10
14.3957
 20
3.74095
 30
0.000000
  70
    32
  0
VERTEX
  8
AM_HID
  5
412
 10
14.3950
 20
3.74261
 30
0.000000
  70
    32
  0
VERTEX
  8
AM_HID
  5
413
 10
14.3943
 20
3.74427
 30
0.000000
  70
    32
  0
VERTEX
  8
AM_HID
  5
414
 10
14.3935
 20
3.74594
 30
0.000000
  70
    32
  0
VERTEX
  8
AM_HID
  5
415
 10
14.3928
 20
3.74760
 30
0.000000
  70
    32
  0
VERTEX
  8
AM_HID
  5
416
 10
14.3921
 20
3.74926
 30
0.000000
  70
    32
  0
VERTEX
  8
AM_HID
  5
417
 10
14.3914
 20
3.75093
 30
0.000000
  70
    32
  0
VERTEX
  8
AM_HID
  5
418
 10
14.3907
 20
3.75260
 30
0.000000
  70
    32
  0
VERTEX
  8
AM_HID
  5
419
 10
14.3900
 20
3.75426
 30
0.000000
  70
    32
  0
VERTEX
  8
AM_HID
  5
41A
 10
14.3893
 20
3.75593
 30
0.000000
  70
    32
  0
VERTEX
  8
AM_HID
  5
41B
 10
14.3886
 20
3.75761
 30
0.000000
  70
    32
  0
VERTEX
  8
AM_HID
  5
41C
 10
14.3879
 20
3.75928
 30
0.000000
  70
    32
  0
VERTEX
  8
AM_HID
  5
41D
 10
14.3872
 20
3.76095
 30
0.000000
  70
    32
  0
VERTEX
  8
AM_HID
  5
41E
 10
14.3865
 20
3.76263
 30
0.000000
  70
    32
  0
VERTEX
  8
AM_HID
  5
41F
 10
14.3859
 20
3.76430
 30
0.000000
  70
    32
  0
VERTEX
  8
AM_HID
  5
420
 10
14.3852
 20
3.76598
 30
0.000000
  70
    32
  0
VERTEX
  8
AM_HID
  5
421
 10
14.3845
 20
3.76766
 30
0.000000
  70
    32
  0
VERTEX
  8
AM_HID
  5
422
 10
14.3839
 20
3.76934
 30
0.000000
  70
    32
  0
VERTEX
  8
AM_HID
  5
423
 10
14.3832
 20
3.77102
 30
0.000000
  70
    32
  0
VERTEX
  8
AM_HID
  5
424
 10
14.3826
 20
3.77270
 30
0.000000
  70
    32
  0
VERTEX
  8
AM_HID
  5
425
 10
14.3819
 20
3.77438
 30
0.000000
  70
    32
  0
VERTEX
  8
AM_HID
  5
426
 10
14.3813
 20
3.77607
 30
0.000000
  70
    32
  0
VERTEX
  8
AM_HID
  5
427
 10
14.3807
 20
3.77775
 30
0.000000
  70
    32
  0
VERTEX
  8
AM_HID
  5
428
 10
14.3800
 20
3.77944
 30
0.000000
  70
    32
  0
VERTEX
  8
AM_HID
  5
429
 10
14.3794
 20
3.78113
 30
0.000000
  70
    32
  0
VERTEX
  8
AM_HID
  5
42A
 10
14.3788
 20
3.78282
 30
0.000000
  70
    32
  0
VERTEX
  8
AM_HID
  5
42B
 10
14.3782
 20
3.78451
 30
0.000000
  70
    32
  0
VERTEX
  8
AM_HID
  5
42C
 10
14.3776
 20
3.78620
 30
0.000000
  70
    32
  0
VERTEX
  8
AM_HID
  5
42D
 10
14.3769
 20
3.78789
 30
0.000000
  70
    32
  0
VERTEX
  8
AM_HID
  5
42E
 10
14.3763
 20
3.78959
 30
0.000000
  70
    32
  0
VERTEX
  8
AM_HID
  5
42F
 10
14.3758
 20
3.79128
 30
0.000000
  70
    32
  0
VERTEX
  8
AM_HID
  5
430
 10
14.3752
 20
3.79298
 30
0.000000
  70
    32
  0
VERTEX
  8
AM_HID
  5
431
 10
14.3746
 20
3.79468
 30
0.000000
  70
    32
  0
VERTEX
  8
AM_HID
  5
432
 10
14.3740
 20
3.79637
 30
0.000000
  70
    32
  0
VERTEX
  8
AM_HID
  5
433
 10
14.3734
 20
3.79807
 30
0.000000
  70
    32
  0
VERTEX
  8
AM_HID
  5
434
 10
14.3729
 20
3.79978
 30
0.000000
  70
    32
  0
VERTEX
  8
AM_HID
  5
435
 10
14.3723
 20
3.80148
 30
0.000000
  70
    32
  0
VERTEX
  8
AM_HID
  5
436
 10
14.3717
 20
3.80318
 30
0.000000
  70
    32
  0
VERTEX
  8
AM_HID
  5
437
 10
14.3712
 20
3.80488
 30
0.000000
  70
    32
  0
VERTEX
  8
AM_HID
  5
438
 10
14.3706
 20
3.80659
 30
0.000000
  70
    32
  0
VERTEX
  8
AM_HID
  5
439
 10
14.3701
 20
3.80829
 30
0.000000
  70
    32
  0
VERTEX
  8
AM_HID
  5
43A
 10
14.3696
 20
3.81000
 30
0.000000
  70
    32
  0
VERTEX
  8
AM_HID
  5
43B
 10
14.3690
 20
3.81171
 30
0.000000
  70
    32
  0
VERTEX
  8
AM_HID
  5
43C
 10
14.3685
 20
3.81342
 30
0.000000
  70
    32
  0
VERTEX
  8
AM_HID
  5
43D
 10
14.3680
 20
3.81513
 30
0.000000
  70
    32
  0
VERTEX
  8
AM_HID
  5
43E
 10
14.3675
 20
3.81684
 30
0.000000
  70
    32
  0
VERTEX
  8
AM_HID
  5
43F
 10
14.3670
 20
3.81855
 30
0.000000
  70
    32
  0
VERTEX
  8
AM_HID
  5
440
 10
14.3665
 20
3.82026
 30
0.000000
  70
    32
  0
VERTEX
  8
AM_HID
  5
441
 10
14.3660
 20
3.82198
 30
0.000000
  70
    32
  0
VERTEX
  8
AM_HID
  5
442
 10
14.3655
 20
3.82369
 30
0.000000
  70
    32
  0
VERTEX
  8
AM_HID
  5
443
 10
14.3650
 20
3.82541
 30
0.000000
  70
    32
  0
VERTEX
  8
AM_HID
  5
444
 10
14.3645
 20
3.82713
 30
0.000000
  70
    32
  0
VERTEX
  8
AM_HID
  5
445
 10
14.3641
 20
3.82885
 30
0.000000
  70
    32
  0
VERTEX
  8
AM_HID
  5
446
 10
14.3636
 20
3.83056
 30
0.000000
  70
    32
  0
VERTEX
  8
AM_HID
  5
447
 10
14.3631
 20
3.83228
 30
0.000000
  70
    32
  0
VERTEX
  8
AM_HID
  5
448
 10
14.3627
 20
3.83401
 30
0.000000
  70
    32
  0
VERTEX
  8
AM_HID
  5
449
 10
14.3622
 20
3.83573
 30
0.000000
  70
    32
  0
VERTEX
  8
AM_HID
  5
44A
 10
14.3618
 20
3.83745
 30
0.000000
  70
    32
  0
VERTEX
  8
AM_HID
  5
44B
 10
14.3614
 20
3.83917
 30
0.000000
  70
    32
  0
VERTEX
  8
AM_HID
  5
44C
 10
14.3609
 20
3.84090
 30
0.000000
  70
    32
  0
VERTEX
  8
AM_HID
  5
44D
 10
14.3605
 20
3.84262
 30
0.000000
  70
    32
  0
VERTEX
  8
AM_HID
  5
44E
 10
14.3601
 20
3.84435
 30
0.000000
  70
    32
  0
VERTEX
  8
AM_HID
  5
44F
 10
14.3597
 20
3.84608
 30
0.000000
  70
    32
  0
VERTEX
  8
AM_HID
  5
450
 10
14.3593
 20
3.84781
 30
0.000000
  70
    32
  0
VERTEX
  8
AM_HID
  5
451
 10
14.3589
 20
3.84953
 30
0.000000
  70
    32
  0
VERTEX
  8
AM_HID
  5
452
 10
14.3585
 20
3.85126
 30
0.000000
  70
    32
  0
VERTEX
  8
AM_HID
  5
453
 10
14.3581
 20
3.85299
 30
0.000000
  70
    32
  0
VERTEX
  8
AM_HID
  5
454
 10
14.3577
 20
3.85473
 30
0.000000
  70
    32
  0
VERTEX
  8
AM_HID
  5
455
 10
14.3574
 20
3.85646
 30
0.000000
  70
    32
  0
VERTEX
  8
AM_HID
  5
456
 10
14.3570
 20
3.85819
 30
0.000000
  70
    32
  0
VERTEX
  8
AM_HID
  5
457
 10
14.3566
 20
3.85993
 30
0.000000
  70
    32
  0
VERTEX
  8
AM_HID
  5
458
 10
14.3563
 20
3.86166
 30
0.000000
  70
    32
  0
VERTEX
  8
AM_HID
  5
459
 10
14.3559
 20
3.86340
 30
0.000000
  70
    32
  0
VERTEX
  8
AM_HID
  5
45A
 10
14.3556
 20
3.86513
 30
0.000000
  70
    32
  0
VERTEX
  8
AM_HID
  5
45B
 10
14.3553
 20
3.86687
 30
0.000000
  70
    32
  0
VERTEX
  8
AM_HID
  5
45C
 10
14.3549
 20
3.86861
 30
0.000000
  70
    32
  0
VERTEX
  8
AM_HID
  5
45D
 10
14.3546
 20
3.87035
 30
0.000000
  70
    32
  0
VERTEX
  8
AM_HID
  5
45E
 10
14.3543
 20
3.87209
 30
0.000000
  70
    32
  0
VERTEX
  8
AM_HID
  5
45F
 10
14.3540
 20
3.87383
 30
0.000000
  70
    32
  0
VERTEX
  8
AM_HID
  5
460
 10
14.3537
 20
3.87557
 30
0.000000
  70
    32
  0
VERTEX
  8
AM_HID
  5
461
 10
14.3534
 20
3.87731
 30
0.000000
  70
    32
  0
VERTEX
  8
AM_HID
  5
462
 10
14.3531
 20
3.87905
 30
0.000000
  70
    32
  0
VERTEX
  8
AM_HID
  5
463
 10
14.3529
 20
3.88080
 30
0.000000
  70
    32
  0
VERTEX
  8
AM_HID
  5
464
 10
14.3526
 20
3.88254
 30
0.000000
  70
    32
  0
VERTEX
  8
AM_HID
  5
465
 10
14.3523
 20
3.88428
 30
0.000000
  70
    32
  0
VERTEX
  8
AM_HID
  5
466
 10
14.3521
 20
3.88603
 30
0.000000
  70
    32
  0
VERTEX
  8
AM_HID
  5
467
 10
14.3518
 20
3.88778
 30
0.000000
  70
    32
  0
VERTEX
  8
AM_HID
  5
468
 10
14.3516
 20
3.88952
 30
0.000000
  70
    32
  0
VERTEX
  8
AM_HID
  5
469
 10
14.3513
 20
3.89127
 30
0.000000
  70
    32
  0
VERTEX
  8
AM_HID
  5
46A
 10
14.3511
 20
3.89302
 30
0.000000
  70
    32
  0
VERTEX
  8
AM_HID
  5
46B
 10
14.3509
 20
3.89477
 30
0.000000
  70
    32
  0
VERTEX
  8
AM_HID
  5
46C
 10
14.3507
 20
3.89652
 30
0.000000
  70
    32
  0
VERTEX
  8
AM_HID
  5
46D
 10
14.3505
 20
3.89827
 30
0.000000
  70
    32
  0
VERTEX
  8
AM_HID
  5
46E
 10
14.3503
 20
3.90002
 30
0.000000
  70
    32
  0
VERTEX
  8
AM_HID
  5
46F
 10
14.3501
 20
3.90177
 30
0.000000
  70
    32
  0
VERTEX
  8
AM_HID
  5
470
 10
14.3499
 20
3.90352
 30
0.000000
  70
    32
  0
VERTEX
  8
AM_HID
  5
471
 10
14.3497
 20
3.90527
 30
0.000000
  70
    32
  0
VERTEX
  8
AM_HID
  5
472
 10
14.3495
 20
3.90703
 30
0.000000
  70
    32
  0
VERTEX
  8
AM_HID
  5
473
 10
14.3494
 20
3.90878
 30
0.000000
  70
    32
  0
VERTEX
  8
AM_HID
  5
474
 10
14.3492
 20
3.91054
 30
0.000000
  70
    32
  0
VERTEX
  8
AM_HID
  5
475
 10
14.3491
 20
3.91229
 30
0.000000
  70
    32
  0
VERTEX
  8
AM_HID
  5
476
 10
14.3489
 20
3.91405
 30
0.000000
  70
    32
  0
VERTEX
  8
AM_HID
  5
477
 10
14.3488
 20
3.91580
 30
0.000000
  70
    32
  0
VERTEX
  8
AM_HID
  5
478
 10
14.3487
 20
3.91756
 30
0.000000
  70
    32
  0
VERTEX
  8
AM_HID
  5
479
 10
14.3486
 20
3.91932
 30
0.000000
  70
    32
  0
VERTEX
  8
AM_HID
  5
47A
 10
14.3484
 20
3.92108
 30
0.000000
  70
    32
  0
VERTEX
  8
AM_HID
  5
47B
 10
14.3483
 20
3.92283
 30
0.000000
  70
    32
  0
VERTEX
  8
AM_HID
  5
47C
 10
14.3482
 20
3.92459
 30
0.000000
  70
    32
  0
VERTEX
  8
AM_HID
  5
47D
 10
14.3482
 20
3.92635
 30
0.000000
  70
    32
  0
VERTEX
  8
AM_HID
  5
47E
 10
14.3481
 20
3.92811
 30
0.000000
  70
    32
  0
VERTEX
  8
AM_HID
  5
47F
 10
14.3480
 20
3.92987
 30
0.000000
  70
    32
  0
VERTEX
  8
AM_HID
  5
480
 10
14.3479
 20
3.93164
 30
0.000000
  70
    32
  0
VERTEX
  8
AM_HID
  5
481
 10
14.3479
 20
3.93340
 30
0.000000
  70
    32
  0
VERTEX
  8
AM_HID
  5
482
 10
14.3478
 20
3.93516
 30
0.000000
  70
    32
  0
VERTEX
  8
AM_HID
  5
483
 10
14.3478
 20
3.93692
 30
0.000000
  70
    32
  0
VERTEX
  8
AM_HID
  5
484
 10
14.3478
 20
3.93869
 30
0.000000
  70
    32
  0
VERTEX
  8
AM_HID
  5
485
 10
14.3477
 20
3.94045
 30
0.000000
  70
    32
  0
VERTEX
  8
AM_HID
  5
486
 10
14.3477
 20
3.94221
 30
0.000000
  70
    32
  0
VERTEX
  8
AM_HID
  5
487
 10
14.3477
 20
3.94398
 30
0.000000
  70
    32
  0
VERTEX
  8
AM_HID
  5
488
 10
14.3477
 20
3.94574
 30
0.000000
  70
    32
  0
VERTEX
  8
AM_HID
  5
489
 10
14.3477
 20
3.94751
 30
0.000000
  70
    32
  0
VERTEX
  8
AM_HID
  5
48A
 10
14.3477
 20
3.94927
 30
0.000000
  70
    32
  0
VERTEX
  8
AM_HID
  5
48B
 10
14.3478
 20
3.95103
 30
0.000000
  70
    32
  0
VERTEX
  8
AM_HID
  5
48C
 10
14.3478
 20
3.95280
 30
0.000000
  70
    32
  0
VERTEX
  8
AM_HID
  5
48D
 10
14.3478
 20
3.95456
 30
0.000000
  70
    32
  0
VERTEX
  8
AM_HID
  5
48E
 10
14.3479
 20
3.95632
 30
0.000000
  70
    32
  0
VERTEX
  8
AM_HID
  5
48F
 10
14.3479
 20
3.95808
 30
0.000000
  70
    32
  0
VERTEX
  8
AM_HID
  5
490
 10
14.3480
 20
3.95985
 30
0.000000
  70
    32
  0
VERTEX
  8
AM_HID
  5
491
 10
14.3481
 20
3.96161
 30
0.000000
  70
    32
  0
VERTEX
  8
AM_HID
  5
492
 10
14.3482
 20
3.96337
 30
0.000000
  70
    32
  0
VERTEX
  8
AM_HID
  5
493
 10
14.3482
 20
3.96513
 30
0.000000
  70
    32
  0
VERTEX
  8
AM_HID
  5
494
 10
14.3483
 20
3.96688
 30
0.000000
  70
    32
  0
VERTEX
  8
AM_HID
  5
495
 10
14.3484
 20
3.96864
 30
0.000000
  70
    32
  0
VERTEX
  8
AM_HID
  5
496
 10
14.3486
 20
3.97040
 30
0.000000
  70
    32
  0
VERTEX
  8
AM_HID
  5
497
 10
14.3487
 20
3.97216
 30
0.000000
  70
    32
  0
VERTEX
  8
AM_HID
  5
498
 10
14.3488
 20
3.97392
 30
0.000000
  70
    32
  0
VERTEX
  8
AM_HID
  5
499
 10
14.3489
 20
3.97567
 30
0.000000
  70
    32
  0
VERTEX
  8
AM_HID
  5
49A
 10
14.3491
 20
3.97743
 30
0.000000
  70
    32
  0
VERTEX
  8
AM_HID
  5
49B
 10
14.3492
 20
3.97918
 30
0.000000
  70
    32
  0
VERTEX
  8
AM_HID
  5
49C
 10
14.3494
 20
3.98094
 30
0.000000
  70
    32
  0
VERTEX
  8
AM_HID
  5
49D
 10
14.3495
 20
3.98269
 30
0.000000
  70
    32
  0
VERTEX
  8
AM_HID
  5
49E
 10
14.3497
 20
3.98445
 30
0.000000
  70
    32
  0
VERTEX
  8
AM_HID
  5
49F
 10
14.3499
 20
3.98620
 30
0.000000
  70
    32
  0
VERTEX
  8
AM_HID
  5
4A0
 10
14.3501
 20
3.98795
 30
0.000000
  70
    32
  0
VERTEX
  8
AM_HID
  5
4A1
 10
14.3503
 20
3.98970
 30
0.000000
  70
    32
  0
VERTEX
  8
AM_HID
  5
4A2
 10
14.3505
 20
3.99145
 30
0.000000
  70
    32
  0
VERTEX
  8
AM_HID
  5
4A3
 10
14.3507
 20
3.99320
 30
0.000000
  70
    32
  0
VERTEX
  8
AM_HID
  5
4A4
 10
14.3509
 20
3.99495
 30
0.000000
  70
    32
  0
VERTEX
  8
AM_HID
  5
4A5
 10
14.3511
 20
3.99670
 30
0.000000
  70
    32
  0
VERTEX
  8
AM_HID
  5
4A6
 10
14.3513
 20
3.99845
 30
0.000000
  70
    32
  0
VERTEX
  8
AM_HID
  5
4A7
 10
14.3516
 20
4.00020
 30
0.000000
  70
    32
  0
VERTEX
  8
AM_HID
  5
4A8
 10
14.3518
 20
4.00194
 30
0.000000
  70
    32
  0
VERTEX
  8
AM_HID
  5
4A9
 10
14.3521
 20
4.00369
 30
0.000000
  70
    32
  0
VERTEX
  8
AM_HID
  5
4AA
 10
14.3523
 20
4.00544
 30
0.000000
  70
    32
  0
VERTEX
  8
AM_HID
  5
4AB
 10
14.3526
 20
4.00718
 30
0.000000
  70
    32
  0
VERTEX
  8
AM_HID
  5
4AC
 10
14.3529
 20
4.00892
 30
0.000000
  70
    32
  0
VERTEX
  8
AM_HID
  5
4AD
 10
14.3531
 20
4.01067
 30
0.000000
  70
    32
  0
VERTEX
  8
AM_HID
  5
4AE
 10
14.3534
 20
4.01241
 30
0.000000
  70
    32
  0
VERTEX
  8
AM_HID
  5
4AF
 10
14.3537
 20
4.01415
 30
0.000000
  70
    32
  0
VERTEX
  8
AM_HID
  5
4B0
 10
14.3540
 20
4.01589
 30
0.000000
  70
    32
  0
VERTEX
  8
AM_HID
  5
4B1
 10
14.3543
 20
4.01763
 30
0.000000
  70
    32
  0
VERTEX
  8
AM_HID
  5
4B2
 10
14.3546
 20
4.01937
 30
0.000000
  70
    32
  0
VERTEX
  8
AM_HID
  5
4B3
 10
14.3549
 20
4.02111
 30
0.000000
  70
    32
  0
VERTEX
  8
AM_HID
  5
4B4
 10
14.3553
 20
4.02285
 30
0.000000
  70
    32
  0
VERTEX
  8
AM_HID
  5
4B5
 10
14.3556
 20
4.02459
 30
0.000000
  70
    32
  0
VERTEX
  8
AM_HID
  5
4B6
 10
14.3559
 20
4.02632
 30
0.000000
  70
    32
  0
VERTEX
  8
AM_HID
  5
4B7
 10
14.3563
 20
4.02806
 30
0.000000
  70
    32
  0
VERTEX
  8
AM_HID
  5
4B8
 10
14.3566
 20
4.02979
 30
0.000000
  70
    32
  0
VERTEX
  8
AM_HID
  5
4B9
 10
14.3570
 20
4.03153
 30
0.000000
  70
    32
  0
VERTEX
  8
AM_HID
  5
4BA
 10
14.3574
 20
4.03326
 30
0.000000
  70
    32
  0
VERTEX
  8
AM_HID
  5
4BB
 10
14.3577
 20
4.03499
 30
0.000000
  70
    32
  0
VERTEX
  8
AM_HID
  5
4BC
 10
14.3581
 20
4.03673
 30
0.000000
  70
    32
  0
VERTEX
  8
AM_HID
  5
4BD
 10
14.3585
 20
4.03846
 30
0.000000
  70
    32
  0
VERTEX
  8
AM_HID
  5
4BE
 10
14.3589
 20
4.04019
 30
0.000000
  70
    32
  0
VERTEX
  8
AM_HID
  5
4BF
 10
14.3593
 20
4.04191
 30
0.000000
  70
    32
  0
VERTEX
  8
AM_HID
  5
4C0
 10
14.3597
 20
4.04364
 30
0.000000
  70
    32
  0
VERTEX
  8
AM_HID
  5
4C1
 10
14.3601
 20
4.04537
 30
0.000000
  70
    32
  0
VERTEX
  8
AM_HID
  5
4C2
 10
14.3605
 20
4.04710
 30
0.000000
  70
    32
  0
VERTEX
  8
AM_HID
  5
4C3
 10
14.3609
 20
4.04882
 30
0.000000
  70
    32
  0
VERTEX
  8
AM_HID
  5
4C4
 10
14.3614
 20
4.05055
 30
0.000000
  70
    32
  0
VERTEX
  8
AM_HID
  5
4C5
 10
14.3618
 20
4.05227
 30
0.000000
  70
    32
  0
VERTEX
  8
AM_HID
  5
4C6
 10
14.3622
 20
4.05399
 30
0.000000
  70
    32
  0
VERTEX
  8
AM_HID
  5
4C7
 10
14.3627
 20
4.05571
 30
0.000000
  70
    32
  0
VERTEX
  8
AM_HID
  5
4C8
 10
14.3631
 20
4.05744
 30
0.000000
  70
    32
  0
VERTEX
  8
AM_HID
  5
4C9
 10
14.3636
 20
4.05916
 30
0.000000
  70
    32
  0
VERTEX
  8
AM_HID
  5
4CA
 10
14.3641
 20
4.06087
 30
0.000000
  70
    32
  0
VERTEX
  8
AM_HID
  5
4CB
 10
14.3645
 20
4.06259
 30
0.000000
  70
    32
  0
VERTEX
  8
AM_HID
  5
4CC
 10
14.3650
 20
4.06431
 30
0.000000
  70
    32
  0
VERTEX
  8
AM_HID
  5
4CD
 10
14.3655
 20
4.06603
 30
0.000000
  70
    32
  0
VERTEX
  8
AM_HID
  5
4CE
 10
14.3660
 20
4.06774
 30
0.000000
  70
    32
  0
VERTEX
  8
AM_HID
  5
4CF
 10
14.3665
 20
4.06945
 30
0.000000
  70
    32
  0
VERTEX
  8
AM_HID
  5
4D0
 10
14.3670
 20
4.07117
 30
0.000000
  70
    32
  0
VERTEX
  8
AM_HID
  5
4D1
 10
14.3675
 20
4.07288
 30
0.000000
  70
    32
  0
VERTEX
  8
AM_HID
  5
4D2
 10
14.3680
 20
4.07459
 30
0.000000
  70
    32
  0
VERTEX
  8
AM_HID
  5
4D3
 10
14.3685
 20
4.07630
 30
0.000000
  70
    32
  0
VERTEX
  8
AM_HID
  5
4D4
 10
14.3690
 20
4.07801
 30
0.000000
  70
    32
  0
VERTEX
  8
AM_HID
  5
4D5
 10
14.3696
 20
4.07972
 30
0.000000
  70
    32
  0
VERTEX
  8
AM_HID
  5
4D6
 10
14.3701
 20
4.08143
 30
0.000000
  70
    32
  0
VERTEX
  8
AM_HID
  5
4D7
 10
14.3706
 20
4.08313
 30
0.000000
  70
    32
  0
VERTEX
  8
AM_HID
  5
4D8
 10
14.3712
 20
4.08484
 30
0.000000
  70
    32
  0
VERTEX
  8
AM_HID
  5
4D9
 10
14.3717
 20
4.08654
 30
0.000000
  70
    32
  0
VERTEX
  8
AM_HID
  5
4DA
 10
14.3723
 20
4.08824
 30
0.000000
  70
    32
  0
VERTEX
  8
AM_HID
  5
4DB
 10
14.3729
 20
4.08994
 30
0.000000
  70
    32
  0
VERTEX
  8
AM_HID
  5
4DC
 10
14.3734
 20
4.09165
 30
0.000000
  70
    32
  0
VERTEX
  8
AM_HID
  5
4DD
 10
14.3740
 20
4.09334
 30
0.000000
  70
    32
  0
VERTEX
  8
AM_HID
  5
4DE
 10
14.3746
 20
4.09504
 30
0.000000
  70
    32
  0
VERTEX
  8
AM_HID
  5
4DF
 10
14.3752
 20
4.09674
 30
0.000000
  70
    32
  0
VERTEX
  8
AM_HID
  5
4E0
 10
14.3758
 20
4.09844
 30
0.000000
  70
    32
  0
VERTEX
  8
AM_HID
  5
4E1
 10
14.3763
 20
4.10013
 30
0.000000
  70
    32
  0
VERTEX
  8
AM_HID
  5
4E2
 10
14.3769
 20
4.10183
 30
0.000000
  70
    32
  0
VERTEX
  8
AM_HID
  5
4E3
 10
14.3776
 20
4.10352
 30
0.000000
  70
    32
  0
VERTEX
  8
AM_HID
  5
4E4
 10
14.3782
 20
4.10521
 30
0.000000
  70
    32
  0
VERTEX
  8
AM_HID
  5
4E5
 10
14.3788
 20
4.10690
 30
0.000000
  70
    32
  0
VERTEX
  8
AM_HID
  5
4E6
 10
14.3794
 20
4.10859
 30
0.000000
  70
    32
  0
VERTEX
  8
AM_HID
  5
4E7
 10
14.3800
 20
4.11028
 30
0.000000
  70
    32
  0
VERTEX
  8
AM_HID
  5
4E8
 10
14.3807
 20
4.11197
 30
0.000000
  70
    32
  0
VERTEX
  8
AM_HID
  5
4E9
 10
14.3813
 20
4.11365
 30
0.000000
  70
    32
  0
VERTEX
  8
AM_HID
  5
4EA
 10
14.3819
 20
4.11534
 30
0.000000
  70
    32
  0
VERTEX
  8
AM_HID
  5
4EB
 10
14.3826
 20
4.11702
 30
0.000000
  70
    32
  0
VERTEX
  8
AM_HID
  5
4EC
 10
14.3832
 20
4.11870
 30
0.000000
  70
    32
  0
VERTEX
  8
AM_HID
  5
4ED
 10
14.3839
 20
4.12038
 30
0.000000
  70
    32
  0
VERTEX
  8
AM_HID
  5
4EE
 10
14.3845
 20
4.12206
 30
0.000000
  70
    32
  0
VERTEX
  8
AM_HID
  5
4EF
 10
14.3852
 20
4.12374
 30
0.000000
  70
    32
  0
VERTEX
  8
AM_HID
  5
4F0
 10
14.3859
 20
4.12542
 30
0.000000
  70
    32
  0
VERTEX
  8
AM_HID
  5
4F1
 10
14.3865
 20
4.12709
 30
0.000000
  70
    32
  0
VERTEX
  8
AM_HID
  5
4F2
 10
14.3872
 20
4.12877
 30
0.000000
  70
    32
  0
VERTEX
  8
AM_HID
  5
4F3
 10
14.3879
 20
4.13044
 30
0.000000
  70
    32
  0
VERTEX
  8
AM_HID
  5
4F4
 10
14.3886
 20
4.13211
 30
0.000000
  70
    32
  0
VERTEX
  8
AM_HID
  5
4F5
 10
14.3893
 20
4.13379
 30
0.000000
  70
    32
  0
VERTEX
  8
AM_HID
  5
4F6
 10
14.3900
 20
4.13546
 30
0.000000
  70
    32
  0
VERTEX
  8
AM_HID
  5
4F7
 10
14.3907
 20
4.13712
 30
0.000000
  70
    32
  0
VERTEX
  8
AM_HID
  5
4F8
 10
14.3914
 20
4.13879
 30
0.000000
  70
    32
  0
VERTEX
  8
AM_HID
  5
4F9
 10
14.3921
 20
4.14046
 30
0.000000
  70
    32
  0
VERTEX
  8
AM_HID
  5
4FA
 10
14.3928
 20
4.14212
 30
0.000000
  70
    32
  0
VERTEX
  8
AM_HID
  5
4FB
 10
14.3935
 20
4.14378
 30
0.000000
  70
    32
  0
VERTEX
  8
AM_HID
  5
4FC
 10
14.3943
 20
4.14545
 30
0.000000
  70
    32
  0
VERTEX
  8
AM_HID
  5
4FD
 10
14.3950
 20
4.14711
 30
0.000000
  70
    32
  0
VERTEX
  8
AM_HID
  5
4FE
 10
14.3957
 20
4.14877
 30
0.000000
  70
    32
  0
VERTEX
  8
AM_HID
  5
4FF
 10
14.3965
 20
4.15042
 30
0.000000
  70
    32
  0
VERTEX
  8
AM_HID
  5
500
 10
14.3972
 20
4.15208
 30
0.000000
  70
    32
  0
VERTEX
  8
AM_HID
  5
501
 10
14.3979
 20
4.15373
 30
0.000000
  70
    32
  0
VERTEX
  8
AM_HID
  5
502
 10
14.3987
 20
4.15539
 30
0.000000
  70
    32
  0
VERTEX
  8
AM_HID
  5
503
 10
14.3994
 20
4.15704
 30
0.000000
  70
    32
  0
VERTEX
  8
AM_HID
  5
504
 10
14.4002
 20
4.15869
 30
0.000000
  70
    32
  0
VERTEX
  8
AM_HID
  5
505
 10
14.4010
 20
4.16034
 30
0.000000
  70
    32
  0
VERTEX
  8
AM_HID
  5
506
 10
14.4017
 20
4.16199
 30
0.000000
  70
    32
  0
VERTEX
  8
AM_HID
  5
507
 10
14.4025
 20
4.16364
 30
0.000000
  70
    32
  0
VERTEX
  8
AM_HID
  5
508
 10
14.4033
 20
4.16528
 30
0.000000
  70
    32
  0
VERTEX
  8
AM_HID
  5
509
 10
14.4041
 20
4.16692
 30
0.000000
  70
    32
  0
VERTEX
  8
AM_HID
  5
50A
 10
14.4048
 20
4.16857
 30
0.000000
  70
    32
  0
VERTEX
  8
AM_HID
  5
50B
 10
14.4056
 20
4.17021
 30
0.000000
  70
    32
  0
VERTEX
  8
AM_HID
  5
50C
 10
14.4064
 20
4.17185
 30
0.000000
  70
    32
  0
VERTEX
  8
AM_HID
  5
50D
 10
14.4072
 20
4.17349
 30
0.000000
  70
    32
  0
VERTEX
  8
AM_HID
  5
50E
 10
14.4080
 20
4.17512
 30
0.000000
  70
    32
  0
VERTEX
  8
AM_HID
  5
50F
 10
14.4088
 20
4.17676
 30
0.000000
  70
    32
  0
VERTEX
  8
AM_HID
  5
510
 10
14.4096
 20
4.17839
 30
0.000000
  70
    32
  0
VERTEX
  8
AM_HID
  5
511
 10
14.4104
 20
4.18002
 30
0.000000
  70
    32
  0
VERTEX
  8
AM_HID
  5
512
 10
14.4112
 20
4.18165
 30
0.000000
  70
    32
  0
VERTEX
  8
AM_HID
  5
513
 10
14.4120
 20
4.18328
 30
0.000000
  70
    32
  0
VERTEX
  8
AM_HID
  5
514
 10
14.4129
 20
4.18491
 30
0.000000
  70
    32
  0
VERTEX
  8
AM_HID
  5
515
 10
14.4137
 20
4.18654
 30
0.000000
  70
    32
  0
VERTEX
  8
AM_HID
  5
516
 10
14.4145
 20
4.18816
 30
0.000000
  70
    32
  0
VERTEX
  8
AM_HID
  5
517
 10
14.4153
 20
4.18978
 30
0.000000
  70
    32
  0
VERTEX
  8
AM_HID
  5
518
 10
14.4162
 20
4.19141
 30
0.000000
  70
    32
  0
VERTEX
  8
AM_HID
  5
519
 10
14.4170
 20
4.19303
 30
0.000000
  70
    32
  0
VERTEX
  8
AM_HID
  5
51A
 10
14.4179
 20
4.19464
 30
0.000000
  70
    32
  0
VERTEX
  8
AM_HID
  5
51B
 10
14.4187
 20
4.19626
 30
0.000000
  70
    32
  0
VERTEX
  8
AM_HID
  5
51C
 10
14.4195
 20
4.19788
 30
0.000000
  70
    32
  0
VERTEX
  8
AM_HID
  5
51D
 10
14.4204
 20
4.19949
 30
0.000000
  70
    32
  0
VERTEX
  8
AM_HID
  5
51E
 10
14.4212
 20
4.20110
 30
0.000000
  70
    32
  0
VERTEX
  8
AM_HID
  5
51F
 10
14.4221
 20
4.20271
 30
0.000000
  70
    32
  0
VERTEX
  8
AM_HID
  5
520
 10
14.4230
 20
4.20432
 30
0.000000
  70
    32
  0
VERTEX
  8
AM_HID
  5
521
 10
14.4238
 20
4.20593
 30
0.000000
  70
    32
  0
VERTEX
  8
AM_HID
  5
522
 10
14.4247
 20
4.20754
 30
0.000000
  70
    32
  0
VERTEX
  8
AM_HID
  5
523
 10
14.4256
 20
4.20914
 30
0.000000
  70
    32
  0
VERTEX
  8
AM_HID
  5
524
 10
14.4264
 20
4.21074
 30
0.000000
  70
    32
  0
VERTEX
  8
AM_HID
  5
525
 10
14.4273
 20
4.21235
 30
0.000000
  70
    32
  0
VERTEX
  8
AM_HID
  5
526
 10
14.4282
 20
4.21395
 30
0.000000
  70
    32
  0
VERTEX
  8
AM_HID
  5
527
 10
14.4291
 20
4.21554
 30
0.000000
  70
    32
  0
SEQEND
  8
AM_HID
  5
528
  0
ARC
  5
31
  8
AM_VIS
 10
19.64738357977172
 20
5.8980671110569309
 30
0.0
 40
5.5055873999963136
 50
211.6972037950315
 51
214.0919191061223
  0
POLYLINE
  8
AM_VIS
  5
529
  66
     1
 10
0.000000
 20
0.000000
 30
0.000000
  70
     8
  0
VERTEX
  8
AM_VIS
  5
52A
 10
14.4291
 20
3.67418
 30
0.000000
  70
    32
  0
VERTEX
  8
AM_VIS
  5
52B
 10
14.4306
 20
3.67142
 30
0.000000
  70
    32
  0
VERTEX
  8
AM_VIS
  5
52C
 10
14.4321
 20
3.66867
 30
0.000000
  70
    32
  0
VERTEX
  8
AM_VIS
  5
52D
 10
14.4337
 20
3.66592
 30
0.000000
  70
    32
  0
VERTEX
  8
AM_VIS
  5
52E
 10
14.4352
 20
3.66318
 30
0.000000
  70
    32
  0
VERTEX
  8
AM_VIS
  5
52F
 10
14.4368
 20
3.66044
 30
0.000000
  70
    32
  0
VERTEX
  8
AM_VIS
  5
530
 10
14.4383
 20
3.65771
 30
0.000000
  70
    32
  0
VERTEX
  8
AM_VIS
  5
531
 10
14.4399
 20
3.65498
 30
0.000000
  70
    32
  0
VERTEX
  8
AM_VIS
  5
532
 10
14.4415
 20
3.65226
 30
0.000000
  70
    32
  0
VERTEX
  8
AM_VIS
  5
533
 10
14.4430
 20
3.64954
 30
0.000000
  70
    32
  0
VERTEX
  8
AM_VIS
  5
534
 10
14.4446
 20
3.64682
 30
0.000000
  70
    32
  0
VERTEX
  8
AM_VIS
  5
535
 10
14.4462
 20
3.64411
 30
0.000000
  70
    32
  0
VERTEX
  8
AM_VIS
  5
536
 10
14.4478
 20
3.64141
 30
0.000000
  70
    32
  0
VERTEX
  8
AM_VIS
  5
537
 10
14.4494
 20
3.63871
 30
0.000000
  70
    32
  0
VERTEX
  8
AM_VIS
  5
538
 10
14.4510
 20
3.63602
 30
0.000000
  70
    32
  0
VERTEX
  8
AM_VIS
  5
539
 10
14.4527
 20
3.63333
 30
0.000000
  70
    32
  0
VERTEX
  8
AM_VIS
  5
53A
 10
14.4543
 20
3.63065
 30
0.000000
  70
    32
  0
VERTEX
  8
AM_VIS
  5
53B
 10
14.4559
 20
3.62797
 30
0.000000
  70
    32
  0
VERTEX
  8
AM_VIS
  5
53C
 10
14.4576
 20
3.62529
 30
0.000000
  70
    32
  0
VERTEX
  8
AM_VIS
  5
53D
 10
14.4592
 20
3.62263
 30
0.000000
  70
    32
  0
VERTEX
  8
AM_VIS
  5
53E
 10
14.4608
 20
3.61996
 30
0.000000
  70
    32
  0
VERTEX
  8
AM_VIS
  5
53F
 10
14.4625
 20
3.61731
 30
0.000000
  70
    32
  0
VERTEX
  8
AM_VIS
  5
540
 10
14.4641
 20
3.61466
 30
0.000000
  70
    32
  0
VERTEX
  8
AM_VIS
  5
541
 10
14.4658
 20
3.61201
 30
0.000000
  70
    32
  0
VERTEX
  8
AM_VIS
  5
542
 10
14.4675
 20
3.60937
 30
0.000000
  70
    32
  0
VERTEX
  8
AM_VIS
  5
543
 10
14.4691
 20
3.60674
 30
0.000000
  70
    32
  0
VERTEX
  8
AM_VIS
  5
544
 10
14.4708
 20
3.60411
 30
0.000000
  70
    32
  0
VERTEX
  8
AM_VIS
  5
545
 10
14.4725
 20
3.60148
 30
0.000000
  70
    32
  0
VERTEX
  8
AM_VIS
  5
546
 10
14.4742
 20
3.59887
 30
0.000000
  70
    32
  0
VERTEX
  8
AM_VIS
  5
547
 10
14.4759
 20
3.59625
 30
0.000000
  70
    32
  0
VERTEX
  8
AM_VIS
  5
548
 10
14.4776
 20
3.59365
 30
0.000000
  70
    32
  0
VERTEX
  8
AM_VIS
  5
549
 10
14.4792
 20
3.59105
 30
0.000000
  70
    32
  0
VERTEX
  8
AM_VIS
  5
54A
 10
14.4809
 20
3.58845
 30
0.000000
  70
    32
  0
VERTEX
  8
AM_VIS
  5
54B
 10
14.4826
 20
3.58586
 30
0.000000
  70
    32
  0
VERTEX
  8
AM_VIS
  5
54C
 10
14.4844
 20
3.58328
 30
0.000000
  70
    32
  0
VERTEX
  8
AM_VIS
  5
54D
 10
14.4861
 20
3.58071
 30
0.000000
  70
    32
  0
VERTEX
  8
AM_VIS
  5
54E
 10
14.4878
 20
3.57814
 30
0.000000
  70
    32
  0
VERTEX
  8
AM_VIS
  5
54F
 10
14.4895
 20
3.57557
 30
0.000000
  70
    32
  0
VERTEX
  8
AM_VIS
  5
550
 10
14.4912
 20
3.57301
 30
0.000000
  70
    32
  0
VERTEX
  8
AM_VIS
  5
551
 10
14.4929
 20
3.57046
 30
0.000000
  70
    32
  0
VERTEX
  8
AM_VIS
  5
552
 10
14.4946
 20
3.56792
 30
0.000000
  70
    32
  0
VERTEX
  8
AM_VIS
  5
553
 10
14.4964
 20
3.56538
 30
0.000000
  70
    32
  0
VERTEX
  8
AM_VIS
  5
554
 10
14.4981
 20
3.56285
 30
0.000000
  70
    32
  0
VERTEX
  8
AM_VIS
  5
555
 10
14.4998
 20
3.56032
 30
0.000000
  70
    32
  0
VERTEX
  8
AM_VIS
  5
556
 10
14.5015
 20
3.55780
 30
0.000000
  70
    32
  0
VERTEX
  8
AM_VIS
  5
557
 10
14.5033
 20
3.55529
 30
0.000000
  70
    32
  0
VERTEX
  8
AM_VIS
  5
558
 10
14.5050
 20
3.55278
 30
0.000000
  70
    32
  0
VERTEX
  8
AM_VIS
  5
559
 10
14.5067
 20
3.55028
 30
0.000000
  70
    32
  0
VERTEX
  8
AM_VIS
  5
55A
 10
14.5085
 20
3.54779
 30
0.000000
  70
    32
  0
VERTEX
  8
AM_VIS
  5
55B
 10
14.5102
 20
3.54530
 30
0.000000
  70
    32
  0
VERTEX
  8
AM_VIS
  5
55C
 10
14.5119
 20
3.54282
 30
0.000000
  70
    32
  0
VERTEX
  8
AM_VIS
  5
55D
 10
14.5137
 20
3.54035
 30
0.000000
  70
    32
  0
VERTEX
  8
AM_VIS
  5
55E
 10
14.5154
 20
3.53788
 30
0.000000
  70
    32
  0
VERTEX
  8
AM_VIS
  5
55F
 10
14.5172
 20
3.53542
 30
0.000000
  70
    32
  0
VERTEX
  8
AM_VIS
  5
560
 10
14.5189
 20
3.53297
 30
0.000000
  70
    32
  0
VERTEX
  8
AM_VIS
  5
561
 10
14.5206
 20
3.53053
 30
0.000000
  70
    32
  0
VERTEX
  8
AM_VIS
  5
562
 10
14.5224
 20
3.52809
 30
0.000000
  70
    32
  0
VERTEX
  8
AM_VIS
  5
563
 10
14.5241
 20
3.52566
 30
0.000000
  70
    32
  0
VERTEX
  8
AM_VIS
  5
564
 10
14.5259
 20
3.52323
 30
0.000000
  70
    32
  0
VERTEX
  8
AM_VIS
  5
565
 10
14.5276
 20
3.52082
 30
0.000000
  70
    32
  0
VERTEX
  8
AM_VIS
  5
566
 10
14.5293
 20
3.51841
 30
0.000000
  70
    32
  0
VERTEX
  8
AM_VIS
  5
567
 10
14.5311
 20
3.51600
 30
0.000000
  70
    32
  0
VERTEX
  8
AM_VIS
  5
568
 10
14.5328
 20
3.51361
 30
0.000000
  70
    32
  0
VERTEX
  8
AM_VIS
  5
569
 10
14.5345
 20
3.51122
 30
0.000000
  70
    32
  0
VERTEX
  8
AM_VIS
  5
56A
 10
14.5363
 20
3.50884
 30
0.000000
  70
    32
  0
VERTEX
  8
AM_VIS
  5
56B
 10
14.5380
 20
3.50647
 30
0.000000
  70
    32
  0
VERTEX
  8
AM_VIS
  5
56C
 10
14.5397
 20
3.50410
 30
0.000000
  70
    32
  0
VERTEX
  8
AM_VIS
  5
56D
 10
14.5415
 20
3.50175
 30
0.000000
  70
    32
  0
VERTEX
  8
AM_VIS
  5
56E
 10
14.5432
 20
3.49940
 30
0.000000
  70
    32
  0
VERTEX
  8
AM_VIS
  5
56F
 10
14.5449
 20
3.49705
 30
0.000000
  70
    32
  0
VERTEX
  8
AM_VIS
  5
570
 10
14.5467
 20
3.49472
 30
0.000000
  70
    32
  0
VERTEX
  8
AM_VIS
  5
571
 10
14.5484
 20
3.49239
 30
0.000000
  70
    32
  0
VERTEX
  8
AM_VIS
  5
572
 10
14.5501
 20
3.49007
 30
0.000000
  70
    32
  0
VERTEX
  8
AM_VIS
  5
573
 10
14.5518
 20
3.48776
 30
0.000000
  70
    32
  0
VERTEX
  8
AM_VIS
  5
574
 10
14.5536
 20
3.48546
 30
0.000000
  70
    32
  0
VERTEX
  8
AM_VIS
  5
575
 10
14.5553
 20
3.48316
 30
0.000000
  70
    32
  0
VERTEX
  8
AM_VIS
  5
576
 10
14.5570
 20
3.48088
 30
0.000000
  70
    32
  0
VERTEX
  8
AM_VIS
  5
577
 10
14.5587
 20
3.47860
 30
0.000000
  70
    32
  0
VERTEX
  8
AM_VIS
  5
578
 10
14.5604
 20
3.47632
 30
0.000000
  70
    32
  0
VERTEX
  8
AM_VIS
  5
579
 10
14.5621
 20
3.47405
 30
0.000000
  70
    32
  0
VERTEX
  8
AM_VIS
  5
57A
 10
14.5638
 20
3.47178
 30
0.000000
  70
    32
  0
VERTEX
  8
AM_VIS
  5
57B
 10
14.5655
 20
3.46951
 30
0.000000
  70
    32
  0
VERTEX
  8
AM_VIS
  5
57C
 10
14.5673
 20
3.46724
 30
0.000000
  70
    32
  0
VERTEX
  8
AM_VIS
  5
57D
 10
14.5690
 20
3.46496
 30
0.000000
  70
    32
  0
VERTEX
  8
AM_VIS
  5
57E
 10
14.5707
 20
3.46269
 30
0.000000
  70
    32
  0
VERTEX
  8
AM_VIS
  5
57F
 10
14.5725
 20
3.46042
 30
0.000000
  70
    32
  0
VERTEX
  8
AM_VIS
  5
580
 10
14.5742
 20
3.45815
 30
0.000000
  70
    32
  0
VERTEX
  8
AM_VIS
  5
581
 10
14.5759
 20
3.45587
 30
0.000000
  70
    32
  0
VERTEX
  8
AM_VIS
  5
582
 10
14.5777
 20
3.45360
 30
0.000000
  70
    32
  0
VERTEX
  8
AM_VIS
  5
583
 10
14.5794
 20
3.45133
 30
0.000000
  70
    32
  0
VERTEX
  8
AM_VIS
  5
584
 10
14.5812
 20
3.44906
 30
0.000000
  70
    32
  0
VERTEX
  8
AM_VIS
  5
585
 10
14.5829
 20
3.44679
 30
0.000000
  70
    32
  0
VERTEX
  8
AM_VIS
  5
586
 10
14.5847
 20
3.44452
 30
0.000000
  70
    32
  0
VERTEX
  8
AM_VIS
  5
587
 10
14.5864
 20
3.44225
 30
0.000000
  70
    32
  0
VERTEX
  8
AM_VIS
  5
588
 10
14.5882
 20
3.43998
 30
0.000000
  70
    32
  0
VERTEX
  8
AM_VIS
  5
589
 10
14.5900
 20
3.43771
 30
0.000000
  70
    32
  0
VERTEX
  8
AM_VIS
  5
58A
 10
14.5917
 20
3.43544
 30
0.000000
  70
    32
  0
VERTEX
  8
AM_VIS
  5
58B
 10
14.5935
 20
3.43317
 30
0.000000
  70
    32
  0
VERTEX
  8
AM_VIS
  5
58C
 10
14.5953
 20
3.43091
 30
0.000000
  70
    32
  0
VERTEX
  8
AM_VIS
  5
58D
 10
14.5970
 20
3.42864
 30
0.000000
  70
    32
  0
VERTEX
  8
AM_VIS
  5
58E
 10
14.5988
 20
3.42637
 30
0.000000
  70
    32
  0
VERTEX
  8
AM_VIS
  5
58F
 10
14.6006
 20
3.42411
 30
0.000000
  70
    32
  0
VERTEX
  8
AM_VIS
  5
590
 10
14.6024
 20
3.42184
 30
0.000000
  70
    32
  0
VERTEX
  8
AM_VIS
  5
591
 10
14.6041
 20
3.41958
 30
0.000000
  70
    32
  0
VERTEX
  8
AM_VIS
  5
592
 10
14.6059
 20
3.41732
 30
0.000000
  70
    32
  0
VERTEX
  8
AM_VIS
  5
593
 10
14.6077
 20
3.41505
 30
0.000000
  70
    32
  0
VERTEX
  8
AM_VIS
  5
594
 10
14.6095
 20
3.41279
 30
0.000000
  70
    32
  0
VERTEX
  8
AM_VIS
  5
595
 10
14.6113
 20
3.41053
 30
0.000000
  70
    32
  0
VERTEX
  8
AM_VIS
  5
596
 10
14.6131
 20
3.40827
 30
0.000000
  70
    32
  0
VERTEX
  8
AM_VIS
  5
597
 10
14.6149
 20
3.40601
 30
0.000000
  70
    32
  0
VERTEX
  8
AM_VIS
  5
598
 10
14.6167
 20
3.40375
 30
0.000000
  70
    32
  0
VERTEX
  8
AM_VIS
  5
599
 10
14.6185
 20
3.40150
 30
0.000000
  70
    32
  0
VERTEX
  8
AM_VIS
  5
59A
 10
14.6203
 20
3.39924
 30
0.000000
  70
    32
  0
VERTEX
  8
AM_VIS
  5
59B
 10
14.6221
 20
3.39699
 30
0.000000
  70
    32
  0
VERTEX
  8
AM_VIS
  5
59C
 10
14.6239
 20
3.39473
 30
0.000000
  70
    32
  0
VERTEX
  8
AM_VIS
  5
59D
 10
14.6257
 20
3.39248
 30
0.000000
  70
    32
  0
VERTEX
  8
AM_VIS
  5
59E
 10
14.6275
 20
3.39023
 30
0.000000
  70
    32
  0
VERTEX
  8
AM_VIS
  5
59F
 10
14.6293
 20
3.38798
 30
0.000000
  70
    32
  0
VERTEX
  8
AM_VIS
  5
5A0
 10
14.6311
 20
3.38573
 30
0.000000
  70
    32
  0
VERTEX
  8
AM_VIS
  5
5A1
 10
14.6329
 20
3.38348
 30
0.000000
  70
    32
  0
VERTEX
  8
AM_VIS
  5
5A2
 10
14.6348
 20
3.38123
 30
0.000000
  70
    32
  0
VERTEX
  8
AM_VIS
  5
5A3
 10
14.6366
 20
3.37899
 30
0.000000
  70
    32
  0
VERTEX
  8
AM_VIS
  5
5A4
 10
14.6384
 20
3.37675
 30
0.000000
  70
    32
  0
VERTEX
  8
AM_VIS
  5
5A5
 10
14.6402
 20
3.37450
 30
0.000000
  70
    32
  0
VERTEX
  8
AM_VIS
  5
5A6
 10
14.6420
 20
3.37226
 30
0.000000
  70
    32
  0
VERTEX
  8
AM_VIS
  5
5A7
 10
14.6439
 20
3.37003
 30
0.000000
  70
    32
  0
VERTEX
  8
AM_VIS
  5
5A8
 10
14.6457
 20
3.36779
 30
0.000000
  70
    32
  0
VERTEX
  8
AM_VIS
  5
5A9
 10
14.6475
 20
3.36555
 30
0.000000
  70
    32
  0
VERTEX
  8
AM_VIS
  5
5AA
 10
14.6493
 20
3.36332
 30
0.000000
  70
    32
  0
VERTEX
  8
AM_VIS
  5
5AB
 10
14.6512
 20
3.36108
 30
0.000000
  70
    32
  0
VERTEX
  8
AM_VIS
  5
5AC
 10
14.6530
 20
3.35885
 30
0.000000
  70
    32
  0
VERTEX
  8
AM_VIS
  5
5AD
 10
14.6548
 20
3.35662
 30
0.000000
  70
    32
  0
VERTEX
  8
AM_VIS
  5
5AE
 10
14.6566
 20
3.35440
 30
0.000000
  70
    32
  0
VERTEX
  8
AM_VIS
  5
5AF
 10
14.6585
 20
3.35217
 30
0.000000
  70
    32
  0
VERTEX
  8
AM_VIS
  5
5B0
 10
14.6603
 20
3.34995
 30
0.000000
  70
    32
  0
VERTEX
  8
AM_VIS
  5
5B1
 10
14.6621
 20
3.34773
 30
0.000000
  70
    32
  0
VERTEX
  8
AM_VIS
  5
5B2
 10
14.6640
 20
3.34551
 30
0.000000
  70
    32
  0
VERTEX
  8
AM_VIS
  5
5B3
 10
14.6658
 20
3.34329
 30
0.000000
  70
    32
  0
VERTEX
  8
AM_VIS
  5
5B4
 10
14.6676
 20
3.34107
 30
0.000000
  70
    32
  0
VERTEX
  8
AM_VIS
  5
5B5
 10
14.6695
 20
3.33886
 30
0.000000
  70
    32
  0
VERTEX
  8
AM_VIS
  5
5B6
 10
14.6713
 20
3.33665
 30
0.000000
  70
    32
  0
VERTEX
  8
AM_VIS
  5
5B7
 10
14.6731
 20
3.33444
 30
0.000000
  70
    32
  0
VERTEX
  8
AM_VIS
  5
5B8
 10
14.6750
 20
3.33223
 30
0.000000
  70
    32
  0
VERTEX
  8
AM_VIS
  5
5B9
 10
14.6768
 20
3.33002
 30
0.000000
  70
    32
  0
VERTEX
  8
AM_VIS
  5
5BA
 10
14.6786
 20
3.32782
 30
0.000000
  70
    32
  0
VERTEX
  8
AM_VIS
  5
5BB
 10
14.6805
 20
3.32562
 30
0.000000
  70
    32
  0
VERTEX
  8
AM_VIS
  5
5BC
 10
14.6823
 20
3.32342
 30
0.000000
  70
    32
  0
VERTEX
  8
AM_VIS
  5
5BD
 10
14.6841
 20
3.32122
 30
0.000000
  70
    32
  0
VERTEX
  8
AM_VIS
  5
5BE
 10
14.6860
 20
3.31903
 30
0.000000
  70
    32
  0
VERTEX
  8
AM_VIS
  5
5BF
 10
14.6878
 20
3.31683
 30
0.000000
  70
    32
  0
VERTEX
  8
AM_VIS
  5
5C0
 10
14.6896
 20
3.31465
 30
0.000000
  70
    32
  0
VERTEX
  8
AM_VIS
  5
5C1
 10
14.6915
 20
3.31246
 30
0.000000
  70
    32
  0
VERTEX
  8
AM_VIS
  5
5C2
 10
14.6933
 20
3.31027
 30
0.000000
  70
    32
  0
VERTEX
  8
AM_VIS
  5
5C3
 10
14.6951
 20
3.30809
 30
0.000000
  70
    32
  0
VERTEX
  8
AM_VIS
  5
5C4
 10
14.6970
 20
3.30591
 30
0.000000
  70
    32
  0
VERTEX
  8
AM_VIS
  5
5C5
 10
14.6988
 20
3.30373
 30
0.000000
  70
    32
  0
VERTEX
  8
AM_VIS
  5
5C6
 10
14.7006
 20
3.30156
 30
0.000000
  70
    32
  0
VERTEX
  8
AM_VIS
  5
5C7
 10
14.7025
 20
3.29939
 30
0.000000
  70
    32
  0
VERTEX
  8
AM_VIS
  5
5C8
 10
14.7043
 20
3.29722
 30
0.000000
  70
    32
  0
VERTEX
  8
AM_VIS
  5
5C9
 10
14.7061
 20
3.29505
 30
0.000000
  70
    32
  0
VERTEX
  8
AM_VIS
  5
5CA
 10
14.7080
 20
3.29289
 30
0.000000
  70
    32
  0
VERTEX
  8
AM_VIS
  5
5CB
 10
14.7098
 20
3.29073
 30
0.000000
  70
    32
  0
VERTEX
  8
AM_VIS
  5
5CC
 10
14.7116
 20
3.28857
 30
0.000000
  70
    32
  0
VERTEX
  8
AM_VIS
  5
5CD
 10
14.7135
 20
3.28641
 30
0.000000
  70
    32
  0
VERTEX
  8
AM_VIS
  5
5CE
 10
14.7153
 20
3.28426
 30
0.000000
  70
    32
  0
VERTEX
  8
AM_VIS
  5
5CF
 10
14.7171
 20
3.28211
 30
0.000000
  70
    32
  0
VERTEX
  8
AM_VIS
  5
5D0
 10
14.7190
 20
3.27996
 30
0.000000
  70
    32
  0
VERTEX
  8
AM_VIS
  5
5D1
 10
14.7208
 20
3.27782
 30
0.000000
  70
    32
  0
VERTEX
  8
AM_VIS
  5
5D2
 10
14.7226
 20
3.27568
 30
0.000000
  70
    32
  0
VERTEX
  8
AM_VIS
  5
5D3
 10
14.7244
 20
3.27354
 30
0.000000
  70
    32
  0
VERTEX
  8
AM_VIS
  5
5D4
 10
14.7263
 20
3.27141
 30
0.000000
  70
    32
  0
VERTEX
  8
AM_VIS
  5
5D5
 10
14.7281
 20
3.26928
 30
0.000000
  70
    32
  0
VERTEX
  8
AM_VIS
  5
5D6
 10
14.7299
 20
3.26715
 30
0.000000
  70
    32
  0
VERTEX
  8
AM_VIS
  5
5D7
 10
14.7317
 20
3.26502
 30
0.000000
  70
    32
  0
VERTEX
  8
AM_VIS
  5
5D8
 10
14.7335
 20
3.26290
 30
0.000000
  70
    32
  0
VERTEX
  8
AM_VIS
  5
5D9
 10
14.7354
 20
3.26078
 30
0.000000
  70
    32
  0
VERTEX
  8
AM_VIS
  5
5DA
 10
14.7372
 20
3.25867
 30
0.000000
  70
    32
  0
VERTEX
  8
AM_VIS
  5
5DB
 10
14.7390
 20
3.25656
 30
0.000000
  70
    32
  0
VERTEX
  8
AM_VIS
  5
5DC
 10
14.7408
 20
3.25445
 30
0.000000
  70
    32
  0
VERTEX
  8
AM_VIS
  5
5DD
 10
14.7426
 20
3.25234
 30
0.000000
  70
    32
  0
VERTEX
  8
AM_VIS
  5
5DE
 10
14.7444
 20
3.25024
 30
0.000000
  70
    32
  0
VERTEX
  8
AM_VIS
  5
5DF
 10
14.7462
 20
3.24814
 30
0.000000
  70
    32
  0
VERTEX
  8
AM_VIS
  5
5E0
 10
14.7480
 20
3.24605
 30
0.000000
  70
    32
  0
VERTEX
  8
AM_VIS
  5
5E1
 10
14.7499
 20
3.24396
 30
0.000000
  70
    32
  0
VERTEX
  8
AM_VIS
  5
5E2
 10
14.7517
 20
3.24187
 30
0.000000
  70
    32
  0
VERTEX
  8
AM_VIS
  5
5E3
 10
14.7535
 20
3.23979
 30
0.000000
  70
    32
  0
VERTEX
  8
AM_VIS
  5
5E4
 10
14.7553
 20
3.23771
 30
0.000000
  70
    32
  0
VERTEX
  8
AM_VIS
  5
5E5
 10
14.7571
 20
3.23563
 30
0.000000
  70
    32
  0
VERTEX
  8
AM_VIS
  5
5E6
 10
14.7589
 20
3.23356
 30
0.000000
  70
    32
  0
VERTEX
  8
AM_VIS
  5
5E7
 10
14.7606
 20
3.23149
 30
0.000000
  70
    32
  0
VERTEX
  8
AM_VIS
  5
5E8
 10
14.7624
 20
3.22942
 30
0.000000
  70
    32
  0
VERTEX
  8
AM_VIS
  5
5E9
 10
14.7642
 20
3.22736
 30
0.000000
  70
    32
  0
VERTEX
  8
AM_VIS
  5
5EA
 10
14.7660
 20
3.22531
 30
0.000000
  70
    32
  0
VERTEX
  8
AM_VIS
  5
5EB
 10
14.7678
 20
3.22325
 30
0.000000
  70
    32
  0
VERTEX
  8
AM_VIS
  5
5EC
 10
14.7696
 20
3.22120
 30
0.000000
  70
    32
  0
VERTEX
  8
AM_VIS
  5
5ED
 10
14.7714
 20
3.21916
 30
0.000000
  70
    32
  0
VERTEX
  8
AM_VIS
  5
5EE
 10
14.7731
 20
3.21712
 30
0.000000
  70
    32
  0
VERTEX
  8
AM_VIS
  5
5EF
 10
14.7749
 20
3.21508
 30
0.000000
  70
    32
  0
VERTEX
  8
AM_VIS
  5
5F0
 10
14.7767
 20
3.21305
 30
0.000000
  70
    32
  0
VERTEX
  8
AM_VIS
  5
5F1
 10
14.7785
 20
3.21102
 30
0.000000
  70
    32
  0
VERTEX
  8
AM_VIS
  5
5F2
 10
14.7802
 20
3.20899
 30
0.000000
  70
    32
  0
VERTEX
  8
AM_VIS
  5
5F3
 10
14.7820
 20
3.20697
 30
0.000000
  70
    32
  0
VERTEX
  8
AM_VIS
  5
5F4
 10
14.7838
 20
3.20495
 30
0.000000
  70
    32
  0
VERTEX
  8
AM_VIS
  5
5F5
 10
14.7855
 20
3.20294
 30
0.000000
  70
    32
  0
VERTEX
  8
AM_VIS
  5
5F6
 10
14.7873
 20
3.20093
 30
0.000000
  70
    32
  0
VERTEX
  8
AM_VIS
  5
5F7
 10
14.7890
 20
3.19893
 30
0.000000
  70
    32
  0
VERTEX
  8
AM_VIS
  5
5F8
 10
14.7908
 20
3.19693
 30
0.000000
  70
    32
  0
VERTEX
  8
AM_VIS
  5
5F9
 10
14.7925
 20
3.19494
 30
0.000000
  70
    32
  0
VERTEX
  8
AM_VIS
  5
5FA
 10
14.7943
 20
3.19295
 30
0.000000
  70
    32
  0
VERTEX
  8
AM_VIS
  5
5FB
 10
14.7960
 20
3.19096
 30
0.000000
  70
    32
  0
VERTEX
  8
AM_VIS
  5
5FC
 10
14.7978
 20
3.18898
 30
0.000000
  70
    32
  0
VERTEX
  8
AM_VIS
  5
5FD
 10
14.7995
 20
3.18700
 30
0.000000
  70
    32
  0
VERTEX
  8
AM_VIS
  5
5FE
 10
14.8012
 20
3.18503
 30
0.000000
  70
    32
  0
VERTEX
  8
AM_VIS
  5
5FF
 10
14.8030
 20
3.18306
 30
0.000000
  70
    32
  0
VERTEX
  8
AM_VIS
  5
600
 10
14.8047
 20
3.18110
 30
0.000000
  70
    32
  0
VERTEX
  8
AM_VIS
  5
601
 10
14.8064
 20
3.17914
 30
0.000000
  70
    32
  0
VERTEX
  8
AM_VIS
  5
602
 10
14.8081
 20
3.17718
 30
0.000000
  70
    32
  0
VERTEX
  8
AM_VIS
  5
603
 10
14.8099
 20
3.17523
 30
0.000000
  70
    32
  0
VERTEX
  8
AM_VIS
  5
604
 10
14.8116
 20
3.17329
 30
0.000000
  70
    32
  0
VERTEX
  8
AM_VIS
  5
605
 10
14.8133
 20
3.17135
 30
0.000000
  70
    32
  0
VERTEX
  8
AM_VIS
  5
606
 10
14.8150
 20
3.16941
 30
0.000000
  70
    32
  0
VERTEX
  8
AM_VIS
  5
607
 10
14.8167
 20
3.16748
 30
0.000000
  70
    32
  0
VERTEX
  8
AM_VIS
  5
608
 10
14.8184
 20
3.16555
 30
0.000000
  70
    32
  0
VERTEX
  8
AM_VIS
  5
609
 10
14.8201
 20
3.16363
 30
0.000000
  70
    32
  0
VERTEX
  8
AM_VIS
  5
60A
 10
14.8218
 20
3.16172
 30
0.000000
  70
    32
  0
VERTEX
  8
AM_VIS
  5
60B
 10
14.8235
 20
3.15980
 30
0.000000
  70
    32
  0
VERTEX
  8
AM_VIS
  5
60C
 10
14.8252
 20
3.15790
 30
0.000000
  70
    32
  0
VERTEX
  8
AM_VIS
  5
60D
 10
14.8269
 20
3.15599
 30
0.000000
  70
    32
  0
VERTEX
  8
AM_VIS
  5
60E
 10
14.8286
 20
3.15410
 30
0.000000
  70
    32
  0
VERTEX
  8
AM_VIS
  5
60F
 10
14.8303
 20
3.15220
 30
0.000000
  70
    32
  0
VERTEX
  8
AM_VIS
  5
610
 10
14.8319
 20
3.15032
 30
0.000000
  70
    32
  0
VERTEX
  8
AM_VIS
  5
611
 10
14.8336
 20
3.14843
 30
0.000000
  70
    32
  0
VERTEX
  8
AM_VIS
  5
612
 10
14.8353
 20
3.14656
 30
0.000000
  70
    32
  0
VERTEX
  8
AM_VIS
  5
613
 10
14.8369
 20
3.14469
 30
0.000000
  70
    32
  0
VERTEX
  8
AM_VIS
  5
614
 10
14.8386
 20
3.14282
 30
0.000000
  70
    32
  0
VERTEX
  8
AM_VIS
  5
615
 10
14.8403
 20
3.14096
 30
0.000000
  70
    32
  0
VERTEX
  8
AM_VIS
  5
616
 10
14.8419
 20
3.13910
 30
0.000000
  70
    32
  0
VERTEX
  8
AM_VIS
  5
617
 10
14.8436
 20
3.13725
 30
0.000000
  70
    32
  0
VERTEX
  8
AM_VIS
  5
618
 10
14.8452
 20
3.13540
 30
0.000000
  70
    32
  0
VERTEX
  8
AM_VIS
  5
619
 10
14.8468
 20
3.13356
 30
0.000000
  70
    32
  0
VERTEX
  8
AM_VIS
  5
61A
 10
14.8485
 20
3.13172
 30
0.000000
  70
    32
  0
VERTEX
  8
AM_VIS
  5
61B
 10
14.8501
 20
3.12989
 30
0.000000
  70
    32
  0
VERTEX
  8
AM_VIS
  5
61C
 10
14.8518
 20
3.12806
 30
0.000000
  70
    32
  0
VERTEX
  8
AM_VIS
  5
61D
 10
14.8534
 20
3.12624
 30
0.000000
  70
    32
  0
VERTEX
  8
AM_VIS
  5
61E
 10
14.8550
 20
3.12443
 30
0.000000
  70
    32
  0
VERTEX
  8
AM_VIS
  5
61F
 10
14.8566
 20
3.12262
 30
0.000000
  70
    32
  0
VERTEX
  8
AM_VIS
  5
620
 10
14.8582
 20
3.12081
 30
0.000000
  70
    32
  0
VERTEX
  8
AM_VIS
  5
621
 10
14.8599
 20
3.11902
 30
0.000000
  70
    32
  0
VERTEX
  8
AM_VIS
  5
622
 10
14.8615
 20
3.11722
 30
0.000000
  70
    32
  0
VERTEX
  8
AM_VIS
  5
623
 10
14.8631
 20
3.11543
 30
0.000000
  70
    32
  0
VERTEX
  8
AM_VIS
  5
624
 10
14.8647
 20
3.11365
 30
0.000000
  70
    32
  0
VERTEX
  8
AM_VIS
  5
625
 10
14.8663
 20
3.11187
 30
0.000000
  70
    32
  0
VERTEX
  8
AM_VIS
  5
626
 10
14.8678
 20
3.11010
 30
0.000000
  70
    32
  0
VERTEX
  8
AM_VIS
  5
627
 10
14.8694
 20
3.10834
 30
0.000000
  70
    32
  0
VERTEX
  8
AM_VIS
  5
628
 10
14.8710
 20
3.10658
 30
0.000000
  70
    32
  0
VERTEX
  8
AM_VIS
  5
629
 10
14.8726
 20
3.10482
 30
0.000000
  70
    32
  0
VERTEX
  8
AM_VIS
  5
62A
 10
14.8742
 20
3.10307
 30
0.000000
  70
    32
  0
VERTEX
  8
AM_VIS
  5
62B
 10
14.8757
 20
3.10133
 30
0.000000
  70
    32
  0
VERTEX
  8
AM_VIS
  5
62C
 10
14.8773
 20
3.09959
 30
0.000000
  70
    32
  0
VERTEX
  8
AM_VIS
  5
62D
 10
14.8789
 20
3.09786
 30
0.000000
  70
    32
  0
VERTEX
  8
AM_VIS
  5
62E
 10
14.8804
 20
3.09613
 30
0.000000
  70
    32
  0
VERTEX
  8
AM_VIS
  5
62F
 10
14.8820
 20
3.09441
 30
0.000000
  70
    32
  0
VERTEX
  8
AM_VIS
  5
630
 10
14.8835
 20
3.09270
 30
0.000000
  70
    32
  0
VERTEX
  8
AM_VIS
  5
631
 10
14.8850
 20
3.09099
 30
0.000000
  70
    32
  0
VERTEX
  8
AM_VIS
  5
632
 10
14.8866
 20
3.08928
 30
0.000000
  70
    32
  0
VERTEX
  8
AM_VIS
  5
633
 10
14.8881
 20
3.08759
 30
0.000000
  70
    32
  0
VERTEX
  8
AM_VIS
  5
634
 10
14.8896
 20
3.08589
 30
0.000000
  70
    32
  0
VERTEX
  8
AM_VIS
  5
635
 10
14.8912
 20
3.08421
 30
0.000000
  70
    32
  0
VERTEX
  8
AM_VIS
  5
636
 10
14.8927
 20
3.08253
 30
0.000000
  70
    32
  0
VERTEX
  8
AM_VIS
  5
637
 10
14.8942
 20
3.08085
 30
0.000000
  70
    32
  0
VERTEX
  8
AM_VIS
  5
638
 10
14.8957
 20
3.07919
 30
0.000000
  70
    32
  0
VERTEX
  8
AM_VIS
  5
639
 10
14.8972
 20
3.07753
 30
0.000000
  70
    32
  0
VERTEX
  8
AM_VIS
  5
63A
 10
14.8987
 20
3.07587
 30
0.000000
  70
    32
  0
VERTEX
  8
AM_VIS
  5
63B
 10
14.9002
 20
3.07422
 30
0.000000
  70
    32
  0
VERTEX
  8
AM_VIS
  5
63C
 10
14.9017
 20
3.07258
 30
0.000000
  70
    32
  0
VERTEX
  8
AM_VIS
  5
63D
 10
14.9032
 20
3.07094
 30
0.000000
  70
    32
  0
VERTEX
  8
AM_VIS
  5
63E
 10
14.9046
 20
3.06931
 30
0.000000
  70
    32
  0
VERTEX
  8
AM_VIS
  5
63F
 10
14.9061
 20
3.06768
 30
0.000000
  70
    32
  0
VERTEX
  8
AM_VIS
  5
640
 10
14.9076
 20
3.06606
 30
0.000000
  70
    32
  0
VERTEX
  8
AM_VIS
  5
641
 10
14.9090
 20
3.06445
 30
0.000000
  70
    32
  0
VERTEX
  8
AM_VIS
  5
642
 10
14.9105
 20
3.06285
 30
0.000000
  70
    32
  0
VERTEX
  8
AM_VIS
  5
643
 10
14.9120
 20
3.06125
 30
0.000000
  70
    32
  0
VERTEX
  8
AM_VIS
  5
644
 10
14.9134
 20
3.05965
 30
0.000000
  70
    32
  0
VERTEX
  8
AM_VIS
  5
645
 10
14.9148
 20
3.05806
 30
0.000000
  70
    32
  0
VERTEX
  8
AM_VIS
  5
646
 10
14.9163
 20
3.05648
 30
0.000000
  70
    32
  0
VERTEX
  8
AM_VIS
  5
647
 10
14.9177
 20
3.05491
 30
0.000000
  70
    32
  0
VERTEX
  8
AM_VIS
  5
648
 10
14.9191
 20
3.05334
 30
0.000000
  70
    32
  0
VERTEX
  8
AM_VIS
  5
649
 10
14.9206
 20
3.05178
 30
0.000000
  70
    32
  0
VERTEX
  8
AM_VIS
  5
64A
 10
14.9220
 20
3.05022
 30
0.000000
  70
    32
  0
VERTEX
  8
AM_VIS
  5
64B
 10
14.9234
 20
3.04867
 30
0.000000
  70
    32
  0
VERTEX
  8
AM_VIS
  5
64C
 10
14.9248
 20
3.04713
 30
0.000000
  70
    32
  0
VERTEX
  8
AM_VIS
  5
64D
 10
14.9262
 20
3.04560
 30
0.000000
  70
    32
  0
VERTEX
  8
AM_VIS
  5
64E
 10
14.9276
 20
3.04407
 30
0.000000
  70
    32
  0
VERTEX
  8
AM_VIS
  5
64F
 10
14.9290
 20
3.04254
 30
0.000000
  70
    32
  0
VERTEX
  8
AM_VIS
  5
650
 10
14.9303
 20
3.04103
 30
0.000000
  70
    32
  0
VERTEX
  8
AM_VIS
  5
651
 10
14.9317
 20
3.03952
 30
0.000000
  70
    32
  0
VERTEX
  8
AM_VIS
  5
652
 10
14.9331
 20
3.03802
 30
0.000000
  70
    32
  0
VERTEX
  8
AM_VIS
  5
653
 10
14.9345
 20
3.03652
 30
0.000000
  70
    32
  0
VERTEX
  8
AM_VIS
  5
654
 10
14.9358
 20
3.03503
 30
0.000000
  70
    32
  0
VERTEX
  8
AM_VIS
  5
655
 10
14.9372
 20
3.03355
 30
0.000000
  70
    32
  0
VERTEX
  8
AM_VIS
  5
656
 10
14.9385
 20
3.03207
 30
0.000000
  70
    32
  0
VERTEX
  8
AM_VIS
  5
657
 10
14.9399
 20
3.03060
 30
0.000000
  70
    32
  0
VERTEX
  8
AM_VIS
  5
658
 10
14.9412
 20
3.02914
 30
0.000000
  70
    32
  0
VERTEX
  8
AM_VIS
  5
659
 10
14.9425
 20
3.02769
 30
0.000000
  70
    32
  0
VERTEX
  8
AM_VIS
  5
65A
 10
14.9438
 20
3.02624
 30
0.000000
  70
    32
  0
VERTEX
  8
AM_VIS
  5
65B
 10
14.9452
 20
3.02480
 30
0.000000
  70
    32
  0
VERTEX
  8
AM_VIS
  5
65C
 10
14.9465
 20
3.02336
 30
0.000000
  70
    32
  0
VERTEX
  8
AM_VIS
  5
65D
 10
14.9478
 20
3.02193
 30
0.000000
  70
    32
  0
VERTEX
  8
AM_VIS
  5
65E
 10
14.9491
 20
3.02051
 30
0.000000
  70
    32
  0
VERTEX
  8
AM_VIS
  5
65F
 10
14.9504
 20
3.01910
 30
0.000000
  70
    32
  0
VERTEX
  8
AM_VIS
  5
660
 10
14.9516
 20
3.01769
 30
0.000000
  70
    32
  0
VERTEX
  8
AM_VIS
  5
661
 10
14.9529
 20
3.01629
 30
0.000000
  70
    32
  0
VERTEX
  8
AM_VIS
  5
662
 10
14.9542
 20
3.01490
 30
0.000000
  70
    32
  0
VERTEX
  8
AM_VIS
  5
663
 10
14.9555
 20
3.01352
 30
0.000000
  70
    32
  0
VERTEX
  8
AM_VIS
  5
664
 10
14.9567
 20
3.01213
 30
0.000000
  70
    32
  0
VERTEX
  8
AM_VIS
  5
665
 10
14.9580
 20
3.01076
 30
0.000000
  70
    32
  0
VERTEX
  8
AM_VIS
  5
666
 10
14.9593
 20
3.00938
 30
0.000000
  70
    32
  0
VERTEX
  8
AM_VIS
  5
667
 10
14.9605
 20
3.00800
 30
0.000000
  70
    32
  0
VERTEX
  8
AM_VIS
  5
668
 10
14.9618
 20
3.00663
 30
0.000000
  70
    32
  0
VERTEX
  8
AM_VIS
  5
669
 10
14.9630
 20
3.00527
 30
0.000000
  70
    32
  0
SEQEND
  8
AM_VIS
  5
66A
  0
LINE
  5
33
  8
AM_VIS
 10
15.087984310731381
 20
5.1323598255822063
 30
0.0
 11
12.78798431073138
 21
5.1323598255822063
 31
0.0
  0
LINE
  5
34
  8
AM_VIS
 10
14.014755409362159
 20
3.6419366531192479
 30
0.0
 11
13.861213212100591
 21
3.6419366531192479
 31
0.0
  0
LINE
  5
35
  8
AM_VIS
 10
13.861213212100591
 20
4.2477829980451629
 30
0.0
 11
14.014755409362159
 21
4.2477829980451629
 31
0.0
  0
CIRCLE
  5
36
  8
AM_VIS
 10
13.93798431073138
 20
3.9448598255822058
 30
0.0
 40
0.3125
  0
ARC
  5
38
  8
AM_VIS
 10
13.94963807800381
 20
3.9490693787132352
 30
0.0
 40
0.4103297329045503
 50
91.628210105780212
 51
130.70568439048191
  0
ARC
  5
39
  8
AM_VIS
 10
13.93798431073137
 20
3.9448598255822058
 30
0.0
 40
0.40625
 50
309.07230755918039
 51
50.927692440819548
  0
POLYLINE
  8
AM_VIS
  5
66B
  66
     1
 10
0.000000
 20
0.000000
 30
0.000000
  70
     8
  0
VERTEX
  8
AM_VIS
  5
66C
 10
14.4039
 20
3.94486
 30
0.000000
  70
    32
  0
VERTEX
  8
AM_VIS
  5
66D
 10
14.4039
 20
3.94348
 30
0.000000
  70
    32
  0
VERTEX
  8
AM_VIS
  5
66E
 10
14.4039
 20
3.94211
 30
0.000000
  70
    32
  0
VERTEX
  8
AM_VIS
  5
66F
 10
14.4039
 20
3.94074
 30
0.000000
  70
    32
  0
VERTEX
  8
AM_VIS
  5
670
 10
14.4039
 20
3.93937
 30
0.000000
  70
    32
  0
VERTEX
  8
AM_VIS
  5
671
 10
14.4039
 20
3.93801
 30
0.000000
  70
    32
  0
VERTEX
  8
AM_VIS
  5
672
 10
14.4039
 20
3.93665
 30
0.000000
  70
    32
  0
VERTEX
  8
AM_VIS
  5
673
 10
14.4039
 20
3.93529
 30
0.000000
  70
    32
  0
VERTEX
  8
AM_VIS
  5
674
 10
14.4039
 20
3.93393
 30
0.000000
  70
    32
  0
VERTEX
  8
AM_VIS
  5
675
 10
14.4039
 20
3.93258
 30
0.000000
  70
    32
  0
VERTEX
  8
AM_VIS
  5
676
 10
14.4039
 20
3.93123
 30
0.000000
  70
    32
  0
VERTEX
  8
AM_VIS
  5
677
 10
14.4039
 20
3.92989
 30
0.000000
  70
    32
  0
VERTEX
  8
AM_VIS
  5
678
 10
14.4039
 20
3.92854
 30
0.000000
  70
    32
  0
VERTEX
  8
AM_VIS
  5
679
 10
14.4039
 20
3.92720
 30
0.000000
  70
    32
  0
VERTEX
  8
AM_VIS
  5
67A
 10
14.4039
 20
3.92586
 30
0.000000
  70
    32
  0
VERTEX
  8
AM_VIS
  5
67B
 10
14.4039
 20
3.92453
 30
0.000000
  70
    32
  0
VERTEX
  8
AM_VIS
  5
67C
 10
14.4039
 20
3.92320
 30
0.000000
  70
    32
  0
VERTEX
  8
AM_VIS
  5
67D
 10
14.4039
 20
3.92187
 30
0.000000
  70
    32
  0
VERTEX
  8
AM_VIS
  5
67E
 10
14.4039
 20
3.92054
 30
0.000000
  70
    32
  0
VERTEX
  8
AM_VIS
  5
67F
 10
14.4039
 20
3.91922
 30
0.000000
  70
    32
  0
VERTEX
  8
AM_VIS
  5
680
 10
14.4038
 20
3.91790
 30
0.000000
  70
    32
  0
VERTEX
  8
AM_VIS
  5
681
 10
14.4038
 20
3.91658
 30
0.000000
  70
    32
  0
VERTEX
  8
AM_VIS
  5
682
 10
14.4038
 20
3.91527
 30
0.000000
  70
    32
  0
VERTEX
  8
AM_VIS
  5
683
 10
14.4038
 20
3.91396
 30
0.000000
  70
    32
  0
VERTEX
  8
AM_VIS
  5
684
 10
14.4038
 20
3.91265
 30
0.000000
  70
    32
  0
VERTEX
  8
AM_VIS
  5
685
 10
14.4038
 20
3.91134
 30
0.000000
  70
    32
  0
VERTEX
  8
AM_VIS
  5
686
 10
14.4038
 20
3.91004
 30
0.000000
  70
    32
  0
VERTEX
  8
AM_VIS
  5
687
 10
14.4038
 20
3.90874
 30
0.000000
  70
    32
  0
VERTEX
  8
AM_VIS
  5
688
 10
14.4038
 20
3.90745
 30
0.000000
  70
    32
  0
VERTEX
  8
AM_VIS
  5
689
 10
14.4038
 20
3.90615
 30
0.000000
  70
    32
  0
VERTEX
  8
AM_VIS
  5
68A
 10
14.4038
 20
3.90486
 30
0.000000
  70
    32
  0
VERTEX
  8
AM_VIS
  5
68B
 10
14.4037
 20
3.90357
 30
0.000000
  70
    32
  0
VERTEX
  8
AM_VIS
  5
68C
 10
14.4037
 20
3.90229
 30
0.000000
  70
    32
  0
VERTEX
  8
AM_VIS
  5
68D
 10
14.4037
 20
3.90101
 30
0.000000
  70
    32
  0
VERTEX
  8
AM_VIS
  5
68E
 10
14.4037
 20
3.89973
 30
0.000000
  70
    32
  0
VERTEX
  8
AM_VIS
  5
68F
 10
14.4037
 20
3.89845
 30
0.000000
  70
    32
  0
VERTEX
  8
AM_VIS
  5
690
 10
14.4037
 20
3.89718
 30
0.000000
  70
    32
  0
VERTEX
  8
AM_VIS
  5
691
 10
14.4037
 20
3.89591
 30
0.000000
  70
    32
  0
VERTEX
  8
AM_VIS
  5
692
 10
14.4037
 20
3.89465
 30
0.000000
  70
    32
  0
VERTEX
  8
AM_VIS
  5
693
 10
14.4037
 20
3.89338
 30
0.000000
  70
    32
  0
VERTEX
  8
AM_VIS
  5
694
 10
14.4037
 20
3.89212
 30
0.000000
  70
    32
  0
VERTEX
  8
AM_VIS
  5
695
 10
14.4036
 20
3.89086
 30
0.000000
  70
    32
  0
VERTEX
  8
AM_VIS
  5
696
 10
14.4036
 20
3.88961
 30
0.000000
  70
    32
  0
VERTEX
  8
AM_VIS
  5
697
 10
14.4036
 20
3.88836
 30
0.000000
  70
    32
  0
VERTEX
  8
AM_VIS
  5
698
 10
14.4036
 20
3.88711
 30
0.000000
  70
    32
  0
VERTEX
  8
AM_VIS
  5
699
 10
14.4036
 20
3.88586
 30
0.000000
  70
    32
  0
VERTEX
  8
AM_VIS
  5
69A
 10
14.4036
 20
3.88462
 30
0.000000
  70
    32
  0
VERTEX
  8
AM_VIS
  5
69B
 10
14.4036
 20
3.88338
 30
0.000000
  70
    32
  0
VERTEX
  8
AM_VIS
  5
69C
 10
14.4036
 20
3.88214
 30
0.000000
  70
    32
  0
VERTEX
  8
AM_VIS
  5
69D
 10
14.4036
 20
3.88091
 30
0.000000
  70
    32
  0
VERTEX
  8
AM_VIS
  5
69E
 10
14.4035
 20
3.87967
 30
0.000000
  70
    32
  0
VERTEX
  8
AM_VIS
  5
69F
 10
14.4035
 20
3.87845
 30
0.000000
  70
    32
  0
VERTEX
  8
AM_VIS
  5
6A0
 10
14.4035
 20
3.87722
 30
0.000000
  70
    32
  0
VERTEX
  8
AM_VIS
  5
6A1
 10
14.4035
 20
3.87600
 30
0.000000
  70
    32
  0
VERTEX
  8
AM_VIS
  5
6A2
 10
14.4035
 20
3.87478
 30
0.000000
  70
    32
  0
VERTEX
  8
AM_VIS
  5
6A3
 10
14.4035
 20
3.87356
 30
0.000000
  70
    32
  0
VERTEX
  8
AM_VIS
  5
6A4
 10
14.4035
 20
3.87235
 30
0.000000
  70
    32
  0
VERTEX
  8
AM_VIS
  5
6A5
 10
14.4035
 20
3.87114
 30
0.000000
  70
    32
  0
VERTEX
  8
AM_VIS
  5
6A6
 10
14.4035
 20
3.86993
 30
0.000000
  70
    32
  0
VERTEX
  8
AM_VIS
  5
6A7
 10
14.4035
 20
3.86872
 30
0.000000
  70
    32
  0
VERTEX
  8
AM_VIS
  5
6A8
 10
14.4035
 20
3.86752
 30
0.000000
  70
    32
  0
VERTEX
  8
AM_VIS
  5
6A9
 10
14.4034
 20
3.86632
 30
0.000000
  70
    32
  0
VERTEX
  8
AM_VIS
  5
6AA
 10
14.4034
 20
3.86513
 30
0.000000
  70
    32
  0
VERTEX
  8
AM_VIS
  5
6AB
 10
14.4034
 20
3.86394
 30
0.000000
  70
    32
  0
VERTEX
  8
AM_VIS
  5
6AC
 10
14.4034
 20
3.86275
 30
0.000000
  70
    32
  0
VERTEX
  8
AM_VIS
  5
6AD
 10
14.4034
 20
3.86156
 30
0.000000
  70
    32
  0
VERTEX
  8
AM_VIS
  5
6AE
 10
14.4034
 20
3.86038
 30
0.000000
  70
    32
  0
VERTEX
  8
AM_VIS
  5
6AF
 10
14.4034
 20
3.85919
 30
0.000000
  70
    32
  0
VERTEX
  8
AM_VIS
  5
6B0
 10
14.4034
 20
3.85802
 30
0.000000
  70
    32
  0
VERTEX
  8
AM_VIS
  5
6B1
 10
14.4034
 20
3.85684
 30
0.000000
  70
    32
  0
VERTEX
  8
AM_VIS
  5
6B2
 10
14.4034
 20
3.85567
 30
0.000000
  70
    32
  0
VERTEX
  8
AM_VIS
  5
6B3
 10
14.4034
 20
3.85450
 30
0.000000
  70
    32
  0
VERTEX
  8
AM_VIS
  5
6B4
 10
14.4034
 20
3.85333
 30
0.000000
  70
    32
  0
VERTEX
  8
AM_VIS
  5
6B5
 10
14.4034
 20
3.85217
 30
0.000000
  70
    32
  0
VERTEX
  8
AM_VIS
  5
6B6
 10
14.4034
 20
3.85101
 30
0.000000
  70
    32
  0
VERTEX
  8
AM_VIS
  5
6B7
 10
14.4034
 20
3.84985
 30
0.000000
  70
    32
  0
VERTEX
  8
AM_VIS
  5
6B8
 10
14.4034
 20
3.84870
 30
0.000000
  70
    32
  0
VERTEX
  8
AM_VIS
  5
6B9
 10
14.4034
 20
3.84755
 30
0.000000
  70
    32
  0
VERTEX
  8
AM_VIS
  5
6BA
 10
14.4034
 20
3.84640
 30
0.000000
  70
    32
  0
VERTEX
  8
AM_VIS
  5
6BB
 10
14.4034
 20
3.84525
 30
0.000000
  70
    32
  0
VERTEX
  8
AM_VIS
  5
6BC
 10
14.4034
 20
3.84411
 30
0.000000
  70
    32
  0
VERTEX
  8
AM_VIS
  5
6BD
 10
14.4034
 20
3.84297
 30
0.000000
  70
    32
  0
VERTEX
  8
AM_VIS
  5
6BE
 10
14.4034
 20
3.84184
 30
0.000000
  70
    32
  0
VERTEX
  8
AM_VIS
  5
6BF
 10
14.4034
 20
3.84070
 30
0.000000
  70
    32
  0
VERTEX
  8
AM_VIS
  5
6C0
 10
14.4034
 20
3.83957
 30
0.000000
  70
    32
  0
VERTEX
  8
AM_VIS
  5
6C1
 10
14.4034
 20
3.83844
 30
0.000000
  70
    32
  0
VERTEX
  8
AM_VIS
  5
6C2
 10
14.4034
 20
3.83732
 30
0.000000
  70
    32
  0
VERTEX
  8
AM_VIS
  5
6C3
 10
14.4034
 20
3.83620
 30
0.000000
  70
    32
  0
VERTEX
  8
AM_VIS
  5
6C4
 10
14.4034
 20
3.83508
 30
0.000000
  70
    32
  0
VERTEX
  8
AM_VIS
  5
6C5
 10
14.4034
 20
3.83396
 30
0.000000
  70
    32
  0
VERTEX
  8
AM_VIS
  5
6C6
 10
14.4034
 20
3.83285
 30
0.000000
  70
    32
  0
VERTEX
  8
AM_VIS
  5
6C7
 10
14.4034
 20
3.83174
 30
0.000000
  70
    32
  0
VERTEX
  8
AM_VIS
  5
6C8
 10
14.4034
 20
3.83063
 30
0.000000
  70
    32
  0
VERTEX
  8
AM_VIS
  5
6C9
 10
14.4034
 20
3.82953
 30
0.000000
  70
    32
  0
VERTEX
  8
AM_VIS
  5
6CA
 10
14.4034
 20
3.82843
 30
0.000000
  70
    32
  0
VERTEX
  8
AM_VIS
  5
6CB
 10
14.4034
 20
3.82733
 30
0.000000
  70
    32
  0
VERTEX
  8
AM_VIS
  5
6CC
 10
14.4034
 20
3.82624
 30
0.000000
  70
    32
  0
VERTEX
  8
AM_VIS
  5
6CD
 10
14.4034
 20
3.82515
 30
0.000000
  70
    32
  0
VERTEX
  8
AM_VIS
  5
6CE
 10
14.4034
 20
3.82406
 30
0.000000
  70
    32
  0
VERTEX
  8
AM_VIS
  5
6CF
 10
14.4035
 20
3.82297
 30
0.000000
  70
    32
  0
VERTEX
  8
AM_VIS
  5
6D0
 10
14.4035
 20
3.82189
 30
0.000000
  70
    32
  0
VERTEX
  8
AM_VIS
  5
6D1
 10
14.4035
 20
3.82081
 30
0.000000
  70
    32
  0
VERTEX
  8
AM_VIS
  5
6D2
 10
14.4035
 20
3.81973
 30
0.000000
  70
    32
  0
VERTEX
  8
AM_VIS
  5
6D3
 10
14.4035
 20
3.81866
 30
0.000000
  70
    32
  0
VERTEX
  8
AM_VIS
  5
6D4
 10
14.4035
 20
3.81759
 30
0.000000
  70
    32
  0
VERTEX
  8
AM_VIS
  5
6D5
 10
14.4035
 20
3.81652
 30
0.000000
  70
    32
  0
VERTEX
  8
AM_VIS
  5
6D6
 10
14.4036
 20
3.81545
 30
0.000000
  70
    32
  0
VERTEX
  8
AM_VIS
  5
6D7
 10
14.4036
 20
3.81439
 30
0.000000
  70
    32
  0
VERTEX
  8
AM_VIS
  5
6D8
 10
14.4036
 20
3.81333
 30
0.000000
  70
    32
  0
VERTEX
  8
AM_VIS
  5
6D9
 10
14.4036
 20
3.81228
 30
0.000000
  70
    32
  0
VERTEX
  8
AM_VIS
  5
6DA
 10
14.4036
 20
3.81122
 30
0.000000
  70
    32
  0
VERTEX
  8
AM_VIS
  5
6DB
 10
14.4036
 20
3.81017
 30
0.000000
  70
    32
  0
VERTEX
  8
AM_VIS
  5
6DC
 10
14.4037
 20
3.80913
 30
0.000000
  70
    32
  0
VERTEX
  8
AM_VIS
  5
6DD
 10
14.4037
 20
3.80808
 30
0.000000
  70
    32
  0
VERTEX
  8
AM_VIS
  5
6DE
 10
14.4037
 20
3.80704
 30
0.000000
  70
    32
  0
VERTEX
  8
AM_VIS
  5
6DF
 10
14.4037
 20
3.80600
 30
0.000000
  70
    32
  0
VERTEX
  8
AM_VIS
  5
6E0
 10
14.4038
 20
3.80497
 30
0.000000
  70
    32
  0
VERTEX
  8
AM_VIS
  5
6E1
 10
14.4038
 20
3.80393
 30
0.000000
  70
    32
  0
VERTEX
  8
AM_VIS
  5
6E2
 10
14.4038
 20
3.80290
 30
0.000000
  70
    32
  0
VERTEX
  8
AM_VIS
  5
6E3
 10
14.4039
 20
3.80188
 30
0.000000
  70
    32
  0
VERTEX
  8
AM_VIS
  5
6E4
 10
14.4039
 20
3.80086
 30
0.000000
  70
    32
  0
VERTEX
  8
AM_VIS
  5
6E5
 10
14.4039
 20
3.79983
 30
0.000000
  70
    32
  0
VERTEX
  8
AM_VIS
  5
6E6
 10
14.4039
 20
3.79882
 30
0.000000
  70
    32
  0
VERTEX
  8
AM_VIS
  5
6E7
 10
14.4040
 20
3.79780
 30
0.000000
  70
    32
  0
VERTEX
  8
AM_VIS
  5
6E8
 10
14.4040
 20
3.79679
 30
0.000000
  70
    32
  0
VERTEX
  8
AM_VIS
  5
6E9
 10
14.4040
 20
3.79578
 30
0.000000
  70
    32
  0
VERTEX
  8
AM_VIS
  5
6EA
 10
14.4041
 20
3.79478
 30
0.000000
  70
    32
  0
VERTEX
  8
AM_VIS
  5
6EB
 10
14.4041
 20
3.79378
 30
0.000000
  70
    32
  0
VERTEX
  8
AM_VIS
  5
6EC
 10
14.4042
 20
3.79278
 30
0.000000
  70
    32
  0
VERTEX
  8
AM_VIS
  5
6ED
 10
14.4042
 20
3.79178
 30
0.000000
  70
    32
  0
VERTEX
  8
AM_VIS
  5
6EE
 10
14.4042
 20
3.79079
 30
0.000000
  70
    32
  0
VERTEX
  8
AM_VIS
  5
6EF
 10
14.4043
 20
3.78980
 30
0.000000
  70
    32
  0
VERTEX
  8
AM_VIS
  5
6F0
 10
14.4043
 20
3.78881
 30
0.000000
  70
    32
  0
VERTEX
  8
AM_VIS
  5
6F1
 10
14.4044
 20
3.78782
 30
0.000000
  70
    32
  0
VERTEX
  8
AM_VIS
  5
6F2
 10
14.4044
 20
3.78684
 30
0.000000
  70
    32
  0
VERTEX
  8
AM_VIS
  5
6F3
 10
14.4045
 20
3.78586
 30
0.000000
  70
    32
  0
VERTEX
  8
AM_VIS
  5
6F4
 10
14.4045
 20
3.78489
 30
0.000000
  70
    32
  0
VERTEX
  8
AM_VIS
  5
6F5
 10
14.4046
 20
3.78392
 30
0.000000
  70
    32
  0
VERTEX
  8
AM_VIS
  5
6F6
 10
14.4046
 20
3.78295
 30
0.000000
  70
    32
  0
VERTEX
  8
AM_VIS
  5
6F7
 10
14.4047
 20
3.78198
 30
0.000000
  70
    32
  0
VERTEX
  8
AM_VIS
  5
6F8
 10
14.4047
 20
3.78102
 30
0.000000
  70
    32
  0
VERTEX
  8
AM_VIS
  5
6F9
 10
14.4048
 20
3.78006
 30
0.000000
  70
    32
  0
VERTEX
  8
AM_VIS
  5
6FA
 10
14.4048
 20
3.77910
 30
0.000000
  70
    32
  0
VERTEX
  8
AM_VIS
  5
6FB
 10
14.4049
 20
3.77814
 30
0.000000
  70
    32
  0
VERTEX
  8
AM_VIS
  5
6FC
 10
14.4049
 20
3.77718
 30
0.000000
  70
    32
  0
VERTEX
  8
AM_VIS
  5
6FD
 10
14.4050
 20
3.77622
 30
0.000000
  70
    32
  0
VERTEX
  8
AM_VIS
  5
6FE
 10
14.4051
 20
3.77526
 30
0.000000
  70
    32
  0
VERTEX
  8
AM_VIS
  5
6FF
 10
14.4051
 20
3.77430
 30
0.000000
  70
    32
  0
VERTEX
  8
AM_VIS
  5
700
 10
14.4052
 20
3.77334
 30
0.000000
  70
    32
  0
VERTEX
  8
AM_VIS
  5
701
 10
14.4053
 20
3.77238
 30
0.000000
  70
    32
  0
VERTEX
  8
AM_VIS
  5
702
 10
14.4053
 20
3.77141
 30
0.000000
  70
    32
  0
VERTEX
  8
AM_VIS
  5
703
 10
14.4054
 20
3.77045
 30
0.000000
  70
    32
  0
VERTEX
  8
AM_VIS
  5
704
 10
14.4055
 20
3.76948
 30
0.000000
  70
    32
  0
VERTEX
  8
AM_VIS
  5
705
 10
14.4055
 20
3.76852
 30
0.000000
  70
    32
  0
VERTEX
  8
AM_VIS
  5
706
 10
14.4056
 20
3.76755
 30
0.000000
  70
    32
  0
VERTEX
  8
AM_VIS
  5
707
 10
14.4057
 20
3.76658
 30
0.000000
  70
    32
  0
VERTEX
  8
AM_VIS
  5
708
 10
14.4058
 20
3.76562
 30
0.000000
  70
    32
  0
VERTEX
  8
AM_VIS
  5
709
 10
14.4059
 20
3.76465
 30
0.000000
  70
    32
  0
VERTEX
  8
AM_VIS
  5
70A
 10
14.4059
 20
3.76368
 30
0.000000
  70
    32
  0
VERTEX
  8
AM_VIS
  5
70B
 10
14.4060
 20
3.76271
 30
0.000000
  70
    32
  0
VERTEX
  8
AM_VIS
  5
70C
 10
14.4061
 20
3.76174
 30
0.000000
  70
    32
  0
VERTEX
  8
AM_VIS
  5
70D
 10
14.4062
 20
3.76078
 30
0.000000
  70
    32
  0
VERTEX
  8
AM_VIS
  5
70E
 10
14.4063
 20
3.75981
 30
0.000000
  70
    32
  0
VERTEX
  8
AM_VIS
  5
70F
 10
14.4064
 20
3.75884
 30
0.000000
  70
    32
  0
VERTEX
  8
AM_VIS
  5
710
 10
14.4065
 20
3.75787
 30
0.000000
  70
    32
  0
VERTEX
  8
AM_VIS
  5
711
 10
14.4066
 20
3.75690
 30
0.000000
  70
    32
  0
VERTEX
  8
AM_VIS
  5
712
 10
14.4067
 20
3.75593
 30
0.000000
  70
    32
  0
VERTEX
  8
AM_VIS
  5
713
 10
14.4068
 20
3.75496
 30
0.000000
  70
    32
  0
VERTEX
  8
AM_VIS
  5
714
 10
14.4069
 20
3.75399
 30
0.000000
  70
    32
  0
VERTEX
  8
AM_VIS
  5
715
 10
14.4070
 20
3.75302
 30
0.000000
  70
    32
  0
VERTEX
  8
AM_VIS
  5
716
 10
14.4071
 20
3.75205
 30
0.000000
  70
    32
  0
VERTEX
  8
AM_VIS
  5
717
 10
14.4072
 20
3.75108
 30
0.000000
  70
    32
  0
VERTEX
  8
AM_VIS
  5
718
 10
14.4073
 20
3.75011
 30
0.000000
  70
    32
  0
VERTEX
  8
AM_VIS
  5
719
 10
14.4075
 20
3.74914
 30
0.000000
  70
    32
  0
VERTEX
  8
AM_VIS
  5
71A
 10
14.4076
 20
3.74818
 30
0.000000
  70
    32
  0
VERTEX
  8
AM_VIS
  5
71B
 10
14.4077
 20
3.74721
 30
0.000000
  70
    32
  0
VERTEX
  8
AM_VIS
  5
71C
 10
14.4078
 20
3.74624
 30
0.000000
  70
    32
  0
VERTEX
  8
AM_VIS
  5
71D
 10
14.4080
 20
3.74527
 30
0.000000
  70
    32
  0
VERTEX
  8
AM_VIS
  5
71E
 10
14.4081
 20
3.74431
 30
0.000000
  70
    32
  0
VERTEX
  8
AM_VIS
  5
71F
 10
14.4082
 20
3.74334
 30
0.000000
  70
    32
  0
VERTEX
  8
AM_VIS
  5
720
 10
14.4084
 20
3.74238
 30
0.000000
  70
    32
  0
VERTEX
  8
AM_VIS
  5
721
 10
14.4085
 20
3.74141
 30
0.000000
  70
    32
  0
VERTEX
  8
AM_VIS
  5
722
 10
14.4086
 20
3.74045
 30
0.000000
  70
    32
  0
VERTEX
  8
AM_VIS
  5
723
 10
14.4088
 20
3.73948
 30
0.000000
  70
    32
  0
VERTEX
  8
AM_VIS
  5
724
 10
14.4089
 20
3.73852
 30
0.000000
  70
    32
  0
VERTEX
  8
AM_VIS
  5
725
 10
14.4091
 20
3.73756
 30
0.000000
  70
    32
  0
VERTEX
  8
AM_VIS
  5
726
 10
14.4092
 20
3.73660
 30
0.000000
  70
    32
  0
VERTEX
  8
AM_VIS
  5
727
 10
14.4094
 20
3.73564
 30
0.000000
  70
    32
  0
VERTEX
  8
AM_VIS
  5
728
 10
14.4095
 20
3.73468
 30
0.000000
  70
    32
  0
VERTEX
  8
AM_VIS
  5
729
 10
14.4097
 20
3.73372
 30
0.000000
  70
    32
  0
VERTEX
  8
AM_VIS
  5
72A
 10
14.4099
 20
3.73276
 30
0.000000
  70
    32
  0
VERTEX
  8
AM_VIS
  5
72B
 10
14.4100
 20
3.73181
 30
0.000000
  70
    32
  0
VERTEX
  8
AM_VIS
  5
72C
 10
14.4102
 20
3.73085
 30
0.000000
  70
    32
  0
VERTEX
  8
AM_VIS
  5
72D
 10
14.4104
 20
3.72990
 30
0.000000
  70
    32
  0
VERTEX
  8
AM_VIS
  5
72E
 10
14.4106
 20
3.72895
 30
0.000000
  70
    32
  0
VERTEX
  8
AM_VIS
  5
72F
 10
14.4108
 20
3.72800
 30
0.000000
  70
    32
  0
VERTEX
  8
AM_VIS
  5
730
 10
14.4109
 20
3.72705
 30
0.000000
  70
    32
  0
VERTEX
  8
AM_VIS
  5
731
 10
14.4111
 20
3.72610
 30
0.000000
  70
    32
  0
VERTEX
  8
AM_VIS
  5
732
 10
14.4113
 20
3.72515
 30
0.000000
  70
    32
  0
VERTEX
  8
AM_VIS
  5
733
 10
14.4115
 20
3.72420
 30
0.000000
  70
    32
  0
VERTEX
  8
AM_VIS
  5
734
 10
14.4117
 20
3.72326
 30
0.000000
  70
    32
  0
VERTEX
  8
AM_VIS
  5
735
 10
14.4119
 20
3.72232
 30
0.000000
  70
    32
  0
VERTEX
  8
AM_VIS
  5
736
 10
14.4121
 20
3.72138
 30
0.000000
  70
    32
  0
VERTEX
  8
AM_VIS
  5
737
 10
14.4123
 20
3.72044
 30
0.000000
  70
    32
  0
VERTEX
  8
AM_VIS
  5
738
 10
14.4125
 20
3.71950
 30
0.000000
  70
    32
  0
VERTEX
  8
AM_VIS
  5
739
 10
14.4127
 20
3.71856
 30
0.000000
  70
    32
  0
VERTEX
  8
AM_VIS
  5
73A
 10
14.4130
 20
3.71763
 30
0.000000
  70
    32
  0
VERTEX
  8
AM_VIS
  5
73B
 10
14.4132
 20
3.71670
 30
0.000000
  70
    32
  0
VERTEX
  8
AM_VIS
  5
73C
 10
14.4134
 20
3.71577
 30
0.000000
  70
    32
  0
VERTEX
  8
AM_VIS
  5
73D
 10
14.4136
 20
3.71484
 30
0.000000
  70
    32
  0
VERTEX
  8
AM_VIS
  5
73E
 10
14.4139
 20
3.71391
 30
0.000000
  70
    32
  0
VERTEX
  8
AM_VIS
  5
73F
 10
14.4141
 20
3.71298
 30
0.000000
  70
    32
  0
VERTEX
  8
AM_VIS
  5
740
 10
14.4143
 20
3.71206
 30
0.000000
  70
    32
  0
VERTEX
  8
AM_VIS
  5
741
 10
14.4146
 20
3.71114
 30
0.000000
  70
    32
  0
VERTEX
  8
AM_VIS
  5
742
 10
14.4148
 20
3.71022
 30
0.000000
  70
    32
  0
VERTEX
  8
AM_VIS
  5
743
 10
14.4151
 20
3.70931
 30
0.000000
  70
    32
  0
VERTEX
  8
AM_VIS
  5
744
 10
14.4153
 20
3.70839
 30
0.000000
  70
    32
  0
VERTEX
  8
AM_VIS
  5
745
 10
14.4156
 20
3.70748
 30
0.000000
  70
    32
  0
VERTEX
  8
AM_VIS
  5
746
 10
14.4159
 20
3.70657
 30
0.000000
  70
    32
  0
VERTEX
  8
AM_VIS
  5
747
 10
14.4161
 20
3.70566
 30
0.000000
  70
    32
  0
VERTEX
  8
AM_VIS
  5
748
 10
14.4164
 20
3.70475
 30
0.000000
  70
    32
  0
VERTEX
  8
AM_VIS
  5
749
 10
14.4167
 20
3.70384
 30
0.000000
  70
    32
  0
VERTEX
  8
AM_VIS
  5
74A
 10
14.4170
 20
3.70293
 30
0.000000
  70
    32
  0
VERTEX
  8
AM_VIS
  5
74B
 10
14.4173
 20
3.70203
 30
0.000000
  70
    32
  0
VERTEX
  8
AM_VIS
  5
74C
 10
14.4175
 20
3.70112
 30
0.000000
  70
    32
  0
VERTEX
  8
AM_VIS
  5
74D
 10
14.4178
 20
3.70022
 30
0.000000
  70
    32
  0
VERTEX
  8
AM_VIS
  5
74E
 10
14.4181
 20
3.69932
 30
0.000000
  70
    32
  0
VERTEX
  8
AM_VIS
  5
74F
 10
14.4184
 20
3.69842
 30
0.000000
  70
    32
  0
VERTEX
  8
AM_VIS
  5
750
 10
14.4188
 20
3.69753
 30
0.000000
  70
    32
  0
VERTEX
  8
AM_VIS
  5
751
 10
14.4191
 20
3.69663
 30
0.000000
  70
    32
  0
VERTEX
  8
AM_VIS
  5
752
 10
14.4194
 20
3.69574
 30
0.000000
  70
    32
  0
VERTEX
  8
AM_VIS
  5
753
 10
14.4197
 20
3.69485
 30
0.000000
  70
    32
  0
VERTEX
  8
AM_VIS
  5
754
 10
14.4200
 20
3.69396
 30
0.000000
  70
    32
  0
VERTEX
  8
AM_VIS
  5
755
 10
14.4204
 20
3.69307
 30
0.000000
  70
    32
  0
VERTEX
  8
AM_VIS
  5
756
 10
14.4207
 20
3.69219
 30
0.000000
  70
    32
  0
VERTEX
  8
AM_VIS
  5
757
 10
14.4211
 20
3.69130
 30
0.000000
  70
    32
  0
VERTEX
  8
AM_VIS
  5
758
 10
14.4214
 20
3.69042
 30
0.000000
  70
    32
  0
VERTEX
  8
AM_VIS
  5
759
 10
14.4218
 20
3.68955
 30
0.000000
  70
    32
  0
VERTEX
  8
AM_VIS
  5
75A
 10
14.4221
 20
3.68867
 30
0.000000
  70
    32
  0
VERTEX
  8
AM_VIS
  5
75B
 10
14.4225
 20
3.68780
 30
0.000000
  70
    32
  0
VERTEX
  8
AM_VIS
  5
75C
 10
14.4229
 20
3.68692
 30
0.000000
  70
    32
  0
VERTEX
  8
AM_VIS
  5
75D
 10
14.4232
 20
3.68606
 30
0.000000
  70
    32
  0
VERTEX
  8
AM_VIS
  5
75E
 10
14.4236
 20
3.68519
 30
0.000000
  70
    32
  0
VERTEX
  8
AM_VIS
  5
75F
 10
14.4240
 20
3.68433
 30
0.000000
  70
    32
  0
VERTEX
  8
AM_VIS
  5
760
 10
14.4244
 20
3.68346
 30
0.000000
  70
    32
  0
VERTEX
  8
AM_VIS
  5
761
 10
14.4248
 20
3.68261
 30
0.000000
  70
    32
  0
VERTEX
  8
AM_VIS
  5
762
 10
14.4252
 20
3.68175
 30
0.000000
  70
    32
  0
VERTEX
  8
AM_VIS
  5
763
 10
14.4256
 20
3.68090
 30
0.000000
  70
    32
  0
VERTEX
  8
AM_VIS
  5
764
 10
14.4260
 20
3.68005
 30
0.000000
  70
    32
  0
VERTEX
  8
AM_VIS
  5
765
 10
14.4264
 20
3.67920
 30
0.000000
  70
    32
  0
VERTEX
  8
AM_VIS
  5
766
 10
14.4268
 20
3.67835
 30
0.000000
  70
    32
  0
VERTEX
  8
AM_VIS
  5
767
 10
14.4273
 20
3.67751
 30
0.000000
  70
    32
  0
VERTEX
  8
AM_VIS
  5
768
 10
14.4277
 20
3.67667
 30
0.000000
  70
    32
  0
VERTEX
  8
AM_VIS
  5
769
 10
14.4282
 20
3.67584
 30
0.000000
  70
    32
  0
VERTEX
  8
AM_VIS
  5
76A
 10
14.4286
 20
3.67500
 30
0.000000
  70
    32
  0
VERTEX
  8
AM_VIS
  5
76B
 10
14.4291
 20
3.67418
 30
0.000000
  70
    32
  0
SEQEND
  8
AM_VIS
  5
76C
  0
ARC
  5
3B
  8
AM_VIS
 10
13.92633054345894
 20
3.9406502724511712
 30
0.0
 40
0.4103297329045442
 50
271.62821010577989
 51
310.70568439048219
  0
ARC
  5
3C
  8
AM_VIS
 10
13.93798431073138
 20
3.9448598255822049
 30
0.0
 40
0.40625
 50
129.07230755918039
 51
230.92769244081941
  0
ARC
  5
3D
  8
AM_VIS
 10
13.94963807800381
 20
3.9406502724511721
 30
0.0
 40
0.4103297329045457
 50
229.29431560951789
 51
268.37178989422011
  0
LINE
  5
3E
  8
AM_VIS
 10
14.96302859136877
 20
3.0052663075910759
 30
0.0
 11
14.96302859136877
 21
4.8844533435740622
 31
0.0
  0
LINE
  5
3F
  8
AM_VIS
 10
15.205288068912379
 20
2.7573598255822058
 30
0.0
 11
15.205288068912379
 21
5.1323598255822063
 31
0.0
  0
LINE
  5
40
  8
AM_VIS
 10
16.95528806891237
 20
4.8823598255822072
 30
0.0
 11
16.95528806891237
 21
3.0073598255822072
 31
0.0
  0
LINE
  5
41
  8
AM_VIS
 10
15.08798431073137
 20
5.1323598255822063
 30
0.0
 11
15.08798431073137
 21
5.0776601848120437
 31
0.0
  0
LINE
  5
42
  8
AM_VIS
 10
15.087984310731381
 20
2.812059466352367
 30
0.0
 11
15.087984310731381
 21
2.7573598255822058
 31
0.0
  0
LINE
  5
43
  8
AM_VIS
 10
12.78798431073138
 20
5.1323598255822063
 30
0.0
 11
12.78798431073138
 21
2.7573598255822058
 31
0.0
  0
LINE
  5
44
  8
AM_HID
 10
14.93798431073138
 20
5.1323598255822063
 30
0.0
 11
14.93798431073138
 21
2.7573598255822058
 31
0.0
  0
LINE
  5
45
  8
AM_HID
 10
12.93798431073138
 20
5.1323598255822063
 30
0.0
 11
12.93798431073138
 21
2.7573598255822058
 31
0.0
  0
LINE
  5
46
  8
AM_VIS
 10
15.08798431073137
 20
5.0776601848120437
 30
0.0
 11
15.205288068912379
 21
5.1323598255822063
 31
0.0
  0
LINE
  5
47
  8
AM_VIS
 10
15.087984310731381
 20
2.812059466352367
 30
0.0
 11
15.205288068912379
 21
2.7573598255822058
 31
0.0
  0
LINE
  5
48
  8
AM_VIS
 10
15.205288068912379
 20
5.1323598255822063
 30
0.0
 11
15.330288068912379
 21
5.1323598255822063
 31
0.0
  0
LINE
  5
49
  8
AM_VIS
 10
15.205288068912379
 20
2.7573598255822058
 30
0.0
 11
15.330288068912379
 21
2.7573598255822058
 31
0.0
  0
LINE
  5
4A
  8
AM_VIS
 10
15.33028806891237
 20
4.8823598255822063
 30
0.0
 11
16.95528806891237
 21
4.8823598255822063
 31
0.0
  0
LINE
  5
4B
  8
AM_VIS
 10
15.33028806891237
 20
3.0073598255822058
 30
0.0
 11
16.95528806891237
 21
3.0073598255822058
 31
0.0
  0
INSERT
  5
164
  8
0
  2
*U7
 10
0.0
 20
0.0
 30
0.0
  0
INSERT
  5
165
  8
0
  2
*U8
 10
0.0
 20
0.0
 30
0.0
  0
LINE
  5
167
  8
0
 10
15.33028806891237
 20
5.1948598255822063
 30
0.0
 11
15.33028806891237
 21
5.6785981481195931
 31
0.0
  0
LINE
  5
168
  8
0
 10
16.95528806891237
 20
4.9448598255822072
 30
0.0
 11
16.95528806891237
 21
5.6785981481195931
 31
0.0
  0
LINE
  5
169
  8
0
 10
15.45528806891237
 20
5.4985981481195942
 30
0.0
 11
15.818413068912379
 21
5.4985981481195942
 31
0.0
  0
LINE
  5
16A
  8
0
 10
16.830288068912381
 20
5.4985981481195942
 30
0.0
 11
16.467163068912381
 21
5.4985981481195942
 31
0.0
  0
SOLID
  5
16B
  8
0
 10
15.45528806891237
 20
5.5194314814529273
 30
0.0
 11
15.45528806891237
 21
5.4777648147862612
 31
0.0
 12
15.33028806891237
 22
5.4985981481195942
 32
0.0
 13
15.33028806891237
 23
5.4985981481195942
 33
0.0
  0
SOLID
  5
16C
  8
0
 10
16.830288068912381
 20
5.5194314814529273
 30
0.0
 11
16.830288068912381
 21
5.4777648147862612
 31
0.0
 12
16.95528806891237
 22
5.4985981481195942
 32
0.0
 13
16.95528806891237
 23
5.4985981481195942
 33
0.0
  0
INSERT
  5
16D
  8
0
  2
*U9
 10
0.0
 20
0.0
 30
0.0
  0
ENDSEC
  0
EOF
