  0
SECTION
  2
HEADER
  9
$ACADVER
  1
AC1009
  9
$INSBASE
 10
0.0
 20
0.0
 30
0.0
  9
$EXTMIN
 10
4.6849120033736353
 20
3.6084514088310931
 30
0.0
  9
$EXTMAX
 10
8.3140066126137064
 20
5.0484514088310943
 30
0.0
  9
$LIMMIN
 10
0.0
 20
0.0
  9
$LIMMAX
 10
12.0
 20
9.0
  9
$ORTHOMODE
 70
     1
  9
$REGENMODE
 70
     0
  9
$FILLMODE
 70
     1
  9
$QTEXTMODE
 70
     0
  9
$MIRRTEXT
 70
     0
  9
$DRAGMODE
 70
     2
  9
$LTSCALE
 40
1.0
  9
$OSMODE
 70
    55
  9
$ATTMODE
 70
     1
  9
$TEXTSIZE
 40
0.12
  9
$TRACEWID
 40
0.05
  9
$TEXTSTYLE
  7
ADESK1
  9
$CLAYER
  8
0
  9
$CELTYPE
  6
BYLAYER
  9
$CECOLOR
 62
   256
  9
$DIMSCALE
 40
1.0
  9
$DIMASZ
 40
0.125
  9
$DIMEXO
 40
0.0625
  9
$DIMDLI
 40
0.38
  9
$DIMRND
 40
0.0
  9
$DIMDLE
 40
0.0
  9
$DIMEXE
 40
0.18
  9
$DIMTP
 40
0.0
  9
$DIMTM
 40
0.0
  9
$DIMTXT
 40
0.09375
  9
$DIMCEN
 40
-0.125
  9
$DIMTSZ
 40
0.0
  9
$DIMTOL
 70
     0
  9
$DIMLIM
 70
     0
  9
$DIMTIH
 70
     0
  9
$DIMTOH
 70
     0
  9
$DIMSE1
 70
     0
  9
$DIMSE2
 70
     0
  9
$DIMTAD
 70
     0
  9
$DIMZIN
 70
     3
  9
$DIMBLK
  1

  9
$DIMASO
 70
     0
  9
$DIMSHO
 70
     1
  9
$DIMPOST
  1

  9
$DIMAPOST
  1

  9
$DIMALT
 70
     0
  9
$DIMALTD
 70
     2
  9
$DIMALTF
 40
25.399999999999999
  9
$DIMLFAC
 40
1.0
  9
$DIMTOFL
 70
     1
  9
$DIMTVP
 40
0.0
  9
$DIMTIX
 70
     0
  9
$DIMSOXD
 70
     0
  9
$DIMSAH
 70
     0
  9
$DIMBLK1
  1

  9
$DIMBLK2
  1

  9
$DIMSTYLE
  2
STANDARD
  9
$DIMCLRD
 70
     0
  9
$DIMCLRE
 70
     0
  9
$DIMCLRT
 70
     0
  9
$DIMTFAC
 40
1.0
  9
$DIMGAP
 40
0.09
  9
$LUNITS
 70
     4
  9
$LUPREC
 70
     4
  9
$SKETCHINC
 40
0.1
  9
$FILLETRAD
 40
0.0
  9
$AUNITS
 70
     0
  9
$AUPREC
 70
     4
  9
$MENU
  1
.
  9
$ELEVATION
 40
0.0
  9
$PELEVATION
 40
0.0
  9
$THICKNESS
 40
0.0
  9
$LIMCHECK
 70
     0
  9
$BLIPMODE
 70
     0
  9
$CHAMFERA
 40
0.5
  9
$CHAMFERB
 40
0.5
  9
$SKPOLY
 70
     0
  9
$TDCREATE
 40
2451065.3838062501
  9
$TDUPDATE
 40
2453913.5761605208
  9
$TDINDWG
 40
0.0282541435
  9
$TDUSRTIMER
 40
0.0282541435
  9
$USRTIMER
 70
     1
  9
$ANGBASE
 50
0.0
  9
$ANGDIR
 70
     0
  9
$PDMODE
 70
    34
  9
$PDSIZE
 40
3.0
  9
$PLINEWID
 40
0.0
  9
$COORDS
 70
     1
  9
$SPLFRAME
 70
     0
  9
$SPLINETYPE
 70
     6
  9
$SPLINESEGS
 70
     8
  9
$ATTDIA
 70
     0
  9
$ATTREQ
 70
     1
  9
$HANDLING
 70
     1
  9
$HANDSEED
  5
5EA
  9
$SURFTAB1
 70
     6
  9
$SURFTAB2
 70
     6
  9
$SURFTYPE
 70
     6
  9
$SURFU
 70
     6
  9
$SURFV
 70
     6
  9
$UCSNAME
  2

  9
$UCSORG
 10
0.0
 20
0.0
 30
0.0
  9
$UCSXDIR
 10
1.0
 20
0.0
 30
0.0
  9
$UCSYDIR
 10
0.0
 20
1.0
 30
0.0
  9
$PUCSNAME
  2

  9
$PUCSORG
 10
0.0
 20
0.0
 30
0.0
  9
$PUCSXDIR
 10
1.0
 20
0.0
 30
0.0
  9
$PUCSYDIR
 10
0.0
 20
1.0
 30
0.0
  9
$USERI1
 70
     0
  9
$USERI2
 70
     0
  9
$USERI3
 70
     0
  9
$USERI4
 70
     0
  9
$USERI5
 70
     0
  9
$USERR1
 40
0.0
  9
$USERR2
 40
0.0
  9
$USERR3
 40
0.0
  9
$USERR4
 40
0.0
  9
$USERR5
 40
0.0
  9
$WORLDVIEW
 70
     1
  9
$SHADEDGE
 70
     3
  9
$SHADEDIF
 70
    70
  9
$TILEMODE
 70
     1
  9
$MAXACTVP
 70
    48
  9
$PLIMCHECK
 70
     0
  9
$PEXTMIN
 10
3.5513604663387559
 20
3.105440649441273
 30
0.0
  9
$PEXTMAX
 10
8.3788604663387574
 20
5.7054406494412753
 30
0.0
  9
$PLIMMIN
 10
-0.1579164520023376
 20
-0.2812499887361301
  9
$PLIMMAX
 10
10.84208330770177
 20
8.2187497709679782
  9
$UNITMODE
 70
     0
  9
$VISRETAIN
 70
     1
  9
$PLINEGEN
 70
     0
  9
$PSLTSCALE
 70
     1
  0
ENDSEC
  0
SECTION
  2
TABLES
  0
TABLE
  2
VPORT
 70
     2
  0
VPORT
  2
*ACTIVE
 70
     0
 10
0.0
 20
0.0
 11
1.0
 21
1.0
 12
1.647841422962089
 22
-0.2833823502834427
 13
0.0
 23
0.0
 14
0.5
 24
0.5
 15
0.5
 25
0.5
 16
0.0
 26
0.0
 36
1.0
 17
5.9651104613387558
 27
4.5390640699792479
 37
0.0
 40
4.8842071444100839
 41
2.2641129032258061
 42
50.0
 43
0.0
 44
0.0
 50
0.0
 51
0.0
 71
     0
 72
   100
 73
     1
 74
     1
 75
     0
 76
     0
 77
     0
 78
     0
  0
ENDTAB
  0
TABLE
  2
LTYPE
 70
    18
  0
LTYPE
  2
CONTINUOUS
 70
     0
  3
Solid line
 72
    65
 73
     0
 40
0.0
  0
LTYPE
  2
HIDDEN
 70
     0
  3
__ __ __ __ __ __ __ __ __ __ __ __ __ __ __ __
 72
    65
 73
     2
 40
0.375
 49
0.25
 49
-0.125
  0
LTYPE
  2
PHANTOM2
 70
     0
  3
Phantom (.5x) ___ _ _ ___ _ _ ___ _ _ ___ _ _
 72
    65
 73
     6
 40
1.25
 49
0.625
 49
-0.125
 49
0.125
 49
-0.125
 49
0.125
 49
-0.125
  0
LTYPE
  2
CENTER
 70
     0
  3
Center ____ _ ____ _ ____ _ ____ _ ____ _ ____
 72
    65
 73
     4
 40
2.0
 49
1.25
 49
-0.25
 49
0.25
 49
-0.25
  0
LTYPE
  2
ASULTYPE
 70
     0
  3
Solid line
 72
    65
 73
     2
 40
3.0
 49
2.5
 49
0.5
  0
LTYPE
  2
ASVLTYPE
 70
     0
  3
__ __ __ __ __ __ __ __ __ __ __ __ __ __ __ __ __ __ __ __ __
 72
    65
 73
     2
 40
0.75
 49
0.5
 49
-0.25
  0
LTYPE
  2
AM_ISO02W050
 70
     0
  3
__ __ __ __ __ __ __ __ __ __ __ __ __ __ __
 72
    65
 73
     2
 40
7.5
 49
6.0
 49
-1.5
  0
LTYPE
  2
AM_ISO08W050
 70
     0
  3
____ . ____ . ____ . ____ . ____ . ____ . ____
 72
    65
 73
     4
 40
18.0
 49
12.0
 49
-1.5
 49
3.0
 49
-1.5
  0
LTYPE
  2
AM_ISO09W050
 70
     0
  3
_____ . . _____ . . _____ . . ____ .. ____
 72
    65
 73
     6
 40
22.5
 49
12.0
 49
-1.5
 49
3.0
 49
-1.5
 49
3.0
 49
-1.5
  0
LTYPE
  2
AMCONSTR
 70
     0
  3
_______________________
 72
    65
 73
     2
 40
9999.0
 49
9999.0
 49
0.0
  0
LTYPE
  2
AM_ISO08W050X2
 70
     0
  3
__ . __ . __ . __ . __ . __
 72
    65
 73
     4
 40
9.0
 49
6.0
 49
-0.75
 49
1.5
 49
-0.75
  0
LTYPE
  2
AM_ISO02W050X2
 70
     0
  3
 _ _ _ _ _ _ _ _ _ _ _ _
 72
    65
 73
     2
 40
3.75
 49
3.0
 49
-0.75
  0
LTYPE
  2
AMZIGZAG
 70
     0
  3
/\/-/\/-/\/-/\/-/\/-/\/
 72
    65
 73
     2
 40
11.0001
 49
0.0001
 49
-11.0
  0
LTYPE
  2
CENTER2
 70
     0
  3
Center (.5x) ___ _ ___ _ ___ _ ___ _ ___ _ ___
 72
    65
 73
     4
 40
1.125
 49
0.75
 49
-0.125
 49
0.125
 49
-0.125
  0
LTYPE
  2
HIDDEN2
 70
     0
  3
Hidden (.5x) _ _ _ _ _ _ _ _ _ _ _ _ _ _ _ _ _
 72
    65
 73
     2
 40
0.1875
 49
0.125
 49
-0.0625
  0
LTYPE
  2
AMZIGZAG2
 70
     0
  3
/\/-/\/-/\/-/\/-/\/-/\/
 72
    65
 73
     2
 40
0.4401
 49
0.0001
 49
-0.4400000000000001
  0
LTYPE
  2
ACANSTGB
 70
     0
  3
__ . . __ . .
 72
    65
 73
     6
 40
0.35433070866
 49
0.15748031496
 49
-0.03937007874
 49
0.03937007874
 49
-0.03937007874
 49
0.03937007874
 49
-0.03937007874
  0
LTYPE
  2
ACANSTGL
 70
     0
  3
_ _ _ _ _
 72
    65
 73
     2
 40
0.11811023622
 49
0.07874015748
 49
-0.03937007874
  0
ENDTAB
  0
TABLE
  2
LAYER
 70
     3
  0
LAYER
  2
0
 70
     0
 62
     7
  6
CONTINUOUS
  0
LAYER
  2
AM_VIS
 70
     0
 62
     7
  6
CONTINUOUS
  0
LAYER
  2
AM_HID
 70
     0
 62
     7
  6
HIDDEN
  0
ENDTAB
  0
TABLE
  2
STYLE
 70
     5
  0
STYLE
  2
STANDARD
 70
     0
 40
0.0
 41
1.0
 50
0.0
 71
     0
 42
0.2
  3
txt
  4

  0
STYLE
  2
ADESK1
 70
     0
 40
0.0
 41
1.0
 50
0.0
 71
     0
 42
0.12
  3
romans.shx
  4

  0
STYLE
  2

 70
     1
 40
0.0
 41
1.0
 50
0.0
 71
     0
 42
0.12
  3
ltypeshp.shx
  4

  0
STYLE
  2
ACANSTS
 70
     0
 40
1.0
 41
1.0
 50
0.0
 71
     0
 42
0.12
  3
romans.shx
  4

  0
STYLE
  2
ACANSGDT
 70
     0
 40
0.0
 41
1.0
 50
0.0
 71
     0
 42
0.12
  3
amgdtans.shx
  4

  0
ENDTAB
  0
TABLE
  2
VIEW
 70
     0
  0
ENDTAB
  0
TABLE
  2
UCS
 70
     0
  0
ENDTAB
  0
TABLE
  2
APPID
 70
    13
  0
APPID
  2
ACAD
 70
     0
  0
APPID
  2
GENIUS_GENDIM_13
 70
     0
  0
APPID
  2
GENIUS_GENDTOL_13
 70
     0
  0
APPID
  2
GENIUS_GE3DTOL_13
 70
     0
  0
APPID
  2
MCAD_NO_VIS
 70
     0
  0
APPID
  2
ACAD_TEMP_GRAPHIC
 70
     0
  0
APPID
  2
AD_DRAW
 70
     0
  0
APPID
  2
ACATTRIBSERVICES
 70
     0
  0
APPID
  2
ASURF_PCURVE_APPNAME
 70
     0
  0
APPID
  2
AMG_3D2D_5_0
 70
     0
  0
APPID
  2
DESIGNERASSEMBLIES
 70
     0
  0
APPID
  2
ACADM_DIM_EDIT
 70
     0
  0
APPID
  2
AMDT_DM_ADJ
 70
     0
  0
ENDTAB
  0
TABLE
  2
DIMSTYLE
 70
     7
  0
DIMSTYLE
  2
STANDARD
 70
     0
  3

  4

  5

  6

  7

 40
1.0
 41
0.18
 42
0.0625
 43
0.38
 44
0.18
 45
0.0
 46
0.0
 47
0.0
 48
0.0
140
0.18
141
0.09
142
0.0
143
25.399999999999999
144
1.0
145
0.0
146
1.0
147
0.09
 71
     0
 72
     0
 73
     1
 74
     1
 75
     0
 76
     0
 77
     0
 78
     0
170
     0
171
     2
172
     0
173
     0
174
     0
175
     0
176
     0
177
     0
178
     0
  0
DIMSTYLE
  2
AM_ANSI
 70
     0
  3

  4
mm
  5

  6

  7

 40
1.0
 41
0.1
 42
0.05
 43
0.5
 44
0.1
 45
0.0
 46
0.0
 47
0.1
 48
0.1
140
0.12
141
0.0
142
0.0
143
25.399999999999999
144
1.0
145
0.0
146
0.71
147
0.06
 71
     0
 72
     0
 73
     1
 74
     1
 75
     0
 76
     0
 77
     0
 78
     7
170
     0
171
     2
172
     0
173
     0
174
     0
175
     0
176
   256
177
   256
178
     2
  0
DIMSTYLE
  2
AM_ANSI$3
 70
     0
  3

  4
mm
  5

  6

  7

 40
1.0
 41
0.1
 42
0.05
 43
0.5
 44
0.1
 45
0.0
 46
0.0
 47
0.1
 48
0.1
140
0.12
141
0.0
142
0.0
143
25.399999999999999
144
1.0
145
0.0
146
0.71
147
0.06
 71
     0
 72
     0
 73
     1
 74
     1
 75
     0
 76
     0
 77
     0
 78
     7
170
     0
171
     2
172
     0
173
     0
174
     0
175
     0
176
   256
177
   256
178
     2
  0
DIMSTYLE
  2
AM_ANSI$4
 70
     0
  3

  4
mm
  5

  6

  7

 40
1.0
 41
0.1
 42
0.05
 43
0.5
 44
0.1
 45
0.0
 46
0.0
 47
0.1
 48
0.1
140
0.12
141
0.0
142
0.0
143
25.399999999999999
144
1.0
145
0.0
146
0.71
147
0.06
 71
     0
 72
     0
 73
     1
 74
     1
 75
     0
 76
     0
 77
     0
 78
     7
170
     0
171
     2
172
     0
173
     0
174
     0
175
     0
176
   256
177
   256
178
     2
  0
DIMSTYLE
  2
AM_ANSI$7
 70
     0
  3

  4
mm
  5

  6

  7

 40
1.0
 41
0.1
 42
0.05
 43
0.5
 44
0.1
 45
0.0
 46
0.0
 47
0.1
 48
0.1
140
0.24
141
0.0
142
0.0
143
25.399999999999999
144
1.0
145
0.0
146
0.71
147
0.06
 71
     0
 72
     0
 73
     1
 74
     1
 75
     0
 76
     0
 77
     0
 78
     7
170
     0
171
     2
172
     0
173
     0
174
     0
175
     0
176
   256
177
   256
178
     2
  0
DIMSTYLE
  2
AM_ANSI$SF
 70
     0
  3

  4
mm
  5

  6

  7

 40
1.0
 41
0.1
 42
0.05
 43
0.5
 44
0.1
 45
0.0
 46
0.0
 47
0.1
 48
0.1
140
0.12
141
0.0
142
0.0
143
25.399999999999999
144
1.0
145
0.0
146
0.71
147
0.06
 71
     0
 72
     0
 73
     1
 74
     1
 75
     1
 76
     1
 77
     0
 78
     7
170
     0
171
     2
172
     0
173
     0
174
     0
175
     0
176
   256
177
   256
178
     2
  0
DIMSTYLE
  2
AM_ANSI$SH
 70
     0
  3

  4
mm
  5

  6
GENAXEH
  7

 40
1.0
 41
0.1
 42
0.05
 43
0.5
 44
0.1
 45
0.0
 46
0.0
 47
0.1
 48
0.1
140
0.12
141
0.0
142
0.0
143
25.399999999999999
144
1.0
145
0.0
146
0.71
147
0.06
 71
     0
 72
     0
 73
     1
 74
     1
 75
     1
 76
     1
 77
     0
 78
     7
170
     0
171
     2
172
     0
173
     1
174
     0
175
     0
176
   256
177
   256
178
     2
  0
ENDTAB
  0
ENDSEC
  0
SECTION
  2
BLOCKS
  0
BLOCK
  8
0
  2
$MODEL_SPACE
 70
     0
 10
0.0
 20
0.0
 30
0.0
  3
$MODEL_SPACE
  1

  0
ENDBLK
  5
A
  8
0
  0
BLOCK
 67
     1
  8
0
  2
$PAPER_SPACE
 70
     0
 10
0.0
 20
0.0
 30
0.0
  3
$PAPER_SPACE
  1

  0
ENDBLK
  5
F
 67
     1
  8
0
  0
BLOCK
  8
0
  2
*U0
 70
     1
 10
0.0
 20
0.0
 30
0.0
  3
*U0
  1

  0
ENDBLK
  5
F9
  8
0
  0
BLOCK
  8
0
  2
GENAXEH
 70
     0
 10
0.0
 20
0.0
 30
0.0
  3
GENAXEH
  1

  0
LINE
  5
136
  8
0
 10
-1.0
 20
0.0
 30
0.0
 11
1.0
 21
0.0
 31
0.0
  0
ENDBLK
  5
138
  8
0
  0
BLOCK
  8
0
  2
*U2
 70
     1
 10
0.0
 20
0.0
 30
0.0
  3
*U2
  1

  0
TEXT
  5
1A5
  8
0
 10
8.2133351840422755
 20
4.1259514088310949
 30
0.0
 40
0.0675
  1
1-5/8"
 50
90.0
  7
ADESK1
  0
ENDBLK
  5
1A7
  8
0
  0
ENDSEC
  0
SECTION
  2
ENTITIES
  0
LINE
  5
26
  8
AM_VIS
 10
7.582912003373635
 20
5.0484514088310943
 30
0.0
 11
5.9318178410811324
 21
5.0484514088310943
 31
0.0
  0
LINE
  5
28
  8
AM_VIS
 10
5.9318178410811306
 20
3.6084514088310939
 30
0.0
 11
5.9318178410811306
 21
5.0484514088310943
 31
0.0
  0
LINE
  5
29
  8
AM_VIS
 10
5.9318178410811306
 20
3.6084514088310939
 30
0.0
 11
7.582912003373635
 21
3.6084514088310939
 31
0.0
  0
POLYLINE
  8
AM_VIS
  5
1A8
  66
     1
 10
0.000000
 20
0.000000
 30
0.000000
  70
     8
  0
VERTEX
  8
AM_VIS
  5
1A9
 10
7.01528
 20
4.32845
 30
0.000000
  70
    32
  0
VERTEX
  8
AM_VIS
  5
1AA
 10
7.01528
 20
4.32988
 30
0.000000
  70
    32
  0
VERTEX
  8
AM_VIS
  5
1AB
 10
7.01526
 20
4.33130
 30
0.000000
  70
    32
  0
VERTEX
  8
AM_VIS
  5
1AC
 10
7.01524
 20
4.33273
 30
0.000000
  70
    32
  0
VERTEX
  8
AM_VIS
  5
1AD
 10
7.01521
 20
4.33416
 30
0.000000
  70
    32
  0
VERTEX
  8
AM_VIS
  5
1AE
 10
7.01517
 20
4.33559
 30
0.000000
  70
    32
  0
VERTEX
  8
AM_VIS
  5
1AF
 10
7.01512
 20
4.33703
 30
0.000000
  70
    32
  0
VERTEX
  8
AM_VIS
  5
1B0
 10
7.01506
 20
4.33847
 30
0.000000
  70
    32
  0
VERTEX
  8
AM_VIS
  5
1B1
 10
7.01499
 20
4.33990
 30
0.000000
  70
    32
  0
VERTEX
  8
AM_VIS
  5
1B2
 10
7.01492
 20
4.34134
 30
0.000000
  70
    32
  0
VERTEX
  8
AM_VIS
  5
1B3
 10
7.01483
 20
4.34278
 30
0.000000
  70
    32
  0
VERTEX
  8
AM_VIS
  5
1B4
 10
7.01473
 20
4.34423
 30
0.000000
  70
    32
  0
VERTEX
  8
AM_VIS
  5
1B5
 10
7.01463
 20
4.34567
 30
0.000000
  70
    32
  0
VERTEX
  8
AM_VIS
  5
1B6
 10
7.01452
 20
4.34711
 30
0.000000
  70
    32
  0
VERTEX
  8
AM_VIS
  5
1B7
 10
7.01440
 20
4.34856
 30
0.000000
  70
    32
  0
VERTEX
  8
AM_VIS
  5
1B8
 10
7.01427
 20
4.35001
 30
0.000000
  70
    32
  0
VERTEX
  8
AM_VIS
  5
1B9
 10
7.01413
 20
4.35145
 30
0.000000
  70
    32
  0
VERTEX
  8
AM_VIS
  5
1BA
 10
7.01398
 20
4.35290
 30
0.000000
  70
    32
  0
VERTEX
  8
AM_VIS
  5
1BB
 10
7.01382
 20
4.35435
 30
0.000000
  70
    32
  0
VERTEX
  8
AM_VIS
  5
1BC
 10
7.01365
 20
4.35580
 30
0.000000
  70
    32
  0
VERTEX
  8
AM_VIS
  5
1BD
 10
7.01348
 20
4.35725
 30
0.000000
  70
    32
  0
VERTEX
  8
AM_VIS
  5
1BE
 10
7.01329
 20
4.35870
 30
0.000000
  70
    32
  0
VERTEX
  8
AM_VIS
  5
1BF
 10
7.01310
 20
4.36015
 30
0.000000
  70
    32
  0
VERTEX
  8
AM_VIS
  5
1C0
 10
7.01289
 20
4.36160
 30
0.000000
  70
    32
  0
VERTEX
  8
AM_VIS
  5
1C1
 10
7.01268
 20
4.36305
 30
0.000000
  70
    32
  0
VERTEX
  8
AM_VIS
  5
1C2
 10
7.01246
 20
4.36450
 30
0.000000
  70
    32
  0
VERTEX
  8
AM_VIS
  5
1C3
 10
7.01223
 20
4.36596
 30
0.000000
  70
    32
  0
VERTEX
  8
AM_VIS
  5
1C4
 10
7.01199
 20
4.36741
 30
0.000000
  70
    32
  0
VERTEX
  8
AM_VIS
  5
1C5
 10
7.01175
 20
4.36886
 30
0.000000
  70
    32
  0
VERTEX
  8
AM_VIS
  5
1C6
 10
7.01149
 20
4.37031
 30
0.000000
  70
    32
  0
VERTEX
  8
AM_VIS
  5
1C7
 10
7.01122
 20
4.37176
 30
0.000000
  70
    32
  0
VERTEX
  8
AM_VIS
  5
1C8
 10
7.01095
 20
4.37321
 30
0.000000
  70
    32
  0
VERTEX
  8
AM_VIS
  5
1C9
 10
7.01067
 20
4.37466
 30
0.000000
  70
    32
  0
VERTEX
  8
AM_VIS
  5
1CA
 10
7.01038
 20
4.37611
 30
0.000000
  70
    32
  0
VERTEX
  8
AM_VIS
  5
1CB
 10
7.01007
 20
4.37755
 30
0.000000
  70
    32
  0
VERTEX
  8
AM_VIS
  5
1CC
 10
7.00976
 20
4.37900
 30
0.000000
  70
    32
  0
VERTEX
  8
AM_VIS
  5
1CD
 10
7.00945
 20
4.38045
 30
0.000000
  70
    32
  0
VERTEX
  8
AM_VIS
  5
1CE
 10
7.00912
 20
4.38189
 30
0.000000
  70
    32
  0
VERTEX
  8
AM_VIS
  5
1CF
 10
7.00878
 20
4.38333
 30
0.000000
  70
    32
  0
VERTEX
  8
AM_VIS
  5
1D0
 10
7.00844
 20
4.38478
 30
0.000000
  70
    32
  0
VERTEX
  8
AM_VIS
  5
1D1
 10
7.00808
 20
4.38622
 30
0.000000
  70
    32
  0
VERTEX
  8
AM_VIS
  5
1D2
 10
7.00772
 20
4.38766
 30
0.000000
  70
    32
  0
VERTEX
  8
AM_VIS
  5
1D3
 10
7.00735
 20
4.38910
 30
0.000000
  70
    32
  0
VERTEX
  8
AM_VIS
  5
1D4
 10
7.00696
 20
4.39053
 30
0.000000
  70
    32
  0
VERTEX
  8
AM_VIS
  5
1D5
 10
7.00657
 20
4.39197
 30
0.000000
  70
    32
  0
VERTEX
  8
AM_VIS
  5
1D6
 10
7.00618
 20
4.39340
 30
0.000000
  70
    32
  0
VERTEX
  8
AM_VIS
  5
1D7
 10
7.00577
 20
4.39483
 30
0.000000
  70
    32
  0
VERTEX
  8
AM_VIS
  5
1D8
 10
7.00535
 20
4.39626
 30
0.000000
  70
    32
  0
VERTEX
  8
AM_VIS
  5
1D9
 10
7.00493
 20
4.39769
 30
0.000000
  70
    32
  0
VERTEX
  8
AM_VIS
  5
1DA
 10
7.00449
 20
4.39911
 30
0.000000
  70
    32
  0
VERTEX
  8
AM_VIS
  5
1DB
 10
7.00405
 20
4.40054
 30
0.000000
  70
    32
  0
VERTEX
  8
AM_VIS
  5
1DC
 10
7.00360
 20
4.40196
 30
0.000000
  70
    32
  0
VERTEX
  8
AM_VIS
  5
1DD
 10
7.00313
 20
4.40337
 30
0.000000
  70
    32
  0
VERTEX
  8
AM_VIS
  5
1DE
 10
7.00267
 20
4.40479
 30
0.000000
  70
    32
  0
VERTEX
  8
AM_VIS
  5
1DF
 10
7.00219
 20
4.40620
 30
0.000000
  70
    32
  0
VERTEX
  8
AM_VIS
  5
1E0
 10
7.00170
 20
4.40761
 30
0.000000
  70
    32
  0
VERTEX
  8
AM_VIS
  5
1E1
 10
7.00120
 20
4.40902
 30
0.000000
  70
    32
  0
VERTEX
  8
AM_VIS
  5
1E2
 10
7.00070
 20
4.41042
 30
0.000000
  70
    32
  0
VERTEX
  8
AM_VIS
  5
1E3
 10
7.00018
 20
4.41182
 30
0.000000
  70
    32
  0
VERTEX
  8
AM_VIS
  5
1E4
 10
6.99966
 20
4.41322
 30
0.000000
  70
    32
  0
VERTEX
  8
AM_VIS
  5
1E5
 10
6.99913
 20
4.41462
 30
0.000000
  70
    32
  0
VERTEX
  8
AM_VIS
  5
1E6
 10
6.99859
 20
4.41601
 30
0.000000
  70
    32
  0
VERTEX
  8
AM_VIS
  5
1E7
 10
6.99804
 20
4.41740
 30
0.000000
  70
    32
  0
VERTEX
  8
AM_VIS
  5
1E8
 10
6.99748
 20
4.41878
 30
0.000000
  70
    32
  0
VERTEX
  8
AM_VIS
  5
1E9
 10
6.99692
 20
4.42016
 30
0.000000
  70
    32
  0
VERTEX
  8
AM_VIS
  5
1EA
 10
6.99634
 20
4.42154
 30
0.000000
  70
    32
  0
VERTEX
  8
AM_VIS
  5
1EB
 10
6.99576
 20
4.42292
 30
0.000000
  70
    32
  0
VERTEX
  8
AM_VIS
  5
1EC
 10
6.99516
 20
4.42429
 30
0.000000
  70
    32
  0
VERTEX
  8
AM_VIS
  5
1ED
 10
6.99456
 20
4.42565
 30
0.000000
  70
    32
  0
VERTEX
  8
AM_VIS
  5
1EE
 10
6.99395
 20
4.42701
 30
0.000000
  70
    32
  0
VERTEX
  8
AM_VIS
  5
1EF
 10
6.99333
 20
4.42837
 30
0.000000
  70
    32
  0
VERTEX
  8
AM_VIS
  5
1F0
 10
6.99270
 20
4.42973
 30
0.000000
  70
    32
  0
VERTEX
  8
AM_VIS
  5
1F1
 10
6.99207
 20
4.43108
 30
0.000000
  70
    32
  0
VERTEX
  8
AM_VIS
  5
1F2
 10
6.99142
 20
4.43242
 30
0.000000
  70
    32
  0
VERTEX
  8
AM_VIS
  5
1F3
 10
6.99077
 20
4.43376
 30
0.000000
  70
    32
  0
VERTEX
  8
AM_VIS
  5
1F4
 10
6.99011
 20
4.43510
 30
0.000000
  70
    32
  0
VERTEX
  8
AM_VIS
  5
1F5
 10
6.98944
 20
4.43643
 30
0.000000
  70
    32
  0
VERTEX
  8
AM_VIS
  5
1F6
 10
6.98876
 20
4.43776
 30
0.000000
  70
    32
  0
VERTEX
  8
AM_VIS
  5
1F7
 10
6.98807
 20
4.43909
 30
0.000000
  70
    32
  0
VERTEX
  8
AM_VIS
  5
1F8
 10
6.98738
 20
4.44040
 30
0.000000
  70
    32
  0
VERTEX
  8
AM_VIS
  5
1F9
 10
6.98668
 20
4.44172
 30
0.000000
  70
    32
  0
VERTEX
  8
AM_VIS
  5
1FA
 10
6.98597
 20
4.44303
 30
0.000000
  70
    32
  0
VERTEX
  8
AM_VIS
  5
1FB
 10
6.98525
 20
4.44433
 30
0.000000
  70
    32
  0
VERTEX
  8
AM_VIS
  5
1FC
 10
6.98453
 20
4.44563
 30
0.000000
  70
    32
  0
VERTEX
  8
AM_VIS
  5
1FD
 10
6.98379
 20
4.44693
 30
0.000000
  70
    32
  0
VERTEX
  8
AM_VIS
  5
1FE
 10
6.98305
 20
4.44822
 30
0.000000
  70
    32
  0
VERTEX
  8
AM_VIS
  5
1FF
 10
6.98231
 20
4.44951
 30
0.000000
  70
    32
  0
VERTEX
  8
AM_VIS
  5
200
 10
6.98155
 20
4.45079
 30
0.000000
  70
    32
  0
VERTEX
  8
AM_VIS
  5
201
 10
6.98079
 20
4.45206
 30
0.000000
  70
    32
  0
VERTEX
  8
AM_VIS
  5
202
 10
6.98002
 20
4.45333
 30
0.000000
  70
    32
  0
VERTEX
  8
AM_VIS
  5
203
 10
6.97924
 20
4.45460
 30
0.000000
  70
    32
  0
VERTEX
  8
AM_VIS
  5
204
 10
6.97846
 20
4.45586
 30
0.000000
  70
    32
  0
VERTEX
  8
AM_VIS
  5
205
 10
6.97767
 20
4.45711
 30
0.000000
  70
    32
  0
VERTEX
  8
AM_VIS
  5
206
 10
6.97687
 20
4.45836
 30
0.000000
  70
    32
  0
VERTEX
  8
AM_VIS
  5
207
 10
6.97606
 20
4.45961
 30
0.000000
  70
    32
  0
VERTEX
  8
AM_VIS
  5
208
 10
6.97525
 20
4.46085
 30
0.000000
  70
    32
  0
VERTEX
  8
AM_VIS
  5
209
 10
6.97443
 20
4.46208
 30
0.000000
  70
    32
  0
VERTEX
  8
AM_VIS
  5
20A
 10
6.97361
 20
4.46331
 30
0.000000
  70
    32
  0
VERTEX
  8
AM_VIS
  5
20B
 10
6.97278
 20
4.46453
 30
0.000000
  70
    32
  0
VERTEX
  8
AM_VIS
  5
20C
 10
6.97194
 20
4.46575
 30
0.000000
  70
    32
  0
VERTEX
  8
AM_VIS
  5
20D
 10
6.97110
 20
4.46696
 30
0.000000
  70
    32
  0
VERTEX
  8
AM_VIS
  5
20E
 10
6.97025
 20
4.46816
 30
0.000000
  70
    32
  0
VERTEX
  8
AM_VIS
  5
20F
 10
6.96939
 20
4.46936
 30
0.000000
  70
    32
  0
VERTEX
  8
AM_VIS
  5
210
 10
6.96853
 20
4.47055
 30
0.000000
  70
    32
  0
VERTEX
  8
AM_VIS
  5
211
 10
6.96766
 20
4.47174
 30
0.000000
  70
    32
  0
VERTEX
  8
AM_VIS
  5
212
 10
6.96678
 20
4.47292
 30
0.000000
  70
    32
  0
VERTEX
  8
AM_VIS
  5
213
 10
6.96590
 20
4.47410
 30
0.000000
  70
    32
  0
VERTEX
  8
AM_VIS
  5
214
 10
6.96501
 20
4.47527
 30
0.000000
  70
    32
  0
VERTEX
  8
AM_VIS
  5
215
 10
6.96412
 20
4.47643
 30
0.000000
  70
    32
  0
VERTEX
  8
AM_VIS
  5
216
 10
6.96322
 20
4.47759
 30
0.000000
  70
    32
  0
VERTEX
  8
AM_VIS
  5
217
 10
6.96232
 20
4.47874
 30
0.000000
  70
    32
  0
VERTEX
  8
AM_VIS
  5
218
 10
6.96141
 20
4.47988
 30
0.000000
  70
    32
  0
VERTEX
  8
AM_VIS
  5
219
 10
6.96049
 20
4.48102
 30
0.000000
  70
    32
  0
VERTEX
  8
AM_VIS
  5
21A
 10
6.95957
 20
4.48215
 30
0.000000
  70
    32
  0
VERTEX
  8
AM_VIS
  5
21B
 10
6.95865
 20
4.48327
 30
0.000000
  70
    32
  0
VERTEX
  8
AM_VIS
  5
21C
 10
6.95772
 20
4.48439
 30
0.000000
  70
    32
  0
VERTEX
  8
AM_VIS
  5
21D
 10
6.95678
 20
4.48550
 30
0.000000
  70
    32
  0
VERTEX
  8
AM_VIS
  5
21E
 10
6.95584
 20
4.48660
 30
0.000000
  70
    32
  0
VERTEX
  8
AM_VIS
  5
21F
 10
6.95489
 20
4.48770
 30
0.000000
  70
    32
  0
VERTEX
  8
AM_VIS
  5
220
 10
6.95394
 20
4.48879
 30
0.000000
  70
    32
  0
VERTEX
  8
AM_VIS
  5
221
 10
6.95299
 20
4.48988
 30
0.000000
  70
    32
  0
VERTEX
  8
AM_VIS
  5
222
 10
6.95202
 20
4.49095
 30
0.000000
  70
    32
  0
VERTEX
  8
AM_VIS
  5
223
 10
6.95106
 20
4.49202
 30
0.000000
  70
    32
  0
VERTEX
  8
AM_VIS
  5
224
 10
6.95009
 20
4.49309
 30
0.000000
  70
    32
  0
VERTEX
  8
AM_VIS
  5
225
 10
6.94911
 20
4.49414
 30
0.000000
  70
    32
  0
VERTEX
  8
AM_VIS
  5
226
 10
6.94813
 20
4.49519
 30
0.000000
  70
    32
  0
VERTEX
  8
AM_VIS
  5
227
 10
6.94715
 20
4.49623
 30
0.000000
  70
    32
  0
VERTEX
  8
AM_VIS
  5
228
 10
6.94616
 20
4.49727
 30
0.000000
  70
    32
  0
VERTEX
  8
AM_VIS
  5
229
 10
6.94517
 20
4.49829
 30
0.000000
  70
    32
  0
VERTEX
  8
AM_VIS
  5
22A
 10
6.94417
 20
4.49931
 30
0.000000
  70
    32
  0
VERTEX
  8
AM_VIS
  5
22B
 10
6.94317
 20
4.50033
 30
0.000000
  70
    32
  0
VERTEX
  8
AM_VIS
  5
22C
 10
6.94217
 20
4.50133
 30
0.000000
  70
    32
  0
VERTEX
  8
AM_VIS
  5
22D
 10
6.94116
 20
4.50233
 30
0.000000
  70
    32
  0
VERTEX
  8
AM_VIS
  5
22E
 10
6.94015
 20
4.50332
 30
0.000000
  70
    32
  0
VERTEX
  8
AM_VIS
  5
22F
 10
6.93913
 20
4.50430
 30
0.000000
  70
    32
  0
VERTEX
  8
AM_VIS
  5
230
 10
6.93811
 20
4.50527
 30
0.000000
  70
    32
  0
VERTEX
  8
AM_VIS
  5
231
 10
6.93709
 20
4.50624
 30
0.000000
  70
    32
  0
VERTEX
  8
AM_VIS
  5
232
 10
6.93606
 20
4.50720
 30
0.000000
  70
    32
  0
VERTEX
  8
AM_VIS
  5
233
 10
6.93503
 20
4.50815
 30
0.000000
  70
    32
  0
VERTEX
  8
AM_VIS
  5
234
 10
6.93398
 20
4.50910
 30
0.000000
  70
    32
  0
VERTEX
  8
AM_VIS
  5
235
 10
6.93294
 20
4.51005
 30
0.000000
  70
    32
  0
VERTEX
  8
AM_VIS
  5
236
 10
6.93188
 20
4.51099
 30
0.000000
  70
    32
  0
VERTEX
  8
AM_VIS
  5
237
 10
6.93081
 20
4.51193
 30
0.000000
  70
    32
  0
VERTEX
  8
AM_VIS
  5
238
 10
6.92974
 20
4.51286
 30
0.000000
  70
    32
  0
VERTEX
  8
AM_VIS
  5
239
 10
6.92866
 20
4.51379
 30
0.000000
  70
    32
  0
VERTEX
  8
AM_VIS
  5
23A
 10
6.92758
 20
4.51471
 30
0.000000
  70
    32
  0
VERTEX
  8
AM_VIS
  5
23B
 10
6.92649
 20
4.51563
 30
0.000000
  70
    32
  0
VERTEX
  8
AM_VIS
  5
23C
 10
6.92538
 20
4.51655
 30
0.000000
  70
    32
  0
VERTEX
  8
AM_VIS
  5
23D
 10
6.92428
 20
4.51746
 30
0.000000
  70
    32
  0
VERTEX
  8
AM_VIS
  5
23E
 10
6.92316
 20
4.51836
 30
0.000000
  70
    32
  0
VERTEX
  8
AM_VIS
  5
23F
 10
6.92204
 20
4.51926
 30
0.000000
  70
    32
  0
VERTEX
  8
AM_VIS
  5
240
 10
6.92091
 20
4.52016
 30
0.000000
  70
    32
  0
VERTEX
  8
AM_VIS
  5
241
 10
6.91978
 20
4.52105
 30
0.000000
  70
    32
  0
VERTEX
  8
AM_VIS
  5
242
 10
6.91864
 20
4.52194
 30
0.000000
  70
    32
  0
VERTEX
  8
AM_VIS
  5
243
 10
6.91749
 20
4.52282
 30
0.000000
  70
    32
  0
VERTEX
  8
AM_VIS
  5
244
 10
6.91634
 20
4.52370
 30
0.000000
  70
    32
  0
VERTEX
  8
AM_VIS
  5
245
 10
6.91517
 20
4.52457
 30
0.000000
  70
    32
  0
VERTEX
  8
AM_VIS
  5
246
 10
6.91401
 20
4.52543
 30
0.000000
  70
    32
  0
VERTEX
  8
AM_VIS
  5
247
 10
6.91283
 20
4.52630
 30
0.000000
  70
    32
  0
VERTEX
  8
AM_VIS
  5
248
 10
6.91165
 20
4.52715
 30
0.000000
  70
    32
  0
VERTEX
  8
AM_VIS
  5
249
 10
6.91047
 20
4.52800
 30
0.000000
  70
    32
  0
VERTEX
  8
AM_VIS
  5
24A
 10
6.90927
 20
4.52885
 30
0.000000
  70
    32
  0
VERTEX
  8
AM_VIS
  5
24B
 10
6.90807
 20
4.52969
 30
0.000000
  70
    32
  0
VERTEX
  8
AM_VIS
  5
24C
 10
6.90687
 20
4.53052
 30
0.000000
  70
    32
  0
VERTEX
  8
AM_VIS
  5
24D
 10
6.90566
 20
4.53135
 30
0.000000
  70
    32
  0
VERTEX
  8
AM_VIS
  5
24E
 10
6.90444
 20
4.53217
 30
0.000000
  70
    32
  0
VERTEX
  8
AM_VIS
  5
24F
 10
6.90322
 20
4.53299
 30
0.000000
  70
    32
  0
VERTEX
  8
AM_VIS
  5
250
 10
6.90199
 20
4.53380
 30
0.000000
  70
    32
  0
VERTEX
  8
AM_VIS
  5
251
 10
6.90076
 20
4.53460
 30
0.000000
  70
    32
  0
VERTEX
  8
AM_VIS
  5
252
 10
6.89952
 20
4.53540
 30
0.000000
  70
    32
  0
VERTEX
  8
AM_VIS
  5
253
 10
6.89827
 20
4.53619
 30
0.000000
  70
    32
  0
VERTEX
  8
AM_VIS
  5
254
 10
6.89702
 20
4.53698
 30
0.000000
  70
    32
  0
VERTEX
  8
AM_VIS
  5
255
 10
6.89576
 20
4.53776
 30
0.000000
  70
    32
  0
VERTEX
  8
AM_VIS
  5
256
 10
6.89450
 20
4.53854
 30
0.000000
  70
    32
  0
VERTEX
  8
AM_VIS
  5
257
 10
6.89323
 20
4.53931
 30
0.000000
  70
    32
  0
VERTEX
  8
AM_VIS
  5
258
 10
6.89196
 20
4.54007
 30
0.000000
  70
    32
  0
VERTEX
  8
AM_VIS
  5
259
 10
6.89068
 20
4.54082
 30
0.000000
  70
    32
  0
VERTEX
  8
AM_VIS
  5
25A
 10
6.88940
 20
4.54157
 30
0.000000
  70
    32
  0
VERTEX
  8
AM_VIS
  5
25B
 10
6.88811
 20
4.54232
 30
0.000000
  70
    32
  0
VERTEX
  8
AM_VIS
  5
25C
 10
6.88681
 20
4.54305
 30
0.000000
  70
    32
  0
VERTEX
  8
AM_VIS
  5
25D
 10
6.88552
 20
4.54378
 30
0.000000
  70
    32
  0
VERTEX
  8
AM_VIS
  5
25E
 10
6.88421
 20
4.54450
 30
0.000000
  70
    32
  0
VERTEX
  8
AM_VIS
  5
25F
 10
6.88290
 20
4.54522
 30
0.000000
  70
    32
  0
VERTEX
  8
AM_VIS
  5
260
 10
6.88159
 20
4.54593
 30
0.000000
  70
    32
  0
VERTEX
  8
AM_VIS
  5
261
 10
6.88027
 20
4.54663
 30
0.000000
  70
    32
  0
VERTEX
  8
AM_VIS
  5
262
 10
6.87895
 20
4.54733
 30
0.000000
  70
    32
  0
VERTEX
  8
AM_VIS
  5
263
 10
6.87762
 20
4.54802
 30
0.000000
  70
    32
  0
VERTEX
  8
AM_VIS
  5
264
 10
6.87629
 20
4.54870
 30
0.000000
  70
    32
  0
VERTEX
  8
AM_VIS
  5
265
 10
6.87495
 20
4.54937
 30
0.000000
  70
    32
  0
VERTEX
  8
AM_VIS
  5
266
 10
6.87361
 20
4.55004
 30
0.000000
  70
    32
  0
VERTEX
  8
AM_VIS
  5
267
 10
6.87227
 20
4.55070
 30
0.000000
  70
    32
  0
VERTEX
  8
AM_VIS
  5
268
 10
6.87092
 20
4.55135
 30
0.000000
  70
    32
  0
VERTEX
  8
AM_VIS
  5
269
 10
6.86956
 20
4.55200
 30
0.000000
  70
    32
  0
VERTEX
  8
AM_VIS
  5
26A
 10
6.86821
 20
4.55263
 30
0.000000
  70
    32
  0
VERTEX
  8
AM_VIS
  5
26B
 10
6.86684
 20
4.55326
 30
0.000000
  70
    32
  0
VERTEX
  8
AM_VIS
  5
26C
 10
6.86548
 20
4.55389
 30
0.000000
  70
    32
  0
VERTEX
  8
AM_VIS
  5
26D
 10
6.86411
 20
4.55450
 30
0.000000
  70
    32
  0
VERTEX
  8
AM_VIS
  5
26E
 10
6.86273
 20
4.55511
 30
0.000000
  70
    32
  0
VERTEX
  8
AM_VIS
  5
26F
 10
6.86136
 20
4.55571
 30
0.000000
  70
    32
  0
VERTEX
  8
AM_VIS
  5
270
 10
6.85997
 20
4.55630
 30
0.000000
  70
    32
  0
VERTEX
  8
AM_VIS
  5
271
 10
6.85859
 20
4.55688
 30
0.000000
  70
    32
  0
VERTEX
  8
AM_VIS
  5
272
 10
6.85720
 20
4.55746
 30
0.000000
  70
    32
  0
VERTEX
  8
AM_VIS
  5
273
 10
6.85581
 20
4.55803
 30
0.000000
  70
    32
  0
VERTEX
  8
AM_VIS
  5
274
 10
6.85441
 20
4.55859
 30
0.000000
  70
    32
  0
VERTEX
  8
AM_VIS
  5
275
 10
6.85301
 20
4.55914
 30
0.000000
  70
    32
  0
VERTEX
  8
AM_VIS
  5
276
 10
6.85161
 20
4.55968
 30
0.000000
  70
    32
  0
VERTEX
  8
AM_VIS
  5
277
 10
6.85020
 20
4.56022
 30
0.000000
  70
    32
  0
VERTEX
  8
AM_VIS
  5
278
 10
6.84879
 20
4.56074
 30
0.000000
  70
    32
  0
VERTEX
  8
AM_VIS
  5
279
 10
6.84738
 20
4.56126
 30
0.000000
  70
    32
  0
VERTEX
  8
AM_VIS
  5
27A
 10
6.84596
 20
4.56177
 30
0.000000
  70
    32
  0
VERTEX
  8
AM_VIS
  5
27B
 10
6.84454
 20
4.56227
 30
0.000000
  70
    32
  0
VERTEX
  8
AM_VIS
  5
27C
 10
6.84312
 20
4.56277
 30
0.000000
  70
    32
  0
VERTEX
  8
AM_VIS
  5
27D
 10
6.84169
 20
4.56325
 30
0.000000
  70
    32
  0
VERTEX
  8
AM_VIS
  5
27E
 10
6.84027
 20
4.56373
 30
0.000000
  70
    32
  0
VERTEX
  8
AM_VIS
  5
27F
 10
6.83884
 20
4.56420
 30
0.000000
  70
    32
  0
VERTEX
  8
AM_VIS
  5
280
 10
6.83740
 20
4.56466
 30
0.000000
  70
    32
  0
VERTEX
  8
AM_VIS
  5
281
 10
6.83597
 20
4.56512
 30
0.000000
  70
    32
  0
VERTEX
  8
AM_VIS
  5
282
 10
6.83453
 20
4.56556
 30
0.000000
  70
    32
  0
VERTEX
  8
AM_VIS
  5
283
 10
6.83309
 20
4.56600
 30
0.000000
  70
    32
  0
VERTEX
  8
AM_VIS
  5
284
 10
6.83165
 20
4.56643
 30
0.000000
  70
    32
  0
VERTEX
  8
AM_VIS
  5
285
 10
6.83020
 20
4.56685
 30
0.000000
  70
    32
  0
VERTEX
  8
AM_VIS
  5
286
 10
6.82876
 20
4.56726
 30
0.000000
  70
    32
  0
VERTEX
  8
AM_VIS
  5
287
 10
6.82731
 20
4.56766
 30
0.000000
  70
    32
  0
VERTEX
  8
AM_VIS
  5
288
 10
6.82586
 20
4.56806
 30
0.000000
  70
    32
  0
VERTEX
  8
AM_VIS
  5
289
 10
6.82441
 20
4.56845
 30
0.000000
  70
    32
  0
VERTEX
  8
AM_VIS
  5
28A
 10
6.82295
 20
4.56883
 30
0.000000
  70
    32
  0
VERTEX
  8
AM_VIS
  5
28B
 10
6.82150
 20
4.56920
 30
0.000000
  70
    32
  0
VERTEX
  8
AM_VIS
  5
28C
 10
6.82004
 20
4.56956
 30
0.000000
  70
    32
  0
VERTEX
  8
AM_VIS
  5
28D
 10
6.81859
 20
4.56992
 30
0.000000
  70
    32
  0
VERTEX
  8
AM_VIS
  5
28E
 10
6.81713
 20
4.57026
 30
0.000000
  70
    32
  0
VERTEX
  8
AM_VIS
  5
28F
 10
6.81567
 20
4.57060
 30
0.000000
  70
    32
  0
VERTEX
  8
AM_VIS
  5
290
 10
6.81421
 20
4.57093
 30
0.000000
  70
    32
  0
VERTEX
  8
AM_VIS
  5
291
 10
6.81275
 20
4.57126
 30
0.000000
  70
    32
  0
VERTEX
  8
AM_VIS
  5
292
 10
6.81128
 20
4.57157
 30
0.000000
  70
    32
  0
VERTEX
  8
AM_VIS
  5
293
 10
6.80982
 20
4.57188
 30
0.000000
  70
    32
  0
VERTEX
  8
AM_VIS
  5
294
 10
6.80836
 20
4.57218
 30
0.000000
  70
    32
  0
VERTEX
  8
AM_VIS
  5
295
 10
6.80689
 20
4.57247
 30
0.000000
  70
    32
  0
VERTEX
  8
AM_VIS
  5
296
 10
6.80543
 20
4.57275
 30
0.000000
  70
    32
  0
VERTEX
  8
AM_VIS
  5
297
 10
6.80396
 20
4.57302
 30
0.000000
  70
    32
  0
VERTEX
  8
AM_VIS
  5
298
 10
6.80249
 20
4.57329
 30
0.000000
  70
    32
  0
VERTEX
  8
AM_VIS
  5
299
 10
6.80103
 20
4.57355
 30
0.000000
  70
    32
  0
VERTEX
  8
AM_VIS
  5
29A
 10
6.79956
 20
4.57380
 30
0.000000
  70
    32
  0
VERTEX
  8
AM_VIS
  5
29B
 10
6.79810
 20
4.57404
 30
0.000000
  70
    32
  0
VERTEX
  8
AM_VIS
  5
29C
 10
6.79663
 20
4.57427
 30
0.000000
  70
    32
  0
VERTEX
  8
AM_VIS
  5
29D
 10
6.79516
 20
4.57450
 30
0.000000
  70
    32
  0
VERTEX
  8
AM_VIS
  5
29E
 10
6.79370
 20
4.57472
 30
0.000000
  70
    32
  0
VERTEX
  8
AM_VIS
  5
29F
 10
6.79223
 20
4.57493
 30
0.000000
  70
    32
  0
VERTEX
  8
AM_VIS
  5
2A0
 10
6.79077
 20
4.57513
 30
0.000000
  70
    32
  0
VERTEX
  8
AM_VIS
  5
2A1
 10
6.78930
 20
4.57532
 30
0.000000
  70
    32
  0
VERTEX
  8
AM_VIS
  5
2A2
 10
6.78784
 20
4.57551
 30
0.000000
  70
    32
  0
VERTEX
  8
AM_VIS
  5
2A3
 10
6.78638
 20
4.57568
 30
0.000000
  70
    32
  0
VERTEX
  8
AM_VIS
  5
2A4
 10
6.78491
 20
4.57585
 30
0.000000
  70
    32
  0
VERTEX
  8
AM_VIS
  5
2A5
 10
6.78345
 20
4.57601
 30
0.000000
  70
    32
  0
VERTEX
  8
AM_VIS
  5
2A6
 10
6.78199
 20
4.57617
 30
0.000000
  70
    32
  0
VERTEX
  8
AM_VIS
  5
2A7
 10
6.78053
 20
4.57631
 30
0.000000
  70
    32
  0
VERTEX
  8
AM_VIS
  5
2A8
 10
6.77908
 20
4.57645
 30
0.000000
  70
    32
  0
VERTEX
  8
AM_VIS
  5
2A9
 10
6.77762
 20
4.57658
 30
0.000000
  70
    32
  0
VERTEX
  8
AM_VIS
  5
2AA
 10
6.77616
 20
4.57670
 30
0.000000
  70
    32
  0
VERTEX
  8
AM_VIS
  5
2AB
 10
6.77471
 20
4.57682
 30
0.000000
  70
    32
  0
VERTEX
  8
AM_VIS
  5
2AC
 10
6.77326
 20
4.57692
 30
0.000000
  70
    32
  0
VERTEX
  8
AM_VIS
  5
2AD
 10
6.77181
 20
4.57702
 30
0.000000
  70
    32
  0
VERTEX
  8
AM_VIS
  5
2AE
 10
6.77036
 20
4.57711
 30
0.000000
  70
    32
  0
VERTEX
  8
AM_VIS
  5
2AF
 10
6.76891
 20
4.57719
 30
0.000000
  70
    32
  0
VERTEX
  8
AM_VIS
  5
2B0
 10
6.76746
 20
4.57726
 30
0.000000
  70
    32
  0
VERTEX
  8
AM_VIS
  5
2B1
 10
6.76602
 20
4.57733
 30
0.000000
  70
    32
  0
VERTEX
  8
AM_VIS
  5
2B2
 10
6.76458
 20
4.57739
 30
0.000000
  70
    32
  0
VERTEX
  8
AM_VIS
  5
2B3
 10
6.76314
 20
4.57744
 30
0.000000
  70
    32
  0
VERTEX
  8
AM_VIS
  5
2B4
 10
6.76170
 20
4.57748
 30
0.000000
  70
    32
  0
VERTEX
  8
AM_VIS
  5
2B5
 10
6.76027
 20
4.57751
 30
0.000000
  70
    32
  0
VERTEX
  8
AM_VIS
  5
2B6
 10
6.75884
 20
4.57754
 30
0.000000
  70
    32
  0
VERTEX
  8
AM_VIS
  5
2B7
 10
6.75741
 20
4.57755
 30
0.000000
  70
    32
  0
VERTEX
  8
AM_VIS
  5
2B8
 10
6.75598
 20
4.57756
 30
0.000000
  70
    32
  0
VERTEX
  8
AM_VIS
  5
2B9
 10
6.75456
 20
4.57757
 30
0.000000
  70
    32
  0
VERTEX
  8
AM_VIS
  5
2BA
 10
6.75313
 20
4.57756
 30
0.000000
  70
    32
  0
VERTEX
  8
AM_VIS
  5
2BB
 10
6.75170
 20
4.57755
 30
0.000000
  70
    32
  0
VERTEX
  8
AM_VIS
  5
2BC
 10
6.75027
 20
4.57752
 30
0.000000
  70
    32
  0
VERTEX
  8
AM_VIS
  5
2BD
 10
6.74884
 20
4.57750
 30
0.000000
  70
    32
  0
VERTEX
  8
AM_VIS
  5
2BE
 10
6.74740
 20
4.57746
 30
0.000000
  70
    32
  0
VERTEX
  8
AM_VIS
  5
2BF
 10
6.74596
 20
4.57741
 30
0.000000
  70
    32
  0
VERTEX
  8
AM_VIS
  5
2C0
 10
6.74452
 20
4.57736
 30
0.000000
  70
    32
  0
VERTEX
  8
AM_VIS
  5
2C1
 10
6.74308
 20
4.57730
 30
0.000000
  70
    32
  0
VERTEX
  8
AM_VIS
  5
2C2
 10
6.74164
 20
4.57723
 30
0.000000
  70
    32
  0
VERTEX
  8
AM_VIS
  5
2C3
 10
6.74019
 20
4.57715
 30
0.000000
  70
    32
  0
VERTEX
  8
AM_VIS
  5
2C4
 10
6.73874
 20
4.57706
 30
0.000000
  70
    32
  0
VERTEX
  8
AM_VIS
  5
2C5
 10
6.73729
 20
4.57697
 30
0.000000
  70
    32
  0
VERTEX
  8
AM_VIS
  5
2C6
 10
6.73584
 20
4.57687
 30
0.000000
  70
    32
  0
VERTEX
  8
AM_VIS
  5
2C7
 10
6.73439
 20
4.57676
 30
0.000000
  70
    32
  0
VERTEX
  8
AM_VIS
  5
2C8
 10
6.73293
 20
4.57664
 30
0.000000
  70
    32
  0
VERTEX
  8
AM_VIS
  5
2C9
 10
6.73148
 20
4.57652
 30
0.000000
  70
    32
  0
VERTEX
  8
AM_VIS
  5
2CA
 10
6.73002
 20
4.57638
 30
0.000000
  70
    32
  0
VERTEX
  8
AM_VIS
  5
2CB
 10
6.72856
 20
4.57624
 30
0.000000
  70
    32
  0
VERTEX
  8
AM_VIS
  5
2CC
 10
6.72710
 20
4.57609
 30
0.000000
  70
    32
  0
VERTEX
  8
AM_VIS
  5
2CD
 10
6.72564
 20
4.57594
 30
0.000000
  70
    32
  0
VERTEX
  8
AM_VIS
  5
2CE
 10
6.72418
 20
4.57577
 30
0.000000
  70
    32
  0
VERTEX
  8
AM_VIS
  5
2CF
 10
6.72272
 20
4.57560
 30
0.000000
  70
    32
  0
VERTEX
  8
AM_VIS
  5
2D0
 10
6.72125
 20
4.57541
 30
0.000000
  70
    32
  0
VERTEX
  8
AM_VIS
  5
2D1
 10
6.71979
 20
4.57522
 30
0.000000
  70
    32
  0
VERTEX
  8
AM_VIS
  5
2D2
 10
6.71832
 20
4.57503
 30
0.000000
  70
    32
  0
VERTEX
  8
AM_VIS
  5
2D3
 10
6.71686
 20
4.57482
 30
0.000000
  70
    32
  0
VERTEX
  8
AM_VIS
  5
2D4
 10
6.71539
 20
4.57461
 30
0.000000
  70
    32
  0
VERTEX
  8
AM_VIS
  5
2D5
 10
6.71393
 20
4.57439
 30
0.000000
  70
    32
  0
VERTEX
  8
AM_VIS
  5
2D6
 10
6.71246
 20
4.57416
 30
0.000000
  70
    32
  0
VERTEX
  8
AM_VIS
  5
2D7
 10
6.71099
 20
4.57392
 30
0.000000
  70
    32
  0
VERTEX
  8
AM_VIS
  5
2D8
 10
6.70953
 20
4.57367
 30
0.000000
  70
    32
  0
VERTEX
  8
AM_VIS
  5
2D9
 10
6.70806
 20
4.57342
 30
0.000000
  70
    32
  0
VERTEX
  8
AM_VIS
  5
2DA
 10
6.70660
 20
4.57316
 30
0.000000
  70
    32
  0
VERTEX
  8
AM_VIS
  5
2DB
 10
6.70513
 20
4.57289
 30
0.000000
  70
    32
  0
VERTEX
  8
AM_VIS
  5
2DC
 10
6.70367
 20
4.57261
 30
0.000000
  70
    32
  0
VERTEX
  8
AM_VIS
  5
2DD
 10
6.70220
 20
4.57232
 30
0.000000
  70
    32
  0
VERTEX
  8
AM_VIS
  5
2DE
 10
6.70074
 20
4.57203
 30
0.000000
  70
    32
  0
VERTEX
  8
AM_VIS
  5
2DF
 10
6.69927
 20
4.57173
 30
0.000000
  70
    32
  0
VERTEX
  8
AM_VIS
  5
2E0
 10
6.69781
 20
4.57141
 30
0.000000
  70
    32
  0
VERTEX
  8
AM_VIS
  5
2E1
 10
6.69635
 20
4.57110
 30
0.000000
  70
    32
  0
VERTEX
  8
AM_VIS
  5
2E2
 10
6.69489
 20
4.57077
 30
0.000000
  70
    32
  0
VERTEX
  8
AM_VIS
  5
2E3
 10
6.69343
 20
4.57043
 30
0.000000
  70
    32
  0
VERTEX
  8
AM_VIS
  5
2E4
 10
6.69197
 20
4.57009
 30
0.000000
  70
    32
  0
VERTEX
  8
AM_VIS
  5
2E5
 10
6.69051
 20
4.56974
 30
0.000000
  70
    32
  0
VERTEX
  8
AM_VIS
  5
2E6
 10
6.68905
 20
4.56938
 30
0.000000
  70
    32
  0
VERTEX
  8
AM_VIS
  5
2E7
 10
6.68760
 20
4.56901
 30
0.000000
  70
    32
  0
VERTEX
  8
AM_VIS
  5
2E8
 10
6.68614
 20
4.56864
 30
0.000000
  70
    32
  0
VERTEX
  8
AM_VIS
  5
2E9
 10
6.68469
 20
4.56825
 30
0.000000
  70
    32
  0
VERTEX
  8
AM_VIS
  5
2EA
 10
6.68324
 20
4.56786
 30
0.000000
  70
    32
  0
VERTEX
  8
AM_VIS
  5
2EB
 10
6.68179
 20
4.56746
 30
0.000000
  70
    32
  0
VERTEX
  8
AM_VIS
  5
2EC
 10
6.68034
 20
4.56705
 30
0.000000
  70
    32
  0
VERTEX
  8
AM_VIS
  5
2ED
 10
6.67890
 20
4.56664
 30
0.000000
  70
    32
  0
VERTEX
  8
AM_VIS
  5
2EE
 10
6.67746
 20
4.56621
 30
0.000000
  70
    32
  0
VERTEX
  8
AM_VIS
  5
2EF
 10
6.67601
 20
4.56578
 30
0.000000
  70
    32
  0
VERTEX
  8
AM_VIS
  5
2F0
 10
6.67458
 20
4.56534
 30
0.000000
  70
    32
  0
VERTEX
  8
AM_VIS
  5
2F1
 10
6.67314
 20
4.56489
 30
0.000000
  70
    32
  0
VERTEX
  8
AM_VIS
  5
2F2
 10
6.67171
 20
4.56443
 30
0.000000
  70
    32
  0
VERTEX
  8
AM_VIS
  5
2F3
 10
6.67027
 20
4.56397
 30
0.000000
  70
    32
  0
VERTEX
  8
AM_VIS
  5
2F4
 10
6.66884
 20
4.56349
 30
0.000000
  70
    32
  0
VERTEX
  8
AM_VIS
  5
2F5
 10
6.66742
 20
4.56301
 30
0.000000
  70
    32
  0
VERTEX
  8
AM_VIS
  5
2F6
 10
6.66599
 20
4.56252
 30
0.000000
  70
    32
  0
VERTEX
  8
AM_VIS
  5
2F7
 10
6.66457
 20
4.56202
 30
0.000000
  70
    32
  0
VERTEX
  8
AM_VIS
  5
2F8
 10
6.66316
 20
4.56152
 30
0.000000
  70
    32
  0
VERTEX
  8
AM_VIS
  5
2F9
 10
6.66174
 20
4.56100
 30
0.000000
  70
    32
  0
VERTEX
  8
AM_VIS
  5
2FA
 10
6.66033
 20
4.56048
 30
0.000000
  70
    32
  0
VERTEX
  8
AM_VIS
  5
2FB
 10
6.65892
 20
4.55995
 30
0.000000
  70
    32
  0
VERTEX
  8
AM_VIS
  5
2FC
 10
6.65752
 20
4.55941
 30
0.000000
  70
    32
  0
VERTEX
  8
AM_VIS
  5
2FD
 10
6.65611
 20
4.55886
 30
0.000000
  70
    32
  0
VERTEX
  8
AM_VIS
  5
2FE
 10
6.65472
 20
4.55831
 30
0.000000
  70
    32
  0
VERTEX
  8
AM_VIS
  5
2FF
 10
6.65332
 20
4.55774
 30
0.000000
  70
    32
  0
VERTEX
  8
AM_VIS
  5
300
 10
6.65193
 20
4.55717
 30
0.000000
  70
    32
  0
VERTEX
  8
AM_VIS
  5
301
 10
6.65054
 20
4.55659
 30
0.000000
  70
    32
  0
VERTEX
  8
AM_VIS
  5
302
 10
6.64916
 20
4.55600
 30
0.000000
  70
    32
  0
VERTEX
  8
AM_VIS
  5
303
 10
6.64778
 20
4.55541
 30
0.000000
  70
    32
  0
VERTEX
  8
AM_VIS
  5
304
 10
6.64640
 20
4.55481
 30
0.000000
  70
    32
  0
VERTEX
  8
AM_VIS
  5
305
 10
6.64503
 20
4.55419
 30
0.000000
  70
    32
  0
VERTEX
  8
AM_VIS
  5
306
 10
6.64366
 20
4.55358
 30
0.000000
  70
    32
  0
VERTEX
  8
AM_VIS
  5
307
 10
6.64230
 20
4.55295
 30
0.000000
  70
    32
  0
VERTEX
  8
AM_VIS
  5
308
 10
6.64094
 20
4.55232
 30
0.000000
  70
    32
  0
VERTEX
  8
AM_VIS
  5
309
 10
6.63958
 20
4.55167
 30
0.000000
  70
    32
  0
VERTEX
  8
AM_VIS
  5
30A
 10
6.63823
 20
4.55103
 30
0.000000
  70
    32
  0
VERTEX
  8
AM_VIS
  5
30B
 10
6.63688
 20
4.55037
 30
0.000000
  70
    32
  0
VERTEX
  8
AM_VIS
  5
30C
 10
6.63554
 20
4.54971
 30
0.000000
  70
    32
  0
VERTEX
  8
AM_VIS
  5
30D
 10
6.63420
 20
4.54904
 30
0.000000
  70
    32
  0
VERTEX
  8
AM_VIS
  5
30E
 10
6.63287
 20
4.54836
 30
0.000000
  70
    32
  0
VERTEX
  8
AM_VIS
  5
30F
 10
6.63154
 20
4.54767
 30
0.000000
  70
    32
  0
VERTEX
  8
AM_VIS
  5
310
 10
6.63021
 20
4.54698
 30
0.000000
  70
    32
  0
VERTEX
  8
AM_VIS
  5
311
 10
6.62889
 20
4.54628
 30
0.000000
  70
    32
  0
VERTEX
  8
AM_VIS
  5
312
 10
6.62758
 20
4.54558
 30
0.000000
  70
    32
  0
VERTEX
  8
AM_VIS
  5
313
 10
6.62627
 20
4.54486
 30
0.000000
  70
    32
  0
VERTEX
  8
AM_VIS
  5
314
 10
6.62496
 20
4.54414
 30
0.000000
  70
    32
  0
VERTEX
  8
AM_VIS
  5
315
 10
6.62366
 20
4.54342
 30
0.000000
  70
    32
  0
VERTEX
  8
AM_VIS
  5
316
 10
6.62236
 20
4.54268
 30
0.000000
  70
    32
  0
VERTEX
  8
AM_VIS
  5
317
 10
6.62107
 20
4.54194
 30
0.000000
  70
    32
  0
VERTEX
  8
AM_VIS
  5
318
 10
6.61979
 20
4.54120
 30
0.000000
  70
    32
  0
VERTEX
  8
AM_VIS
  5
319
 10
6.61850
 20
4.54045
 30
0.000000
  70
    32
  0
VERTEX
  8
AM_VIS
  5
31A
 10
6.61723
 20
4.53969
 30
0.000000
  70
    32
  0
VERTEX
  8
AM_VIS
  5
31B
 10
6.61596
 20
4.53892
 30
0.000000
  70
    32
  0
VERTEX
  8
AM_VIS
  5
31C
 10
6.61469
 20
4.53815
 30
0.000000
  70
    32
  0
VERTEX
  8
AM_VIS
  5
31D
 10
6.61343
 20
4.53737
 30
0.000000
  70
    32
  0
VERTEX
  8
AM_VIS
  5
31E
 10
6.61218
 20
4.53659
 30
0.000000
  70
    32
  0
VERTEX
  8
AM_VIS
  5
31F
 10
6.61093
 20
4.53580
 30
0.000000
  70
    32
  0
VERTEX
  8
AM_VIS
  5
320
 10
6.60969
 20
4.53500
 30
0.000000
  70
    32
  0
VERTEX
  8
AM_VIS
  5
321
 10
6.60845
 20
4.53420
 30
0.000000
  70
    32
  0
VERTEX
  8
AM_VIS
  5
322
 10
6.60722
 20
4.53339
 30
0.000000
  70
    32
  0
VERTEX
  8
AM_VIS
  5
323
 10
6.60599
 20
4.53258
 30
0.000000
  70
    32
  0
VERTEX
  8
AM_VIS
  5
324
 10
6.60477
 20
4.53176
 30
0.000000
  70
    32
  0
VERTEX
  8
AM_VIS
  5
325
 10
6.60356
 20
4.53093
 30
0.000000
  70
    32
  0
VERTEX
  8
AM_VIS
  5
326
 10
6.60235
 20
4.53010
 30
0.000000
  70
    32
  0
VERTEX
  8
AM_VIS
  5
327
 10
6.60115
 20
4.52927
 30
0.000000
  70
    32
  0
VERTEX
  8
AM_VIS
  5
328
 10
6.59995
 20
4.52842
 30
0.000000
  70
    32
  0
VERTEX
  8
AM_VIS
  5
329
 10
6.59876
 20
4.52758
 30
0.000000
  70
    32
  0
VERTEX
  8
AM_VIS
  5
32A
 10
6.59758
 20
4.52672
 30
0.000000
  70
    32
  0
VERTEX
  8
AM_VIS
  5
32B
 10
6.59640
 20
4.52587
 30
0.000000
  70
    32
  0
VERTEX
  8
AM_VIS
  5
32C
 10
6.59523
 20
4.52500
 30
0.000000
  70
    32
  0
VERTEX
  8
AM_VIS
  5
32D
 10
6.59407
 20
4.52413
 30
0.000000
  70
    32
  0
VERTEX
  8
AM_VIS
  5
32E
 10
6.59291
 20
4.52326
 30
0.000000
  70
    32
  0
VERTEX
  8
AM_VIS
  5
32F
 10
6.59176
 20
4.52238
 30
0.000000
  70
    32
  0
VERTEX
  8
AM_VIS
  5
330
 10
6.59061
 20
4.52150
 30
0.000000
  70
    32
  0
VERTEX
  8
AM_VIS
  5
331
 10
6.58948
 20
4.52061
 30
0.000000
  70
    32
  0
VERTEX
  8
AM_VIS
  5
332
 10
6.58834
 20
4.51971
 30
0.000000
  70
    32
  0
VERTEX
  8
AM_VIS
  5
333
 10
6.58722
 20
4.51881
 30
0.000000
  70
    32
  0
VERTEX
  8
AM_VIS
  5
334
 10
6.58610
 20
4.51791
 30
0.000000
  70
    32
  0
VERTEX
  8
AM_VIS
  5
335
 10
6.58499
 20
4.51700
 30
0.000000
  70
    32
  0
VERTEX
  8
AM_VIS
  5
336
 10
6.58389
 20
4.51609
 30
0.000000
  70
    32
  0
VERTEX
  8
AM_VIS
  5
337
 10
6.58279
 20
4.51517
 30
0.000000
  70
    32
  0
VERTEX
  8
AM_VIS
  5
338
 10
6.58170
 20
4.51425
 30
0.000000
  70
    32
  0
VERTEX
  8
AM_VIS
  5
339
 10
6.58062
 20
4.51332
 30
0.000000
  70
    32
  0
VERTEX
  8
AM_VIS
  5
33A
 10
6.57954
 20
4.51239
 30
0.000000
  70
    32
  0
VERTEX
  8
AM_VIS
  5
33B
 10
6.57848
 20
4.51146
 30
0.000000
  70
    32
  0
VERTEX
  8
AM_VIS
  5
33C
 10
6.57742
 20
4.51052
 30
0.000000
  70
    32
  0
VERTEX
  8
AM_VIS
  5
33D
 10
6.57636
 20
4.50958
 30
0.000000
  70
    32
  0
VERTEX
  8
AM_VIS
  5
33E
 10
6.57532
 20
4.50863
 30
0.000000
  70
    32
  0
VERTEX
  8
AM_VIS
  5
33F
 10
6.57428
 20
4.50768
 30
0.000000
  70
    32
  0
VERTEX
  8
AM_VIS
  5
340
 10
6.57325
 20
4.50672
 30
0.000000
  70
    32
  0
VERTEX
  8
AM_VIS
  5
341
 10
6.57222
 20
4.50576
 30
0.000000
  70
    32
  0
VERTEX
  8
AM_VIS
  5
342
 10
6.57120
 20
4.50479
 30
0.000000
  70
    32
  0
VERTEX
  8
AM_VIS
  5
343
 10
6.57018
 20
4.50381
 30
0.000000
  70
    32
  0
VERTEX
  8
AM_VIS
  5
344
 10
6.56917
 20
4.50282
 30
0.000000
  70
    32
  0
VERTEX
  8
AM_VIS
  5
345
 10
6.56816
 20
4.50183
 30
0.000000
  70
    32
  0
VERTEX
  8
AM_VIS
  5
346
 10
6.56715
 20
4.50083
 30
0.000000
  70
    32
  0
VERTEX
  8
AM_VIS
  5
347
 10
6.56615
 20
4.49982
 30
0.000000
  70
    32
  0
VERTEX
  8
AM_VIS
  5
348
 10
6.56515
 20
4.49881
 30
0.000000
  70
    32
  0
VERTEX
  8
AM_VIS
  5
349
 10
6.56416
 20
4.49778
 30
0.000000
  70
    32
  0
VERTEX
  8
AM_VIS
  5
34A
 10
6.56317
 20
4.49675
 30
0.000000
  70
    32
  0
VERTEX
  8
AM_VIS
  5
34B
 10
6.56218
 20
4.49571
 30
0.000000
  70
    32
  0
VERTEX
  8
AM_VIS
  5
34C
 10
6.56120
 20
4.49467
 30
0.000000
  70
    32
  0
VERTEX
  8
AM_VIS
  5
34D
 10
6.56022
 20
4.49362
 30
0.000000
  70
    32
  0
VERTEX
  8
AM_VIS
  5
34E
 10
6.55925
 20
4.49256
 30
0.000000
  70
    32
  0
VERTEX
  8
AM_VIS
  5
34F
 10
6.55828
 20
4.49149
 30
0.000000
  70
    32
  0
VERTEX
  8
AM_VIS
  5
350
 10
6.55732
 20
4.49042
 30
0.000000
  70
    32
  0
VERTEX
  8
AM_VIS
  5
351
 10
6.55636
 20
4.48934
 30
0.000000
  70
    32
  0
VERTEX
  8
AM_VIS
  5
352
 10
6.55541
 20
4.48825
 30
0.000000
  70
    32
  0
VERTEX
  8
AM_VIS
  5
353
 10
6.55446
 20
4.48715
 30
0.000000
  70
    32
  0
VERTEX
  8
AM_VIS
  5
354
 10
6.55351
 20
4.48605
 30
0.000000
  70
    32
  0
VERTEX
  8
AM_VIS
  5
355
 10
6.55258
 20
4.48495
 30
0.000000
  70
    32
  0
VERTEX
  8
AM_VIS
  5
356
 10
6.55164
 20
4.48383
 30
0.000000
  70
    32
  0
VERTEX
  8
AM_VIS
  5
357
 10
6.55071
 20
4.48271
 30
0.000000
  70
    32
  0
VERTEX
  8
AM_VIS
  5
358
 10
6.54979
 20
4.48158
 30
0.000000
  70
    32
  0
VERTEX
  8
AM_VIS
  5
359
 10
6.54887
 20
4.48045
 30
0.000000
  70
    32
  0
VERTEX
  8
AM_VIS
  5
35A
 10
6.54796
 20
4.47931
 30
0.000000
  70
    32
  0
VERTEX
  8
AM_VIS
  5
35B
 10
6.54705
 20
4.47816
 30
0.000000
  70
    32
  0
VERTEX
  8
AM_VIS
  5
35C
 10
6.54615
 20
4.47701
 30
0.000000
  70
    32
  0
VERTEX
  8
AM_VIS
  5
35D
 10
6.54526
 20
4.47585
 30
0.000000
  70
    32
  0
VERTEX
  8
AM_VIS
  5
35E
 10
6.54437
 20
4.47468
 30
0.000000
  70
    32
  0
VERTEX
  8
AM_VIS
  5
35F
 10
6.54348
 20
4.47351
 30
0.000000
  70
    32
  0
VERTEX
  8
AM_VIS
  5
360
 10
6.54260
 20
4.47233
 30
0.000000
  70
    32
  0
VERTEX
  8
AM_VIS
  5
361
 10
6.54173
 20
4.47115
 30
0.000000
  70
    32
  0
VERTEX
  8
AM_VIS
  5
362
 10
6.54087
 20
4.46996
 30
0.000000
  70
    32
  0
VERTEX
  8
AM_VIS
  5
363
 10
6.54001
 20
4.46876
 30
0.000000
  70
    32
  0
VERTEX
  8
AM_VIS
  5
364
 10
6.53915
 20
4.46756
 30
0.000000
  70
    32
  0
VERTEX
  8
AM_VIS
  5
365
 10
6.53831
 20
4.46635
 30
0.000000
  70
    32
  0
VERTEX
  8
AM_VIS
  5
366
 10
6.53746
 20
4.46514
 30
0.000000
  70
    32
  0
VERTEX
  8
AM_VIS
  5
367
 10
6.53663
 20
4.46392
 30
0.000000
  70
    32
  0
VERTEX
  8
AM_VIS
  5
368
 10
6.53580
 20
4.46270
 30
0.000000
  70
    32
  0
VERTEX
  8
AM_VIS
  5
369
 10
6.53498
 20
4.46146
 30
0.000000
  70
    32
  0
VERTEX
  8
AM_VIS
  5
36A
 10
6.53417
 20
4.46023
 30
0.000000
  70
    32
  0
VERTEX
  8
AM_VIS
  5
36B
 10
6.53336
 20
4.45899
 30
0.000000
  70
    32
  0
VERTEX
  8
AM_VIS
  5
36C
 10
6.53256
 20
4.45774
 30
0.000000
  70
    32
  0
VERTEX
  8
AM_VIS
  5
36D
 10
6.53176
 20
4.45649
 30
0.000000
  70
    32
  0
VERTEX
  8
AM_VIS
  5
36E
 10
6.53097
 20
4.45523
 30
0.000000
  70
    32
  0
VERTEX
  8
AM_VIS
  5
36F
 10
6.53019
 20
4.45397
 30
0.000000
  70
    32
  0
VERTEX
  8
AM_VIS
  5
370
 10
6.52942
 20
4.45270
 30
0.000000
  70
    32
  0
VERTEX
  8
AM_VIS
  5
371
 10
6.52865
 20
4.45143
 30
0.000000
  70
    32
  0
VERTEX
  8
AM_VIS
  5
372
 10
6.52790
 20
4.45015
 30
0.000000
  70
    32
  0
VERTEX
  8
AM_VIS
  5
373
 10
6.52714
 20
4.44886
 30
0.000000
  70
    32
  0
VERTEX
  8
AM_VIS
  5
374
 10
6.52640
 20
4.44758
 30
0.000000
  70
    32
  0
VERTEX
  8
AM_VIS
  5
375
 10
6.52566
 20
4.44628
 30
0.000000
  70
    32
  0
VERTEX
  8
AM_VIS
  5
376
 10
6.52493
 20
4.44499
 30
0.000000
  70
    32
  0
VERTEX
  8
AM_VIS
  5
377
 10
6.52421
 20
4.44368
 30
0.000000
  70
    32
  0
VERTEX
  8
AM_VIS
  5
378
 10
6.52350
 20
4.44237
 30
0.000000
  70
    32
  0
VERTEX
  8
AM_VIS
  5
379
 10
6.52279
 20
4.44106
 30
0.000000
  70
    32
  0
VERTEX
  8
AM_VIS
  5
37A
 10
6.52210
 20
4.43975
 30
0.000000
  70
    32
  0
VERTEX
  8
AM_VIS
  5
37B
 10
6.52141
 20
4.43842
 30
0.000000
  70
    32
  0
VERTEX
  8
AM_VIS
  5
37C
 10
6.52072
 20
4.43710
 30
0.000000
  70
    32
  0
VERTEX
  8
AM_VIS
  5
37D
 10
6.52005
 20
4.43577
 30
0.000000
  70
    32
  0
VERTEX
  8
AM_VIS
  5
37E
 10
6.51938
 20
4.43443
 30
0.000000
  70
    32
  0
VERTEX
  8
AM_VIS
  5
37F
 10
6.51873
 20
4.43309
 30
0.000000
  70
    32
  0
VERTEX
  8
AM_VIS
  5
380
 10
6.51808
 20
4.43175
 30
0.000000
  70
    32
  0
VERTEX
  8
AM_VIS
  5
381
 10
6.51744
 20
4.43040
 30
0.000000
  70
    32
  0
VERTEX
  8
AM_VIS
  5
382
 10
6.51680
 20
4.42905
 30
0.000000
  70
    32
  0
VERTEX
  8
AM_VIS
  5
383
 10
6.51618
 20
4.42769
 30
0.000000
  70
    32
  0
VERTEX
  8
AM_VIS
  5
384
 10
6.51557
 20
4.42633
 30
0.000000
  70
    32
  0
VERTEX
  8
AM_VIS
  5
385
 10
6.51496
 20
4.42497
 30
0.000000
  70
    32
  0
VERTEX
  8
AM_VIS
  5
386
 10
6.51436
 20
4.42360
 30
0.000000
  70
    32
  0
VERTEX
  8
AM_VIS
  5
387
 10
6.51377
 20
4.42223
 30
0.000000
  70
    32
  0
VERTEX
  8
AM_VIS
  5
388
 10
6.51319
 20
4.42085
 30
0.000000
  70
    32
  0
VERTEX
  8
AM_VIS
  5
389
 10
6.51262
 20
4.41947
 30
0.000000
  70
    32
  0
VERTEX
  8
AM_VIS
  5
38A
 10
6.51206
 20
4.41809
 30
0.000000
  70
    32
  0
VERTEX
  8
AM_VIS
  5
38B
 10
6.51151
 20
4.41670
 30
0.000000
  70
    32
  0
VERTEX
  8
AM_VIS
  5
38C
 10
6.51096
 20
4.41531
 30
0.000000
  70
    32
  0
VERTEX
  8
AM_VIS
  5
38D
 10
6.51043
 20
4.41392
 30
0.000000
  70
    32
  0
VERTEX
  8
AM_VIS
  5
38E
 10
6.50990
 20
4.41252
 30
0.000000
  70
    32
  0
VERTEX
  8
AM_VIS
  5
38F
 10
6.50938
 20
4.41112
 30
0.000000
  70
    32
  0
VERTEX
  8
AM_VIS
  5
390
 10
6.50887
 20
4.40972
 30
0.000000
  70
    32
  0
VERTEX
  8
AM_VIS
  5
391
 10
6.50837
 20
4.40832
 30
0.000000
  70
    32
  0
VERTEX
  8
AM_VIS
  5
392
 10
6.50788
 20
4.40691
 30
0.000000
  70
    32
  0
VERTEX
  8
AM_VIS
  5
393
 10
6.50740
 20
4.40550
 30
0.000000
  70
    32
  0
VERTEX
  8
AM_VIS
  5
394
 10
6.50692
 20
4.40408
 30
0.000000
  70
    32
  0
VERTEX
  8
AM_VIS
  5
395
 10
6.50646
 20
4.40266
 30
0.000000
  70
    32
  0
VERTEX
  8
AM_VIS
  5
396
 10
6.50600
 20
4.40125
 30
0.000000
  70
    32
  0
VERTEX
  8
AM_VIS
  5
397
 10
6.50555
 20
4.39982
 30
0.000000
  70
    32
  0
VERTEX
  8
AM_VIS
  5
398
 10
6.50511
 20
4.39840
 30
0.000000
  70
    32
  0
VERTEX
  8
AM_VIS
  5
399
 10
6.50468
 20
4.39697
 30
0.000000
  70
    32
  0
VERTEX
  8
AM_VIS
  5
39A
 10
6.50426
 20
4.39555
 30
0.000000
  70
    32
  0
VERTEX
  8
AM_VIS
  5
39B
 10
6.50385
 20
4.39412
 30
0.000000
  70
    32
  0
VERTEX
  8
AM_VIS
  5
39C
 10
6.50345
 20
4.39268
 30
0.000000
  70
    32
  0
VERTEX
  8
AM_VIS
  5
39D
 10
6.50305
 20
4.39125
 30
0.000000
  70
    32
  0
VERTEX
  8
AM_VIS
  5
39E
 10
6.50267
 20
4.38981
 30
0.000000
  70
    32
  0
VERTEX
  8
AM_VIS
  5
39F
 10
6.50229
 20
4.38838
 30
0.000000
  70
    32
  0
VERTEX
  8
AM_VIS
  5
3A0
 10
6.50192
 20
4.38694
 30
0.000000
  70
    32
  0
VERTEX
  8
AM_VIS
  5
3A1
 10
6.50156
 20
4.38550
 30
0.000000
  70
    32
  0
VERTEX
  8
AM_VIS
  5
3A2
 10
6.50121
 20
4.38406
 30
0.000000
  70
    32
  0
VERTEX
  8
AM_VIS
  5
3A3
 10
6.50087
 20
4.38261
 30
0.000000
  70
    32
  0
VERTEX
  8
AM_VIS
  5
3A4
 10
6.50054
 20
4.38117
 30
0.000000
  70
    32
  0
VERTEX
  8
AM_VIS
  5
3A5
 10
6.50022
 20
4.37972
 30
0.000000
  70
    32
  0
VERTEX
  8
AM_VIS
  5
3A6
 10
6.49990
 20
4.37828
 30
0.000000
  70
    32
  0
VERTEX
  8
AM_VIS
  5
3A7
 10
6.49960
 20
4.37683
 30
0.000000
  70
    32
  0
VERTEX
  8
AM_VIS
  5
3A8
 10
6.49930
 20
4.37538
 30
0.000000
  70
    32
  0
VERTEX
  8
AM_VIS
  5
3A9
 10
6.49901
 20
4.37393
 30
0.000000
  70
    32
  0
VERTEX
  8
AM_VIS
  5
3AA
 10
6.49874
 20
4.37248
 30
0.000000
  70
    32
  0
VERTEX
  8
AM_VIS
  5
3AB
 10
6.49847
 20
4.37103
 30
0.000000
  70
    32
  0
VERTEX
  8
AM_VIS
  5
3AC
 10
6.49820
 20
4.36958
 30
0.000000
  70
    32
  0
VERTEX
  8
AM_VIS
  5
3AD
 10
6.49795
 20
4.36813
 30
0.000000
  70
    32
  0
VERTEX
  8
AM_VIS
  5
3AE
 10
6.49771
 20
4.36668
 30
0.000000
  70
    32
  0
VERTEX
  8
AM_VIS
  5
3AF
 10
6.49748
 20
4.36523
 30
0.000000
  70
    32
  0
VERTEX
  8
AM_VIS
  5
3B0
 10
6.49725
 20
4.36378
 30
0.000000
  70
    32
  0
VERTEX
  8
AM_VIS
  5
3B1
 10
6.49703
 20
4.36233
 30
0.000000
  70
    32
  0
VERTEX
  8
AM_VIS
  5
3B2
 10
6.49683
 20
4.36088
 30
0.000000
  70
    32
  0
VERTEX
  8
AM_VIS
  5
3B3
 10
6.49663
 20
4.35943
 30
0.000000
  70
    32
  0
VERTEX
  8
AM_VIS
  5
3B4
 10
6.49644
 20
4.35797
 30
0.000000
  70
    32
  0
VERTEX
  8
AM_VIS
  5
3B5
 10
6.49626
 20
4.35652
 30
0.000000
  70
    32
  0
VERTEX
  8
AM_VIS
  5
3B6
 10
6.49609
 20
4.35507
 30
0.000000
  70
    32
  0
VERTEX
  8
AM_VIS
  5
3B7
 10
6.49593
 20
4.35363
 30
0.000000
  70
    32
  0
VERTEX
  8
AM_VIS
  5
3B8
 10
6.49577
 20
4.35218
 30
0.000000
  70
    32
  0
VERTEX
  8
AM_VIS
  5
3B9
 10
6.49563
 20
4.35073
 30
0.000000
  70
    32
  0
VERTEX
  8
AM_VIS
  5
3BA
 10
6.49549
 20
4.34928
 30
0.000000
  70
    32
  0
VERTEX
  8
AM_VIS
  5
3BB
 10
6.49537
 20
4.34784
 30
0.000000
  70
    32
  0
VERTEX
  8
AM_VIS
  5
3BC
 10
6.49525
 20
4.34639
 30
0.000000
  70
    32
  0
VERTEX
  8
AM_VIS
  5
3BD
 10
6.49514
 20
4.34495
 30
0.000000
  70
    32
  0
VERTEX
  8
AM_VIS
  5
3BE
 10
6.49504
 20
4.34350
 30
0.000000
  70
    32
  0
VERTEX
  8
AM_VIS
  5
3BF
 10
6.49495
 20
4.34206
 30
0.000000
  70
    32
  0
VERTEX
  8
AM_VIS
  5
3C0
 10
6.49487
 20
4.34062
 30
0.000000
  70
    32
  0
VERTEX
  8
AM_VIS
  5
3C1
 10
6.49480
 20
4.33918
 30
0.000000
  70
    32
  0
VERTEX
  8
AM_VIS
  5
3C2
 10
6.49473
 20
4.33775
 30
0.000000
  70
    32
  0
VERTEX
  8
AM_VIS
  5
3C3
 10
6.49468
 20
4.33631
 30
0.000000
  70
    32
  0
VERTEX
  8
AM_VIS
  5
3C4
 10
6.49463
 20
4.33488
 30
0.000000
  70
    32
  0
VERTEX
  8
AM_VIS
  5
3C5
 10
6.49460
 20
4.33345
 30
0.000000
  70
    32
  0
VERTEX
  8
AM_VIS
  5
3C6
 10
6.49457
 20
4.33202
 30
0.000000
  70
    32
  0
VERTEX
  8
AM_VIS
  5
3C7
 10
6.49455
 20
4.33059
 30
0.000000
  70
    32
  0
VERTEX
  8
AM_VIS
  5
3C8
 10
6.49454
 20
4.32916
 30
0.000000
  70
    32
  0
VERTEX
  8
AM_VIS
  5
3C9
 10
6.49454
 20
4.32774
 30
0.000000
  70
    32
  0
VERTEX
  8
AM_VIS
  5
3CA
 10
6.49455
 20
4.32631
 30
0.000000
  70
    32
  0
VERTEX
  8
AM_VIS
  5
3CB
 10
6.49457
 20
4.32489
 30
0.000000
  70
    32
  0
VERTEX
  8
AM_VIS
  5
3CC
 10
6.49460
 20
4.32346
 30
0.000000
  70
    32
  0
VERTEX
  8
AM_VIS
  5
3CD
 10
6.49463
 20
4.32202
 30
0.000000
  70
    32
  0
VERTEX
  8
AM_VIS
  5
3CE
 10
6.49468
 20
4.32059
 30
0.000000
  70
    32
  0
VERTEX
  8
AM_VIS
  5
3CF
 10
6.49473
 20
4.31916
 30
0.000000
  70
    32
  0
VERTEX
  8
AM_VIS
  5
3D0
 10
6.49480
 20
4.31772
 30
0.000000
  70
    32
  0
VERTEX
  8
AM_VIS
  5
3D1
 10
6.49487
 20
4.31628
 30
0.000000
  70
    32
  0
VERTEX
  8
AM_VIS
  5
3D2
 10
6.49495
 20
4.31484
 30
0.000000
  70
    32
  0
VERTEX
  8
AM_VIS
  5
3D3
 10
6.49504
 20
4.31340
 30
0.000000
  70
    32
  0
VERTEX
  8
AM_VIS
  5
3D4
 10
6.49514
 20
4.31196
 30
0.000000
  70
    32
  0
VERTEX
  8
AM_VIS
  5
3D5
 10
6.49525
 20
4.31051
 30
0.000000
  70
    32
  0
VERTEX
  8
AM_VIS
  5
3D6
 10
6.49537
 20
4.30907
 30
0.000000
  70
    32
  0
VERTEX
  8
AM_VIS
  5
3D7
 10
6.49549
 20
4.30762
 30
0.000000
  70
    32
  0
VERTEX
  8
AM_VIS
  5
3D8
 10
6.49563
 20
4.30617
 30
0.000000
  70
    32
  0
VERTEX
  8
AM_VIS
  5
3D9
 10
6.49577
 20
4.30473
 30
0.000000
  70
    32
  0
VERTEX
  8
AM_VIS
  5
3DA
 10
6.49593
 20
4.30328
 30
0.000000
  70
    32
  0
VERTEX
  8
AM_VIS
  5
3DB
 10
6.49609
 20
4.30183
 30
0.000000
  70
    32
  0
VERTEX
  8
AM_VIS
  5
3DC
 10
6.49626
 20
4.30038
 30
0.000000
  70
    32
  0
VERTEX
  8
AM_VIS
  5
3DD
 10
6.49644
 20
4.29893
 30
0.000000
  70
    32
  0
VERTEX
  8
AM_VIS
  5
3DE
 10
6.49663
 20
4.29748
 30
0.000000
  70
    32
  0
VERTEX
  8
AM_VIS
  5
3DF
 10
6.49683
 20
4.29603
 30
0.000000
  70
    32
  0
VERTEX
  8
AM_VIS
  5
3E0
 10
6.49703
 20
4.29458
 30
0.000000
  70
    32
  0
VERTEX
  8
AM_VIS
  5
3E1
 10
6.49725
 20
4.29312
 30
0.000000
  70
    32
  0
VERTEX
  8
AM_VIS
  5
3E2
 10
6.49748
 20
4.29167
 30
0.000000
  70
    32
  0
VERTEX
  8
AM_VIS
  5
3E3
 10
6.49771
 20
4.29022
 30
0.000000
  70
    32
  0
VERTEX
  8
AM_VIS
  5
3E4
 10
6.49795
 20
4.28877
 30
0.000000
  70
    32
  0
VERTEX
  8
AM_VIS
  5
3E5
 10
6.49820
 20
4.28732
 30
0.000000
  70
    32
  0
VERTEX
  8
AM_VIS
  5
3E6
 10
6.49847
 20
4.28587
 30
0.000000
  70
    32
  0
VERTEX
  8
AM_VIS
  5
3E7
 10
6.49874
 20
4.28442
 30
0.000000
  70
    32
  0
VERTEX
  8
AM_VIS
  5
3E8
 10
6.49901
 20
4.28297
 30
0.000000
  70
    32
  0
VERTEX
  8
AM_VIS
  5
3E9
 10
6.49930
 20
4.28152
 30
0.000000
  70
    32
  0
VERTEX
  8
AM_VIS
  5
3EA
 10
6.49960
 20
4.28007
 30
0.000000
  70
    32
  0
VERTEX
  8
AM_VIS
  5
3EB
 10
6.49990
 20
4.27863
 30
0.000000
  70
    32
  0
VERTEX
  8
AM_VIS
  5
3EC
 10
6.50022
 20
4.27718
 30
0.000000
  70
    32
  0
VERTEX
  8
AM_VIS
  5
3ED
 10
6.50054
 20
4.27573
 30
0.000000
  70
    32
  0
VERTEX
  8
AM_VIS
  5
3EE
 10
6.50087
 20
4.27429
 30
0.000000
  70
    32
  0
VERTEX
  8
AM_VIS
  5
3EF
 10
6.50121
 20
4.27285
 30
0.000000
  70
    32
  0
VERTEX
  8
AM_VIS
  5
3F0
 10
6.50156
 20
4.27140
 30
0.000000
  70
    32
  0
VERTEX
  8
AM_VIS
  5
3F1
 10
6.50192
 20
4.26996
 30
0.000000
  70
    32
  0
VERTEX
  8
AM_VIS
  5
3F2
 10
6.50229
 20
4.26853
 30
0.000000
  70
    32
  0
VERTEX
  8
AM_VIS
  5
3F3
 10
6.50267
 20
4.26709
 30
0.000000
  70
    32
  0
VERTEX
  8
AM_VIS
  5
3F4
 10
6.50305
 20
4.26565
 30
0.000000
  70
    32
  0
VERTEX
  8
AM_VIS
  5
3F5
 10
6.50345
 20
4.26422
 30
0.000000
  70
    32
  0
VERTEX
  8
AM_VIS
  5
3F6
 10
6.50385
 20
4.26279
 30
0.000000
  70
    32
  0
VERTEX
  8
AM_VIS
  5
3F7
 10
6.50426
 20
4.26136
 30
0.000000
  70
    32
  0
VERTEX
  8
AM_VIS
  5
3F8
 10
6.50468
 20
4.25993
 30
0.000000
  70
    32
  0
VERTEX
  8
AM_VIS
  5
3F9
 10
6.50511
 20
4.25850
 30
0.000000
  70
    32
  0
VERTEX
  8
AM_VIS
  5
3FA
 10
6.50555
 20
4.25708
 30
0.000000
  70
    32
  0
VERTEX
  8
AM_VIS
  5
3FB
 10
6.50600
 20
4.25566
 30
0.000000
  70
    32
  0
VERTEX
  8
AM_VIS
  5
3FC
 10
6.50646
 20
4.25424
 30
0.000000
  70
    32
  0
VERTEX
  8
AM_VIS
  5
3FD
 10
6.50692
 20
4.25282
 30
0.000000
  70
    32
  0
VERTEX
  8
AM_VIS
  5
3FE
 10
6.50740
 20
4.25141
 30
0.000000
  70
    32
  0
VERTEX
  8
AM_VIS
  5
3FF
 10
6.50788
 20
4.25000
 30
0.000000
  70
    32
  0
VERTEX
  8
AM_VIS
  5
400
 10
6.50837
 20
4.24859
 30
0.000000
  70
    32
  0
VERTEX
  8
AM_VIS
  5
401
 10
6.50887
 20
4.24718
 30
0.000000
  70
    32
  0
VERTEX
  8
AM_VIS
  5
402
 10
6.50938
 20
4.24578
 30
0.000000
  70
    32
  0
VERTEX
  8
AM_VIS
  5
403
 10
6.50990
 20
4.24438
 30
0.000000
  70
    32
  0
VERTEX
  8
AM_VIS
  5
404
 10
6.51043
 20
4.24298
 30
0.000000
  70
    32
  0
VERTEX
  8
AM_VIS
  5
405
 10
6.51096
 20
4.24159
 30
0.000000
  70
    32
  0
VERTEX
  8
AM_VIS
  5
406
 10
6.51151
 20
4.24020
 30
0.000000
  70
    32
  0
VERTEX
  8
AM_VIS
  5
407
 10
6.51206
 20
4.23881
 30
0.000000
  70
    32
  0
VERTEX
  8
AM_VIS
  5
408
 10
6.51262
 20
4.23743
 30
0.000000
  70
    32
  0
VERTEX
  8
AM_VIS
  5
409
 10
6.51319
 20
4.23605
 30
0.000000
  70
    32
  0
VERTEX
  8
AM_VIS
  5
40A
 10
6.51377
 20
4.23467
 30
0.000000
  70
    32
  0
VERTEX
  8
AM_VIS
  5
40B
 10
6.51436
 20
4.23330
 30
0.000000
  70
    32
  0
VERTEX
  8
AM_VIS
  5
40C
 10
6.51496
 20
4.23193
 30
0.000000
  70
    32
  0
VERTEX
  8
AM_VIS
  5
40D
 10
6.51557
 20
4.23057
 30
0.000000
  70
    32
  0
VERTEX
  8
AM_VIS
  5
40E
 10
6.51618
 20
4.22921
 30
0.000000
  70
    32
  0
VERTEX
  8
AM_VIS
  5
40F
 10
6.51680
 20
4.22785
 30
0.000000
  70
    32
  0
VERTEX
  8
AM_VIS
  5
410
 10
6.51744
 20
4.22650
 30
0.000000
  70
    32
  0
VERTEX
  8
AM_VIS
  5
411
 10
6.51808
 20
4.22515
 30
0.000000
  70
    32
  0
VERTEX
  8
AM_VIS
  5
412
 10
6.51873
 20
4.22381
 30
0.000000
  70
    32
  0
VERTEX
  8
AM_VIS
  5
413
 10
6.51938
 20
4.22247
 30
0.000000
  70
    32
  0
VERTEX
  8
AM_VIS
  5
414
 10
6.52005
 20
4.22114
 30
0.000000
  70
    32
  0
VERTEX
  8
AM_VIS
  5
415
 10
6.52072
 20
4.21981
 30
0.000000
  70
    32
  0
VERTEX
  8
AM_VIS
  5
416
 10
6.52141
 20
4.21848
 30
0.000000
  70
    32
  0
VERTEX
  8
AM_VIS
  5
417
 10
6.52210
 20
4.21716
 30
0.000000
  70
    32
  0
VERTEX
  8
AM_VIS
  5
418
 10
6.52279
 20
4.21584
 30
0.000000
  70
    32
  0
VERTEX
  8
AM_VIS
  5
419
 10
6.52350
 20
4.21453
 30
0.000000
  70
    32
  0
VERTEX
  8
AM_VIS
  5
41A
 10
6.52421
 20
4.21322
 30
0.000000
  70
    32
  0
VERTEX
  8
AM_VIS
  5
41B
 10
6.52493
 20
4.21192
 30
0.000000
  70
    32
  0
VERTEX
  8
AM_VIS
  5
41C
 10
6.52566
 20
4.21062
 30
0.000000
  70
    32
  0
VERTEX
  8
AM_VIS
  5
41D
 10
6.52640
 20
4.20933
 30
0.000000
  70
    32
  0
VERTEX
  8
AM_VIS
  5
41E
 10
6.52714
 20
4.20804
 30
0.000000
  70
    32
  0
VERTEX
  8
AM_VIS
  5
41F
 10
6.52790
 20
4.20675
 30
0.000000
  70
    32
  0
VERTEX
  8
AM_VIS
  5
420
 10
6.52865
 20
4.20548
 30
0.000000
  70
    32
  0
VERTEX
  8
AM_VIS
  5
421
 10
6.52942
 20
4.20420
 30
0.000000
  70
    32
  0
VERTEX
  8
AM_VIS
  5
422
 10
6.53019
 20
4.20294
 30
0.000000
  70
    32
  0
VERTEX
  8
AM_VIS
  5
423
 10
6.53097
 20
4.20167
 30
0.000000
  70
    32
  0
VERTEX
  8
AM_VIS
  5
424
 10
6.53176
 20
4.20041
 30
0.000000
  70
    32
  0
VERTEX
  8
AM_VIS
  5
425
 10
6.53256
 20
4.19916
 30
0.000000
  70
    32
  0
VERTEX
  8
AM_VIS
  5
426
 10
6.53336
 20
4.19792
 30
0.000000
  70
    32
  0
VERTEX
  8
AM_VIS
  5
427
 10
6.53417
 20
4.19667
 30
0.000000
  70
    32
  0
VERTEX
  8
AM_VIS
  5
428
 10
6.53498
 20
4.19544
 30
0.000000
  70
    32
  0
VERTEX
  8
AM_VIS
  5
429
 10
6.53580
 20
4.19421
 30
0.000000
  70
    32
  0
VERTEX
  8
AM_VIS
  5
42A
 10
6.53663
 20
4.19298
 30
0.000000
  70
    32
  0
VERTEX
  8
AM_VIS
  5
42B
 10
6.53746
 20
4.19176
 30
0.000000
  70
    32
  0
VERTEX
  8
AM_VIS
  5
42C
 10
6.53831
 20
4.19055
 30
0.000000
  70
    32
  0
VERTEX
  8
AM_VIS
  5
42D
 10
6.53915
 20
4.18934
 30
0.000000
  70
    32
  0
VERTEX
  8
AM_VIS
  5
42E
 10
6.54001
 20
4.18814
 30
0.000000
  70
    32
  0
VERTEX
  8
AM_VIS
  5
42F
 10
6.54087
 20
4.18694
 30
0.000000
  70
    32
  0
VERTEX
  8
AM_VIS
  5
430
 10
6.54173
 20
4.18575
 30
0.000000
  70
    32
  0
VERTEX
  8
AM_VIS
  5
431
 10
6.54260
 20
4.18457
 30
0.000000
  70
    32
  0
VERTEX
  8
AM_VIS
  5
432
 10
6.54348
 20
4.18339
 30
0.000000
  70
    32
  0
VERTEX
  8
AM_VIS
  5
433
 10
6.54437
 20
4.18222
 30
0.000000
  70
    32
  0
VERTEX
  8
AM_VIS
  5
434
 10
6.54526
 20
4.18105
 30
0.000000
  70
    32
  0
VERTEX
  8
AM_VIS
  5
435
 10
6.54615
 20
4.17989
 30
0.000000
  70
    32
  0
VERTEX
  8
AM_VIS
  5
436
 10
6.54705
 20
4.17874
 30
0.000000
  70
    32
  0
VERTEX
  8
AM_VIS
  5
437
 10
6.54796
 20
4.17759
 30
0.000000
  70
    32
  0
VERTEX
  8
AM_VIS
  5
438
 10
6.54887
 20
4.17645
 30
0.000000
  70
    32
  0
VERTEX
  8
AM_VIS
  5
439
 10
6.54979
 20
4.17532
 30
0.000000
  70
    32
  0
VERTEX
  8
AM_VIS
  5
43A
 10
6.55071
 20
4.17419
 30
0.000000
  70
    32
  0
VERTEX
  8
AM_VIS
  5
43B
 10
6.55164
 20
4.17307
 30
0.000000
  70
    32
  0
VERTEX
  8
AM_VIS
  5
43C
 10
6.55258
 20
4.17196
 30
0.000000
  70
    32
  0
VERTEX
  8
AM_VIS
  5
43D
 10
6.55351
 20
4.17085
 30
0.000000
  70
    32
  0
VERTEX
  8
AM_VIS
  5
43E
 10
6.55446
 20
4.16975
 30
0.000000
  70
    32
  0
VERTEX
  8
AM_VIS
  5
43F
 10
6.55541
 20
4.16865
 30
0.000000
  70
    32
  0
VERTEX
  8
AM_VIS
  5
440
 10
6.55636
 20
4.16757
 30
0.000000
  70
    32
  0
VERTEX
  8
AM_VIS
  5
441
 10
6.55732
 20
4.16649
 30
0.000000
  70
    32
  0
VERTEX
  8
AM_VIS
  5
442
 10
6.55828
 20
4.16541
 30
0.000000
  70
    32
  0
VERTEX
  8
AM_VIS
  5
443
 10
6.55925
 20
4.16435
 30
0.000000
  70
    32
  0
VERTEX
  8
AM_VIS
  5
444
 10
6.56022
 20
4.16329
 30
0.000000
  70
    32
  0
VERTEX
  8
AM_VIS
  5
445
 10
6.56120
 20
4.16223
 30
0.000000
  70
    32
  0
VERTEX
  8
AM_VIS
  5
446
 10
6.56218
 20
4.16119
 30
0.000000
  70
    32
  0
VERTEX
  8
AM_VIS
  5
447
 10
6.56317
 20
4.16015
 30
0.000000
  70
    32
  0
VERTEX
  8
AM_VIS
  5
448
 10
6.56416
 20
4.15912
 30
0.000000
  70
    32
  0
VERTEX
  8
AM_VIS
  5
449
 10
6.56515
 20
4.15810
 30
0.000000
  70
    32
  0
VERTEX
  8
AM_VIS
  5
44A
 10
6.56615
 20
4.15708
 30
0.000000
  70
    32
  0
VERTEX
  8
AM_VIS
  5
44B
 10
6.56715
 20
4.15607
 30
0.000000
  70
    32
  0
VERTEX
  8
AM_VIS
  5
44C
 10
6.56816
 20
4.15507
 30
0.000000
  70
    32
  0
VERTEX
  8
AM_VIS
  5
44D
 10
6.56917
 20
4.15408
 30
0.000000
  70
    32
  0
VERTEX
  8
AM_VIS
  5
44E
 10
6.57018
 20
4.15309
 30
0.000000
  70
    32
  0
VERTEX
  8
AM_VIS
  5
44F
 10
6.57120
 20
4.15212
 30
0.000000
  70
    32
  0
VERTEX
  8
AM_VIS
  5
450
 10
6.57222
 20
4.15115
 30
0.000000
  70
    32
  0
VERTEX
  8
AM_VIS
  5
451
 10
6.57325
 20
4.15018
 30
0.000000
  70
    32
  0
VERTEX
  8
AM_VIS
  5
452
 10
6.57428
 20
4.14923
 30
0.000000
  70
    32
  0
VERTEX
  8
AM_VIS
  5
453
 10
6.57532
 20
4.14828
 30
0.000000
  70
    32
  0
VERTEX
  8
AM_VIS
  5
454
 10
6.57636
 20
4.14733
 30
0.000000
  70
    32
  0
VERTEX
  8
AM_VIS
  5
455
 10
6.57742
 20
4.14638
 30
0.000000
  70
    32
  0
VERTEX
  8
AM_VIS
  5
456
 10
6.57848
 20
4.14544
 30
0.000000
  70
    32
  0
VERTEX
  8
AM_VIS
  5
457
 10
6.57954
 20
4.14451
 30
0.000000
  70
    32
  0
VERTEX
  8
AM_VIS
  5
458
 10
6.58062
 20
4.14358
 30
0.000000
  70
    32
  0
VERTEX
  8
AM_VIS
  5
459
 10
6.58170
 20
4.14265
 30
0.000000
  70
    32
  0
VERTEX
  8
AM_VIS
  5
45A
 10
6.58279
 20
4.14173
 30
0.000000
  70
    32
  0
VERTEX
  8
AM_VIS
  5
45B
 10
6.58389
 20
4.14081
 30
0.000000
  70
    32
  0
VERTEX
  8
AM_VIS
  5
45C
 10
6.58499
 20
4.13990
 30
0.000000
  70
    32
  0
VERTEX
  8
AM_VIS
  5
45D
 10
6.58610
 20
4.13899
 30
0.000000
  70
    32
  0
VERTEX
  8
AM_VIS
  5
45E
 10
6.58722
 20
4.13809
 30
0.000000
  70
    32
  0
VERTEX
  8
AM_VIS
  5
45F
 10
6.58834
 20
4.13719
 30
0.000000
  70
    32
  0
VERTEX
  8
AM_VIS
  5
460
 10
6.58948
 20
4.13630
 30
0.000000
  70
    32
  0
VERTEX
  8
AM_VIS
  5
461
 10
6.59061
 20
4.13541
 30
0.000000
  70
    32
  0
VERTEX
  8
AM_VIS
  5
462
 10
6.59176
 20
4.13452
 30
0.000000
  70
    32
  0
VERTEX
  8
AM_VIS
  5
463
 10
6.59291
 20
4.13364
 30
0.000000
  70
    32
  0
VERTEX
  8
AM_VIS
  5
464
 10
6.59407
 20
4.13277
 30
0.000000
  70
    32
  0
VERTEX
  8
AM_VIS
  5
465
 10
6.59523
 20
4.13190
 30
0.000000
  70
    32
  0
VERTEX
  8
AM_VIS
  5
466
 10
6.59640
 20
4.13104
 30
0.000000
  70
    32
  0
VERTEX
  8
AM_VIS
  5
467
 10
6.59758
 20
4.13018
 30
0.000000
  70
    32
  0
VERTEX
  8
AM_VIS
  5
468
 10
6.59876
 20
4.12933
 30
0.000000
  70
    32
  0
VERTEX
  8
AM_VIS
  5
469
 10
6.59995
 20
4.12848
 30
0.000000
  70
    32
  0
VERTEX
  8
AM_VIS
  5
46A
 10
6.60115
 20
4.12764
 30
0.000000
  70
    32
  0
VERTEX
  8
AM_VIS
  5
46B
 10
6.60235
 20
4.12680
 30
0.000000
  70
    32
  0
VERTEX
  8
AM_VIS
  5
46C
 10
6.60356
 20
4.12597
 30
0.000000
  70
    32
  0
VERTEX
  8
AM_VIS
  5
46D
 10
6.60477
 20
4.12514
 30
0.000000
  70
    32
  0
VERTEX
  8
AM_VIS
  5
46E
 10
6.60599
 20
4.12432
 30
0.000000
  70
    32
  0
VERTEX
  8
AM_VIS
  5
46F
 10
6.60722
 20
4.12351
 30
0.000000
  70
    32
  0
VERTEX
  8
AM_VIS
  5
470
 10
6.60845
 20
4.12270
 30
0.000000
  70
    32
  0
VERTEX
  8
AM_VIS
  5
471
 10
6.60969
 20
4.12190
 30
0.000000
  70
    32
  0
VERTEX
  8
AM_VIS
  5
472
 10
6.61093
 20
4.12110
 30
0.000000
  70
    32
  0
VERTEX
  8
AM_VIS
  5
473
 10
6.61218
 20
4.12031
 30
0.000000
  70
    32
  0
VERTEX
  8
AM_VIS
  5
474
 10
6.61343
 20
4.11953
 30
0.000000
  70
    32
  0
VERTEX
  8
AM_VIS
  5
475
 10
6.61469
 20
4.11875
 30
0.000000
  70
    32
  0
VERTEX
  8
AM_VIS
  5
476
 10
6.61596
 20
4.11798
 30
0.000000
  70
    32
  0
VERTEX
  8
AM_VIS
  5
477
 10
6.61723
 20
4.11722
 30
0.000000
  70
    32
  0
VERTEX
  8
AM_VIS
  5
478
 10
6.61850
 20
4.11646
 30
0.000000
  70
    32
  0
VERTEX
  8
AM_VIS
  5
479
 10
6.61979
 20
4.11570
 30
0.000000
  70
    32
  0
VERTEX
  8
AM_VIS
  5
47A
 10
6.62107
 20
4.11496
 30
0.000000
  70
    32
  0
VERTEX
  8
AM_VIS
  5
47B
 10
6.62236
 20
4.11422
 30
0.000000
  70
    32
  0
VERTEX
  8
AM_VIS
  5
47C
 10
6.62366
 20
4.11349
 30
0.000000
  70
    32
  0
VERTEX
  8
AM_VIS
  5
47D
 10
6.62496
 20
4.11276
 30
0.000000
  70
    32
  0
VERTEX
  8
AM_VIS
  5
47E
 10
6.62627
 20
4.11204
 30
0.000000
  70
    32
  0
VERTEX
  8
AM_VIS
  5
47F
 10
6.62758
 20
4.11133
 30
0.000000
  70
    32
  0
VERTEX
  8
AM_VIS
  5
480
 10
6.62889
 20
4.11062
 30
0.000000
  70
    32
  0
VERTEX
  8
AM_VIS
  5
481
 10
6.63021
 20
4.10992
 30
0.000000
  70
    32
  0
VERTEX
  8
AM_VIS
  5
482
 10
6.63154
 20
4.10923
 30
0.000000
  70
    32
  0
VERTEX
  8
AM_VIS
  5
483
 10
6.63287
 20
4.10855
 30
0.000000
  70
    32
  0
VERTEX
  8
AM_VIS
  5
484
 10
6.63420
 20
4.10787
 30
0.000000
  70
    32
  0
VERTEX
  8
AM_VIS
  5
485
 10
6.63554
 20
4.10720
 30
0.000000
  70
    32
  0
VERTEX
  8
AM_VIS
  5
486
 10
6.63688
 20
4.10653
 30
0.000000
  70
    32
  0
VERTEX
  8
AM_VIS
  5
487
 10
6.63823
 20
4.10588
 30
0.000000
  70
    32
  0
VERTEX
  8
AM_VIS
  5
488
 10
6.63958
 20
4.10523
 30
0.000000
  70
    32
  0
VERTEX
  8
AM_VIS
  5
489
 10
6.64094
 20
4.10459
 30
0.000000
  70
    32
  0
VERTEX
  8
AM_VIS
  5
48A
 10
6.64230
 20
4.10395
 30
0.000000
  70
    32
  0
VERTEX
  8
AM_VIS
  5
48B
 10
6.64366
 20
4.10333
 30
0.000000
  70
    32
  0
VERTEX
  8
AM_VIS
  5
48C
 10
6.64503
 20
4.10271
 30
0.000000
  70
    32
  0
VERTEX
  8
AM_VIS
  5
48D
 10
6.64640
 20
4.10210
 30
0.000000
  70
    32
  0
VERTEX
  8
AM_VIS
  5
48E
 10
6.64778
 20
4.10149
 30
0.000000
  70
    32
  0
VERTEX
  8
AM_VIS
  5
48F
 10
6.64916
 20
4.10090
 30
0.000000
  70
    32
  0
VERTEX
  8
AM_VIS
  5
490
 10
6.65054
 20
4.10031
 30
0.000000
  70
    32
  0
VERTEX
  8
AM_VIS
  5
491
 10
6.65193
 20
4.09973
 30
0.000000
  70
    32
  0
VERTEX
  8
AM_VIS
  5
492
 10
6.65332
 20
4.09916
 30
0.000000
  70
    32
  0
VERTEX
  8
AM_VIS
  5
493
 10
6.65472
 20
4.09860
 30
0.000000
  70
    32
  0
VERTEX
  8
AM_VIS
  5
494
 10
6.65611
 20
4.09804
 30
0.000000
  70
    32
  0
VERTEX
  8
AM_VIS
  5
495
 10
6.65752
 20
4.09749
 30
0.000000
  70
    32
  0
VERTEX
  8
AM_VIS
  5
496
 10
6.65892
 20
4.09695
 30
0.000000
  70
    32
  0
VERTEX
  8
AM_VIS
  5
497
 10
6.66033
 20
4.09642
 30
0.000000
  70
    32
  0
VERTEX
  8
AM_VIS
  5
498
 10
6.66174
 20
4.09590
 30
0.000000
  70
    32
  0
VERTEX
  8
AM_VIS
  5
499
 10
6.66316
 20
4.09538
 30
0.000000
  70
    32
  0
VERTEX
  8
AM_VIS
  5
49A
 10
6.66457
 20
4.09488
 30
0.000000
  70
    32
  0
VERTEX
  8
AM_VIS
  5
49B
 10
6.66599
 20
4.09438
 30
0.000000
  70
    32
  0
VERTEX
  8
AM_VIS
  5
49C
 10
6.66742
 20
4.09389
 30
0.000000
  70
    32
  0
VERTEX
  8
AM_VIS
  5
49D
 10
6.66884
 20
4.09341
 30
0.000000
  70
    32
  0
VERTEX
  8
AM_VIS
  5
49E
 10
6.67027
 20
4.09293
 30
0.000000
  70
    32
  0
VERTEX
  8
AM_VIS
  5
49F
 10
6.67171
 20
4.09247
 30
0.000000
  70
    32
  0
VERTEX
  8
AM_VIS
  5
4A0
 10
6.67314
 20
4.09201
 30
0.000000
  70
    32
  0
VERTEX
  8
AM_VIS
  5
4A1
 10
6.67458
 20
4.09156
 30
0.000000
  70
    32
  0
VERTEX
  8
AM_VIS
  5
4A2
 10
6.67601
 20
4.09112
 30
0.000000
  70
    32
  0
VERTEX
  8
AM_VIS
  5
4A3
 10
6.67746
 20
4.09069
 30
0.000000
  70
    32
  0
VERTEX
  8
AM_VIS
  5
4A4
 10
6.67890
 20
4.09027
 30
0.000000
  70
    32
  0
VERTEX
  8
AM_VIS
  5
4A5
 10
6.68034
 20
4.08985
 30
0.000000
  70
    32
  0
VERTEX
  8
AM_VIS
  5
4A6
 10
6.68179
 20
4.08944
 30
0.000000
  70
    32
  0
VERTEX
  8
AM_VIS
  5
4A7
 10
6.68324
 20
4.08904
 30
0.000000
  70
    32
  0
VERTEX
  8
AM_VIS
  5
4A8
 10
6.68469
 20
4.08865
 30
0.000000
  70
    32
  0
VERTEX
  8
AM_VIS
  5
4A9
 10
6.68614
 20
4.08827
 30
0.000000
  70
    32
  0
VERTEX
  8
AM_VIS
  5
4AA
 10
6.68760
 20
4.08789
 30
0.000000
  70
    32
  0
VERTEX
  8
AM_VIS
  5
4AB
 10
6.68905
 20
4.08752
 30
0.000000
  70
    32
  0
VERTEX
  8
AM_VIS
  5
4AC
 10
6.69051
 20
4.08716
 30
0.000000
  70
    32
  0
VERTEX
  8
AM_VIS
  5
4AD
 10
6.69197
 20
4.08681
 30
0.000000
  70
    32
  0
VERTEX
  8
AM_VIS
  5
4AE
 10
6.69343
 20
4.08647
 30
0.000000
  70
    32
  0
VERTEX
  8
AM_VIS
  5
4AF
 10
6.69489
 20
4.08613
 30
0.000000
  70
    32
  0
VERTEX
  8
AM_VIS
  5
4B0
 10
6.69635
 20
4.08581
 30
0.000000
  70
    32
  0
VERTEX
  8
AM_VIS
  5
4B1
 10
6.69781
 20
4.08549
 30
0.000000
  70
    32
  0
VERTEX
  8
AM_VIS
  5
4B2
 10
6.69927
 20
4.08518
 30
0.000000
  70
    32
  0
VERTEX
  8
AM_VIS
  5
4B3
 10
6.70074
 20
4.08488
 30
0.000000
  70
    32
  0
VERTEX
  8
AM_VIS
  5
4B4
 10
6.70220
 20
4.08458
 30
0.000000
  70
    32
  0
VERTEX
  8
AM_VIS
  5
4B5
 10
6.70367
 20
4.08429
 30
0.000000
  70
    32
  0
VERTEX
  8
AM_VIS
  5
4B6
 10
6.70513
 20
4.08402
 30
0.000000
  70
    32
  0
VERTEX
  8
AM_VIS
  5
4B7
 10
6.70660
 20
4.08375
 30
0.000000
  70
    32
  0
VERTEX
  8
AM_VIS
  5
4B8
 10
6.70806
 20
4.08348
 30
0.000000
  70
    32
  0
VERTEX
  8
AM_VIS
  5
4B9
 10
6.70953
 20
4.08323
 30
0.000000
  70
    32
  0
VERTEX
  8
AM_VIS
  5
4BA
 10
6.71099
 20
4.08298
 30
0.000000
  70
    32
  0
VERTEX
  8
AM_VIS
  5
4BB
 10
6.71246
 20
4.08275
 30
0.000000
  70
    32
  0
VERTEX
  8
AM_VIS
  5
4BC
 10
6.71393
 20
4.08252
 30
0.000000
  70
    32
  0
VERTEX
  8
AM_VIS
  5
4BD
 10
6.71539
 20
4.08229
 30
0.000000
  70
    32
  0
VERTEX
  8
AM_VIS
  5
4BE
 10
6.71686
 20
4.08208
 30
0.000000
  70
    32
  0
VERTEX
  8
AM_VIS
  5
4BF
 10
6.71832
 20
4.08188
 30
0.000000
  70
    32
  0
VERTEX
  8
AM_VIS
  5
4C0
 10
6.71979
 20
4.08168
 30
0.000000
  70
    32
  0
VERTEX
  8
AM_VIS
  5
4C1
 10
6.72125
 20
4.08149
 30
0.000000
  70
    32
  0
VERTEX
  8
AM_VIS
  5
4C2
 10
6.72272
 20
4.08131
 30
0.000000
  70
    32
  0
VERTEX
  8
AM_VIS
  5
4C3
 10
6.72418
 20
4.08113
 30
0.000000
  70
    32
  0
VERTEX
  8
AM_VIS
  5
4C4
 10
6.72564
 20
4.08097
 30
0.000000
  70
    32
  0
VERTEX
  8
AM_VIS
  5
4C5
 10
6.72710
 20
4.08081
 30
0.000000
  70
    32
  0
VERTEX
  8
AM_VIS
  5
4C6
 10
6.72856
 20
4.08066
 30
0.000000
  70
    32
  0
VERTEX
  8
AM_VIS
  5
4C7
 10
6.73002
 20
4.08052
 30
0.000000
  70
    32
  0
VERTEX
  8
AM_VIS
  5
4C8
 10
6.73148
 20
4.08039
 30
0.000000
  70
    32
  0
VERTEX
  8
AM_VIS
  5
4C9
 10
6.73293
 20
4.08026
 30
0.000000
  70
    32
  0
VERTEX
  8
AM_VIS
  5
4CA
 10
6.73439
 20
4.08014
 30
0.000000
  70
    32
  0
VERTEX
  8
AM_VIS
  5
4CB
 10
6.73584
 20
4.08003
 30
0.000000
  70
    32
  0
VERTEX
  8
AM_VIS
  5
4CC
 10
6.73729
 20
4.07993
 30
0.000000
  70
    32
  0
VERTEX
  8
AM_VIS
  5
4CD
 10
6.73874
 20
4.07984
 30
0.000000
  70
    32
  0
VERTEX
  8
AM_VIS
  5
4CE
 10
6.74019
 20
4.07975
 30
0.000000
  70
    32
  0
VERTEX
  8
AM_VIS
  5
4CF
 10
6.74164
 20
4.07968
 30
0.000000
  70
    32
  0
VERTEX
  8
AM_VIS
  5
4D0
 10
6.74308
 20
4.07961
 30
0.000000
  70
    32
  0
VERTEX
  8
AM_VIS
  5
4D1
 10
6.74452
 20
4.07954
 30
0.000000
  70
    32
  0
VERTEX
  8
AM_VIS
  5
4D2
 10
6.74596
 20
4.07949
 30
0.000000
  70
    32
  0
VERTEX
  8
AM_VIS
  5
4D3
 10
6.74740
 20
4.07945
 30
0.000000
  70
    32
  0
VERTEX
  8
AM_VIS
  5
4D4
 10
6.74884
 20
4.07941
 30
0.000000
  70
    32
  0
VERTEX
  8
AM_VIS
  5
4D5
 10
6.75027
 20
4.07938
 30
0.000000
  70
    32
  0
VERTEX
  8
AM_VIS
  5
4D6
 10
6.75170
 20
4.07936
 30
0.000000
  70
    32
  0
VERTEX
  8
AM_VIS
  5
4D7
 10
6.75313
 20
4.07934
 30
0.000000
  70
    32
  0
VERTEX
  8
AM_VIS
  5
4D8
 10
6.75456
 20
4.07934
 30
0.000000
  70
    32
  0
VERTEX
  8
AM_VIS
  5
4D9
 10
6.75598
 20
4.07934
 30
0.000000
  70
    32
  0
VERTEX
  8
AM_VIS
  5
4DA
 10
6.75741
 20
4.07935
 30
0.000000
  70
    32
  0
VERTEX
  8
AM_VIS
  5
4DB
 10
6.75884
 20
4.07937
 30
0.000000
  70
    32
  0
VERTEX
  8
AM_VIS
  5
4DC
 10
6.76027
 20
4.07939
 30
0.000000
  70
    32
  0
VERTEX
  8
AM_VIS
  5
4DD
 10
6.76170
 20
4.07943
 30
0.000000
  70
    32
  0
VERTEX
  8
AM_VIS
  5
4DE
 10
6.76314
 20
4.07947
 30
0.000000
  70
    32
  0
VERTEX
  8
AM_VIS
  5
4DF
 10
6.76458
 20
4.07952
 30
0.000000
  70
    32
  0
VERTEX
  8
AM_VIS
  5
4E0
 10
6.76602
 20
4.07957
 30
0.000000
  70
    32
  0
VERTEX
  8
AM_VIS
  5
4E1
 10
6.76746
 20
4.07964
 30
0.000000
  70
    32
  0
VERTEX
  8
AM_VIS
  5
4E2
 10
6.76891
 20
4.07971
 30
0.000000
  70
    32
  0
VERTEX
  8
AM_VIS
  5
4E3
 10
6.77036
 20
4.07980
 30
0.000000
  70
    32
  0
VERTEX
  8
AM_VIS
  5
4E4
 10
6.77181
 20
4.07988
 30
0.000000
  70
    32
  0
VERTEX
  8
AM_VIS
  5
4E5
 10
6.77326
 20
4.07998
 30
0.000000
  70
    32
  0
VERTEX
  8
AM_VIS
  5
4E6
 10
6.77471
 20
4.08009
 30
0.000000
  70
    32
  0
VERTEX
  8
AM_VIS
  5
4E7
 10
6.77616
 20
4.08020
 30
0.000000
  70
    32
  0
VERTEX
  8
AM_VIS
  5
4E8
 10
6.77762
 20
4.08032
 30
0.000000
  70
    32
  0
VERTEX
  8
AM_VIS
  5
4E9
 10
6.77908
 20
4.08045
 30
0.000000
  70
    32
  0
VERTEX
  8
AM_VIS
  5
4EA
 10
6.78053
 20
4.08059
 30
0.000000
  70
    32
  0
VERTEX
  8
AM_VIS
  5
4EB
 10
6.78199
 20
4.08073
 30
0.000000
  70
    32
  0
VERTEX
  8
AM_VIS
  5
4EC
 10
6.78345
 20
4.08089
 30
0.000000
  70
    32
  0
VERTEX
  8
AM_VIS
  5
4ED
 10
6.78491
 20
4.08105
 30
0.000000
  70
    32
  0
VERTEX
  8
AM_VIS
  5
4EE
 10
6.78638
 20
4.08122
 30
0.000000
  70
    32
  0
VERTEX
  8
AM_VIS
  5
4EF
 10
6.78784
 20
4.08140
 30
0.000000
  70
    32
  0
VERTEX
  8
AM_VIS
  5
4F0
 10
6.78930
 20
4.08158
 30
0.000000
  70
    32
  0
VERTEX
  8
AM_VIS
  5
4F1
 10
6.79077
 20
4.08178
 30
0.000000
  70
    32
  0
VERTEX
  8
AM_VIS
  5
4F2
 10
6.79223
 20
4.08198
 30
0.000000
  70
    32
  0
VERTEX
  8
AM_VIS
  5
4F3
 10
6.79370
 20
4.08219
 30
0.000000
  70
    32
  0
VERTEX
  8
AM_VIS
  5
4F4
 10
6.79516
 20
4.08240
 30
0.000000
  70
    32
  0
VERTEX
  8
AM_VIS
  5
4F5
 10
6.79663
 20
4.08263
 30
0.000000
  70
    32
  0
VERTEX
  8
AM_VIS
  5
4F6
 10
6.79810
 20
4.08286
 30
0.000000
  70
    32
  0
VERTEX
  8
AM_VIS
  5
4F7
 10
6.79956
 20
4.08311
 30
0.000000
  70
    32
  0
VERTEX
  8
AM_VIS
  5
4F8
 10
6.80103
 20
4.08336
 30
0.000000
  70
    32
  0
VERTEX
  8
AM_VIS
  5
4F9
 10
6.80249
 20
4.08361
 30
0.000000
  70
    32
  0
VERTEX
  8
AM_VIS
  5
4FA
 10
6.80396
 20
4.08388
 30
0.000000
  70
    32
  0
VERTEX
  8
AM_VIS
  5
4FB
 10
6.80543
 20
4.08415
 30
0.000000
  70
    32
  0
VERTEX
  8
AM_VIS
  5
4FC
 10
6.80689
 20
4.08444
 30
0.000000
  70
    32
  0
VERTEX
  8
AM_VIS
  5
4FD
 10
6.80836
 20
4.08473
 30
0.000000
  70
    32
  0
VERTEX
  8
AM_VIS
  5
4FE
 10
6.80982
 20
4.08503
 30
0.000000
  70
    32
  0
VERTEX
  8
AM_VIS
  5
4FF
 10
6.81128
 20
4.08533
 30
0.000000
  70
    32
  0
VERTEX
  8
AM_VIS
  5
500
 10
6.81275
 20
4.08565
 30
0.000000
  70
    32
  0
VERTEX
  8
AM_VIS
  5
501
 10
6.81421
 20
4.08597
 30
0.000000
  70
    32
  0
VERTEX
  8
AM_VIS
  5
502
 10
6.81567
 20
4.08630
 30
0.000000
  70
    32
  0
VERTEX
  8
AM_VIS
  5
503
 10
6.81713
 20
4.08664
 30
0.000000
  70
    32
  0
VERTEX
  8
AM_VIS
  5
504
 10
6.81859
 20
4.08699
 30
0.000000
  70
    32
  0
VERTEX
  8
AM_VIS
  5
505
 10
6.82004
 20
4.08734
 30
0.000000
  70
    32
  0
VERTEX
  8
AM_VIS
  5
506
 10
6.82150
 20
4.08771
 30
0.000000
  70
    32
  0
VERTEX
  8
AM_VIS
  5
507
 10
6.82295
 20
4.08808
 30
0.000000
  70
    32
  0
VERTEX
  8
AM_VIS
  5
508
 10
6.82441
 20
4.08846
 30
0.000000
  70
    32
  0
VERTEX
  8
AM_VIS
  5
509
 10
6.82586
 20
4.08884
 30
0.000000
  70
    32
  0
VERTEX
  8
AM_VIS
  5
50A
 10
6.82731
 20
4.08924
 30
0.000000
  70
    32
  0
VERTEX
  8
AM_VIS
  5
50B
 10
6.82876
 20
4.08964
 30
0.000000
  70
    32
  0
VERTEX
  8
AM_VIS
  5
50C
 10
6.83020
 20
4.09006
 30
0.000000
  70
    32
  0
VERTEX
  8
AM_VIS
  5
50D
 10
6.83165
 20
4.09048
 30
0.000000
  70
    32
  0
VERTEX
  8
AM_VIS
  5
50E
 10
6.83309
 20
4.09091
 30
0.000000
  70
    32
  0
VERTEX
  8
AM_VIS
  5
50F
 10
6.83453
 20
4.09134
 30
0.000000
  70
    32
  0
VERTEX
  8
AM_VIS
  5
510
 10
6.83597
 20
4.09179
 30
0.000000
  70
    32
  0
VERTEX
  8
AM_VIS
  5
511
 10
6.83740
 20
4.09224
 30
0.000000
  70
    32
  0
VERTEX
  8
AM_VIS
  5
512
 10
6.83884
 20
4.09270
 30
0.000000
  70
    32
  0
VERTEX
  8
AM_VIS
  5
513
 10
6.84027
 20
4.09317
 30
0.000000
  70
    32
  0
VERTEX
  8
AM_VIS
  5
514
 10
6.84169
 20
4.09365
 30
0.000000
  70
    32
  0
VERTEX
  8
AM_VIS
  5
515
 10
6.84312
 20
4.09413
 30
0.000000
  70
    32
  0
VERTEX
  8
AM_VIS
  5
516
 10
6.84454
 20
4.09463
 30
0.000000
  70
    32
  0
VERTEX
  8
AM_VIS
  5
517
 10
6.84596
 20
4.09513
 30
0.000000
  70
    32
  0
VERTEX
  8
AM_VIS
  5
518
 10
6.84738
 20
4.09564
 30
0.000000
  70
    32
  0
VERTEX
  8
AM_VIS
  5
519
 10
6.84879
 20
4.09616
 30
0.000000
  70
    32
  0
VERTEX
  8
AM_VIS
  5
51A
 10
6.85020
 20
4.09669
 30
0.000000
  70
    32
  0
VERTEX
  8
AM_VIS
  5
51B
 10
6.85161
 20
4.09722
 30
0.000000
  70
    32
  0
VERTEX
  8
AM_VIS
  5
51C
 10
6.85301
 20
4.09776
 30
0.000000
  70
    32
  0
VERTEX
  8
AM_VIS
  5
51D
 10
6.85441
 20
4.09832
 30
0.000000
  70
    32
  0
VERTEX
  8
AM_VIS
  5
51E
 10
6.85581
 20
4.09888
 30
0.000000
  70
    32
  0
VERTEX
  8
AM_VIS
  5
51F
 10
6.85720
 20
4.09944
 30
0.000000
  70
    32
  0
VERTEX
  8
AM_VIS
  5
520
 10
6.85859
 20
4.10002
 30
0.000000
  70
    32
  0
VERTEX
  8
AM_VIS
  5
521
 10
6.85997
 20
4.10060
 30
0.000000
  70
    32
  0
VERTEX
  8
AM_VIS
  5
522
 10
6.86136
 20
4.10119
 30
0.000000
  70
    32
  0
VERTEX
  8
AM_VIS
  5
523
 10
6.86273
 20
4.10179
 30
0.000000
  70
    32
  0
VERTEX
  8
AM_VIS
  5
524
 10
6.86411
 20
4.10240
 30
0.000000
  70
    32
  0
VERTEX
  8
AM_VIS
  5
525
 10
6.86548
 20
4.10302
 30
0.000000
  70
    32
  0
VERTEX
  8
AM_VIS
  5
526
 10
6.86684
 20
4.10364
 30
0.000000
  70
    32
  0
VERTEX
  8
AM_VIS
  5
527
 10
6.86821
 20
4.10427
 30
0.000000
  70
    32
  0
VERTEX
  8
AM_VIS
  5
528
 10
6.86956
 20
4.10491
 30
0.000000
  70
    32
  0
VERTEX
  8
AM_VIS
  5
529
 10
6.87092
 20
4.10555
 30
0.000000
  70
    32
  0
VERTEX
  8
AM_VIS
  5
52A
 10
6.87227
 20
4.10620
 30
0.000000
  70
    32
  0
VERTEX
  8
AM_VIS
  5
52B
 10
6.87361
 20
4.10686
 30
0.000000
  70
    32
  0
VERTEX
  8
AM_VIS
  5
52C
 10
6.87495
 20
4.10753
 30
0.000000
  70
    32
  0
VERTEX
  8
AM_VIS
  5
52D
 10
6.87629
 20
4.10821
 30
0.000000
  70
    32
  0
VERTEX
  8
AM_VIS
  5
52E
 10
6.87762
 20
4.10889
 30
0.000000
  70
    32
  0
VERTEX
  8
AM_VIS
  5
52F
 10
6.87895
 20
4.10958
 30
0.000000
  70
    32
  0
VERTEX
  8
AM_VIS
  5
530
 10
6.88027
 20
4.11027
 30
0.000000
  70
    32
  0
VERTEX
  8
AM_VIS
  5
531
 10
6.88159
 20
4.11097
 30
0.000000
  70
    32
  0
VERTEX
  8
AM_VIS
  5
532
 10
6.88290
 20
4.11168
 30
0.000000
  70
    32
  0
VERTEX
  8
AM_VIS
  5
533
 10
6.88421
 20
4.11240
 30
0.000000
  70
    32
  0
VERTEX
  8
AM_VIS
  5
534
 10
6.88552
 20
4.11312
 30
0.000000
  70
    32
  0
VERTEX
  8
AM_VIS
  5
535
 10
6.88681
 20
4.11385
 30
0.000000
  70
    32
  0
VERTEX
  8
AM_VIS
  5
536
 10
6.88811
 20
4.11459
 30
0.000000
  70
    32
  0
VERTEX
  8
AM_VIS
  5
537
 10
6.88940
 20
4.11533
 30
0.000000
  70
    32
  0
VERTEX
  8
AM_VIS
  5
538
 10
6.89068
 20
4.11608
 30
0.000000
  70
    32
  0
VERTEX
  8
AM_VIS
  5
539
 10
6.89196
 20
4.11684
 30
0.000000
  70
    32
  0
VERTEX
  8
AM_VIS
  5
53A
 10
6.89323
 20
4.11760
 30
0.000000
  70
    32
  0
VERTEX
  8
AM_VIS
  5
53B
 10
6.89450
 20
4.11837
 30
0.000000
  70
    32
  0
VERTEX
  8
AM_VIS
  5
53C
 10
6.89576
 20
4.11914
 30
0.000000
  70
    32
  0
VERTEX
  8
AM_VIS
  5
53D
 10
6.89702
 20
4.11992
 30
0.000000
  70
    32
  0
VERTEX
  8
AM_VIS
  5
53E
 10
6.89827
 20
4.12071
 30
0.000000
  70
    32
  0
VERTEX
  8
AM_VIS
  5
53F
 10
6.89952
 20
4.12150
 30
0.000000
  70
    32
  0
VERTEX
  8
AM_VIS
  5
540
 10
6.90076
 20
4.12230
 30
0.000000
  70
    32
  0
VERTEX
  8
AM_VIS
  5
541
 10
6.90199
 20
4.12311
 30
0.000000
  70
    32
  0
VERTEX
  8
AM_VIS
  5
542
 10
6.90322
 20
4.12392
 30
0.000000
  70
    32
  0
VERTEX
  8
AM_VIS
  5
543
 10
6.90444
 20
4.12473
 30
0.000000
  70
    32
  0
VERTEX
  8
AM_VIS
  5
544
 10
6.90566
 20
4.12556
 30
0.000000
  70
    32
  0
VERTEX
  8
AM_VIS
  5
545
 10
6.90687
 20
4.12638
 30
0.000000
  70
    32
  0
VERTEX
  8
AM_VIS
  5
546
 10
6.90807
 20
4.12722
 30
0.000000
  70
    32
  0
VERTEX
  8
AM_VIS
  5
547
 10
6.90927
 20
4.12806
 30
0.000000
  70
    32
  0
VERTEX
  8
AM_VIS
  5
548
 10
6.91047
 20
4.12890
 30
0.000000
  70
    32
  0
VERTEX
  8
AM_VIS
  5
549
 10
6.91165
 20
4.12975
 30
0.000000
  70
    32
  0
VERTEX
  8
AM_VIS
  5
54A
 10
6.91283
 20
4.13061
 30
0.000000
  70
    32
  0
VERTEX
  8
AM_VIS
  5
54B
 10
6.91401
 20
4.13147
 30
0.000000
  70
    32
  0
VERTEX
  8
AM_VIS
  5
54C
 10
6.91517
 20
4.13233
 30
0.000000
  70
    32
  0
VERTEX
  8
AM_VIS
  5
54D
 10
6.91634
 20
4.13321
 30
0.000000
  70
    32
  0
VERTEX
  8
AM_VIS
  5
54E
 10
6.91749
 20
4.13408
 30
0.000000
  70
    32
  0
VERTEX
  8
AM_VIS
  5
54F
 10
6.91864
 20
4.13496
 30
0.000000
  70
    32
  0
VERTEX
  8
AM_VIS
  5
550
 10
6.91978
 20
4.13585
 30
0.000000
  70
    32
  0
VERTEX
  8
AM_VIS
  5
551
 10
6.92091
 20
4.13674
 30
0.000000
  70
    32
  0
VERTEX
  8
AM_VIS
  5
552
 10
6.92204
 20
4.13764
 30
0.000000
  70
    32
  0
VERTEX
  8
AM_VIS
  5
553
 10
6.92316
 20
4.13854
 30
0.000000
  70
    32
  0
VERTEX
  8
AM_VIS
  5
554
 10
6.92428
 20
4.13945
 30
0.000000
  70
    32
  0
VERTEX
  8
AM_VIS
  5
555
 10
6.92538
 20
4.14036
 30
0.000000
  70
    32
  0
VERTEX
  8
AM_VIS
  5
556
 10
6.92649
 20
4.14127
 30
0.000000
  70
    32
  0
VERTEX
  8
AM_VIS
  5
557
 10
6.92758
 20
4.14219
 30
0.000000
  70
    32
  0
VERTEX
  8
AM_VIS
  5
558
 10
6.92866
 20
4.14311
 30
0.000000
  70
    32
  0
VERTEX
  8
AM_VIS
  5
559
 10
6.92974
 20
4.14404
 30
0.000000
  70
    32
  0
VERTEX
  8
AM_VIS
  5
55A
 10
6.93081
 20
4.14498
 30
0.000000
  70
    32
  0
VERTEX
  8
AM_VIS
  5
55B
 10
6.93188
 20
4.14591
 30
0.000000
  70
    32
  0
VERTEX
  8
AM_VIS
  5
55C
 10
6.93294
 20
4.14686
 30
0.000000
  70
    32
  0
VERTEX
  8
AM_VIS
  5
55D
 10
6.93398
 20
4.14780
 30
0.000000
  70
    32
  0
VERTEX
  8
AM_VIS
  5
55E
 10
6.93503
 20
4.14875
 30
0.000000
  70
    32
  0
VERTEX
  8
AM_VIS
  5
55F
 10
6.93606
 20
4.14970
 30
0.000000
  70
    32
  0
VERTEX
  8
AM_VIS
  5
560
 10
6.93709
 20
4.15066
 30
0.000000
  70
    32
  0
VERTEX
  8
AM_VIS
  5
561
 10
6.93811
 20
4.15163
 30
0.000000
  70
    32
  0
VERTEX
  8
AM_VIS
  5
562
 10
6.93913
 20
4.15260
 30
0.000000
  70
    32
  0
VERTEX
  8
AM_VIS
  5
563
 10
6.94015
 20
4.15359
 30
0.000000
  70
    32
  0
VERTEX
  8
AM_VIS
  5
564
 10
6.94116
 20
4.15457
 30
0.000000
  70
    32
  0
VERTEX
  8
AM_VIS
  5
565
 10
6.94217
 20
4.15557
 30
0.000000
  70
    32
  0
VERTEX
  8
AM_VIS
  5
566
 10
6.94317
 20
4.15658
 30
0.000000
  70
    32
  0
VERTEX
  8
AM_VIS
  5
567
 10
6.94417
 20
4.15759
 30
0.000000
  70
    32
  0
VERTEX
  8
AM_VIS
  5
568
 10
6.94517
 20
4.15861
 30
0.000000
  70
    32
  0
VERTEX
  8
AM_VIS
  5
569
 10
6.94616
 20
4.15964
 30
0.000000
  70
    32
  0
VERTEX
  8
AM_VIS
  5
56A
 10
6.94715
 20
4.16067
 30
0.000000
  70
    32
  0
VERTEX
  8
AM_VIS
  5
56B
 10
6.94813
 20
4.16171
 30
0.000000
  70
    32
  0
VERTEX
  8
AM_VIS
  5
56C
 10
6.94911
 20
4.16276
 30
0.000000
  70
    32
  0
VERTEX
  8
AM_VIS
  5
56D
 10
6.95009
 20
4.16382
 30
0.000000
  70
    32
  0
VERTEX
  8
AM_VIS
  5
56E
 10
6.95106
 20
4.16488
 30
0.000000
  70
    32
  0
VERTEX
  8
AM_VIS
  5
56F
 10
6.95202
 20
4.16595
 30
0.000000
  70
    32
  0
VERTEX
  8
AM_VIS
  5
570
 10
6.95299
 20
4.16703
 30
0.000000
  70
    32
  0
VERTEX
  8
AM_VIS
  5
571
 10
6.95394
 20
4.16811
 30
0.000000
  70
    32
  0
VERTEX
  8
AM_VIS
  5
572
 10
6.95489
 20
4.16920
 30
0.000000
  70
    32
  0
VERTEX
  8
AM_VIS
  5
573
 10
6.95584
 20
4.17030
 30
0.000000
  70
    32
  0
VERTEX
  8
AM_VIS
  5
574
 10
6.95678
 20
4.17140
 30
0.000000
  70
    32
  0
VERTEX
  8
AM_VIS
  5
575
 10
6.95772
 20
4.17251
 30
0.000000
  70
    32
  0
VERTEX
  8
AM_VIS
  5
576
 10
6.95865
 20
4.17363
 30
0.000000
  70
    32
  0
VERTEX
  8
AM_VIS
  5
577
 10
6.95957
 20
4.17476
 30
0.000000
  70
    32
  0
VERTEX
  8
AM_VIS
  5
578
 10
6.96049
 20
4.17589
 30
0.000000
  70
    32
  0
VERTEX
  8
AM_VIS
  5
579
 10
6.96141
 20
4.17702
 30
0.000000
  70
    32
  0
VERTEX
  8
AM_VIS
  5
57A
 10
6.96232
 20
4.17817
 30
0.000000
  70
    32
  0
VERTEX
  8
AM_VIS
  5
57B
 10
6.96322
 20
4.17932
 30
0.000000
  70
    32
  0
VERTEX
  8
AM_VIS
  5
57C
 10
6.96412
 20
4.18047
 30
0.000000
  70
    32
  0
VERTEX
  8
AM_VIS
  5
57D
 10
6.96501
 20
4.18164
 30
0.000000
  70
    32
  0
VERTEX
  8
AM_VIS
  5
57E
 10
6.96590
 20
4.18281
 30
0.000000
  70
    32
  0
VERTEX
  8
AM_VIS
  5
57F
 10
6.96678
 20
4.18398
 30
0.000000
  70
    32
  0
VERTEX
  8
AM_VIS
  5
580
 10
6.96766
 20
4.18516
 30
0.000000
  70
    32
  0
VERTEX
  8
AM_VIS
  5
581
 10
6.96853
 20
4.18635
 30
0.000000
  70
    32
  0
VERTEX
  8
AM_VIS
  5
582
 10
6.96939
 20
4.18754
 30
0.000000
  70
    32
  0
VERTEX
  8
AM_VIS
  5
583
 10
6.97025
 20
4.18874
 30
0.000000
  70
    32
  0
VERTEX
  8
AM_VIS
  5
584
 10
6.97110
 20
4.18995
 30
0.000000
  70
    32
  0
VERTEX
  8
AM_VIS
  5
585
 10
6.97194
 20
4.19116
 30
0.000000
  70
    32
  0
VERTEX
  8
AM_VIS
  5
586
 10
6.97278
 20
4.19237
 30
0.000000
  70
    32
  0
VERTEX
  8
AM_VIS
  5
587
 10
6.97361
 20
4.19359
 30
0.000000
  70
    32
  0
VERTEX
  8
AM_VIS
  5
588
 10
6.97443
 20
4.19482
 30
0.000000
  70
    32
  0
VERTEX
  8
AM_VIS
  5
589
 10
6.97525
 20
4.19606
 30
0.000000
  70
    32
  0
VERTEX
  8
AM_VIS
  5
58A
 10
6.97606
 20
4.19729
 30
0.000000
  70
    32
  0
VERTEX
  8
AM_VIS
  5
58B
 10
6.97687
 20
4.19854
 30
0.000000
  70
    32
  0
VERTEX
  8
AM_VIS
  5
58C
 10
6.97767
 20
4.19979
 30
0.000000
  70
    32
  0
VERTEX
  8
AM_VIS
  5
58D
 10
6.97846
 20
4.20104
 30
0.000000
  70
    32
  0
VERTEX
  8
AM_VIS
  5
58E
 10
6.97924
 20
4.20230
 30
0.000000
  70
    32
  0
VERTEX
  8
AM_VIS
  5
58F
 10
6.98002
 20
4.20357
 30
0.000000
  70
    32
  0
VERTEX
  8
AM_VIS
  5
590
 10
6.98079
 20
4.20484
 30
0.000000
  70
    32
  0
VERTEX
  8
AM_VIS
  5
591
 10
6.98155
 20
4.20611
 30
0.000000
  70
    32
  0
VERTEX
  8
AM_VIS
  5
592
 10
6.98231
 20
4.20740
 30
0.000000
  70
    32
  0
VERTEX
  8
AM_VIS
  5
593
 10
6.98305
 20
4.20868
 30
0.000000
  70
    32
  0
VERTEX
  8
AM_VIS
  5
594
 10
6.98379
 20
4.20997
 30
0.000000
  70
    32
  0
VERTEX
  8
AM_VIS
  5
595
 10
6.98453
 20
4.21127
 30
0.000000
  70
    32
  0
VERTEX
  8
AM_VIS
  5
596
 10
6.98525
 20
4.21257
 30
0.000000
  70
    32
  0
VERTEX
  8
AM_VIS
  5
597
 10
6.98597
 20
4.21387
 30
0.000000
  70
    32
  0
VERTEX
  8
AM_VIS
  5
598
 10
6.98668
 20
4.21518
 30
0.000000
  70
    32
  0
VERTEX
  8
AM_VIS
  5
599
 10
6.98738
 20
4.21650
 30
0.000000
  70
    32
  0
VERTEX
  8
AM_VIS
  5
59A
 10
6.98807
 20
4.21782
 30
0.000000
  70
    32
  0
VERTEX
  8
AM_VIS
  5
59B
 10
6.98876
 20
4.21914
 30
0.000000
  70
    32
  0
VERTEX
  8
AM_VIS
  5
59C
 10
6.98944
 20
4.22047
 30
0.000000
  70
    32
  0
VERTEX
  8
AM_VIS
  5
59D
 10
6.99011
 20
4.22180
 30
0.000000
  70
    32
  0
VERTEX
  8
AM_VIS
  5
59E
 10
6.99077
 20
4.22314
 30
0.000000
  70
    32
  0
VERTEX
  8
AM_VIS
  5
59F
 10
6.99142
 20
4.22448
 30
0.000000
  70
    32
  0
VERTEX
  8
AM_VIS
  5
5A0
 10
6.99207
 20
4.22583
 30
0.000000
  70
    32
  0
VERTEX
  8
AM_VIS
  5
5A1
 10
6.99270
 20
4.22718
 30
0.000000
  70
    32
  0
VERTEX
  8
AM_VIS
  5
5A2
 10
6.99333
 20
4.22853
 30
0.000000
  70
    32
  0
VERTEX
  8
AM_VIS
  5
5A3
 10
6.99395
 20
4.22989
 30
0.000000
  70
    32
  0
VERTEX
  8
AM_VIS
  5
5A4
 10
6.99456
 20
4.23125
 30
0.000000
  70
    32
  0
VERTEX
  8
AM_VIS
  5
5A5
 10
6.99516
 20
4.23262
 30
0.000000
  70
    32
  0
VERTEX
  8
AM_VIS
  5
5A6
 10
6.99576
 20
4.23399
 30
0.000000
  70
    32
  0
VERTEX
  8
AM_VIS
  5
5A7
 10
6.99634
 20
4.23536
 30
0.000000
  70
    32
  0
VERTEX
  8
AM_VIS
  5
5A8
 10
6.99692
 20
4.23674
 30
0.000000
  70
    32
  0
VERTEX
  8
AM_VIS
  5
5A9
 10
6.99748
 20
4.23812
 30
0.000000
  70
    32
  0
VERTEX
  8
AM_VIS
  5
5AA
 10
6.99804
 20
4.23951
 30
0.000000
  70
    32
  0
VERTEX
  8
AM_VIS
  5
5AB
 10
6.99859
 20
4.24089
 30
0.000000
  70
    32
  0
VERTEX
  8
AM_VIS
  5
5AC
 10
6.99913
 20
4.24229
 30
0.000000
  70
    32
  0
VERTEX
  8
AM_VIS
  5
5AD
 10
6.99966
 20
4.24368
 30
0.000000
  70
    32
  0
VERTEX
  8
AM_VIS
  5
5AE
 10
7.00018
 20
4.24508
 30
0.000000
  70
    32
  0
VERTEX
  8
AM_VIS
  5
5AF
 10
7.00070
 20
4.24648
 30
0.000000
  70
    32
  0
VERTEX
  8
AM_VIS
  5
5B0
 10
7.00120
 20
4.24788
 30
0.000000
  70
    32
  0
VERTEX
  8
AM_VIS
  5
5B1
 10
7.00170
 20
4.24929
 30
0.000000
  70
    32
  0
VERTEX
  8
AM_VIS
  5
5B2
 10
7.00219
 20
4.25070
 30
0.000000
  70
    32
  0
VERTEX
  8
AM_VIS
  5
5B3
 10
7.00267
 20
4.25211
 30
0.000000
  70
    32
  0
VERTEX
  8
AM_VIS
  5
5B4
 10
7.00313
 20
4.25353
 30
0.000000
  70
    32
  0
VERTEX
  8
AM_VIS
  5
5B5
 10
7.00360
 20
4.25495
 30
0.000000
  70
    32
  0
VERTEX
  8
AM_VIS
  5
5B6
 10
7.00405
 20
4.25637
 30
0.000000
  70
    32
  0
VERTEX
  8
AM_VIS
  5
5B7
 10
7.00449
 20
4.25779
 30
0.000000
  70
    32
  0
VERTEX
  8
AM_VIS
  5
5B8
 10
7.00493
 20
4.25922
 30
0.000000
  70
    32
  0
VERTEX
  8
AM_VIS
  5
5B9
 10
7.00535
 20
4.26064
 30
0.000000
  70
    32
  0
VERTEX
  8
AM_VIS
  5
5BA
 10
7.00577
 20
4.26207
 30
0.000000
  70
    32
  0
VERTEX
  8
AM_VIS
  5
5BB
 10
7.00618
 20
4.26350
 30
0.000000
  70
    32
  0
VERTEX
  8
AM_VIS
  5
5BC
 10
7.00657
 20
4.26494
 30
0.000000
  70
    32
  0
VERTEX
  8
AM_VIS
  5
5BD
 10
7.00696
 20
4.26637
 30
0.000000
  70
    32
  0
VERTEX
  8
AM_VIS
  5
5BE
 10
7.00735
 20
4.26781
 30
0.000000
  70
    32
  0
VERTEX
  8
AM_VIS
  5
5BF
 10
7.00772
 20
4.26924
 30
0.000000
  70
    32
  0
VERTEX
  8
AM_VIS
  5
5C0
 10
7.00808
 20
4.27068
 30
0.000000
  70
    32
  0
VERTEX
  8
AM_VIS
  5
5C1
 10
7.00844
 20
4.27213
 30
0.000000
  70
    32
  0
VERTEX
  8
AM_VIS
  5
5C2
 10
7.00878
 20
4.27357
 30
0.000000
  70
    32
  0
VERTEX
  8
AM_VIS
  5
5C3
 10
7.00912
 20
4.27501
 30
0.000000
  70
    32
  0
VERTEX
  8
AM_VIS
  5
5C4
 10
7.00945
 20
4.27646
 30
0.000000
  70
    32
  0
VERTEX
  8
AM_VIS
  5
5C5
 10
7.00976
 20
4.27790
 30
0.000000
  70
    32
  0
VERTEX
  8
AM_VIS
  5
5C6
 10
7.01007
 20
4.27935
 30
0.000000
  70
    32
  0
VERTEX
  8
AM_VIS
  5
5C7
 10
7.01038
 20
4.28080
 30
0.000000
  70
    32
  0
VERTEX
  8
AM_VIS
  5
5C8
 10
7.01067
 20
4.28225
 30
0.000000
  70
    32
  0
VERTEX
  8
AM_VIS
  5
5C9
 10
7.01095
 20
4.28369
 30
0.000000
  70
    32
  0
VERTEX
  8
AM_VIS
  5
5CA
 10
7.01122
 20
4.28514
 30
0.000000
  70
    32
  0
VERTEX
  8
AM_VIS
  5
5CB
 10
7.01149
 20
4.28659
 30
0.000000
  70
    32
  0
VERTEX
  8
AM_VIS
  5
5CC
 10
7.01175
 20
4.28804
 30
0.000000
  70
    32
  0
VERTEX
  8
AM_VIS
  5
5CD
 10
7.01199
 20
4.28950
 30
0.000000
  70
    32
  0
VERTEX
  8
AM_VIS
  5
5CE
 10
7.01223
 20
4.29095
 30
0.000000
  70
    32
  0
VERTEX
  8
AM_VIS
  5
5CF
 10
7.01246
 20
4.29240
 30
0.000000
  70
    32
  0
VERTEX
  8
AM_VIS
  5
5D0
 10
7.01268
 20
4.29385
 30
0.000000
  70
    32
  0
VERTEX
  8
AM_VIS
  5
5D1
 10
7.01289
 20
4.29530
 30
0.000000
  70
    32
  0
VERTEX
  8
AM_VIS
  5
5D2
 10
7.01310
 20
4.29675
 30
0.000000
  70
    32
  0
VERTEX
  8
AM_VIS
  5
5D3
 10
7.01329
 20
4.29820
 30
0.000000
  70
    32
  0
VERTEX
  8
AM_VIS
  5
5D4
 10
7.01348
 20
4.29965
 30
0.000000
  70
    32
  0
VERTEX
  8
AM_VIS
  5
5D5
 10
7.01365
 20
4.30110
 30
0.000000
  70
    32
  0
VERTEX
  8
AM_VIS
  5
5D6
 10
7.01382
 20
4.30255
 30
0.000000
  70
    32
  0
VERTEX
  8
AM_VIS
  5
5D7
 10
7.01398
 20
4.30400
 30
0.000000
  70
    32
  0
VERTEX
  8
AM_VIS
  5
5D8
 10
7.01413
 20
4.30545
 30
0.000000
  70
    32
  0
VERTEX
  8
AM_VIS
  5
5D9
 10
7.01427
 20
4.30690
 30
0.000000
  70
    32
  0
VERTEX
  8
AM_VIS
  5
5DA
 10
7.01440
 20
4.30834
 30
0.000000
  70
    32
  0
VERTEX
  8
AM_VIS
  5
5DB
 10
7.01452
 20
4.30979
 30
0.000000
  70
    32
  0
VERTEX
  8
AM_VIS
  5
5DC
 10
7.01463
 20
4.31123
 30
0.000000
  70
    32
  0
VERTEX
  8
AM_VIS
  5
5DD
 10
7.01473
 20
4.31268
 30
0.000000
  70
    32
  0
VERTEX
  8
AM_VIS
  5
5DE
 10
7.01483
 20
4.31412
 30
0.000000
  70
    32
  0
VERTEX
  8
AM_VIS
  5
5DF
 10
7.01492
 20
4.31556
 30
0.000000
  70
    32
  0
VERTEX
  8
AM_VIS
  5
5E0
 10
7.01499
 20
4.31700
 30
0.000000
  70
    32
  0
VERTEX
  8
AM_VIS
  5
5E1
 10
7.01506
 20
4.31844
 30
0.000000
  70
    32
  0
VERTEX
  8
AM_VIS
  5
5E2
 10
7.01512
 20
4.31987
 30
0.000000
  70
    32
  0
VERTEX
  8
AM_VIS
  5
5E3
 10
7.01517
 20
4.32131
 30
0.000000
  70
    32
  0
VERTEX
  8
AM_VIS
  5
5E4
 10
7.01521
 20
4.32274
 30
0.000000
  70
    32
  0
VERTEX
  8
AM_VIS
  5
5E5
 10
7.01524
 20
4.32417
 30
0.000000
  70
    32
  0
VERTEX
  8
AM_VIS
  5
5E6
 10
7.01526
 20
4.32560
 30
0.000000
  70
    32
  0
VERTEX
  8
AM_VIS
  5
5E7
 10
7.01528
 20
4.32703
 30
0.000000
  70
    32
  0
VERTEX
  8
AM_VIS
  5
5E8
 10
7.01528
 20
4.32845
 30
0.000000
  70
    32
  0
SEQEND
  8
AM_VIS
  5
5E9
  0
LINE
  5
2B
  8
AM_VIS
 10
6.8706457514943908
 20
4.395270319462937
 30
0.0
 11
6.8706457514943908
 21
4.261632498199253
 31
0.0
  0
LINE
  5
2C
  8
AM_VIS
 10
6.7549120033736338
 20
4.4620892300947812
 30
0.0
 11
6.8706457514943908
 21
4.395270319462937
 31
0.0
  0
LINE
  5
2D
  8
AM_VIS
 10
6.6391782552528786
 20
4.395270319462937
 30
0.0
 11
6.7549120033736338
 21
4.4620892300947812
 31
0.0
  0
LINE
  5
2E
  8
AM_VIS
 10
6.6391782552528786
 20
4.261632498199253
 30
0.0
 11
6.6391782552528786
 21
4.395270319462937
 31
0.0
  0
LINE
  5
2F
  8
AM_VIS
 10
6.7549120033736338
 20
4.194813587567408
 30
0.0
 11
6.6391782552528786
 21
4.261632498199253
 31
0.0
  0
LINE
  5
30
  8
AM_VIS
 10
6.8706457514943908
 20
4.2616324981992522
 30
0.0
 11
6.7549120033736338
 21
4.194813587567408
 31
0.0
  0
CIRCLE
  5
31
  8
AM_VIS
 10
6.7549120033736338
 20
4.3284514088310937
 30
0.0
 40
0.225
  0
LINE
  5
32
  8
AM_VIS
 10
5.9318178410811306
 20
3.6084514088310931
 30
0.0
 11
5.9269120033736353
 21
3.6084514088310931
 31
0.0
  0
LINE
  5
33
  8
AM_VIS
 10
5.9318178410811306
 20
5.0484514088310943
 30
0.0
 11
5.9269120033736353
 21
5.0484514088310943
 31
0.0
  0
LINE
  5
34
  8
AM_VIS
 10
5.313184971357547
 20
4.9214618334153277
 30
0.0
 11
5.9269120033736362
 21
5.0484514088310943
 31
0.0
  0
ARC
  5
35
  8
AM_VIS
 10
5.2789120033736348
 20
4.3284514088310937
 30
0.0
 40
0.594
 50
86.692276736306894
 51
273.30772326369299
  0
LINE
  5
36
  8
AM_VIS
 10
5.9269120033736353
 20
3.6084514088310939
 30
0.0
 11
5.3131849713575452
 21
3.7354409842468601
 31
0.0
  0
CIRCLE
  5
37
  8
AM_VIS
 10
5.2249120033736354
 20
4.3284514088310937
 30
0.0
 40
0.135
  0
LINE
  5
38
  8
AM_VIS
 10
7.582912003373635
 20
5.0484514088310943
 30
0.0
 11
7.582912003373635
 21
3.6084514088310939
 31
0.0
  0
LINE
  5
39
  8
AM_HID
 10
7.4389120033736349
 20
5.0484514088310943
 30
0.0
 11
7.4389120033736349
 21
3.6084514088310939
 31
0.0
  0
LINE
  5
3C
  8
AM_HID
 10
6.0709120033736363
 20
5.0484514088310943
 30
0.0
 11
6.0709120033736363
 21
3.6084514088310939
 31
0.0
  0
LINE
  5
13F
  8
0
 10
7.6279120033736358
 20
5.0484514088310943
 30
0.0
 11
8.3140066126137064
 21
5.0484514088310943
 31
0.0
  0
LINE
  5
140
  8
0
 10
7.627912003373635
 20
3.6084514088310939
 30
0.0
 11
8.3140066126137047
 21
3.6084514088310939
 31
0.0
  0
LINE
  5
141
  8
0
 10
8.1844066126137047
 20
4.9584514088310936
 30
0.0
 11
8.1844066126137047
 21
4.5764656945453801
 31
0.0
  0
LINE
  5
142
  8
0
 10
8.1844066126137012
 20
3.6984514088310938
 30
0.0
 11
8.1844066126137047
 21
4.0804371231168091
 31
0.0
  0
SOLID
  5
143
  8
0
 10
8.1694066126137042
 20
4.9584514088310936
 30
0.0
 11
8.1994066126137053
 21
4.9584514088310936
 31
0.0
 12
8.1844066126137047
 22
5.0484514088310943
 32
0.0
 13
8.1844066126137047
 23
5.0484514088310943
 33
0.0
  0
SOLID
  5
144
  8
0
 10
8.1694066126137024
 20
3.6984514088310938
 30
0.0
 11
8.1994066126137035
 21
3.6984514088310938
 31
0.0
 12
8.1844066126137012
 22
3.6084514088310939
 32
0.0
 13
8.1844066126137012
 23
3.6084514088310939
 33
0.0
  0
INSERT
  5
145
  8
0
  2
*U2
 10
0.0
 20
0.0
 30
0.0
  0
ENDSEC
  0
EOF
