  0
SECTION
  2
HEADER
  9
$ACADVER
  1
AC1009
  9
$INSBASE
 10
0.0
 20
0.0
 30
0.0
  9
$EXTMIN
 10
4.5699748896447359
 20
2.8067646800030999
 30
0.0
  9
$EXTMAX
 10
7.9289812750374891
 20
5.8371107247890697
 30
0.0
  9
$LIMMIN
 10
0.0
 20
0.0
  9
$LIMMAX
 10
12.0
 20
9.0
  9
$ORTHOMODE
 70
     1
  9
$REGENMODE
 70
     0
  9
$FILLMODE
 70
     1
  9
$QTEXTMODE
 70
     0
  9
$MIRRTEXT
 70
     0
  9
$DRAGMODE
 70
     2
  9
$LTSCALE
 40
1.0
  9
$OSMODE
 70
    55
  9
$ATTMODE
 70
     1
  9
$TEXTSIZE
 40
0.2
  9
$TRACEWID
 40
0.05
  9
$TEXTSTYLE
  7
STANDARD
  9
$CLAYER
  8
0
  9
$CELTYPE
  6
BYLAYER
  9
$CECOLOR
 62
   256
  9
$DIMSCALE
 40
1.0
  9
$DIMASZ
 40
0.125
  9
$DIMEXO
 40
0.0625
  9
$DIMDLI
 40
0.38
  9
$DIMRND
 40
0.0
  9
$DIMDLE
 40
0.0
  9
$DIMEXE
 40
0.18
  9
$DIMTP
 40
0.0
  9
$DIMTM
 40
0.0
  9
$DIMTXT
 40
0.09375
  9
$DIMCEN
 40
-0.125
  9
$DIMTSZ
 40
0.0
  9
$DIMTOL
 70
     0
  9
$DIMLIM
 70
     0
  9
$DIMTIH
 70
     0
  9
$DIMTOH
 70
     0
  9
$DIMSE1
 70
     0
  9
$DIMSE2
 70
     0
  9
$DIMTAD
 70
     0
  9
$DIMZIN
 70
     3
  9
$DIMBLK
  1

  9
$DIMASO
 70
     0
  9
$DIMSHO
 70
     1
  9
$DIMPOST
  1

  9
$DIMAPOST
  1

  9
$DIMALT
 70
     0
  9
$DIMALTD
 70
     2
  9
$DIMALTF
 40
25.399999999999999
  9
$DIMLFAC
 40
1.0
  9
$DIMTOFL
 70
     1
  9
$DIMTVP
 40
0.0
  9
$DIMTIX
 70
     0
  9
$DIMSOXD
 70
     0
  9
$DIMSAH
 70
     0
  9
$DIMBLK1
  1

  9
$DIMBLK2
  1

  9
$DIMSTYLE
  2
STANDARD
  9
$DIMCLRD
 70
     0
  9
$DIMCLRE
 70
     0
  9
$DIMCLRT
 70
     0
  9
$DIMTFAC
 40
1.0
  9
$DIMGAP
 40
0.09
  9
$LUNITS
 70
     4
  9
$LUPREC
 70
     4
  9
$SKETCHINC
 40
0.1
  9
$FILLETRAD
 40
0.025
  9
$AUNITS
 70
     0
  9
$AUPREC
 70
     4
  9
$MENU
  1
.
  9
$ELEVATION
 40
0.0
  9
$PELEVATION
 40
0.0
  9
$THICKNESS
 40
0.0
  9
$LIMCHECK
 70
     0
  9
$BLIPMODE
 70
     0
  9
$CHAMFERA
 40
0.125
  9
$CHAMFERB
 40
0.5
  9
$SKPOLY
 70
     0
  9
$TDCREATE
 40
2451086.9109346061
  9
$TDUPDATE
 40
2453913.5538048502
  9
$TDINDWG
 40
0.0442173495
  9
$TDUSRTIMER
 40
0.0442173495
  9
$USRTIMER
 70
     1
  9
$ANGBASE
 50
0.0
  9
$ANGDIR
 70
     0
  9
$PDMODE
 70
    34
  9
$PDSIZE
 40
3.0
  9
$PLINEWID
 40
0.0
  9
$COORDS
 70
     1
  9
$SPLFRAME
 70
     0
  9
$SPLINETYPE
 70
     6
  9
$SPLINESEGS
 70
     8
  9
$ATTDIA
 70
     0
  9
$ATTREQ
 70
     1
  9
$HANDLING
 70
     1
  9
$HANDSEED
  5
B62
  9
$SURFTAB1
 70
     6
  9
$SURFTAB2
 70
     6
  9
$SURFTYPE
 70
     6
  9
$SURFU
 70
     6
  9
$SURFV
 70
     6
  9
$UCSNAME
  2

  9
$UCSORG
 10
0.0
 20
0.0
 30
0.0
  9
$UCSXDIR
 10
1.0
 20
0.0
 30
0.0
  9
$UCSYDIR
 10
0.0
 20
1.0
 30
0.0
  9
$PUCSNAME
  2

  9
$PUCSORG
 10
0.0
 20
0.0
 30
0.0
  9
$PUCSXDIR
 10
1.0
 20
0.0
 30
0.0
  9
$PUCSYDIR
 10
0.0
 20
1.0
 30
0.0
  9
$USERI1
 70
     0
  9
$USERI2
 70
     0
  9
$USERI3
 70
     0
  9
$USERI4
 70
     0
  9
$USERI5
 70
     0
  9
$USERR1
 40
0.0
  9
$USERR2
 40
0.0
  9
$USERR3
 40
0.0
  9
$USERR4
 40
0.0
  9
$USERR5
 40
0.0
  9
$WORLDVIEW
 70
     1
  9
$SHADEDGE
 70
     3
  9
$SHADEDIF
 70
    70
  9
$TILEMODE
 70
     1
  9
$MAXACTVP
 70
    48
  9
$PLIMCHECK
 70
     0
  9
$PEXTMIN
 10
4.063722233126108
 20
2.386084485156494
 30
0.0
  9
$PEXTMAX
 10
8.7737985332232622
 20
5.3160844851564937
 30
0.0
  9
$PLIMMIN
 10
-0.1579164520023376
 20
-0.2812499887361301
  9
$PLIMMAX
 10
10.84208330770177
 20
8.2187497709679782
  9
$UNITMODE
 70
     0
  9
$VISRETAIN
 70
     1
  9
$PLINEGEN
 70
     0
  9
$PSLTSCALE
 70
     1
  0
ENDSEC
  0
SECTION
  2
TABLES
  0
TABLE
  2
VPORT
 70
     2
  0
VPORT
  2
*ACTIVE
 70
     0
 10
0.0
 20
0.0
 11
1.0
 21
1.0
 12
1.018304758875888
 22
0.523259407722293
 13
0.0
 23
0.0
 14
0.5
 24
0.5
 15
0.5
 25
0.5
 16
0.0
 26
0.0
 36
1.0
 17
6.5012078336821073
 27
3.8510844851564938
 37
0.0
 40
3.405073783161785
 41
2.4795698924731182
 42
50.0
 43
0.0
 44
0.0
 50
0.0
 51
0.0
 71
     0
 72
   100
 73
     1
 74
     1
 75
     0
 76
     0
 77
     0
 78
     0
  0
ENDTAB
  0
TABLE
  2
LTYPE
 70
    18
  0
LTYPE
  2
CONTINUOUS
 70
     0
  3
Solid line
 72
    65
 73
     0
 40
0.0
  0
LTYPE
  2
HIDDEN
 70
     0
  3
Hidden __ __ __ __ __ __ __ __ __ __ __ __ __ _
 72
    65
 73
     2
 40
0.375
 49
0.25
 49
-0.125
  0
LTYPE
  2
PHANTOM2
 70
     0
  3
Phantom (.5x) ___ _ _ ___ _ _ ___ _ _ ___ _ _
 72
    65
 73
     6
 40
1.25
 49
0.625
 49
-0.125
 49
0.125
 49
-0.125
 49
0.125
 49
-0.125
  0
LTYPE
  2
CENTER
 70
     0
  3
Center ____ _ ____ _ ____ _ ____ _ ____ _ ____
 72
    65
 73
     4
 40
2.0
 49
1.25
 49
-0.25
 49
0.25
 49
-0.25
  0
LTYPE
  2
ASULTYPE
 70
     0
  3
Solid line
 72
    65
 73
     2
 40
3.0
 49
2.5
 49
0.5
  0
LTYPE
  2
ASVLTYPE
 70
     0
  3
__ __ __ __ __ __ __ __ __ __ __ __ __ __ __ __ __ __ __ __ __
 72
    65
 73
     2
 40
0.75
 49
0.5
 49
-0.25
  0
LTYPE
  2
AM_ISO02W050
 70
     0
  3
__ __ __ __ __ __ __ __ __ __ __ __ __ __ __
 72
    65
 73
     2
 40
7.5
 49
6.0
 49
-1.5
  0
LTYPE
  2
AM_ISO08W050
 70
     0
  3
____ . ____ . ____ . ____ . ____ . ____ . ____
 72
    65
 73
     4
 40
18.0
 49
12.0
 49
-1.5
 49
3.0
 49
-1.5
  0
LTYPE
  2
AM_ISO09W050
 70
     0
  3
_____ . . _____ . . _____ . . ____ .. ____
 72
    65
 73
     6
 40
22.5
 49
12.0
 49
-1.5
 49
3.0
 49
-1.5
 49
3.0
 49
-1.5
  0
LTYPE
  2
AMCONSTR
 70
     0
  3
_______________________
 72
    65
 73
     2
 40
9999.0
 49
9999.0
 49
0.0
  0
LTYPE
  2
AM_ISO08W050X2
 70
     0
  3
__ . __ . __ . __ . __ . __
 72
    65
 73
     4
 40
9.0
 49
6.0
 49
-0.75
 49
1.5
 49
-0.75
  0
LTYPE
  2
AM_ISO02W050X2
 70
     0
  3
 _ _ _ _ _ _ _ _ _ _ _ _
 72
    65
 73
     2
 40
3.75
 49
3.0
 49
-0.75
  0
LTYPE
  2
AMZIGZAG
 70
     0
  3
/\/-/\/-/\/-/\/-/\/-/\/
 72
    65
 73
     2
 40
11.0001
 49
0.0001
 49
-11.0
  0
LTYPE
  2
CENTER2
 70
     0
  3
Center (.5x) ___ _ ___ _ ___ _ ___ _ ___ _ ___
 72
    65
 73
     4
 40
1.125
 49
0.75
 49
-0.125
 49
0.125
 49
-0.125
  0
LTYPE
  2
HIDDEN2
 70
     0
  3
Hidden (.5x) _ _ _ _ _ _ _ _ _ _ _ _ _ _ _ _ _
 72
    65
 73
     2
 40
0.1875
 49
0.125
 49
-0.0625
  0
LTYPE
  2
AMZIGZAG2
 70
     0
  3
/\/-/\/-/\/-/\/-/\/-/\/
 72
    65
 73
     2
 40
0.4401
 49
0.0001
 49
-0.4400000000000001
  0
LTYPE
  2
ACANSTGB
 70
     0
  3
__ . . __ . .
 72
    65
 73
     6
 40
0.35433070866
 49
0.15748031496
 49
-0.03937007874
 49
0.03937007874
 49
-0.03937007874
 49
0.03937007874
 49
-0.03937007874
  0
LTYPE
  2
ACANSTGL
 70
     0
  3
_ _ _ _ _
 72
    65
 73
     2
 40
0.11811023622
 49
0.07874015748
 49
-0.03937007874
  0
ENDTAB
  0
TABLE
  2
LAYER
 70
     4
  0
LAYER
  2
0
 70
     0
 62
     7
  6
CONTINUOUS
  0
LAYER
  2
AM_VIS
 70
     0
 62
     7
  6
CONTINUOUS
  0
LAYER
  2
AM_HID
 70
     0
 62
     7
  6
HIDDEN
  0
LAYER
  2
KEE10
 70
     0
 62
     7
  6
CONTINUOUS
  0
ENDTAB
  0
TABLE
  2
STYLE
 70
     5
  0
STYLE
  2
STANDARD
 70
     0
 40
0.0
 41
1.0
 50
0.0
 71
     0
 42
0.2
  3
txt
  4

  0
STYLE
  2

 70
     1
 40
0.0
 41
1.0
 50
0.0
 71
     0
 42
0.2
  3
ltypeshp.shx
  4

  0
STYLE
  2
ACANSTS
 70
     0
 40
1.0
 41
1.0
 50
0.0
 71
     0
 42
0.2
  3
romans.shx
  4

  0
STYLE
  2
ACANSGDT
 70
     0
 40
0.0
 41
1.0
 50
0.0
 71
     0
 42
0.2
  3
amgdtans.shx
  4

  0
STYLE
  2
ACANSTSB
 70
     0
 40
1.0
 41
1.0
 50
0.0
 71
     0
 42
0.2
  3
romans.shx
  4

  0
ENDTAB
  0
TABLE
  2
VIEW
 70
     0
  0
ENDTAB
  0
TABLE
  2
UCS
 70
     0
  0
ENDTAB
  0
TABLE
  2
APPID
 70
    13
  0
APPID
  2
ACAD
 70
     0
  0
APPID
  2
GENIUS_GENDIM_13
 70
     0
  0
APPID
  2
GENIUS_GENDTOL_13
 70
     0
  0
APPID
  2
GENIUS_GE3DTOL_13
 70
     0
  0
APPID
  2
MCAD_NO_VIS
 70
     0
  0
APPID
  2
ACAD_TEMP_GRAPHIC
 70
     0
  0
APPID
  2
AD_DRAW
 70
     0
  0
APPID
  2
ACATTRIBSERVICES
 70
     0
  0
APPID
  2
ASURF_PCURVE_APPNAME
 70
     0
  0
APPID
  2
AMG_3D2D_5_0
 70
     0
  0
APPID
  2
DESIGNERASSEMBLIES
 70
     0
  0
APPID
  2
ACADM_DIM_EDIT
 70
     0
  0
APPID
  2
AMDT_DM_ADJ
 70
     0
  0
ENDTAB
  0
TABLE
  2
DIMSTYLE
 70
     7
  0
DIMSTYLE
  2
STANDARD
 70
     0
  3

  4

  5

  6

  7

 40
1.0
 41
0.18
 42
0.0625
 43
0.38
 44
0.18
 45
0.0
 46
0.0
 47
0.0
 48
0.0
140
0.18
141
0.09
142
0.0
143
25.399999999999999
144
1.0
145
0.0
146
1.0
147
0.09
 71
     0
 72
     0
 73
     1
 74
     1
 75
     0
 76
     0
 77
     0
 78
     0
170
     0
171
     2
172
     0
173
     0
174
     0
175
     0
176
     0
177
     0
178
     0
  0
DIMSTYLE
  2
AM_ANSI
 70
     0
  3

  4
mm
  5

  6

  7

 40
1.0
 41
0.1
 42
0.05
 43
0.5
 44
0.1
 45
0.0
 46
0.0
 47
0.1
 48
0.1
140
0.12
141
0.0
142
0.0
143
25.399999999999999
144
1.0
145
0.0
146
0.71
147
0.06
 71
     0
 72
     0
 73
     1
 74
     1
 75
     0
 76
     0
 77
     0
 78
     7
170
     0
171
     2
172
     0
173
     0
174
     0
175
     0
176
   256
177
   256
178
     2
  0
DIMSTYLE
  2
AM_ANSI$3
 70
     0
  3

  4
mm
  5

  6

  7

 40
1.0
 41
0.1
 42
0.05
 43
0.5
 44
0.1
 45
0.0
 46
0.0
 47
0.1
 48
0.1
140
0.12
141
0.0
142
0.0
143
25.399999999999999
144
1.0
145
0.0
146
0.71
147
0.06
 71
     0
 72
     0
 73
     1
 74
     1
 75
     0
 76
     0
 77
     0
 78
     7
170
     0
171
     2
172
     0
173
     0
174
     0
175
     0
176
   256
177
   256
178
     2
  0
DIMSTYLE
  2
AM_ANSI$4
 70
     0
  3

  4
mm
  5

  6

  7

 40
1.0
 41
0.1
 42
0.05
 43
0.5
 44
0.1
 45
0.0
 46
0.0
 47
0.1
 48
0.1
140
0.12
141
0.0
142
0.0
143
25.399999999999999
144
1.0
145
0.0
146
0.71
147
0.06
 71
     0
 72
     0
 73
     1
 74
     1
 75
     0
 76
     0
 77
     0
 78
     7
170
     0
171
     2
172
     0
173
     0
174
     0
175
     0
176
   256
177
   256
178
     2
  0
DIMSTYLE
  2
AM_ANSI$7
 70
     0
  3

  4
mm
  5

  6

  7

 40
1.0
 41
0.1
 42
0.05
 43
0.5
 44
0.1
 45
0.0
 46
0.0
 47
0.1
 48
0.1
140
0.24
141
0.0
142
0.0
143
25.399999999999999
144
1.0
145
0.0
146
0.71
147
0.06
 71
     0
 72
     0
 73
     1
 74
     1
 75
     0
 76
     0
 77
     0
 78
     7
170
     0
171
     2
172
     0
173
     0
174
     0
175
     0
176
   256
177
   256
178
     2
  0
DIMSTYLE
  2
AM_ANSI$SF
 70
     0
  3

  4
mm
  5

  6

  7

 40
1.0
 41
0.1
 42
0.05
 43
0.5
 44
0.1
 45
0.0
 46
0.0
 47
0.1
 48
0.1
140
0.12
141
0.0
142
0.0
143
25.399999999999999
144
1.0
145
0.0
146
0.71
147
0.06
 71
     0
 72
     0
 73
     1
 74
     1
 75
     1
 76
     1
 77
     0
 78
     7
170
     0
171
     2
172
     0
173
     0
174
     0
175
     0
176
   256
177
   256
178
     2
  0
DIMSTYLE
  2
AM_ANSI$SH
 70
     0
  3

  4
mm
  5

  6
GENAXEH
  7

 40
1.0
 41
0.1
 42
0.05
 43
0.5
 44
0.1
 45
0.0
 46
0.0
 47
0.1
 48
0.1
140
0.12
141
0.0
142
0.0
143
25.399999999999999
144
1.0
145
0.0
146
0.71
147
0.06
 71
     0
 72
     0
 73
     1
 74
     1
 75
     1
 76
     1
 77
     0
 78
     7
170
     0
171
     2
172
     0
173
     1
174
     0
175
     0
176
   256
177
   256
178
     2
  0
ENDTAB
  0
ENDSEC
  0
SECTION
  2
BLOCKS
  0
BLOCK
  8
0
  2
$MODEL_SPACE
 70
     0
 10
0.0
 20
0.0
 30
0.0
  3
$MODEL_SPACE
  1

  0
ENDBLK
  5
A
  8
0
  0
BLOCK
 67
     1
  8
0
  2
$PAPER_SPACE
 70
     0
 10
0.0
 20
0.0
 30
0.0
  3
$PAPER_SPACE
  1

  0
ENDBLK
  5
F
 67
     1
  8
0
  0
BLOCK
  8
0
  2
*U0
 70
     1
 10
0.0
 20
0.0
 30
0.0
  3
*U0
  1

  0
ENDBLK
  5
114
  8
0
  0
BLOCK
  8
0
  2
GENAXEH
 70
     0
 10
0.0
 20
0.0
 30
0.0
  3
GENAXEH
  1

  0
LINE
  5
152
  8
0
 10
-1.0
 20
0.0
 30
0.0
 11
1.0
 21
0.0
 31
0.0
  0
ENDBLK
  5
154
  8
0
  0
BLOCK
  8
0
  2
_DOT
 70
     0
 10
0.0
 20
0.0
 30
0.0
  3
_DOT
  1

  0
POLYLINE
  5
15B
  8
0
  6
BYBLOCK
 62
     0
 66
     1
 10
0.0
 20
0.0
 30
0.0
 70
     1
 40
0.5
 41
0.5
  0
VERTEX
  5
15C
  8
0
  6
BYBLOCK
 62
     0
 10
-0.25
 20
0.0
 30
0.0
 42
1.0
  0
VERTEX
  5
15D
  8
0
  6
BYBLOCK
 62
     0
 10
0.25
 20
0.0
 30
0.0
 42
1.0
  0
SEQEND
  5
15E
  8
0
  6
BYBLOCK
 62
     0
  0
LINE
  5
15F
  8
0
  6
BYBLOCK
 62
     0
 10
-0.5
 20
0.0
 30
0.0
 11
-1.0
 21
0.0
 31
0.0
  0
ENDBLK
  5
161
  8
0
  0
BLOCK
  8
0
  2
2D
 70
     0
 10
0.0
 20
0.0
 30
0.0
  3
2D
  1

  0
INSERT
  5
165
  8
0
  2
*U4
 10
0.0
 20
0.0
 30
0.0
  0
INSERT
  5
166
  8
0
  2
*U5
 10
0.0
 20
0.0
 30
0.0
  0
INSERT
  5
167
  8
0
  2
*U6
 10
0.0
 20
0.0
 30
0.0
  0
ENDBLK
  5
169
  8
0
  0
BLOCK
  8
0
  2
*U4
 70
     1
 10
0.0
 20
0.0
 30
0.0
  3
*U4
  1

  0
TEXT
  5
1C3
  8
KEE10
 10
-0.167740653382606
 20
0.7944046258072062
 30
0.0
 40
0.140625
  1
KEE
  0
ENDBLK
  5
1C5
  8
0
  0
BLOCK
  8
0
  2
*U5
 70
     1
 10
0.0
 20
0.0
 30
0.0
  3
*U5
  1

  0
TEXT
  5
1C7
  8
KEE10
 10
-0.308365653382606
 20
0.4858688129746218
 30
0.0
 40
0.140625
  1
KLAMP
  0
ENDBLK
  5
1C9
  8
0
  0
BLOCK
  8
0
  2
*U6
 70
     1
 10
0.0
 20
0.0
 30
0.0
  3
*U6
  1

  0
TEXT
  5
1CB
  8
KEE10
 10
-0.202896903382606
 20
0.2018753139112972
 30
0.0
 40
0.140625
  1
10-8
  0
ENDBLK
  5
1CD
  8
0
  0
BLOCK
  8
0
  2
*U7
 70
     1
 10
0.0
 20
0.0
 30
0.0
  3
*U7
  1

  0
TEXT
  5
1CF
  8
KEE10
 10
6.5050400944354854
 20
3.9585906941579352
 30
0.0
 40
0.1265625
  1
KEE
  0
ENDBLK
  5
1D1
  8
0
  0
BLOCK
  8
0
  2
*U8
 70
     1
 10
0.0
 20
0.0
 30
0.0
  3
*U8
  1

  0
TEXT
  5
1D3
  8
KEE10
 10
6.378477594435485
 20
3.6809084626086088
 30
0.0
 40
0.1265625
  1
KLAMP
  0
ENDBLK
  5
1D5
  8
0
  0
BLOCK
  8
0
  2
*U9
 70
     1
 10
0.0
 20
0.0
 30
0.0
  3
*U9
  1

  0
TEXT
  5
1D7
  8
0
 10
6.539648131052763
 20
5.6329232247890699
 30
0.0
 40
0.084375
  1
2-3/8"
  0
ENDBLK
  5
1D9
  8
0
  0
ENDSEC
  0
SECTION
  2
ENTITIES
  0
LINE
  5
25
  8
AM_HID
 10
5.984527764142249
 20
4.2259774570773088
 30
0.0
 11
5.8085085744301486
 21
4.0499582673652093
 31
0.0
  0
LINE
  5
28
  8
AM_VIS
 10
5.8085085744301477
 20
4.0499582673652101
 30
0.0
 11
5.609634792221434
 21
3.8510844851564952
 31
0.0
  0
LINE
  5
2A
  8
AM_HID
 10
5.984527764142249
 20
3.4761915132356802
 30
0.0
 11
5.8085085744301521
 21
3.6522107029477771
 31
0.0
  0
LINE
  5
2B
  8
AM_VIS
 10
5.8085085744301521
 20
3.6522107029477771
 30
0.0
 11
5.609634792221434
 21
3.8510844851564952
 31
0.0
  0
LINE
  5
2C
  8
AM_VIS
 10
6.6221347922214342
 20
2.838584485156495
 30
0.0
 11
6.6446347922214333
 21
2.816084485156495
 31
0.0
  0
LINE
  5
2D
  8
AM_VIS
 10
7.919661469884093
 20
3.8510844852462611
 30
0.0
 11
7.919661469884093
 21
3.486880392154621
 31
0.0
  0
ARC
  5
2E
  8
AM_VIS
 10
7.5151392524848761
 20
3.8602422386089281
 30
0.0
 40
0.3664645975648464
 50
319.17511856382902
 51
358.56772828478501
  0
ARC
  5
2F
  8
AM_VIS
 10
7.504846194403501
 20
3.8615728757016852
 30
0.0
 40
0.3692967596140897
 50
181.62821010577991
 51
220.7056843904823
  0
POLYLINE
  8
AM_VIS
  5
1DA
  66
     1
 10
0.000000
 20
0.000000
 30
0.000000
  70
     8
  0
VERTEX
  8
AM_VIS
  5
1DB
 10
5.84009
 20
3.56723
 30
0.000000
  70
    32
  0
VERTEX
  8
AM_VIS
  5
1DC
 10
5.83910
 20
3.56643
 30
0.000000
  70
    32
  0
VERTEX
  8
AM_VIS
  5
1DD
 10
5.83811
 20
3.56563
 30
0.000000
  70
    32
  0
VERTEX
  8
AM_VIS
  5
1DE
 10
5.83712
 20
3.56484
 30
0.000000
  70
    32
  0
VERTEX
  8
AM_VIS
  5
1DF
 10
5.83612
 20
3.56405
 30
0.000000
  70
    32
  0
VERTEX
  8
AM_VIS
  5
1E0
 10
5.83512
 20
3.56326
 30
0.000000
  70
    32
  0
VERTEX
  8
AM_VIS
  5
1E1
 10
5.83412
 20
3.56247
 30
0.000000
  70
    32
  0
VERTEX
  8
AM_VIS
  5
1E2
 10
5.83312
 20
3.56169
 30
0.000000
  70
    32
  0
VERTEX
  8
AM_VIS
  5
1E3
 10
5.83212
 20
3.56090
 30
0.000000
  70
    32
  0
VERTEX
  8
AM_VIS
  5
1E4
 10
5.83112
 20
3.56013
 30
0.000000
  70
    32
  0
VERTEX
  8
AM_VIS
  5
1E5
 10
5.83011
 20
3.55935
 30
0.000000
  70
    32
  0
VERTEX
  8
AM_VIS
  5
1E6
 10
5.82910
 20
3.55858
 30
0.000000
  70
    32
  0
VERTEX
  8
AM_VIS
  5
1E7
 10
5.82809
 20
3.55781
 30
0.000000
  70
    32
  0
VERTEX
  8
AM_VIS
  5
1E8
 10
5.82708
 20
3.55704
 30
0.000000
  70
    32
  0
VERTEX
  8
AM_VIS
  5
1E9
 10
5.82606
 20
3.55628
 30
0.000000
  70
    32
  0
VERTEX
  8
AM_VIS
  5
1EA
 10
5.82505
 20
3.55552
 30
0.000000
  70
    32
  0
VERTEX
  8
AM_VIS
  5
1EB
 10
5.82403
 20
3.55476
 30
0.000000
  70
    32
  0
VERTEX
  8
AM_VIS
  5
1EC
 10
5.82301
 20
3.55401
 30
0.000000
  70
    32
  0
VERTEX
  8
AM_VIS
  5
1ED
 10
5.82199
 20
3.55326
 30
0.000000
  70
    32
  0
VERTEX
  8
AM_VIS
  5
1EE
 10
5.82096
 20
3.55251
 30
0.000000
  70
    32
  0
VERTEX
  8
AM_VIS
  5
1EF
 10
5.81994
 20
3.55176
 30
0.000000
  70
    32
  0
VERTEX
  8
AM_VIS
  5
1F0
 10
5.81891
 20
3.55102
 30
0.000000
  70
    32
  0
VERTEX
  8
AM_VIS
  5
1F1
 10
5.81788
 20
3.55028
 30
0.000000
  70
    32
  0
VERTEX
  8
AM_VIS
  5
1F2
 10
5.81685
 20
3.54955
 30
0.000000
  70
    32
  0
VERTEX
  8
AM_VIS
  5
1F3
 10
5.81582
 20
3.54881
 30
0.000000
  70
    32
  0
VERTEX
  8
AM_VIS
  5
1F4
 10
5.81478
 20
3.54808
 30
0.000000
  70
    32
  0
VERTEX
  8
AM_VIS
  5
1F5
 10
5.81375
 20
3.54736
 30
0.000000
  70
    32
  0
VERTEX
  8
AM_VIS
  5
1F6
 10
5.81271
 20
3.54663
 30
0.000000
  70
    32
  0
VERTEX
  8
AM_VIS
  5
1F7
 10
5.81167
 20
3.54591
 30
0.000000
  70
    32
  0
VERTEX
  8
AM_VIS
  5
1F8
 10
5.81063
 20
3.54519
 30
0.000000
  70
    32
  0
VERTEX
  8
AM_VIS
  5
1F9
 10
5.80959
 20
3.54448
 30
0.000000
  70
    32
  0
VERTEX
  8
AM_VIS
  5
1FA
 10
5.80854
 20
3.54377
 30
0.000000
  70
    32
  0
VERTEX
  8
AM_VIS
  5
1FB
 10
5.80749
 20
3.54306
 30
0.000000
  70
    32
  0
VERTEX
  8
AM_VIS
  5
1FC
 10
5.80644
 20
3.54235
 30
0.000000
  70
    32
  0
VERTEX
  8
AM_VIS
  5
1FD
 10
5.80539
 20
3.54165
 30
0.000000
  70
    32
  0
VERTEX
  8
AM_VIS
  5
1FE
 10
5.80433
 20
3.54095
 30
0.000000
  70
    32
  0
VERTEX
  8
AM_VIS
  5
1FF
 10
5.80327
 20
3.54025
 30
0.000000
  70
    32
  0
VERTEX
  8
AM_VIS
  5
200
 10
5.80221
 20
3.53955
 30
0.000000
  70
    32
  0
VERTEX
  8
AM_VIS
  5
201
 10
5.80115
 20
3.53886
 30
0.000000
  70
    32
  0
VERTEX
  8
AM_VIS
  5
202
 10
5.80009
 20
3.53817
 30
0.000000
  70
    32
  0
VERTEX
  8
AM_VIS
  5
203
 10
5.79902
 20
3.53748
 30
0.000000
  70
    32
  0
VERTEX
  8
AM_VIS
  5
204
 10
5.79795
 20
3.53680
 30
0.000000
  70
    32
  0
VERTEX
  8
AM_VIS
  5
205
 10
5.79688
 20
3.53612
 30
0.000000
  70
    32
  0
VERTEX
  8
AM_VIS
  5
206
 10
5.79580
 20
3.53544
 30
0.000000
  70
    32
  0
VERTEX
  8
AM_VIS
  5
207
 10
5.79473
 20
3.53476
 30
0.000000
  70
    32
  0
VERTEX
  8
AM_VIS
  5
208
 10
5.79365
 20
3.53409
 30
0.000000
  70
    32
  0
VERTEX
  8
AM_VIS
  5
209
 10
5.79257
 20
3.53342
 30
0.000000
  70
    32
  0
VERTEX
  8
AM_VIS
  5
20A
 10
5.79149
 20
3.53276
 30
0.000000
  70
    32
  0
VERTEX
  8
AM_VIS
  5
20B
 10
5.79040
 20
3.53209
 30
0.000000
  70
    32
  0
VERTEX
  8
AM_VIS
  5
20C
 10
5.78931
 20
3.53143
 30
0.000000
  70
    32
  0
VERTEX
  8
AM_VIS
  5
20D
 10
5.78822
 20
3.53078
 30
0.000000
  70
    32
  0
VERTEX
  8
AM_VIS
  5
20E
 10
5.78713
 20
3.53012
 30
0.000000
  70
    32
  0
VERTEX
  8
AM_VIS
  5
20F
 10
5.78604
 20
3.52947
 30
0.000000
  70
    32
  0
VERTEX
  8
AM_VIS
  5
210
 10
5.78494
 20
3.52883
 30
0.000000
  70
    32
  0
VERTEX
  8
AM_VIS
  5
211
 10
5.78384
 20
3.52818
 30
0.000000
  70
    32
  0
VERTEX
  8
AM_VIS
  5
212
 10
5.78274
 20
3.52754
 30
0.000000
  70
    32
  0
VERTEX
  8
AM_VIS
  5
213
 10
5.78164
 20
3.52690
 30
0.000000
  70
    32
  0
VERTEX
  8
AM_VIS
  5
214
 10
5.78053
 20
3.52627
 30
0.000000
  70
    32
  0
VERTEX
  8
AM_VIS
  5
215
 10
5.77942
 20
3.52564
 30
0.000000
  70
    32
  0
VERTEX
  8
AM_VIS
  5
216
 10
5.77832
 20
3.52501
 30
0.000000
  70
    32
  0
VERTEX
  8
AM_VIS
  5
217
 10
5.77720
 20
3.52438
 30
0.000000
  70
    32
  0
VERTEX
  8
AM_VIS
  5
218
 10
5.77609
 20
3.52376
 30
0.000000
  70
    32
  0
VERTEX
  8
AM_VIS
  5
219
 10
5.77497
 20
3.52314
 30
0.000000
  70
    32
  0
VERTEX
  8
AM_VIS
  5
21A
 10
5.77386
 20
3.52253
 30
0.000000
  70
    32
  0
VERTEX
  8
AM_VIS
  5
21B
 10
5.77273
 20
3.52192
 30
0.000000
  70
    32
  0
VERTEX
  8
AM_VIS
  5
21C
 10
5.77161
 20
3.52131
 30
0.000000
  70
    32
  0
VERTEX
  8
AM_VIS
  5
21D
 10
5.77049
 20
3.52070
 30
0.000000
  70
    32
  0
VERTEX
  8
AM_VIS
  5
21E
 10
5.76936
 20
3.52010
 30
0.000000
  70
    32
  0
VERTEX
  8
AM_VIS
  5
21F
 10
5.76823
 20
3.51951
 30
0.000000
  70
    32
  0
VERTEX
  8
AM_VIS
  5
220
 10
5.76710
 20
3.51891
 30
0.000000
  70
    32
  0
VERTEX
  8
AM_VIS
  5
221
 10
5.76597
 20
3.51832
 30
0.000000
  70
    32
  0
VERTEX
  8
AM_VIS
  5
222
 10
5.76483
 20
3.51773
 30
0.000000
  70
    32
  0
VERTEX
  8
AM_VIS
  5
223
 10
5.76370
 20
3.51715
 30
0.000000
  70
    32
  0
VERTEX
  8
AM_VIS
  5
224
 10
5.76256
 20
3.51657
 30
0.000000
  70
    32
  0
VERTEX
  8
AM_VIS
  5
225
 10
5.76141
 20
3.51599
 30
0.000000
  70
    32
  0
VERTEX
  8
AM_VIS
  5
226
 10
5.76027
 20
3.51542
 30
0.000000
  70
    32
  0
VERTEX
  8
AM_VIS
  5
227
 10
5.75913
 20
3.51485
 30
0.000000
  70
    32
  0
VERTEX
  8
AM_VIS
  5
228
 10
5.75798
 20
3.51428
 30
0.000000
  70
    32
  0
VERTEX
  8
AM_VIS
  5
229
 10
5.75683
 20
3.51372
 30
0.000000
  70
    32
  0
VERTEX
  8
AM_VIS
  5
22A
 10
5.75568
 20
3.51316
 30
0.000000
  70
    32
  0
VERTEX
  8
AM_VIS
  5
22B
 10
5.75452
 20
3.51261
 30
0.000000
  70
    32
  0
VERTEX
  8
AM_VIS
  5
22C
 10
5.75337
 20
3.51205
 30
0.000000
  70
    32
  0
VERTEX
  8
AM_VIS
  5
22D
 10
5.75221
 20
3.51151
 30
0.000000
  70
    32
  0
VERTEX
  8
AM_VIS
  5
22E
 10
5.75105
 20
3.51096
 30
0.000000
  70
    32
  0
VERTEX
  8
AM_VIS
  5
22F
 10
5.74989
 20
3.51042
 30
0.000000
  70
    32
  0
VERTEX
  8
AM_VIS
  5
230
 10
5.74872
 20
3.50989
 30
0.000000
  70
    32
  0
VERTEX
  8
AM_VIS
  5
231
 10
5.74756
 20
3.50935
 30
0.000000
  70
    32
  0
VERTEX
  8
AM_VIS
  5
232
 10
5.74639
 20
3.50883
 30
0.000000
  70
    32
  0
VERTEX
  8
AM_VIS
  5
233
 10
5.74522
 20
3.50830
 30
0.000000
  70
    32
  0
VERTEX
  8
AM_VIS
  5
234
 10
5.74405
 20
3.50778
 30
0.000000
  70
    32
  0
VERTEX
  8
AM_VIS
  5
235
 10
5.74287
 20
3.50726
 30
0.000000
  70
    32
  0
VERTEX
  8
AM_VIS
  5
236
 10
5.74170
 20
3.50675
 30
0.000000
  70
    32
  0
VERTEX
  8
AM_VIS
  5
237
 10
5.74052
 20
3.50624
 30
0.000000
  70
    32
  0
VERTEX
  8
AM_VIS
  5
238
 10
5.73934
 20
3.50573
 30
0.000000
  70
    32
  0
VERTEX
  8
AM_VIS
  5
239
 10
5.73816
 20
3.50523
 30
0.000000
  70
    32
  0
VERTEX
  8
AM_VIS
  5
23A
 10
5.73697
 20
3.50473
 30
0.000000
  70
    32
  0
VERTEX
  8
AM_VIS
  5
23B
 10
5.73579
 20
3.50424
 30
0.000000
  70
    32
  0
VERTEX
  8
AM_VIS
  5
23C
 10
5.73460
 20
3.50375
 30
0.000000
  70
    32
  0
VERTEX
  8
AM_VIS
  5
23D
 10
5.73341
 20
3.50326
 30
0.000000
  70
    32
  0
VERTEX
  8
AM_VIS
  5
23E
 10
5.73222
 20
3.50278
 30
0.000000
  70
    32
  0
VERTEX
  8
AM_VIS
  5
23F
 10
5.73103
 20
3.50231
 30
0.000000
  70
    32
  0
VERTEX
  8
AM_VIS
  5
240
 10
5.72983
 20
3.50183
 30
0.000000
  70
    32
  0
VERTEX
  8
AM_VIS
  5
241
 10
5.72863
 20
3.50136
 30
0.000000
  70
    32
  0
VERTEX
  8
AM_VIS
  5
242
 10
5.72743
 20
3.50090
 30
0.000000
  70
    32
  0
VERTEX
  8
AM_VIS
  5
243
 10
5.72623
 20
3.50044
 30
0.000000
  70
    32
  0
VERTEX
  8
AM_VIS
  5
244
 10
5.72503
 20
3.49998
 30
0.000000
  70
    32
  0
VERTEX
  8
AM_VIS
  5
245
 10
5.72383
 20
3.49953
 30
0.000000
  70
    32
  0
VERTEX
  8
AM_VIS
  5
246
 10
5.72262
 20
3.49908
 30
0.000000
  70
    32
  0
VERTEX
  8
AM_VIS
  5
247
 10
5.72141
 20
3.49863
 30
0.000000
  70
    32
  0
VERTEX
  8
AM_VIS
  5
248
 10
5.72020
 20
3.49819
 30
0.000000
  70
    32
  0
VERTEX
  8
AM_VIS
  5
249
 10
5.71899
 20
3.49776
 30
0.000000
  70
    32
  0
VERTEX
  8
AM_VIS
  5
24A
 10
5.71777
 20
3.49733
 30
0.000000
  70
    32
  0
VERTEX
  8
AM_VIS
  5
24B
 10
5.71656
 20
3.49690
 30
0.000000
  70
    32
  0
VERTEX
  8
AM_VIS
  5
24C
 10
5.71534
 20
3.49648
 30
0.000000
  70
    32
  0
VERTEX
  8
AM_VIS
  5
24D
 10
5.71412
 20
3.49606
 30
0.000000
  70
    32
  0
VERTEX
  8
AM_VIS
  5
24E
 10
5.71290
 20
3.49564
 30
0.000000
  70
    32
  0
VERTEX
  8
AM_VIS
  5
24F
 10
5.71168
 20
3.49523
 30
0.000000
  70
    32
  0
VERTEX
  8
AM_VIS
  5
250
 10
5.71045
 20
3.49483
 30
0.000000
  70
    32
  0
VERTEX
  8
AM_VIS
  5
251
 10
5.70923
 20
3.49443
 30
0.000000
  70
    32
  0
VERTEX
  8
AM_VIS
  5
252
 10
5.70800
 20
3.49403
 30
0.000000
  70
    32
  0
VERTEX
  8
AM_VIS
  5
253
 10
5.70677
 20
3.49364
 30
0.000000
  70
    32
  0
VERTEX
  8
AM_VIS
  5
254
 10
5.70553
 20
3.49325
 30
0.000000
  70
    32
  0
VERTEX
  8
AM_VIS
  5
255
 10
5.70430
 20
3.49287
 30
0.000000
  70
    32
  0
VERTEX
  8
AM_VIS
  5
256
 10
5.70306
 20
3.49249
 30
0.000000
  70
    32
  0
VERTEX
  8
AM_VIS
  5
257
 10
5.70183
 20
3.49211
 30
0.000000
  70
    32
  0
VERTEX
  8
AM_VIS
  5
258
 10
5.70059
 20
3.49174
 30
0.000000
  70
    32
  0
VERTEX
  8
AM_VIS
  5
259
 10
5.69935
 20
3.49138
 30
0.000000
  70
    32
  0
VERTEX
  8
AM_VIS
  5
25A
 10
5.69810
 20
3.49102
 30
0.000000
  70
    32
  0
VERTEX
  8
AM_VIS
  5
25B
 10
5.69686
 20
3.49066
 30
0.000000
  70
    32
  0
VERTEX
  8
AM_VIS
  5
25C
 10
5.69561
 20
3.49031
 30
0.000000
  70
    32
  0
VERTEX
  8
AM_VIS
  5
25D
 10
5.69437
 20
3.48996
 30
0.000000
  70
    32
  0
VERTEX
  8
AM_VIS
  5
25E
 10
5.69312
 20
3.48962
 30
0.000000
  70
    32
  0
VERTEX
  8
AM_VIS
  5
25F
 10
5.69187
 20
3.48928
 30
0.000000
  70
    32
  0
VERTEX
  8
AM_VIS
  5
260
 10
5.69061
 20
3.48895
 30
0.000000
  70
    32
  0
VERTEX
  8
AM_VIS
  5
261
 10
5.68936
 20
3.48862
 30
0.000000
  70
    32
  0
VERTEX
  8
AM_VIS
  5
262
 10
5.68810
 20
3.48830
 30
0.000000
  70
    32
  0
VERTEX
  8
AM_VIS
  5
263
 10
5.68684
 20
3.48798
 30
0.000000
  70
    32
  0
VERTEX
  8
AM_VIS
  5
264
 10
5.68558
 20
3.48767
 30
0.000000
  70
    32
  0
VERTEX
  8
AM_VIS
  5
265
 10
5.68432
 20
3.48736
 30
0.000000
  70
    32
  0
VERTEX
  8
AM_VIS
  5
266
 10
5.68306
 20
3.48706
 30
0.000000
  70
    32
  0
VERTEX
  8
AM_VIS
  5
267
 10
5.68179
 20
3.48676
 30
0.000000
  70
    32
  0
VERTEX
  8
AM_VIS
  5
268
 10
5.68053
 20
3.48646
 30
0.000000
  70
    32
  0
VERTEX
  8
AM_VIS
  5
269
 10
5.67926
 20
3.48617
 30
0.000000
  70
    32
  0
VERTEX
  8
AM_VIS
  5
26A
 10
5.67799
 20
3.48589
 30
0.000000
  70
    32
  0
VERTEX
  8
AM_VIS
  5
26B
 10
5.67672
 20
3.48561
 30
0.000000
  70
    32
  0
VERTEX
  8
AM_VIS
  5
26C
 10
5.67545
 20
3.48533
 30
0.000000
  70
    32
  0
VERTEX
  8
AM_VIS
  5
26D
 10
5.67417
 20
3.48506
 30
0.000000
  70
    32
  0
VERTEX
  8
AM_VIS
  5
26E
 10
5.67290
 20
3.48480
 30
0.000000
  70
    32
  0
VERTEX
  8
AM_VIS
  5
26F
 10
5.67162
 20
3.48454
 30
0.000000
  70
    32
  0
VERTEX
  8
AM_VIS
  5
270
 10
5.67034
 20
3.48429
 30
0.000000
  70
    32
  0
VERTEX
  8
AM_VIS
  5
271
 10
5.66906
 20
3.48404
 30
0.000000
  70
    32
  0
VERTEX
  8
AM_VIS
  5
272
 10
5.66779
 20
3.48379
 30
0.000000
  70
    32
  0
VERTEX
  8
AM_VIS
  5
273
 10
5.66651
 20
3.48355
 30
0.000000
  70
    32
  0
VERTEX
  8
AM_VIS
  5
274
 10
5.66523
 20
3.48332
 30
0.000000
  70
    32
  0
VERTEX
  8
AM_VIS
  5
275
 10
5.66395
 20
3.48309
 30
0.000000
  70
    32
  0
VERTEX
  8
AM_VIS
  5
276
 10
5.66267
 20
3.48287
 30
0.000000
  70
    32
  0
VERTEX
  8
AM_VIS
  5
277
 10
5.66139
 20
3.48265
 30
0.000000
  70
    32
  0
VERTEX
  8
AM_VIS
  5
278
 10
5.66011
 20
3.48244
 30
0.000000
  70
    32
  0
VERTEX
  8
AM_VIS
  5
279
 10
5.65883
 20
3.48223
 30
0.000000
  70
    32
  0
VERTEX
  8
AM_VIS
  5
27A
 10
5.65754
 20
3.48203
 30
0.000000
  70
    32
  0
VERTEX
  8
AM_VIS
  5
27B
 10
5.65626
 20
3.48184
 30
0.000000
  70
    32
  0
VERTEX
  8
AM_VIS
  5
27C
 10
5.65498
 20
3.48164
 30
0.000000
  70
    32
  0
VERTEX
  8
AM_VIS
  5
27D
 10
5.65370
 20
3.48146
 30
0.000000
  70
    32
  0
VERTEX
  8
AM_VIS
  5
27E
 10
5.65241
 20
3.48128
 30
0.000000
  70
    32
  0
VERTEX
  8
AM_VIS
  5
27F
 10
5.65113
 20
3.48110
 30
0.000000
  70
    32
  0
VERTEX
  8
AM_VIS
  5
280
 10
5.64984
 20
3.48093
 30
0.000000
  70
    32
  0
VERTEX
  8
AM_VIS
  5
281
 10
5.64856
 20
3.48077
 30
0.000000
  70
    32
  0
VERTEX
  8
AM_VIS
  5
282
 10
5.64727
 20
3.48061
 30
0.000000
  70
    32
  0
VERTEX
  8
AM_VIS
  5
283
 10
5.64599
 20
3.48045
 30
0.000000
  70
    32
  0
VERTEX
  8
AM_VIS
  5
284
 10
5.64470
 20
3.48030
 30
0.000000
  70
    32
  0
VERTEX
  8
AM_VIS
  5
285
 10
5.64341
 20
3.48016
 30
0.000000
  70
    32
  0
VERTEX
  8
AM_VIS
  5
286
 10
5.64212
 20
3.48002
 30
0.000000
  70
    32
  0
VERTEX
  8
AM_VIS
  5
287
 10
5.64084
 20
3.47989
 30
0.000000
  70
    32
  0
VERTEX
  8
AM_VIS
  5
288
 10
5.63955
 20
3.47976
 30
0.000000
  70
    32
  0
VERTEX
  8
AM_VIS
  5
289
 10
5.63826
 20
3.47964
 30
0.000000
  70
    32
  0
VERTEX
  8
AM_VIS
  5
28A
 10
5.63697
 20
3.47952
 30
0.000000
  70
    32
  0
VERTEX
  8
AM_VIS
  5
28B
 10
5.63568
 20
3.47941
 30
0.000000
  70
    32
  0
VERTEX
  8
AM_VIS
  5
28C
 10
5.63439
 20
3.47931
 30
0.000000
  70
    32
  0
VERTEX
  8
AM_VIS
  5
28D
 10
5.63310
 20
3.47921
 30
0.000000
  70
    32
  0
VERTEX
  8
AM_VIS
  5
28E
 10
5.63181
 20
3.47911
 30
0.000000
  70
    32
  0
VERTEX
  8
AM_VIS
  5
28F
 10
5.63052
 20
3.47902
 30
0.000000
  70
    32
  0
VERTEX
  8
AM_VIS
  5
290
 10
5.62922
 20
3.47894
 30
0.000000
  70
    32
  0
VERTEX
  8
AM_VIS
  5
291
 10
5.62793
 20
3.47886
 30
0.000000
  70
    32
  0
VERTEX
  8
AM_VIS
  5
292
 10
5.62664
 20
3.47878
 30
0.000000
  70
    32
  0
VERTEX
  8
AM_VIS
  5
293
 10
5.62535
 20
3.47871
 30
0.000000
  70
    32
  0
VERTEX
  8
AM_VIS
  5
294
 10
5.62405
 20
3.47865
 30
0.000000
  70
    32
  0
VERTEX
  8
AM_VIS
  5
295
 10
5.62276
 20
3.47859
 30
0.000000
  70
    32
  0
VERTEX
  8
AM_VIS
  5
296
 10
5.62146
 20
3.47854
 30
0.000000
  70
    32
  0
VERTEX
  8
AM_VIS
  5
297
 10
5.62017
 20
3.47849
 30
0.000000
  70
    32
  0
VERTEX
  8
AM_VIS
  5
298
 10
5.61887
 20
3.47845
 30
0.000000
  70
    32
  0
VERTEX
  8
AM_VIS
  5
299
 10
5.61758
 20
3.47842
 30
0.000000
  70
    32
  0
VERTEX
  8
AM_VIS
  5
29A
 10
5.61628
 20
3.47839
 30
0.000000
  70
    32
  0
VERTEX
  8
AM_VIS
  5
29B
 10
5.61499
 20
3.47836
 30
0.000000
  70
    32
  0
VERTEX
  8
AM_VIS
  5
29C
 10
5.61369
 20
3.47834
 30
0.000000
  70
    32
  0
VERTEX
  8
AM_VIS
  5
29D
 10
5.61239
 20
3.47833
 30
0.000000
  70
    32
  0
VERTEX
  8
AM_VIS
  5
29E
 10
5.61110
 20
3.47832
 30
0.000000
  70
    32
  0
VERTEX
  8
AM_VIS
  5
29F
 10
5.60980
 20
3.47831
 30
0.000000
  70
    32
  0
VERTEX
  8
AM_VIS
  5
2A0
 10
5.60850
 20
3.47832
 30
0.000000
  70
    32
  0
VERTEX
  8
AM_VIS
  5
2A1
 10
5.60720
 20
3.47832
 30
0.000000
  70
    32
  0
VERTEX
  8
AM_VIS
  5
2A2
 10
5.60590
 20
3.47834
 30
0.000000
  70
    32
  0
VERTEX
  8
AM_VIS
  5
2A3
 10
5.60460
 20
3.47836
 30
0.000000
  70
    32
  0
VERTEX
  8
AM_VIS
  5
2A4
 10
5.60330
 20
3.47838
 30
0.000000
  70
    32
  0
VERTEX
  8
AM_VIS
  5
2A5
 10
5.60200
 20
3.47841
 30
0.000000
  70
    32
  0
VERTEX
  8
AM_VIS
  5
2A6
 10
5.60070
 20
3.47844
 30
0.000000
  70
    32
  0
VERTEX
  8
AM_VIS
  5
2A7
 10
5.59940
 20
3.47848
 30
0.000000
  70
    32
  0
VERTEX
  8
AM_VIS
  5
2A8
 10
5.59810
 20
3.47853
 30
0.000000
  70
    32
  0
VERTEX
  8
AM_VIS
  5
2A9
 10
5.59680
 20
3.47858
 30
0.000000
  70
    32
  0
VERTEX
  8
AM_VIS
  5
2AA
 10
5.59549
 20
3.47864
 30
0.000000
  70
    32
  0
VERTEX
  8
AM_VIS
  5
2AB
 10
5.59419
 20
3.47870
 30
0.000000
  70
    32
  0
VERTEX
  8
AM_VIS
  5
2AC
 10
5.59289
 20
3.47877
 30
0.000000
  70
    32
  0
VERTEX
  8
AM_VIS
  5
2AD
 10
5.59159
 20
3.47884
 30
0.000000
  70
    32
  0
VERTEX
  8
AM_VIS
  5
2AE
 10
5.59028
 20
3.47892
 30
0.000000
  70
    32
  0
VERTEX
  8
AM_VIS
  5
2AF
 10
5.58898
 20
3.47900
 30
0.000000
  70
    32
  0
VERTEX
  8
AM_VIS
  5
2B0
 10
5.58768
 20
3.47909
 30
0.000000
  70
    32
  0
VERTEX
  8
AM_VIS
  5
2B1
 10
5.58637
 20
3.47919
 30
0.000000
  70
    32
  0
VERTEX
  8
AM_VIS
  5
2B2
 10
5.58507
 20
3.47929
 30
0.000000
  70
    32
  0
VERTEX
  8
AM_VIS
  5
2B3
 10
5.58376
 20
3.47940
 30
0.000000
  70
    32
  0
VERTEX
  8
AM_VIS
  5
2B4
 10
5.58246
 20
3.47951
 30
0.000000
  70
    32
  0
VERTEX
  8
AM_VIS
  5
2B5
 10
5.58115
 20
3.47963
 30
0.000000
  70
    32
  0
VERTEX
  8
AM_VIS
  5
2B6
 10
5.57984
 20
3.47975
 30
0.000000
  70
    32
  0
VERTEX
  8
AM_VIS
  5
2B7
 10
5.57854
 20
3.47988
 30
0.000000
  70
    32
  0
VERTEX
  8
AM_VIS
  5
2B8
 10
5.57723
 20
3.48001
 30
0.000000
  70
    32
  0
VERTEX
  8
AM_VIS
  5
2B9
 10
5.57592
 20
3.48015
 30
0.000000
  70
    32
  0
VERTEX
  8
AM_VIS
  5
2BA
 10
5.57462
 20
3.48030
 30
0.000000
  70
    32
  0
VERTEX
  8
AM_VIS
  5
2BB
 10
5.57331
 20
3.48045
 30
0.000000
  70
    32
  0
VERTEX
  8
AM_VIS
  5
2BC
 10
5.57200
 20
3.48061
 30
0.000000
  70
    32
  0
VERTEX
  8
AM_VIS
  5
2BD
 10
5.57069
 20
3.48077
 30
0.000000
  70
    32
  0
VERTEX
  8
AM_VIS
  5
2BE
 10
5.56938
 20
3.48094
 30
0.000000
  70
    32
  0
VERTEX
  8
AM_VIS
  5
2BF
 10
5.56807
 20
3.48111
 30
0.000000
  70
    32
  0
VERTEX
  8
AM_VIS
  5
2C0
 10
5.56676
 20
3.48129
 30
0.000000
  70
    32
  0
VERTEX
  8
AM_VIS
  5
2C1
 10
5.56545
 20
3.48148
 30
0.000000
  70
    32
  0
VERTEX
  8
AM_VIS
  5
2C2
 10
5.56414
 20
3.48167
 30
0.000000
  70
    32
  0
VERTEX
  8
AM_VIS
  5
2C3
 10
5.56283
 20
3.48186
 30
0.000000
  70
    32
  0
VERTEX
  8
AM_VIS
  5
2C4
 10
5.56152
 20
3.48206
 30
0.000000
  70
    32
  0
VERTEX
  8
AM_VIS
  5
2C5
 10
5.56021
 20
3.48227
 30
0.000000
  70
    32
  0
VERTEX
  8
AM_VIS
  5
2C6
 10
5.55890
 20
3.48248
 30
0.000000
  70
    32
  0
VERTEX
  8
AM_VIS
  5
2C7
 10
5.55759
 20
3.48270
 30
0.000000
  70
    32
  0
VERTEX
  8
AM_VIS
  5
2C8
 10
5.55628
 20
3.48293
 30
0.000000
  70
    32
  0
VERTEX
  8
AM_VIS
  5
2C9
 10
5.55497
 20
3.48316
 30
0.000000
  70
    32
  0
VERTEX
  8
AM_VIS
  5
2CA
 10
5.55366
 20
3.48339
 30
0.000000
  70
    32
  0
VERTEX
  8
AM_VIS
  5
2CB
 10
5.55234
 20
3.48363
 30
0.000000
  70
    32
  0
VERTEX
  8
AM_VIS
  5
2CC
 10
5.55103
 20
3.48388
 30
0.000000
  70
    32
  0
VERTEX
  8
AM_VIS
  5
2CD
 10
5.54972
 20
3.48413
 30
0.000000
  70
    32
  0
VERTEX
  8
AM_VIS
  5
2CE
 10
5.54840
 20
3.48439
 30
0.000000
  70
    32
  0
VERTEX
  8
AM_VIS
  5
2CF
 10
5.54709
 20
3.48465
 30
0.000000
  70
    32
  0
VERTEX
  8
AM_VIS
  5
2D0
 10
5.54578
 20
3.48492
 30
0.000000
  70
    32
  0
VERTEX
  8
AM_VIS
  5
2D1
 10
5.54447
 20
3.48520
 30
0.000000
  70
    32
  0
VERTEX
  8
AM_VIS
  5
2D2
 10
5.54316
 20
3.48548
 30
0.000000
  70
    32
  0
VERTEX
  8
AM_VIS
  5
2D3
 10
5.54185
 20
3.48576
 30
0.000000
  70
    32
  0
VERTEX
  8
AM_VIS
  5
2D4
 10
5.54055
 20
3.48605
 30
0.000000
  70
    32
  0
VERTEX
  8
AM_VIS
  5
2D5
 10
5.53924
 20
3.48635
 30
0.000000
  70
    32
  0
VERTEX
  8
AM_VIS
  5
2D6
 10
5.53793
 20
3.48665
 30
0.000000
  70
    32
  0
VERTEX
  8
AM_VIS
  5
2D7
 10
5.53663
 20
3.48696
 30
0.000000
  70
    32
  0
VERTEX
  8
AM_VIS
  5
2D8
 10
5.53533
 20
3.48727
 30
0.000000
  70
    32
  0
VERTEX
  8
AM_VIS
  5
2D9
 10
5.53403
 20
3.48759
 30
0.000000
  70
    32
  0
VERTEX
  8
AM_VIS
  5
2DA
 10
5.53273
 20
3.48791
 30
0.000000
  70
    32
  0
VERTEX
  8
AM_VIS
  5
2DB
 10
5.53143
 20
3.48824
 30
0.000000
  70
    32
  0
VERTEX
  8
AM_VIS
  5
2DC
 10
5.53013
 20
3.48857
 30
0.000000
  70
    32
  0
VERTEX
  8
AM_VIS
  5
2DD
 10
5.52883
 20
3.48891
 30
0.000000
  70
    32
  0
VERTEX
  8
AM_VIS
  5
2DE
 10
5.52754
 20
3.48925
 30
0.000000
  70
    32
  0
VERTEX
  8
AM_VIS
  5
2DF
 10
5.52624
 20
3.48960
 30
0.000000
  70
    32
  0
VERTEX
  8
AM_VIS
  5
2E0
 10
5.52495
 20
3.48996
 30
0.000000
  70
    32
  0
VERTEX
  8
AM_VIS
  5
2E1
 10
5.52366
 20
3.49032
 30
0.000000
  70
    32
  0
VERTEX
  8
AM_VIS
  5
2E2
 10
5.52237
 20
3.49068
 30
0.000000
  70
    32
  0
VERTEX
  8
AM_VIS
  5
2E3
 10
5.52108
 20
3.49105
 30
0.000000
  70
    32
  0
VERTEX
  8
AM_VIS
  5
2E4
 10
5.51979
 20
3.49142
 30
0.000000
  70
    32
  0
VERTEX
  8
AM_VIS
  5
2E5
 10
5.51850
 20
3.49180
 30
0.000000
  70
    32
  0
VERTEX
  8
AM_VIS
  5
2E6
 10
5.51722
 20
3.49219
 30
0.000000
  70
    32
  0
VERTEX
  8
AM_VIS
  5
2E7
 10
5.51593
 20
3.49258
 30
0.000000
  70
    32
  0
VERTEX
  8
AM_VIS
  5
2E8
 10
5.51465
 20
3.49297
 30
0.000000
  70
    32
  0
VERTEX
  8
AM_VIS
  5
2E9
 10
5.51337
 20
3.49337
 30
0.000000
  70
    32
  0
VERTEX
  8
AM_VIS
  5
2EA
 10
5.51209
 20
3.49378
 30
0.000000
  70
    32
  0
VERTEX
  8
AM_VIS
  5
2EB
 10
5.51081
 20
3.49419
 30
0.000000
  70
    32
  0
VERTEX
  8
AM_VIS
  5
2EC
 10
5.50953
 20
3.49461
 30
0.000000
  70
    32
  0
VERTEX
  8
AM_VIS
  5
2ED
 10
5.50825
 20
3.49503
 30
0.000000
  70
    32
  0
VERTEX
  8
AM_VIS
  5
2EE
 10
5.50698
 20
3.49545
 30
0.000000
  70
    32
  0
VERTEX
  8
AM_VIS
  5
2EF
 10
5.50570
 20
3.49588
 30
0.000000
  70
    32
  0
VERTEX
  8
AM_VIS
  5
2F0
 10
5.50443
 20
3.49632
 30
0.000000
  70
    32
  0
VERTEX
  8
AM_VIS
  5
2F1
 10
5.50316
 20
3.49676
 30
0.000000
  70
    32
  0
VERTEX
  8
AM_VIS
  5
2F2
 10
5.50189
 20
3.49720
 30
0.000000
  70
    32
  0
VERTEX
  8
AM_VIS
  5
2F3
 10
5.50062
 20
3.49765
 30
0.000000
  70
    32
  0
VERTEX
  8
AM_VIS
  5
2F4
 10
5.49936
 20
3.49810
 30
0.000000
  70
    32
  0
VERTEX
  8
AM_VIS
  5
2F5
 10
5.49809
 20
3.49856
 30
0.000000
  70
    32
  0
VERTEX
  8
AM_VIS
  5
2F6
 10
5.49683
 20
3.49903
 30
0.000000
  70
    32
  0
VERTEX
  8
AM_VIS
  5
2F7
 10
5.49557
 20
3.49950
 30
0.000000
  70
    32
  0
VERTEX
  8
AM_VIS
  5
2F8
 10
5.49430
 20
3.49997
 30
0.000000
  70
    32
  0
VERTEX
  8
AM_VIS
  5
2F9
 10
5.49304
 20
3.50045
 30
0.000000
  70
    32
  0
VERTEX
  8
AM_VIS
  5
2FA
 10
5.49179
 20
3.50093
 30
0.000000
  70
    32
  0
VERTEX
  8
AM_VIS
  5
2FB
 10
5.49053
 20
3.50142
 30
0.000000
  70
    32
  0
VERTEX
  8
AM_VIS
  5
2FC
 10
5.48928
 20
3.50191
 30
0.000000
  70
    32
  0
VERTEX
  8
AM_VIS
  5
2FD
 10
5.48802
 20
3.50241
 30
0.000000
  70
    32
  0
VERTEX
  8
AM_VIS
  5
2FE
 10
5.48677
 20
3.50291
 30
0.000000
  70
    32
  0
VERTEX
  8
AM_VIS
  5
2FF
 10
5.48552
 20
3.50342
 30
0.000000
  70
    32
  0
VERTEX
  8
AM_VIS
  5
300
 10
5.48427
 20
3.50393
 30
0.000000
  70
    32
  0
VERTEX
  8
AM_VIS
  5
301
 10
5.48302
 20
3.50445
 30
0.000000
  70
    32
  0
VERTEX
  8
AM_VIS
  5
302
 10
5.48178
 20
3.50497
 30
0.000000
  70
    32
  0
VERTEX
  8
AM_VIS
  5
303
 10
5.48053
 20
3.50549
 30
0.000000
  70
    32
  0
VERTEX
  8
AM_VIS
  5
304
 10
5.47929
 20
3.50603
 30
0.000000
  70
    32
  0
VERTEX
  8
AM_VIS
  5
305
 10
5.47805
 20
3.50656
 30
0.000000
  70
    32
  0
VERTEX
  8
AM_VIS
  5
306
 10
5.47681
 20
3.50710
 30
0.000000
  70
    32
  0
VERTEX
  8
AM_VIS
  5
307
 10
5.47557
 20
3.50764
 30
0.000000
  70
    32
  0
VERTEX
  8
AM_VIS
  5
308
 10
5.47433
 20
3.50819
 30
0.000000
  70
    32
  0
VERTEX
  8
AM_VIS
  5
309
 10
5.47310
 20
3.50874
 30
0.000000
  70
    32
  0
VERTEX
  8
AM_VIS
  5
30A
 10
5.47187
 20
3.50930
 30
0.000000
  70
    32
  0
VERTEX
  8
AM_VIS
  5
30B
 10
5.47064
 20
3.50986
 30
0.000000
  70
    32
  0
VERTEX
  8
AM_VIS
  5
30C
 10
5.46941
 20
3.51043
 30
0.000000
  70
    32
  0
VERTEX
  8
AM_VIS
  5
30D
 10
5.46818
 20
3.51100
 30
0.000000
  70
    32
  0
VERTEX
  8
AM_VIS
  5
30E
 10
5.46695
 20
3.51158
 30
0.000000
  70
    32
  0
VERTEX
  8
AM_VIS
  5
30F
 10
5.46573
 20
3.51216
 30
0.000000
  70
    32
  0
VERTEX
  8
AM_VIS
  5
310
 10
5.46450
 20
3.51274
 30
0.000000
  70
    32
  0
VERTEX
  8
AM_VIS
  5
311
 10
5.46328
 20
3.51333
 30
0.000000
  70
    32
  0
VERTEX
  8
AM_VIS
  5
312
 10
5.46206
 20
3.51392
 30
0.000000
  70
    32
  0
VERTEX
  8
AM_VIS
  5
313
 10
5.46084
 20
3.51452
 30
0.000000
  70
    32
  0
VERTEX
  8
AM_VIS
  5
314
 10
5.45963
 20
3.51512
 30
0.000000
  70
    32
  0
VERTEX
  8
AM_VIS
  5
315
 10
5.45841
 20
3.51573
 30
0.000000
  70
    32
  0
VERTEX
  8
AM_VIS
  5
316
 10
5.45720
 20
3.51634
 30
0.000000
  70
    32
  0
VERTEX
  8
AM_VIS
  5
317
 10
5.45599
 20
3.51695
 30
0.000000
  70
    32
  0
VERTEX
  8
AM_VIS
  5
318
 10
5.45478
 20
3.51757
 30
0.000000
  70
    32
  0
VERTEX
  8
AM_VIS
  5
319
 10
5.45357
 20
3.51819
 30
0.000000
  70
    32
  0
VERTEX
  8
AM_VIS
  5
31A
 10
5.45237
 20
3.51882
 30
0.000000
  70
    32
  0
VERTEX
  8
AM_VIS
  5
31B
 10
5.45117
 20
3.51945
 30
0.000000
  70
    32
  0
VERTEX
  8
AM_VIS
  5
31C
 10
5.44996
 20
3.52009
 30
0.000000
  70
    32
  0
VERTEX
  8
AM_VIS
  5
31D
 10
5.44876
 20
3.52073
 30
0.000000
  70
    32
  0
VERTEX
  8
AM_VIS
  5
31E
 10
5.44757
 20
3.52137
 30
0.000000
  70
    32
  0
VERTEX
  8
AM_VIS
  5
31F
 10
5.44637
 20
3.52202
 30
0.000000
  70
    32
  0
VERTEX
  8
AM_VIS
  5
320
 10
5.44517
 20
3.52267
 30
0.000000
  70
    32
  0
VERTEX
  8
AM_VIS
  5
321
 10
5.44398
 20
3.52333
 30
0.000000
  70
    32
  0
VERTEX
  8
AM_VIS
  5
322
 10
5.44279
 20
3.52399
 30
0.000000
  70
    32
  0
VERTEX
  8
AM_VIS
  5
323
 10
5.44160
 20
3.52465
 30
0.000000
  70
    32
  0
VERTEX
  8
AM_VIS
  5
324
 10
5.44042
 20
3.52532
 30
0.000000
  70
    32
  0
VERTEX
  8
AM_VIS
  5
325
 10
5.43923
 20
3.52600
 30
0.000000
  70
    32
  0
VERTEX
  8
AM_VIS
  5
326
 10
5.43805
 20
3.52667
 30
0.000000
  70
    32
  0
VERTEX
  8
AM_VIS
  5
327
 10
5.43687
 20
3.52735
 30
0.000000
  70
    32
  0
VERTEX
  8
AM_VIS
  5
328
 10
5.43569
 20
3.52804
 30
0.000000
  70
    32
  0
VERTEX
  8
AM_VIS
  5
329
 10
5.43451
 20
3.52873
 30
0.000000
  70
    32
  0
VERTEX
  8
AM_VIS
  5
32A
 10
5.43333
 20
3.52942
 30
0.000000
  70
    32
  0
VERTEX
  8
AM_VIS
  5
32B
 10
5.43216
 20
3.53012
 30
0.000000
  70
    32
  0
VERTEX
  8
AM_VIS
  5
32C
 10
5.43099
 20
3.53082
 30
0.000000
  70
    32
  0
VERTEX
  8
AM_VIS
  5
32D
 10
5.42982
 20
3.53152
 30
0.000000
  70
    32
  0
VERTEX
  8
AM_VIS
  5
32E
 10
5.42865
 20
3.53223
 30
0.000000
  70
    32
  0
VERTEX
  8
AM_VIS
  5
32F
 10
5.42749
 20
3.53294
 30
0.000000
  70
    32
  0
VERTEX
  8
AM_VIS
  5
330
 10
5.42632
 20
3.53366
 30
0.000000
  70
    32
  0
VERTEX
  8
AM_VIS
  5
331
 10
5.42516
 20
3.53438
 30
0.000000
  70
    32
  0
VERTEX
  8
AM_VIS
  5
332
 10
5.42400
 20
3.53511
 30
0.000000
  70
    32
  0
VERTEX
  8
AM_VIS
  5
333
 10
5.42285
 20
3.53583
 30
0.000000
  70
    32
  0
VERTEX
  8
AM_VIS
  5
334
 10
5.42169
 20
3.53657
 30
0.000000
  70
    32
  0
VERTEX
  8
AM_VIS
  5
335
 10
5.42054
 20
3.53730
 30
0.000000
  70
    32
  0
VERTEX
  8
AM_VIS
  5
336
 10
5.41939
 20
3.53804
 30
0.000000
  70
    32
  0
VERTEX
  8
AM_VIS
  5
337
 10
5.41824
 20
3.53878
 30
0.000000
  70
    32
  0
VERTEX
  8
AM_VIS
  5
338
 10
5.41709
 20
3.53953
 30
0.000000
  70
    32
  0
VERTEX
  8
AM_VIS
  5
339
 10
5.41595
 20
3.54028
 30
0.000000
  70
    32
  0
VERTEX
  8
AM_VIS
  5
33A
 10
5.41480
 20
3.54104
 30
0.000000
  70
    32
  0
VERTEX
  8
AM_VIS
  5
33B
 10
5.41366
 20
3.54179
 30
0.000000
  70
    32
  0
VERTEX
  8
AM_VIS
  5
33C
 10
5.41252
 20
3.54256
 30
0.000000
  70
    32
  0
VERTEX
  8
AM_VIS
  5
33D
 10
5.41139
 20
3.54332
 30
0.000000
  70
    32
  0
VERTEX
  8
AM_VIS
  5
33E
 10
5.41025
 20
3.54409
 30
0.000000
  70
    32
  0
VERTEX
  8
AM_VIS
  5
33F
 10
5.40912
 20
3.54486
 30
0.000000
  70
    32
  0
VERTEX
  8
AM_VIS
  5
340
 10
5.40799
 20
3.54564
 30
0.000000
  70
    32
  0
VERTEX
  8
AM_VIS
  5
341
 10
5.40686
 20
3.54642
 30
0.000000
  70
    32
  0
VERTEX
  8
AM_VIS
  5
342
 10
5.40573
 20
3.54721
 30
0.000000
  70
    32
  0
VERTEX
  8
AM_VIS
  5
343
 10
5.40460
 20
3.54800
 30
0.000000
  70
    32
  0
VERTEX
  8
AM_VIS
  5
344
 10
5.40348
 20
3.54879
 30
0.000000
  70
    32
  0
VERTEX
  8
AM_VIS
  5
345
 10
5.40236
 20
3.54959
 30
0.000000
  70
    32
  0
VERTEX
  8
AM_VIS
  5
346
 10
5.40123
 20
3.55039
 30
0.000000
  70
    32
  0
VERTEX
  8
AM_VIS
  5
347
 10
5.40011
 20
3.55120
 30
0.000000
  70
    32
  0
VERTEX
  8
AM_VIS
  5
348
 10
5.39900
 20
3.55201
 30
0.000000
  70
    32
  0
VERTEX
  8
AM_VIS
  5
349
 10
5.39788
 20
3.55282
 30
0.000000
  70
    32
  0
VERTEX
  8
AM_VIS
  5
34A
 10
5.39676
 20
3.55364
 30
0.000000
  70
    32
  0
VERTEX
  8
AM_VIS
  5
34B
 10
5.39565
 20
3.55446
 30
0.000000
  70
    32
  0
VERTEX
  8
AM_VIS
  5
34C
 10
5.39454
 20
3.55528
 30
0.000000
  70
    32
  0
VERTEX
  8
AM_VIS
  5
34D
 10
5.39343
 20
3.55611
 30
0.000000
  70
    32
  0
VERTEX
  8
AM_VIS
  5
34E
 10
5.39232
 20
3.55694
 30
0.000000
  70
    32
  0
VERTEX
  8
AM_VIS
  5
34F
 10
5.39122
 20
3.55778
 30
0.000000
  70
    32
  0
VERTEX
  8
AM_VIS
  5
350
 10
5.39011
 20
3.55862
 30
0.000000
  70
    32
  0
VERTEX
  8
AM_VIS
  5
351
 10
5.38901
 20
3.55947
 30
0.000000
  70
    32
  0
VERTEX
  8
AM_VIS
  5
352
 10
5.38791
 20
3.56031
 30
0.000000
  70
    32
  0
VERTEX
  8
AM_VIS
  5
353
 10
5.38681
 20
3.56117
 30
0.000000
  70
    32
  0
VERTEX
  8
AM_VIS
  5
354
 10
5.38572
 20
3.56202
 30
0.000000
  70
    32
  0
VERTEX
  8
AM_VIS
  5
355
 10
5.38462
 20
3.56288
 30
0.000000
  70
    32
  0
VERTEX
  8
AM_VIS
  5
356
 10
5.38353
 20
3.56374
 30
0.000000
  70
    32
  0
VERTEX
  8
AM_VIS
  5
357
 10
5.38244
 20
3.56461
 30
0.000000
  70
    32
  0
VERTEX
  8
AM_VIS
  5
358
 10
5.38135
 20
3.56548
 30
0.000000
  70
    32
  0
VERTEX
  8
AM_VIS
  5
359
 10
5.38027
 20
3.56635
 30
0.000000
  70
    32
  0
VERTEX
  8
AM_VIS
  5
35A
 10
5.37918
 20
3.56723
 30
0.000000
  70
    32
  0
SEQEND
  8
AM_VIS
  5
35B
  0
POLYLINE
  8
AM_VIS
  5
35C
  66
     1
 10
0.000000
 20
0.000000
 30
0.000000
  70
     8
  0
VERTEX
  8
AM_VIS
  5
35D
 10
5.98453
 20
3.47619
 30
0.000000
  70
    32
  0
VERTEX
  8
AM_VIS
  5
35E
 10
5.98423
 20
3.47649
 30
0.000000
  70
    32
  0
VERTEX
  8
AM_VIS
  5
35F
 10
5.98394
 20
3.47679
 30
0.000000
  70
    32
  0
VERTEX
  8
AM_VIS
  5
360
 10
5.98364
 20
3.47709
 30
0.000000
  70
    32
  0
VERTEX
  8
AM_VIS
  5
361
 10
5.98335
 20
3.47739
 30
0.000000
  70
    32
  0
VERTEX
  8
AM_VIS
  5
362
 10
5.98306
 20
3.47769
 30
0.000000
  70
    32
  0
VERTEX
  8
AM_VIS
  5
363
 10
5.98277
 20
3.47799
 30
0.000000
  70
    32
  0
VERTEX
  8
AM_VIS
  5
364
 10
5.98249
 20
3.47830
 30
0.000000
  70
    32
  0
VERTEX
  8
AM_VIS
  5
365
 10
5.98220
 20
3.47860
 30
0.000000
  70
    32
  0
VERTEX
  8
AM_VIS
  5
366
 10
5.98191
 20
3.47891
 30
0.000000
  70
    32
  0
VERTEX
  8
AM_VIS
  5
367
 10
5.98163
 20
3.47922
 30
0.000000
  70
    32
  0
VERTEX
  8
AM_VIS
  5
368
 10
5.98135
 20
3.47953
 30
0.000000
  70
    32
  0
VERTEX
  8
AM_VIS
  5
369
 10
5.98107
 20
3.47984
 30
0.000000
  70
    32
  0
VERTEX
  8
AM_VIS
  5
36A
 10
5.98079
 20
3.48015
 30
0.000000
  70
    32
  0
VERTEX
  8
AM_VIS
  5
36B
 10
5.98051
 20
3.48047
 30
0.000000
  70
    32
  0
VERTEX
  8
AM_VIS
  5
36C
 10
5.98023
 20
3.48078
 30
0.000000
  70
    32
  0
VERTEX
  8
AM_VIS
  5
36D
 10
5.97996
 20
3.48110
 30
0.000000
  70
    32
  0
VERTEX
  8
AM_VIS
  5
36E
 10
5.97968
 20
3.48141
 30
0.000000
  70
    32
  0
VERTEX
  8
AM_VIS
  5
36F
 10
5.97941
 20
3.48173
 30
0.000000
  70
    32
  0
VERTEX
  8
AM_VIS
  5
370
 10
5.97914
 20
3.48205
 30
0.000000
  70
    32
  0
VERTEX
  8
AM_VIS
  5
371
 10
5.97887
 20
3.48237
 30
0.000000
  70
    32
  0
VERTEX
  8
AM_VIS
  5
372
 10
5.97861
 20
3.48269
 30
0.000000
  70
    32
  0
VERTEX
  8
AM_VIS
  5
373
 10
5.97834
 20
3.48301
 30
0.000000
  70
    32
  0
VERTEX
  8
AM_VIS
  5
374
 10
5.97808
 20
3.48333
 30
0.000000
  70
    32
  0
VERTEX
  8
AM_VIS
  5
375
 10
5.97782
 20
3.48365
 30
0.000000
  70
    32
  0
VERTEX
  8
AM_VIS
  5
376
 10
5.97756
 20
3.48397
 30
0.000000
  70
    32
  0
VERTEX
  8
AM_VIS
  5
377
 10
5.97730
 20
3.48430
 30
0.000000
  70
    32
  0
VERTEX
  8
AM_VIS
  5
378
 10
5.97704
 20
3.48462
 30
0.000000
  70
    32
  0
VERTEX
  8
AM_VIS
  5
379
 10
5.97679
 20
3.48495
 30
0.000000
  70
    32
  0
VERTEX
  8
AM_VIS
  5
37A
 10
5.97653
 20
3.48528
 30
0.000000
  70
    32
  0
VERTEX
  8
AM_VIS
  5
37B
 10
5.97628
 20
3.48560
 30
0.000000
  70
    32
  0
VERTEX
  8
AM_VIS
  5
37C
 10
5.97603
 20
3.48593
 30
0.000000
  70
    32
  0
VERTEX
  8
AM_VIS
  5
37D
 10
5.97578
 20
3.48626
 30
0.000000
  70
    32
  0
VERTEX
  8
AM_VIS
  5
37E
 10
5.97553
 20
3.48659
 30
0.000000
  70
    32
  0
VERTEX
  8
AM_VIS
  5
37F
 10
5.97529
 20
3.48693
 30
0.000000
  70
    32
  0
VERTEX
  8
AM_VIS
  5
380
 10
5.97504
 20
3.48726
 30
0.000000
  70
    32
  0
VERTEX
  8
AM_VIS
  5
381
 10
5.97480
 20
3.48759
 30
0.000000
  70
    32
  0
VERTEX
  8
AM_VIS
  5
382
 10
5.97456
 20
3.48793
 30
0.000000
  70
    32
  0
VERTEX
  8
AM_VIS
  5
383
 10
5.97432
 20
3.48826
 30
0.000000
  70
    32
  0
VERTEX
  8
AM_VIS
  5
384
 10
5.97408
 20
3.48860
 30
0.000000
  70
    32
  0
VERTEX
  8
AM_VIS
  5
385
 10
5.97385
 20
3.48894
 30
0.000000
  70
    32
  0
VERTEX
  8
AM_VIS
  5
386
 10
5.97361
 20
3.48928
 30
0.000000
  70
    32
  0
VERTEX
  8
AM_VIS
  5
387
 10
5.97338
 20
3.48962
 30
0.000000
  70
    32
  0
VERTEX
  8
AM_VIS
  5
388
 10
5.97315
 20
3.48996
 30
0.000000
  70
    32
  0
VERTEX
  8
AM_VIS
  5
389
 10
5.97292
 20
3.49030
 30
0.000000
  70
    32
  0
VERTEX
  8
AM_VIS
  5
38A
 10
5.97269
 20
3.49064
 30
0.000000
  70
    32
  0
VERTEX
  8
AM_VIS
  5
38B
 10
5.97246
 20
3.49098
 30
0.000000
  70
    32
  0
VERTEX
  8
AM_VIS
  5
38C
 10
5.97224
 20
3.49132
 30
0.000000
  70
    32
  0
VERTEX
  8
AM_VIS
  5
38D
 10
5.97201
 20
3.49167
 30
0.000000
  70
    32
  0
VERTEX
  8
AM_VIS
  5
38E
 10
5.97179
 20
3.49202
 30
0.000000
  70
    32
  0
VERTEX
  8
AM_VIS
  5
38F
 10
5.97157
 20
3.49236
 30
0.000000
  70
    32
  0
VERTEX
  8
AM_VIS
  5
390
 10
5.97135
 20
3.49271
 30
0.000000
  70
    32
  0
VERTEX
  8
AM_VIS
  5
391
 10
5.97113
 20
3.49306
 30
0.000000
  70
    32
  0
VERTEX
  8
AM_VIS
  5
392
 10
5.97092
 20
3.49341
 30
0.000000
  70
    32
  0
VERTEX
  8
AM_VIS
  5
393
 10
5.97070
 20
3.49376
 30
0.000000
  70
    32
  0
VERTEX
  8
AM_VIS
  5
394
 10
5.97049
 20
3.49411
 30
0.000000
  70
    32
  0
VERTEX
  8
AM_VIS
  5
395
 10
5.97028
 20
3.49446
 30
0.000000
  70
    32
  0
VERTEX
  8
AM_VIS
  5
396
 10
5.97007
 20
3.49481
 30
0.000000
  70
    32
  0
VERTEX
  8
AM_VIS
  5
397
 10
5.96986
 20
3.49517
 30
0.000000
  70
    32
  0
VERTEX
  8
AM_VIS
  5
398
 10
5.96965
 20
3.49552
 30
0.000000
  70
    32
  0
VERTEX
  8
AM_VIS
  5
399
 10
5.96945
 20
3.49588
 30
0.000000
  70
    32
  0
VERTEX
  8
AM_VIS
  5
39A
 10
5.96924
 20
3.49623
 30
0.000000
  70
    32
  0
VERTEX
  8
AM_VIS
  5
39B
 10
5.96904
 20
3.49659
 30
0.000000
  70
    32
  0
VERTEX
  8
AM_VIS
  5
39C
 10
5.96884
 20
3.49695
 30
0.000000
  70
    32
  0
VERTEX
  8
AM_VIS
  5
39D
 10
5.96864
 20
3.49731
 30
0.000000
  70
    32
  0
VERTEX
  8
AM_VIS
  5
39E
 10
5.96844
 20
3.49767
 30
0.000000
  70
    32
  0
VERTEX
  8
AM_VIS
  5
39F
 10
5.96825
 20
3.49803
 30
0.000000
  70
    32
  0
VERTEX
  8
AM_VIS
  5
3A0
 10
5.96805
 20
3.49839
 30
0.000000
  70
    32
  0
VERTEX
  8
AM_VIS
  5
3A1
 10
5.96786
 20
3.49875
 30
0.000000
  70
    32
  0
VERTEX
  8
AM_VIS
  5
3A2
 10
5.96767
 20
3.49912
 30
0.000000
  70
    32
  0
VERTEX
  8
AM_VIS
  5
3A3
 10
5.96748
 20
3.49948
 30
0.000000
  70
    32
  0
VERTEX
  8
AM_VIS
  5
3A4
 10
5.96729
 20
3.49985
 30
0.000000
  70
    32
  0
VERTEX
  8
AM_VIS
  5
3A5
 10
5.96710
 20
3.50021
 30
0.000000
  70
    32
  0
VERTEX
  8
AM_VIS
  5
3A6
 10
5.96691
 20
3.50058
 30
0.000000
  70
    32
  0
VERTEX
  8
AM_VIS
  5
3A7
 10
5.96673
 20
3.50095
 30
0.000000
  70
    32
  0
VERTEX
  8
AM_VIS
  5
3A8
 10
5.96655
 20
3.50131
 30
0.000000
  70
    32
  0
VERTEX
  8
AM_VIS
  5
3A9
 10
5.96637
 20
3.50168
 30
0.000000
  70
    32
  0
VERTEX
  8
AM_VIS
  5
3AA
 10
5.96619
 20
3.50205
 30
0.000000
  70
    32
  0
VERTEX
  8
AM_VIS
  5
3AB
 10
5.96601
 20
3.50243
 30
0.000000
  70
    32
  0
VERTEX
  8
AM_VIS
  5
3AC
 10
5.96583
 20
3.50280
 30
0.000000
  70
    32
  0
VERTEX
  8
AM_VIS
  5
3AD
 10
5.96565
 20
3.50317
 30
0.000000
  70
    32
  0
VERTEX
  8
AM_VIS
  5
3AE
 10
5.96548
 20
3.50355
 30
0.000000
  70
    32
  0
VERTEX
  8
AM_VIS
  5
3AF
 10
5.96531
 20
3.50392
 30
0.000000
  70
    32
  0
VERTEX
  8
AM_VIS
  5
3B0
 10
5.96514
 20
3.50430
 30
0.000000
  70
    32
  0
VERTEX
  8
AM_VIS
  5
3B1
 10
5.96497
 20
3.50467
 30
0.000000
  70
    32
  0
VERTEX
  8
AM_VIS
  5
3B2
 10
5.96480
 20
3.50505
 30
0.000000
  70
    32
  0
VERTEX
  8
AM_VIS
  5
3B3
 10
5.96463
 20
3.50543
 30
0.000000
  70
    32
  0
VERTEX
  8
AM_VIS
  5
3B4
 10
5.96447
 20
3.50581
 30
0.000000
  70
    32
  0
VERTEX
  8
AM_VIS
  5
3B5
 10
5.96430
 20
3.50619
 30
0.000000
  70
    32
  0
VERTEX
  8
AM_VIS
  5
3B6
 10
5.96414
 20
3.50657
 30
0.000000
  70
    32
  0
VERTEX
  8
AM_VIS
  5
3B7
 10
5.96398
 20
3.50695
 30
0.000000
  70
    32
  0
VERTEX
  8
AM_VIS
  5
3B8
 10
5.96382
 20
3.50733
 30
0.000000
  70
    32
  0
VERTEX
  8
AM_VIS
  5
3B9
 10
5.96366
 20
3.50771
 30
0.000000
  70
    32
  0
VERTEX
  8
AM_VIS
  5
3BA
 10
5.96350
 20
3.50810
 30
0.000000
  70
    32
  0
VERTEX
  8
AM_VIS
  5
3BB
 10
5.96335
 20
3.50848
 30
0.000000
  70
    32
  0
VERTEX
  8
AM_VIS
  5
3BC
 10
5.96319
 20
3.50887
 30
0.000000
  70
    32
  0
VERTEX
  8
AM_VIS
  5
3BD
 10
5.96304
 20
3.50926
 30
0.000000
  70
    32
  0
VERTEX
  8
AM_VIS
  5
3BE
 10
5.96289
 20
3.50964
 30
0.000000
  70
    32
  0
VERTEX
  8
AM_VIS
  5
3BF
 10
5.96274
 20
3.51003
 30
0.000000
  70
    32
  0
VERTEX
  8
AM_VIS
  5
3C0
 10
5.96259
 20
3.51042
 30
0.000000
  70
    32
  0
VERTEX
  8
AM_VIS
  5
3C1
 10
5.96245
 20
3.51081
 30
0.000000
  70
    32
  0
VERTEX
  8
AM_VIS
  5
3C2
 10
5.96230
 20
3.51120
 30
0.000000
  70
    32
  0
VERTEX
  8
AM_VIS
  5
3C3
 10
5.96216
 20
3.51159
 30
0.000000
  70
    32
  0
VERTEX
  8
AM_VIS
  5
3C4
 10
5.96202
 20
3.51198
 30
0.000000
  70
    32
  0
VERTEX
  8
AM_VIS
  5
3C5
 10
5.96188
 20
3.51237
 30
0.000000
  70
    32
  0
VERTEX
  8
AM_VIS
  5
3C6
 10
5.96174
 20
3.51276
 30
0.000000
  70
    32
  0
VERTEX
  8
AM_VIS
  5
3C7
 10
5.96160
 20
3.51315
 30
0.000000
  70
    32
  0
VERTEX
  8
AM_VIS
  5
3C8
 10
5.96147
 20
3.51354
 30
0.000000
  70
    32
  0
VERTEX
  8
AM_VIS
  5
3C9
 10
5.96133
 20
3.51393
 30
0.000000
  70
    32
  0
VERTEX
  8
AM_VIS
  5
3CA
 10
5.96120
 20
3.51433
 30
0.000000
  70
    32
  0
VERTEX
  8
AM_VIS
  5
3CB
 10
5.96107
 20
3.51472
 30
0.000000
  70
    32
  0
VERTEX
  8
AM_VIS
  5
3CC
 10
5.96094
 20
3.51512
 30
0.000000
  70
    32
  0
VERTEX
  8
AM_VIS
  5
3CD
 10
5.96081
 20
3.51551
 30
0.000000
  70
    32
  0
VERTEX
  8
AM_VIS
  5
3CE
 10
5.96068
 20
3.51590
 30
0.000000
  70
    32
  0
VERTEX
  8
AM_VIS
  5
3CF
 10
5.96056
 20
3.51630
 30
0.000000
  70
    32
  0
VERTEX
  8
AM_VIS
  5
3D0
 10
5.96043
 20
3.51670
 30
0.000000
  70
    32
  0
VERTEX
  8
AM_VIS
  5
3D1
 10
5.96031
 20
3.51709
 30
0.000000
  70
    32
  0
VERTEX
  8
AM_VIS
  5
3D2
 10
5.96019
 20
3.51749
 30
0.000000
  70
    32
  0
VERTEX
  8
AM_VIS
  5
3D3
 10
5.96007
 20
3.51788
 30
0.000000
  70
    32
  0
VERTEX
  8
AM_VIS
  5
3D4
 10
5.95995
 20
3.51828
 30
0.000000
  70
    32
  0
VERTEX
  8
AM_VIS
  5
3D5
 10
5.95983
 20
3.51868
 30
0.000000
  70
    32
  0
VERTEX
  8
AM_VIS
  5
3D6
 10
5.95972
 20
3.51908
 30
0.000000
  70
    32
  0
VERTEX
  8
AM_VIS
  5
3D7
 10
5.95960
 20
3.51948
 30
0.000000
  70
    32
  0
VERTEX
  8
AM_VIS
  5
3D8
 10
5.95949
 20
3.51988
 30
0.000000
  70
    32
  0
VERTEX
  8
AM_VIS
  5
3D9
 10
5.95938
 20
3.52028
 30
0.000000
  70
    32
  0
VERTEX
  8
AM_VIS
  5
3DA
 10
5.95927
 20
3.52068
 30
0.000000
  70
    32
  0
VERTEX
  8
AM_VIS
  5
3DB
 10
5.95916
 20
3.52108
 30
0.000000
  70
    32
  0
VERTEX
  8
AM_VIS
  5
3DC
 10
5.95905
 20
3.52148
 30
0.000000
  70
    32
  0
VERTEX
  8
AM_VIS
  5
3DD
 10
5.95895
 20
3.52188
 30
0.000000
  70
    32
  0
VERTEX
  8
AM_VIS
  5
3DE
 10
5.95884
 20
3.52228
 30
0.000000
  70
    32
  0
VERTEX
  8
AM_VIS
  5
3DF
 10
5.95874
 20
3.52268
 30
0.000000
  70
    32
  0
VERTEX
  8
AM_VIS
  5
3E0
 10
5.95864
 20
3.52308
 30
0.000000
  70
    32
  0
VERTEX
  8
AM_VIS
  5
3E1
 10
5.95854
 20
3.52348
 30
0.000000
  70
    32
  0
VERTEX
  8
AM_VIS
  5
3E2
 10
5.95844
 20
3.52389
 30
0.000000
  70
    32
  0
VERTEX
  8
AM_VIS
  5
3E3
 10
5.95834
 20
3.52429
 30
0.000000
  70
    32
  0
VERTEX
  8
AM_VIS
  5
3E4
 10
5.95824
 20
3.52469
 30
0.000000
  70
    32
  0
VERTEX
  8
AM_VIS
  5
3E5
 10
5.95815
 20
3.52510
 30
0.000000
  70
    32
  0
VERTEX
  8
AM_VIS
  5
3E6
 10
5.95805
 20
3.52550
 30
0.000000
  70
    32
  0
VERTEX
  8
AM_VIS
  5
3E7
 10
5.95796
 20
3.52591
 30
0.000000
  70
    32
  0
VERTEX
  8
AM_VIS
  5
3E8
 10
5.95787
 20
3.52631
 30
0.000000
  70
    32
  0
VERTEX
  8
AM_VIS
  5
3E9
 10
5.95778
 20
3.52672
 30
0.000000
  70
    32
  0
VERTEX
  8
AM_VIS
  5
3EA
 10
5.95769
 20
3.52712
 30
0.000000
  70
    32
  0
VERTEX
  8
AM_VIS
  5
3EB
 10
5.95760
 20
3.52753
 30
0.000000
  70
    32
  0
VERTEX
  8
AM_VIS
  5
3EC
 10
5.95752
 20
3.52794
 30
0.000000
  70
    32
  0
VERTEX
  8
AM_VIS
  5
3ED
 10
5.95743
 20
3.52834
 30
0.000000
  70
    32
  0
VERTEX
  8
AM_VIS
  5
3EE
 10
5.95735
 20
3.52875
 30
0.000000
  70
    32
  0
VERTEX
  8
AM_VIS
  5
3EF
 10
5.95727
 20
3.52916
 30
0.000000
  70
    32
  0
VERTEX
  8
AM_VIS
  5
3F0
 10
5.95719
 20
3.52956
 30
0.000000
  70
    32
  0
VERTEX
  8
AM_VIS
  5
3F1
 10
5.95711
 20
3.52997
 30
0.000000
  70
    32
  0
VERTEX
  8
AM_VIS
  5
3F2
 10
5.95703
 20
3.53038
 30
0.000000
  70
    32
  0
VERTEX
  8
AM_VIS
  5
3F3
 10
5.95695
 20
3.53079
 30
0.000000
  70
    32
  0
VERTEX
  8
AM_VIS
  5
3F4
 10
5.95687
 20
3.53120
 30
0.000000
  70
    32
  0
VERTEX
  8
AM_VIS
  5
3F5
 10
5.95680
 20
3.53161
 30
0.000000
  70
    32
  0
VERTEX
  8
AM_VIS
  5
3F6
 10
5.95672
 20
3.53202
 30
0.000000
  70
    32
  0
VERTEX
  8
AM_VIS
  5
3F7
 10
5.95665
 20
3.53242
 30
0.000000
  70
    32
  0
VERTEX
  8
AM_VIS
  5
3F8
 10
5.95658
 20
3.53283
 30
0.000000
  70
    32
  0
VERTEX
  8
AM_VIS
  5
3F9
 10
5.95651
 20
3.53324
 30
0.000000
  70
    32
  0
VERTEX
  8
AM_VIS
  5
3FA
 10
5.95644
 20
3.53366
 30
0.000000
  70
    32
  0
VERTEX
  8
AM_VIS
  5
3FB
 10
5.95637
 20
3.53407
 30
0.000000
  70
    32
  0
VERTEX
  8
AM_VIS
  5
3FC
 10
5.95631
 20
3.53448
 30
0.000000
  70
    32
  0
VERTEX
  8
AM_VIS
  5
3FD
 10
5.95624
 20
3.53489
 30
0.000000
  70
    32
  0
VERTEX
  8
AM_VIS
  5
3FE
 10
5.95618
 20
3.53530
 30
0.000000
  70
    32
  0
VERTEX
  8
AM_VIS
  5
3FF
 10
5.95611
 20
3.53571
 30
0.000000
  70
    32
  0
VERTEX
  8
AM_VIS
  5
400
 10
5.95605
 20
3.53612
 30
0.000000
  70
    32
  0
VERTEX
  8
AM_VIS
  5
401
 10
5.95599
 20
3.53654
 30
0.000000
  70
    32
  0
VERTEX
  8
AM_VIS
  5
402
 10
5.95593
 20
3.53695
 30
0.000000
  70
    32
  0
VERTEX
  8
AM_VIS
  5
403
 10
5.95587
 20
3.53736
 30
0.000000
  70
    32
  0
VERTEX
  8
AM_VIS
  5
404
 10
5.95581
 20
3.53777
 30
0.000000
  70
    32
  0
VERTEX
  8
AM_VIS
  5
405
 10
5.95576
 20
3.53819
 30
0.000000
  70
    32
  0
VERTEX
  8
AM_VIS
  5
406
 10
5.95570
 20
3.53860
 30
0.000000
  70
    32
  0
VERTEX
  8
AM_VIS
  5
407
 10
5.95565
 20
3.53901
 30
0.000000
  70
    32
  0
VERTEX
  8
AM_VIS
  5
408
 10
5.95559
 20
3.53943
 30
0.000000
  70
    32
  0
VERTEX
  8
AM_VIS
  5
409
 10
5.95554
 20
3.53984
 30
0.000000
  70
    32
  0
VERTEX
  8
AM_VIS
  5
40A
 10
5.95549
 20
3.54026
 30
0.000000
  70
    32
  0
VERTEX
  8
AM_VIS
  5
40B
 10
5.95544
 20
3.54067
 30
0.000000
  70
    32
  0
VERTEX
  8
AM_VIS
  5
40C
 10
5.95539
 20
3.54108
 30
0.000000
  70
    32
  0
VERTEX
  8
AM_VIS
  5
40D
 10
5.95534
 20
3.54150
 30
0.000000
  70
    32
  0
VERTEX
  8
AM_VIS
  5
40E
 10
5.95530
 20
3.54191
 30
0.000000
  70
    32
  0
VERTEX
  8
AM_VIS
  5
40F
 10
5.95525
 20
3.54233
 30
0.000000
  70
    32
  0
VERTEX
  8
AM_VIS
  5
410
 10
5.95521
 20
3.54274
 30
0.000000
  70
    32
  0
VERTEX
  8
AM_VIS
  5
411
 10
5.95516
 20
3.54316
 30
0.000000
  70
    32
  0
VERTEX
  8
AM_VIS
  5
412
 10
5.95512
 20
3.54357
 30
0.000000
  70
    32
  0
VERTEX
  8
AM_VIS
  5
413
 10
5.95508
 20
3.54399
 30
0.000000
  70
    32
  0
VERTEX
  8
AM_VIS
  5
414
 10
5.95504
 20
3.54441
 30
0.000000
  70
    32
  0
VERTEX
  8
AM_VIS
  5
415
 10
5.95500
 20
3.54482
 30
0.000000
  70
    32
  0
VERTEX
  8
AM_VIS
  5
416
 10
5.95496
 20
3.54524
 30
0.000000
  70
    32
  0
VERTEX
  8
AM_VIS
  5
417
 10
5.95492
 20
3.54566
 30
0.000000
  70
    32
  0
VERTEX
  8
AM_VIS
  5
418
 10
5.95489
 20
3.54607
 30
0.000000
  70
    32
  0
VERTEX
  8
AM_VIS
  5
419
 10
5.95485
 20
3.54649
 30
0.000000
  70
    32
  0
VERTEX
  8
AM_VIS
  5
41A
 10
5.95482
 20
3.54690
 30
0.000000
  70
    32
  0
VERTEX
  8
AM_VIS
  5
41B
 10
5.95478
 20
3.54732
 30
0.000000
  70
    32
  0
VERTEX
  8
AM_VIS
  5
41C
 10
5.95475
 20
3.54774
 30
0.000000
  70
    32
  0
VERTEX
  8
AM_VIS
  5
41D
 10
5.95472
 20
3.54816
 30
0.000000
  70
    32
  0
VERTEX
  8
AM_VIS
  5
41E
 10
5.95469
 20
3.54857
 30
0.000000
  70
    32
  0
VERTEX
  8
AM_VIS
  5
41F
 10
5.95466
 20
3.54899
 30
0.000000
  70
    32
  0
VERTEX
  8
AM_VIS
  5
420
 10
5.95463
 20
3.54941
 30
0.000000
  70
    32
  0
VERTEX
  8
AM_VIS
  5
421
 10
5.95460
 20
3.54983
 30
0.000000
  70
    32
  0
VERTEX
  8
AM_VIS
  5
422
 10
5.95458
 20
3.55024
 30
0.000000
  70
    32
  0
VERTEX
  8
AM_VIS
  5
423
 10
5.95455
 20
3.55066
 30
0.000000
  70
    32
  0
VERTEX
  8
AM_VIS
  5
424
 10
5.95453
 20
3.55108
 30
0.000000
  70
    32
  0
VERTEX
  8
AM_VIS
  5
425
 10
5.95450
 20
3.55150
 30
0.000000
  70
    32
  0
VERTEX
  8
AM_VIS
  5
426
 10
5.95448
 20
3.55191
 30
0.000000
  70
    32
  0
VERTEX
  8
AM_VIS
  5
427
 10
5.95446
 20
3.55233
 30
0.000000
  70
    32
  0
VERTEX
  8
AM_VIS
  5
428
 10
5.95444
 20
3.55275
 30
0.000000
  70
    32
  0
VERTEX
  8
AM_VIS
  5
429
 10
5.95442
 20
3.55317
 30
0.000000
  70
    32
  0
VERTEX
  8
AM_VIS
  5
42A
 10
5.95440
 20
3.55359
 30
0.000000
  70
    32
  0
VERTEX
  8
AM_VIS
  5
42B
 10
5.95438
 20
3.55400
 30
0.000000
  70
    32
  0
VERTEX
  8
AM_VIS
  5
42C
 10
5.95436
 20
3.55442
 30
0.000000
  70
    32
  0
VERTEX
  8
AM_VIS
  5
42D
 10
5.95434
 20
3.55484
 30
0.000000
  70
    32
  0
VERTEX
  8
AM_VIS
  5
42E
 10
5.95433
 20
3.55526
 30
0.000000
  70
    32
  0
VERTEX
  8
AM_VIS
  5
42F
 10
5.95431
 20
3.55568
 30
0.000000
  70
    32
  0
VERTEX
  8
AM_VIS
  5
430
 10
5.95430
 20
3.55610
 30
0.000000
  70
    32
  0
VERTEX
  8
AM_VIS
  5
431
 10
5.95429
 20
3.55652
 30
0.000000
  70
    32
  0
VERTEX
  8
AM_VIS
  5
432
 10
5.95427
 20
3.55694
 30
0.000000
  70
    32
  0
VERTEX
  8
AM_VIS
  5
433
 10
5.95426
 20
3.55736
 30
0.000000
  70
    32
  0
VERTEX
  8
AM_VIS
  5
434
 10
5.95425
 20
3.55777
 30
0.000000
  70
    32
  0
VERTEX
  8
AM_VIS
  5
435
 10
5.95424
 20
3.55819
 30
0.000000
  70
    32
  0
VERTEX
  8
AM_VIS
  5
436
 10
5.95423
 20
3.55861
 30
0.000000
  70
    32
  0
VERTEX
  8
AM_VIS
  5
437
 10
5.95422
 20
3.55903
 30
0.000000
  70
    32
  0
VERTEX
  8
AM_VIS
  5
438
 10
5.95422
 20
3.55945
 30
0.000000
  70
    32
  0
VERTEX
  8
AM_VIS
  5
439
 10
5.95421
 20
3.55987
 30
0.000000
  70
    32
  0
VERTEX
  8
AM_VIS
  5
43A
 10
5.95420
 20
3.56029
 30
0.000000
  70
    32
  0
VERTEX
  8
AM_VIS
  5
43B
 10
5.95420
 20
3.56071
 30
0.000000
  70
    32
  0
VERTEX
  8
AM_VIS
  5
43C
 10
5.95419
 20
3.56113
 30
0.000000
  70
    32
  0
VERTEX
  8
AM_VIS
  5
43D
 10
5.95419
 20
3.56155
 30
0.000000
  70
    32
  0
VERTEX
  8
AM_VIS
  5
43E
 10
5.95419
 20
3.56197
 30
0.000000
  70
    32
  0
VERTEX
  8
AM_VIS
  5
43F
 10
5.95419
 20
3.56239
 30
0.000000
  70
    32
  0
VERTEX
  8
AM_VIS
  5
440
 10
5.95418
 20
3.56281
 30
0.000000
  70
    32
  0
VERTEX
  8
AM_VIS
  5
441
 10
5.95418
 20
3.56323
 30
0.000000
  70
    32
  0
VERTEX
  8
AM_VIS
  5
442
 10
5.95418
 20
3.56365
 30
0.000000
  70
    32
  0
VERTEX
  8
AM_VIS
  5
443
 10
5.95418
 20
3.56407
 30
0.000000
  70
    32
  0
VERTEX
  8
AM_VIS
  5
444
 10
5.95419
 20
3.56449
 30
0.000000
  70
    32
  0
VERTEX
  8
AM_VIS
  5
445
 10
5.95419
 20
3.56491
 30
0.000000
  70
    32
  0
VERTEX
  8
AM_VIS
  5
446
 10
5.95419
 20
3.56533
 30
0.000000
  70
    32
  0
VERTEX
  8
AM_VIS
  5
447
 10
5.95420
 20
3.56575
 30
0.000000
  70
    32
  0
VERTEX
  8
AM_VIS
  5
448
 10
5.95420
 20
3.56617
 30
0.000000
  70
    32
  0
VERTEX
  8
AM_VIS
  5
449
 10
5.95421
 20
3.56659
 30
0.000000
  70
    32
  0
VERTEX
  8
AM_VIS
  5
44A
 10
5.95421
 20
3.56701
 30
0.000000
  70
    32
  0
VERTEX
  8
AM_VIS
  5
44B
 10
5.95422
 20
3.56743
 30
0.000000
  70
    32
  0
VERTEX
  8
AM_VIS
  5
44C
 10
5.95423
 20
3.56785
 30
0.000000
  70
    32
  0
VERTEX
  8
AM_VIS
  5
44D
 10
5.95424
 20
3.56827
 30
0.000000
  70
    32
  0
VERTEX
  8
AM_VIS
  5
44E
 10
5.95425
 20
3.56869
 30
0.000000
  70
    32
  0
VERTEX
  8
AM_VIS
  5
44F
 10
5.95425
 20
3.56911
 30
0.000000
  70
    32
  0
VERTEX
  8
AM_VIS
  5
450
 10
5.95427
 20
3.56953
 30
0.000000
  70
    32
  0
VERTEX
  8
AM_VIS
  5
451
 10
5.95428
 20
3.56996
 30
0.000000
  70
    32
  0
VERTEX
  8
AM_VIS
  5
452
 10
5.95429
 20
3.57038
 30
0.000000
  70
    32
  0
VERTEX
  8
AM_VIS
  5
453
 10
5.95430
 20
3.57080
 30
0.000000
  70
    32
  0
VERTEX
  8
AM_VIS
  5
454
 10
5.95431
 20
3.57122
 30
0.000000
  70
    32
  0
VERTEX
  8
AM_VIS
  5
455
 10
5.95433
 20
3.57164
 30
0.000000
  70
    32
  0
VERTEX
  8
AM_VIS
  5
456
 10
5.95434
 20
3.57206
 30
0.000000
  70
    32
  0
VERTEX
  8
AM_VIS
  5
457
 10
5.95436
 20
3.57248
 30
0.000000
  70
    32
  0
VERTEX
  8
AM_VIS
  5
458
 10
5.95437
 20
3.57290
 30
0.000000
  70
    32
  0
VERTEX
  8
AM_VIS
  5
459
 10
5.95439
 20
3.57332
 30
0.000000
  70
    32
  0
VERTEX
  8
AM_VIS
  5
45A
 10
5.95441
 20
3.57374
 30
0.000000
  70
    32
  0
VERTEX
  8
AM_VIS
  5
45B
 10
5.95442
 20
3.57417
 30
0.000000
  70
    32
  0
VERTEX
  8
AM_VIS
  5
45C
 10
5.95444
 20
3.57459
 30
0.000000
  70
    32
  0
VERTEX
  8
AM_VIS
  5
45D
 10
5.95446
 20
3.57501
 30
0.000000
  70
    32
  0
VERTEX
  8
AM_VIS
  5
45E
 10
5.95448
 20
3.57543
 30
0.000000
  70
    32
  0
VERTEX
  8
AM_VIS
  5
45F
 10
5.95450
 20
3.57585
 30
0.000000
  70
    32
  0
VERTEX
  8
AM_VIS
  5
460
 10
5.95452
 20
3.57627
 30
0.000000
  70
    32
  0
VERTEX
  8
AM_VIS
  5
461
 10
5.95454
 20
3.57669
 30
0.000000
  70
    32
  0
VERTEX
  8
AM_VIS
  5
462
 10
5.95457
 20
3.57711
 30
0.000000
  70
    32
  0
VERTEX
  8
AM_VIS
  5
463
 10
5.95459
 20
3.57754
 30
0.000000
  70
    32
  0
VERTEX
  8
AM_VIS
  5
464
 10
5.95461
 20
3.57796
 30
0.000000
  70
    32
  0
VERTEX
  8
AM_VIS
  5
465
 10
5.95463
 20
3.57838
 30
0.000000
  70
    32
  0
VERTEX
  8
AM_VIS
  5
466
 10
5.95466
 20
3.57880
 30
0.000000
  70
    32
  0
VERTEX
  8
AM_VIS
  5
467
 10
5.95468
 20
3.57922
 30
0.000000
  70
    32
  0
VERTEX
  8
AM_VIS
  5
468
 10
5.95471
 20
3.57964
 30
0.000000
  70
    32
  0
VERTEX
  8
AM_VIS
  5
469
 10
5.95474
 20
3.58006
 30
0.000000
  70
    32
  0
VERTEX
  8
AM_VIS
  5
46A
 10
5.95476
 20
3.58048
 30
0.000000
  70
    32
  0
VERTEX
  8
AM_VIS
  5
46B
 10
5.95479
 20
3.58090
 30
0.000000
  70
    32
  0
VERTEX
  8
AM_VIS
  5
46C
 10
5.95482
 20
3.58133
 30
0.000000
  70
    32
  0
VERTEX
  8
AM_VIS
  5
46D
 10
5.95485
 20
3.58175
 30
0.000000
  70
    32
  0
VERTEX
  8
AM_VIS
  5
46E
 10
5.95487
 20
3.58217
 30
0.000000
  70
    32
  0
VERTEX
  8
AM_VIS
  5
46F
 10
5.95490
 20
3.58259
 30
0.000000
  70
    32
  0
VERTEX
  8
AM_VIS
  5
470
 10
5.95493
 20
3.58301
 30
0.000000
  70
    32
  0
VERTEX
  8
AM_VIS
  5
471
 10
5.95496
 20
3.58344
 30
0.000000
  70
    32
  0
VERTEX
  8
AM_VIS
  5
472
 10
5.95500
 20
3.58386
 30
0.000000
  70
    32
  0
VERTEX
  8
AM_VIS
  5
473
 10
5.95503
 20
3.58428
 30
0.000000
  70
    32
  0
VERTEX
  8
AM_VIS
  5
474
 10
5.95506
 20
3.58470
 30
0.000000
  70
    32
  0
VERTEX
  8
AM_VIS
  5
475
 10
5.95509
 20
3.58513
 30
0.000000
  70
    32
  0
VERTEX
  8
AM_VIS
  5
476
 10
5.95513
 20
3.58555
 30
0.000000
  70
    32
  0
VERTEX
  8
AM_VIS
  5
477
 10
5.95516
 20
3.58597
 30
0.000000
  70
    32
  0
VERTEX
  8
AM_VIS
  5
478
 10
5.95519
 20
3.58639
 30
0.000000
  70
    32
  0
VERTEX
  8
AM_VIS
  5
479
 10
5.95523
 20
3.58682
 30
0.000000
  70
    32
  0
VERTEX
  8
AM_VIS
  5
47A
 10
5.95526
 20
3.58724
 30
0.000000
  70
    32
  0
VERTEX
  8
AM_VIS
  5
47B
 10
5.95530
 20
3.58766
 30
0.000000
  70
    32
  0
VERTEX
  8
AM_VIS
  5
47C
 10
5.95534
 20
3.58809
 30
0.000000
  70
    32
  0
VERTEX
  8
AM_VIS
  5
47D
 10
5.95537
 20
3.58851
 30
0.000000
  70
    32
  0
VERTEX
  8
AM_VIS
  5
47E
 10
5.95541
 20
3.58893
 30
0.000000
  70
    32
  0
VERTEX
  8
AM_VIS
  5
47F
 10
5.95545
 20
3.58936
 30
0.000000
  70
    32
  0
VERTEX
  8
AM_VIS
  5
480
 10
5.95549
 20
3.58978
 30
0.000000
  70
    32
  0
VERTEX
  8
AM_VIS
  5
481
 10
5.95553
 20
3.59021
 30
0.000000
  70
    32
  0
VERTEX
  8
AM_VIS
  5
482
 10
5.95556
 20
3.59063
 30
0.000000
  70
    32
  0
VERTEX
  8
AM_VIS
  5
483
 10
5.95560
 20
3.59105
 30
0.000000
  70
    32
  0
VERTEX
  8
AM_VIS
  5
484
 10
5.95565
 20
3.59148
 30
0.000000
  70
    32
  0
VERTEX
  8
AM_VIS
  5
485
 10
5.95569
 20
3.59190
 30
0.000000
  70
    32
  0
VERTEX
  8
AM_VIS
  5
486
 10
5.95573
 20
3.59233
 30
0.000000
  70
    32
  0
VERTEX
  8
AM_VIS
  5
487
 10
5.95577
 20
3.59275
 30
0.000000
  70
    32
  0
VERTEX
  8
AM_VIS
  5
488
 10
5.95581
 20
3.59317
 30
0.000000
  70
    32
  0
VERTEX
  8
AM_VIS
  5
489
 10
5.95585
 20
3.59360
 30
0.000000
  70
    32
  0
VERTEX
  8
AM_VIS
  5
48A
 10
5.95590
 20
3.59402
 30
0.000000
  70
    32
  0
VERTEX
  8
AM_VIS
  5
48B
 10
5.95594
 20
3.59445
 30
0.000000
  70
    32
  0
VERTEX
  8
AM_VIS
  5
48C
 10
5.95598
 20
3.59487
 30
0.000000
  70
    32
  0
VERTEX
  8
AM_VIS
  5
48D
 10
5.95603
 20
3.59530
 30
0.000000
  70
    32
  0
VERTEX
  8
AM_VIS
  5
48E
 10
5.95607
 20
3.59572
 30
0.000000
  70
    32
  0
VERTEX
  8
AM_VIS
  5
48F
 10
5.95612
 20
3.59614
 30
0.000000
  70
    32
  0
VERTEX
  8
AM_VIS
  5
490
 10
5.95616
 20
3.59657
 30
0.000000
  70
    32
  0
VERTEX
  8
AM_VIS
  5
491
 10
5.95621
 20
3.59699
 30
0.000000
  70
    32
  0
VERTEX
  8
AM_VIS
  5
492
 10
5.95626
 20
3.59742
 30
0.000000
  70
    32
  0
VERTEX
  8
AM_VIS
  5
493
 10
5.95630
 20
3.59784
 30
0.000000
  70
    32
  0
VERTEX
  8
AM_VIS
  5
494
 10
5.95635
 20
3.59827
 30
0.000000
  70
    32
  0
VERTEX
  8
AM_VIS
  5
495
 10
5.95640
 20
3.59869
 30
0.000000
  70
    32
  0
VERTEX
  8
AM_VIS
  5
496
 10
5.95645
 20
3.59911
 30
0.000000
  70
    32
  0
VERTEX
  8
AM_VIS
  5
497
 10
5.95650
 20
3.59954
 30
0.000000
  70
    32
  0
VERTEX
  8
AM_VIS
  5
498
 10
5.95654
 20
3.59996
 30
0.000000
  70
    32
  0
VERTEX
  8
AM_VIS
  5
499
 10
5.95659
 20
3.60039
 30
0.000000
  70
    32
  0
VERTEX
  8
AM_VIS
  5
49A
 10
5.95664
 20
3.60081
 30
0.000000
  70
    32
  0
VERTEX
  8
AM_VIS
  5
49B
 10
5.95669
 20
3.60124
 30
0.000000
  70
    32
  0
VERTEX
  8
AM_VIS
  5
49C
 10
5.95674
 20
3.60166
 30
0.000000
  70
    32
  0
VERTEX
  8
AM_VIS
  5
49D
 10
5.95680
 20
3.60208
 30
0.000000
  70
    32
  0
VERTEX
  8
AM_VIS
  5
49E
 10
5.95685
 20
3.60251
 30
0.000000
  70
    32
  0
VERTEX
  8
AM_VIS
  5
49F
 10
5.95690
 20
3.60293
 30
0.000000
  70
    32
  0
VERTEX
  8
AM_VIS
  5
4A0
 10
5.95695
 20
3.60336
 30
0.000000
  70
    32
  0
VERTEX
  8
AM_VIS
  5
4A1
 10
5.95700
 20
3.60378
 30
0.000000
  70
    32
  0
VERTEX
  8
AM_VIS
  5
4A2
 10
5.95706
 20
3.60420
 30
0.000000
  70
    32
  0
VERTEX
  8
AM_VIS
  5
4A3
 10
5.95711
 20
3.60463
 30
0.000000
  70
    32
  0
VERTEX
  8
AM_VIS
  5
4A4
 10
5.95716
 20
3.60505
 30
0.000000
  70
    32
  0
VERTEX
  8
AM_VIS
  5
4A5
 10
5.95722
 20
3.60547
 30
0.000000
  70
    32
  0
VERTEX
  8
AM_VIS
  5
4A6
 10
5.95727
 20
3.60590
 30
0.000000
  70
    32
  0
VERTEX
  8
AM_VIS
  5
4A7
 10
5.95732
 20
3.60632
 30
0.000000
  70
    32
  0
VERTEX
  8
AM_VIS
  5
4A8
 10
5.95738
 20
3.60675
 30
0.000000
  70
    32
  0
VERTEX
  8
AM_VIS
  5
4A9
 10
5.95743
 20
3.60717
 30
0.000000
  70
    32
  0
VERTEX
  8
AM_VIS
  5
4AA
 10
5.95749
 20
3.60759
 30
0.000000
  70
    32
  0
VERTEX
  8
AM_VIS
  5
4AB
 10
5.95755
 20
3.60801
 30
0.000000
  70
    32
  0
VERTEX
  8
AM_VIS
  5
4AC
 10
5.95760
 20
3.60844
 30
0.000000
  70
    32
  0
VERTEX
  8
AM_VIS
  5
4AD
 10
5.95766
 20
3.60886
 30
0.000000
  70
    32
  0
VERTEX
  8
AM_VIS
  5
4AE
 10
5.95771
 20
3.60928
 30
0.000000
  70
    32
  0
VERTEX
  8
AM_VIS
  5
4AF
 10
5.95777
 20
3.60971
 30
0.000000
  70
    32
  0
VERTEX
  8
AM_VIS
  5
4B0
 10
5.95783
 20
3.61013
 30
0.000000
  70
    32
  0
VERTEX
  8
AM_VIS
  5
4B1
 10
5.95789
 20
3.61055
 30
0.000000
  70
    32
  0
VERTEX
  8
AM_VIS
  5
4B2
 10
5.95794
 20
3.61097
 30
0.000000
  70
    32
  0
VERTEX
  8
AM_VIS
  5
4B3
 10
5.95800
 20
3.61140
 30
0.000000
  70
    32
  0
VERTEX
  8
AM_VIS
  5
4B4
 10
5.95806
 20
3.61182
 30
0.000000
  70
    32
  0
VERTEX
  8
AM_VIS
  5
4B5
 10
5.95812
 20
3.61224
 30
0.000000
  70
    32
  0
VERTEX
  8
AM_VIS
  5
4B6
 10
5.95818
 20
3.61266
 30
0.000000
  70
    32
  0
VERTEX
  8
AM_VIS
  5
4B7
 10
5.95824
 20
3.61308
 30
0.000000
  70
    32
  0
VERTEX
  8
AM_VIS
  5
4B8
 10
5.95830
 20
3.61350
 30
0.000000
  70
    32
  0
VERTEX
  8
AM_VIS
  5
4B9
 10
5.95836
 20
3.61393
 30
0.000000
  70
    32
  0
VERTEX
  8
AM_VIS
  5
4BA
 10
5.95842
 20
3.61435
 30
0.000000
  70
    32
  0
VERTEX
  8
AM_VIS
  5
4BB
 10
5.95848
 20
3.61477
 30
0.000000
  70
    32
  0
VERTEX
  8
AM_VIS
  5
4BC
 10
5.95854
 20
3.61519
 30
0.000000
  70
    32
  0
VERTEX
  8
AM_VIS
  5
4BD
 10
5.95860
 20
3.61561
 30
0.000000
  70
    32
  0
VERTEX
  8
AM_VIS
  5
4BE
 10
5.95866
 20
3.61604
 30
0.000000
  70
    32
  0
VERTEX
  8
AM_VIS
  5
4BF
 10
5.95872
 20
3.61646
 30
0.000000
  70
    32
  0
VERTEX
  8
AM_VIS
  5
4C0
 10
5.95879
 20
3.61688
 30
0.000000
  70
    32
  0
VERTEX
  8
AM_VIS
  5
4C1
 10
5.95885
 20
3.61731
 30
0.000000
  70
    32
  0
VERTEX
  8
AM_VIS
  5
4C2
 10
5.95891
 20
3.61773
 30
0.000000
  70
    32
  0
VERTEX
  8
AM_VIS
  5
4C3
 10
5.95898
 20
3.61816
 30
0.000000
  70
    32
  0
VERTEX
  8
AM_VIS
  5
4C4
 10
5.95904
 20
3.61858
 30
0.000000
  70
    32
  0
VERTEX
  8
AM_VIS
  5
4C5
 10
5.95910
 20
3.61901
 30
0.000000
  70
    32
  0
VERTEX
  8
AM_VIS
  5
4C6
 10
5.95917
 20
3.61943
 30
0.000000
  70
    32
  0
VERTEX
  8
AM_VIS
  5
4C7
 10
5.95923
 20
3.61986
 30
0.000000
  70
    32
  0
VERTEX
  8
AM_VIS
  5
4C8
 10
5.95930
 20
3.62029
 30
0.000000
  70
    32
  0
VERTEX
  8
AM_VIS
  5
4C9
 10
5.95936
 20
3.62071
 30
0.000000
  70
    32
  0
VERTEX
  8
AM_VIS
  5
4CA
 10
5.95943
 20
3.62114
 30
0.000000
  70
    32
  0
VERTEX
  8
AM_VIS
  5
4CB
 10
5.95949
 20
3.62157
 30
0.000000
  70
    32
  0
VERTEX
  8
AM_VIS
  5
4CC
 10
5.95956
 20
3.62200
 30
0.000000
  70
    32
  0
VERTEX
  8
AM_VIS
  5
4CD
 10
5.95962
 20
3.62242
 30
0.000000
  70
    32
  0
VERTEX
  8
AM_VIS
  5
4CE
 10
5.95969
 20
3.62285
 30
0.000000
  70
    32
  0
VERTEX
  8
AM_VIS
  5
4CF
 10
5.95976
 20
3.62328
 30
0.000000
  70
    32
  0
VERTEX
  8
AM_VIS
  5
4D0
 10
5.95983
 20
3.62371
 30
0.000000
  70
    32
  0
VERTEX
  8
AM_VIS
  5
4D1
 10
5.95989
 20
3.62414
 30
0.000000
  70
    32
  0
VERTEX
  8
AM_VIS
  5
4D2
 10
5.95996
 20
3.62457
 30
0.000000
  70
    32
  0
VERTEX
  8
AM_VIS
  5
4D3
 10
5.96003
 20
3.62500
 30
0.000000
  70
    32
  0
VERTEX
  8
AM_VIS
  5
4D4
 10
5.96010
 20
3.62543
 30
0.000000
  70
    32
  0
VERTEX
  8
AM_VIS
  5
4D5
 10
5.96017
 20
3.62586
 30
0.000000
  70
    32
  0
VERTEX
  8
AM_VIS
  5
4D6
 10
5.96023
 20
3.62629
 30
0.000000
  70
    32
  0
VERTEX
  8
AM_VIS
  5
4D7
 10
5.96030
 20
3.62673
 30
0.000000
  70
    32
  0
VERTEX
  8
AM_VIS
  5
4D8
 10
5.96037
 20
3.62716
 30
0.000000
  70
    32
  0
VERTEX
  8
AM_VIS
  5
4D9
 10
5.96044
 20
3.62759
 30
0.000000
  70
    32
  0
VERTEX
  8
AM_VIS
  5
4DA
 10
5.96051
 20
3.62802
 30
0.000000
  70
    32
  0
VERTEX
  8
AM_VIS
  5
4DB
 10
5.96058
 20
3.62846
 30
0.000000
  70
    32
  0
VERTEX
  8
AM_VIS
  5
4DC
 10
5.96065
 20
3.62889
 30
0.000000
  70
    32
  0
VERTEX
  8
AM_VIS
  5
4DD
 10
5.96072
 20
3.62933
 30
0.000000
  70
    32
  0
VERTEX
  8
AM_VIS
  5
4DE
 10
5.96080
 20
3.62976
 30
0.000000
  70
    32
  0
VERTEX
  8
AM_VIS
  5
4DF
 10
5.96087
 20
3.63019
 30
0.000000
  70
    32
  0
VERTEX
  8
AM_VIS
  5
4E0
 10
5.96094
 20
3.63063
 30
0.000000
  70
    32
  0
VERTEX
  8
AM_VIS
  5
4E1
 10
5.96101
 20
3.63106
 30
0.000000
  70
    32
  0
VERTEX
  8
AM_VIS
  5
4E2
 10
5.96108
 20
3.63150
 30
0.000000
  70
    32
  0
VERTEX
  8
AM_VIS
  5
4E3
 10
5.96116
 20
3.63194
 30
0.000000
  70
    32
  0
VERTEX
  8
AM_VIS
  5
4E4
 10
5.96123
 20
3.63237
 30
0.000000
  70
    32
  0
VERTEX
  8
AM_VIS
  5
4E5
 10
5.96130
 20
3.63281
 30
0.000000
  70
    32
  0
VERTEX
  8
AM_VIS
  5
4E6
 10
5.96137
 20
3.63325
 30
0.000000
  70
    32
  0
VERTEX
  8
AM_VIS
  5
4E7
 10
5.96145
 20
3.63368
 30
0.000000
  70
    32
  0
VERTEX
  8
AM_VIS
  5
4E8
 10
5.96152
 20
3.63412
 30
0.000000
  70
    32
  0
VERTEX
  8
AM_VIS
  5
4E9
 10
5.96160
 20
3.63456
 30
0.000000
  70
    32
  0
VERTEX
  8
AM_VIS
  5
4EA
 10
5.96167
 20
3.63500
 30
0.000000
  70
    32
  0
VERTEX
  8
AM_VIS
  5
4EB
 10
5.96174
 20
3.63544
 30
0.000000
  70
    32
  0
VERTEX
  8
AM_VIS
  5
4EC
 10
5.96182
 20
3.63588
 30
0.000000
  70
    32
  0
VERTEX
  8
AM_VIS
  5
4ED
 10
5.96189
 20
3.63632
 30
0.000000
  70
    32
  0
VERTEX
  8
AM_VIS
  5
4EE
 10
5.96197
 20
3.63676
 30
0.000000
  70
    32
  0
VERTEX
  8
AM_VIS
  5
4EF
 10
5.96204
 20
3.63720
 30
0.000000
  70
    32
  0
VERTEX
  8
AM_VIS
  5
4F0
 10
5.96212
 20
3.63764
 30
0.000000
  70
    32
  0
VERTEX
  8
AM_VIS
  5
4F1
 10
5.96220
 20
3.63808
 30
0.000000
  70
    32
  0
VERTEX
  8
AM_VIS
  5
4F2
 10
5.96227
 20
3.63852
 30
0.000000
  70
    32
  0
VERTEX
  8
AM_VIS
  5
4F3
 10
5.96235
 20
3.63896
 30
0.000000
  70
    32
  0
VERTEX
  8
AM_VIS
  5
4F4
 10
5.96242
 20
3.63940
 30
0.000000
  70
    32
  0
VERTEX
  8
AM_VIS
  5
4F5
 10
5.96250
 20
3.63985
 30
0.000000
  70
    32
  0
VERTEX
  8
AM_VIS
  5
4F6
 10
5.96258
 20
3.64029
 30
0.000000
  70
    32
  0
VERTEX
  8
AM_VIS
  5
4F7
 10
5.96265
 20
3.64073
 30
0.000000
  70
    32
  0
VERTEX
  8
AM_VIS
  5
4F8
 10
5.96273
 20
3.64118
 30
0.000000
  70
    32
  0
VERTEX
  8
AM_VIS
  5
4F9
 10
5.96281
 20
3.64162
 30
0.000000
  70
    32
  0
VERTEX
  8
AM_VIS
  5
4FA
 10
5.96289
 20
3.64206
 30
0.000000
  70
    32
  0
VERTEX
  8
AM_VIS
  5
4FB
 10
5.96297
 20
3.64251
 30
0.000000
  70
    32
  0
VERTEX
  8
AM_VIS
  5
4FC
 10
5.96304
 20
3.64295
 30
0.000000
  70
    32
  0
VERTEX
  8
AM_VIS
  5
4FD
 10
5.96312
 20
3.64340
 30
0.000000
  70
    32
  0
VERTEX
  8
AM_VIS
  5
4FE
 10
5.96320
 20
3.64385
 30
0.000000
  70
    32
  0
VERTEX
  8
AM_VIS
  5
4FF
 10
5.96328
 20
3.64429
 30
0.000000
  70
    32
  0
VERTEX
  8
AM_VIS
  5
500
 10
5.96336
 20
3.64474
 30
0.000000
  70
    32
  0
VERTEX
  8
AM_VIS
  5
501
 10
5.96344
 20
3.64518
 30
0.000000
  70
    32
  0
VERTEX
  8
AM_VIS
  5
502
 10
5.96352
 20
3.64563
 30
0.000000
  70
    32
  0
VERTEX
  8
AM_VIS
  5
503
 10
5.96360
 20
3.64608
 30
0.000000
  70
    32
  0
VERTEX
  8
AM_VIS
  5
504
 10
5.96368
 20
3.64653
 30
0.000000
  70
    32
  0
VERTEX
  8
AM_VIS
  5
505
 10
5.96376
 20
3.64697
 30
0.000000
  70
    32
  0
VERTEX
  8
AM_VIS
  5
506
 10
5.96384
 20
3.64742
 30
0.000000
  70
    32
  0
VERTEX
  8
AM_VIS
  5
507
 10
5.96392
 20
3.64787
 30
0.000000
  70
    32
  0
VERTEX
  8
AM_VIS
  5
508
 10
5.96400
 20
3.64832
 30
0.000000
  70
    32
  0
VERTEX
  8
AM_VIS
  5
509
 10
5.96408
 20
3.64877
 30
0.000000
  70
    32
  0
VERTEX
  8
AM_VIS
  5
50A
 10
5.96416
 20
3.64922
 30
0.000000
  70
    32
  0
VERTEX
  8
AM_VIS
  5
50B
 10
5.96424
 20
3.64967
 30
0.000000
  70
    32
  0
VERTEX
  8
AM_VIS
  5
50C
 10
5.96432
 20
3.65012
 30
0.000000
  70
    32
  0
VERTEX
  8
AM_VIS
  5
50D
 10
5.96440
 20
3.65057
 30
0.000000
  70
    32
  0
VERTEX
  8
AM_VIS
  5
50E
 10
5.96448
 20
3.65102
 30
0.000000
  70
    32
  0
VERTEX
  8
AM_VIS
  5
50F
 10
5.96457
 20
3.65148
 30
0.000000
  70
    32
  0
VERTEX
  8
AM_VIS
  5
510
 10
5.96465
 20
3.65193
 30
0.000000
  70
    32
  0
VERTEX
  8
AM_VIS
  5
511
 10
5.96473
 20
3.65238
 30
0.000000
  70
    32
  0
VERTEX
  8
AM_VIS
  5
512
 10
5.96481
 20
3.65283
 30
0.000000
  70
    32
  0
VERTEX
  8
AM_VIS
  5
513
 10
5.96489
 20
3.65329
 30
0.000000
  70
    32
  0
VERTEX
  8
AM_VIS
  5
514
 10
5.96498
 20
3.65374
 30
0.000000
  70
    32
  0
VERTEX
  8
AM_VIS
  5
515
 10
5.96506
 20
3.65419
 30
0.000000
  70
    32
  0
VERTEX
  8
AM_VIS
  5
516
 10
5.96514
 20
3.65465
 30
0.000000
  70
    32
  0
VERTEX
  8
AM_VIS
  5
517
 10
5.96523
 20
3.65510
 30
0.000000
  70
    32
  0
VERTEX
  8
AM_VIS
  5
518
 10
5.96531
 20
3.65556
 30
0.000000
  70
    32
  0
VERTEX
  8
AM_VIS
  5
519
 10
5.96539
 20
3.65601
 30
0.000000
  70
    32
  0
VERTEX
  8
AM_VIS
  5
51A
 10
5.96548
 20
3.65647
 30
0.000000
  70
    32
  0
VERTEX
  8
AM_VIS
  5
51B
 10
5.96556
 20
3.65692
 30
0.000000
  70
    32
  0
VERTEX
  8
AM_VIS
  5
51C
 10
5.96564
 20
3.65738
 30
0.000000
  70
    32
  0
VERTEX
  8
AM_VIS
  5
51D
 10
5.96573
 20
3.65784
 30
0.000000
  70
    32
  0
VERTEX
  8
AM_VIS
  5
51E
 10
5.96581
 20
3.65829
 30
0.000000
  70
    32
  0
VERTEX
  8
AM_VIS
  5
51F
 10
5.96590
 20
3.65875
 30
0.000000
  70
    32
  0
VERTEX
  8
AM_VIS
  5
520
 10
5.96598
 20
3.65921
 30
0.000000
  70
    32
  0
VERTEX
  8
AM_VIS
  5
521
 10
5.96606
 20
3.65967
 30
0.000000
  70
    32
  0
VERTEX
  8
AM_VIS
  5
522
 10
5.96615
 20
3.66012
 30
0.000000
  70
    32
  0
VERTEX
  8
AM_VIS
  5
523
 10
5.96623
 20
3.66058
 30
0.000000
  70
    32
  0
VERTEX
  8
AM_VIS
  5
524
 10
5.96632
 20
3.66104
 30
0.000000
  70
    32
  0
VERTEX
  8
AM_VIS
  5
525
 10
5.96640
 20
3.66150
 30
0.000000
  70
    32
  0
VERTEX
  8
AM_VIS
  5
526
 10
5.96649
 20
3.66196
 30
0.000000
  70
    32
  0
VERTEX
  8
AM_VIS
  5
527
 10
5.96657
 20
3.66242
 30
0.000000
  70
    32
  0
VERTEX
  8
AM_VIS
  5
528
 10
5.96666
 20
3.66288
 30
0.000000
  70
    32
  0
VERTEX
  8
AM_VIS
  5
529
 10
5.96674
 20
3.66334
 30
0.000000
  70
    32
  0
VERTEX
  8
AM_VIS
  5
52A
 10
5.96683
 20
3.66380
 30
0.000000
  70
    32
  0
VERTEX
  8
AM_VIS
  5
52B
 10
5.96691
 20
3.66426
 30
0.000000
  70
    32
  0
VERTEX
  8
AM_VIS
  5
52C
 10
5.96700
 20
3.66473
 30
0.000000
  70
    32
  0
VERTEX
  8
AM_VIS
  5
52D
 10
5.96709
 20
3.66519
 30
0.000000
  70
    32
  0
VERTEX
  8
AM_VIS
  5
52E
 10
5.96717
 20
3.66565
 30
0.000000
  70
    32
  0
VERTEX
  8
AM_VIS
  5
52F
 10
5.96726
 20
3.66611
 30
0.000000
  70
    32
  0
VERTEX
  8
AM_VIS
  5
530
 10
5.96734
 20
3.66658
 30
0.000000
  70
    32
  0
VERTEX
  8
AM_VIS
  5
531
 10
5.96743
 20
3.66704
 30
0.000000
  70
    32
  0
VERTEX
  8
AM_VIS
  5
532
 10
5.96752
 20
3.66750
 30
0.000000
  70
    32
  0
VERTEX
  8
AM_VIS
  5
533
 10
5.96760
 20
3.66797
 30
0.000000
  70
    32
  0
VERTEX
  8
AM_VIS
  5
534
 10
5.96769
 20
3.66843
 30
0.000000
  70
    32
  0
VERTEX
  8
AM_VIS
  5
535
 10
5.96778
 20
3.66890
 30
0.000000
  70
    32
  0
VERTEX
  8
AM_VIS
  5
536
 10
5.96786
 20
3.66936
 30
0.000000
  70
    32
  0
VERTEX
  8
AM_VIS
  5
537
 10
5.96795
 20
3.66983
 30
0.000000
  70
    32
  0
VERTEX
  8
AM_VIS
  5
538
 10
5.96804
 20
3.67030
 30
0.000000
  70
    32
  0
VERTEX
  8
AM_VIS
  5
539
 10
5.96812
 20
3.67076
 30
0.000000
  70
    32
  0
VERTEX
  8
AM_VIS
  5
53A
 10
5.96821
 20
3.67123
 30
0.000000
  70
    32
  0
VERTEX
  8
AM_VIS
  5
53B
 10
5.96830
 20
3.67170
 30
0.000000
  70
    32
  0
VERTEX
  8
AM_VIS
  5
53C
 10
5.96838
 20
3.67216
 30
0.000000
  70
    32
  0
VERTEX
  8
AM_VIS
  5
53D
 10
5.96847
 20
3.67263
 30
0.000000
  70
    32
  0
VERTEX
  8
AM_VIS
  5
53E
 10
5.96856
 20
3.67310
 30
0.000000
  70
    32
  0
VERTEX
  8
AM_VIS
  5
53F
 10
5.96865
 20
3.67357
 30
0.000000
  70
    32
  0
VERTEX
  8
AM_VIS
  5
540
 10
5.96873
 20
3.67404
 30
0.000000
  70
    32
  0
VERTEX
  8
AM_VIS
  5
541
 10
5.96882
 20
3.67451
 30
0.000000
  70
    32
  0
VERTEX
  8
AM_VIS
  5
542
 10
5.96891
 20
3.67498
 30
0.000000
  70
    32
  0
VERTEX
  8
AM_VIS
  5
543
 10
5.96900
 20
3.67545
 30
0.000000
  70
    32
  0
VERTEX
  8
AM_VIS
  5
544
 10
5.96908
 20
3.67592
 30
0.000000
  70
    32
  0
VERTEX
  8
AM_VIS
  5
545
 10
5.96917
 20
3.67639
 30
0.000000
  70
    32
  0
VERTEX
  8
AM_VIS
  5
546
 10
5.96926
 20
3.67686
 30
0.000000
  70
    32
  0
VERTEX
  8
AM_VIS
  5
547
 10
5.96935
 20
3.67733
 30
0.000000
  70
    32
  0
VERTEX
  8
AM_VIS
  5
548
 10
5.96944
 20
3.67780
 30
0.000000
  70
    32
  0
VERTEX
  8
AM_VIS
  5
549
 10
5.96952
 20
3.67827
 30
0.000000
  70
    32
  0
VERTEX
  8
AM_VIS
  5
54A
 10
5.96961
 20
3.67874
 30
0.000000
  70
    32
  0
VERTEX
  8
AM_VIS
  5
54B
 10
5.96970
 20
3.67922
 30
0.000000
  70
    32
  0
VERTEX
  8
AM_VIS
  5
54C
 10
5.96979
 20
3.67969
 30
0.000000
  70
    32
  0
VERTEX
  8
AM_VIS
  5
54D
 10
5.96988
 20
3.68016
 30
0.000000
  70
    32
  0
VERTEX
  8
AM_VIS
  5
54E
 10
5.96996
 20
3.68064
 30
0.000000
  70
    32
  0
VERTEX
  8
AM_VIS
  5
54F
 10
5.97005
 20
3.68111
 30
0.000000
  70
    32
  0
VERTEX
  8
AM_VIS
  5
550
 10
5.97014
 20
3.68159
 30
0.000000
  70
    32
  0
VERTEX
  8
AM_VIS
  5
551
 10
5.97023
 20
3.68206
 30
0.000000
  70
    32
  0
VERTEX
  8
AM_VIS
  5
552
 10
5.97032
 20
3.68254
 30
0.000000
  70
    32
  0
VERTEX
  8
AM_VIS
  5
553
 10
5.97040
 20
3.68301
 30
0.000000
  70
    32
  0
VERTEX
  8
AM_VIS
  5
554
 10
5.97049
 20
3.68349
 30
0.000000
  70
    32
  0
VERTEX
  8
AM_VIS
  5
555
 10
5.97058
 20
3.68396
 30
0.000000
  70
    32
  0
VERTEX
  8
AM_VIS
  5
556
 10
5.97067
 20
3.68444
 30
0.000000
  70
    32
  0
VERTEX
  8
AM_VIS
  5
557
 10
5.97076
 20
3.68492
 30
0.000000
  70
    32
  0
VERTEX
  8
AM_VIS
  5
558
 10
5.97085
 20
3.68539
 30
0.000000
  70
    32
  0
VERTEX
  8
AM_VIS
  5
559
 10
5.97094
 20
3.68587
 30
0.000000
  70
    32
  0
VERTEX
  8
AM_VIS
  5
55A
 10
5.97102
 20
3.68635
 30
0.000000
  70
    32
  0
VERTEX
  8
AM_VIS
  5
55B
 10
5.97111
 20
3.68683
 30
0.000000
  70
    32
  0
VERTEX
  8
AM_VIS
  5
55C
 10
5.97120
 20
3.68731
 30
0.000000
  70
    32
  0
VERTEX
  8
AM_VIS
  5
55D
 10
5.97129
 20
3.68778
 30
0.000000
  70
    32
  0
VERTEX
  8
AM_VIS
  5
55E
 10
5.97138
 20
3.68826
 30
0.000000
  70
    32
  0
VERTEX
  8
AM_VIS
  5
55F
 10
5.97147
 20
3.68874
 30
0.000000
  70
    32
  0
VERTEX
  8
AM_VIS
  5
560
 10
5.97155
 20
3.68922
 30
0.000000
  70
    32
  0
VERTEX
  8
AM_VIS
  5
561
 10
5.97164
 20
3.68970
 30
0.000000
  70
    32
  0
VERTEX
  8
AM_VIS
  5
562
 10
5.97173
 20
3.69018
 30
0.000000
  70
    32
  0
VERTEX
  8
AM_VIS
  5
563
 10
5.97182
 20
3.69067
 30
0.000000
  70
    32
  0
VERTEX
  8
AM_VIS
  5
564
 10
5.97191
 20
3.69115
 30
0.000000
  70
    32
  0
VERTEX
  8
AM_VIS
  5
565
 10
5.97200
 20
3.69163
 30
0.000000
  70
    32
  0
VERTEX
  8
AM_VIS
  5
566
 10
5.97209
 20
3.69211
 30
0.000000
  70
    32
  0
VERTEX
  8
AM_VIS
  5
567
 10
5.97217
 20
3.69259
 30
0.000000
  70
    32
  0
VERTEX
  8
AM_VIS
  5
568
 10
5.97226
 20
3.69308
 30
0.000000
  70
    32
  0
VERTEX
  8
AM_VIS
  5
569
 10
5.97235
 20
3.69356
 30
0.000000
  70
    32
  0
VERTEX
  8
AM_VIS
  5
56A
 10
5.97244
 20
3.69404
 30
0.000000
  70
    32
  0
VERTEX
  8
AM_VIS
  5
56B
 10
5.97253
 20
3.69453
 30
0.000000
  70
    32
  0
VERTEX
  8
AM_VIS
  5
56C
 10
5.97262
 20
3.69501
 30
0.000000
  70
    32
  0
VERTEX
  8
AM_VIS
  5
56D
 10
5.97270
 20
3.69549
 30
0.000000
  70
    32
  0
VERTEX
  8
AM_VIS
  5
56E
 10
5.97279
 20
3.69598
 30
0.000000
  70
    32
  0
VERTEX
  8
AM_VIS
  5
56F
 10
5.97288
 20
3.69646
 30
0.000000
  70
    32
  0
VERTEX
  8
AM_VIS
  5
570
 10
5.97297
 20
3.69695
 30
0.000000
  70
    32
  0
VERTEX
  8
AM_VIS
  5
571
 10
5.97306
 20
3.69744
 30
0.000000
  70
    32
  0
VERTEX
  8
AM_VIS
  5
572
 10
5.97315
 20
3.69792
 30
0.000000
  70
    32
  0
VERTEX
  8
AM_VIS
  5
573
 10
5.97323
 20
3.69841
 30
0.000000
  70
    32
  0
VERTEX
  8
AM_VIS
  5
574
 10
5.97332
 20
3.69890
 30
0.000000
  70
    32
  0
VERTEX
  8
AM_VIS
  5
575
 10
5.97341
 20
3.69938
 30
0.000000
  70
    32
  0
VERTEX
  8
AM_VIS
  5
576
 10
5.97350
 20
3.69987
 30
0.000000
  70
    32
  0
VERTEX
  8
AM_VIS
  5
577
 10
5.97359
 20
3.70036
 30
0.000000
  70
    32
  0
VERTEX
  8
AM_VIS
  5
578
 10
5.97367
 20
3.70085
 30
0.000000
  70
    32
  0
VERTEX
  8
AM_VIS
  5
579
 10
5.97376
 20
3.70134
 30
0.000000
  70
    32
  0
VERTEX
  8
AM_VIS
  5
57A
 10
5.97385
 20
3.70183
 30
0.000000
  70
    32
  0
VERTEX
  8
AM_VIS
  5
57B
 10
5.97394
 20
3.70231
 30
0.000000
  70
    32
  0
VERTEX
  8
AM_VIS
  5
57C
 10
5.97403
 20
3.70280
 30
0.000000
  70
    32
  0
VERTEX
  8
AM_VIS
  5
57D
 10
5.97411
 20
3.70329
 30
0.000000
  70
    32
  0
VERTEX
  8
AM_VIS
  5
57E
 10
5.97420
 20
3.70378
 30
0.000000
  70
    32
  0
VERTEX
  8
AM_VIS
  5
57F
 10
5.97429
 20
3.70428
 30
0.000000
  70
    32
  0
VERTEX
  8
AM_VIS
  5
580
 10
5.97438
 20
3.70477
 30
0.000000
  70
    32
  0
VERTEX
  8
AM_VIS
  5
581
 10
5.97446
 20
3.70526
 30
0.000000
  70
    32
  0
VERTEX
  8
AM_VIS
  5
582
 10
5.97455
 20
3.70575
 30
0.000000
  70
    32
  0
VERTEX
  8
AM_VIS
  5
583
 10
5.97464
 20
3.70624
 30
0.000000
  70
    32
  0
VERTEX
  8
AM_VIS
  5
584
 10
5.97473
 20
3.70673
 30
0.000000
  70
    32
  0
VERTEX
  8
AM_VIS
  5
585
 10
5.97481
 20
3.70723
 30
0.000000
  70
    32
  0
VERTEX
  8
AM_VIS
  5
586
 10
5.97490
 20
3.70772
 30
0.000000
  70
    32
  0
VERTEX
  8
AM_VIS
  5
587
 10
5.97499
 20
3.70821
 30
0.000000
  70
    32
  0
VERTEX
  8
AM_VIS
  5
588
 10
5.97507
 20
3.70871
 30
0.000000
  70
    32
  0
VERTEX
  8
AM_VIS
  5
589
 10
5.97516
 20
3.70920
 30
0.000000
  70
    32
  0
VERTEX
  8
AM_VIS
  5
58A
 10
5.97525
 20
3.70970
 30
0.000000
  70
    32
  0
VERTEX
  8
AM_VIS
  5
58B
 10
5.97533
 20
3.71019
 30
0.000000
  70
    32
  0
VERTEX
  8
AM_VIS
  5
58C
 10
5.97542
 20
3.71069
 30
0.000000
  70
    32
  0
VERTEX
  8
AM_VIS
  5
58D
 10
5.97551
 20
3.71118
 30
0.000000
  70
    32
  0
VERTEX
  8
AM_VIS
  5
58E
 10
5.97559
 20
3.71168
 30
0.000000
  70
    32
  0
VERTEX
  8
AM_VIS
  5
58F
 10
5.97568
 20
3.71217
 30
0.000000
  70
    32
  0
VERTEX
  8
AM_VIS
  5
590
 10
5.97577
 20
3.71267
 30
0.000000
  70
    32
  0
VERTEX
  8
AM_VIS
  5
591
 10
5.97585
 20
3.71317
 30
0.000000
  70
    32
  0
VERTEX
  8
AM_VIS
  5
592
 10
5.97594
 20
3.71366
 30
0.000000
  70
    32
  0
VERTEX
  8
AM_VIS
  5
593
 10
5.97602
 20
3.71416
 30
0.000000
  70
    32
  0
VERTEX
  8
AM_VIS
  5
594
 10
5.97611
 20
3.71466
 30
0.000000
  70
    32
  0
VERTEX
  8
AM_VIS
  5
595
 10
5.97620
 20
3.71516
 30
0.000000
  70
    32
  0
VERTEX
  8
AM_VIS
  5
596
 10
5.97628
 20
3.71566
 30
0.000000
  70
    32
  0
VERTEX
  8
AM_VIS
  5
597
 10
5.97637
 20
3.71616
 30
0.000000
  70
    32
  0
VERTEX
  8
AM_VIS
  5
598
 10
5.97645
 20
3.71666
 30
0.000000
  70
    32
  0
VERTEX
  8
AM_VIS
  5
599
 10
5.97654
 20
3.71716
 30
0.000000
  70
    32
  0
VERTEX
  8
AM_VIS
  5
59A
 10
5.97662
 20
3.71766
 30
0.000000
  70
    32
  0
VERTEX
  8
AM_VIS
  5
59B
 10
5.97671
 20
3.71816
 30
0.000000
  70
    32
  0
VERTEX
  8
AM_VIS
  5
59C
 10
5.97679
 20
3.71866
 30
0.000000
  70
    32
  0
VERTEX
  8
AM_VIS
  5
59D
 10
5.97688
 20
3.71916
 30
0.000000
  70
    32
  0
VERTEX
  8
AM_VIS
  5
59E
 10
5.97696
 20
3.71966
 30
0.000000
  70
    32
  0
VERTEX
  8
AM_VIS
  5
59F
 10
5.97705
 20
3.72016
 30
0.000000
  70
    32
  0
VERTEX
  8
AM_VIS
  5
5A0
 10
5.97713
 20
3.72066
 30
0.000000
  70
    32
  0
VERTEX
  8
AM_VIS
  5
5A1
 10
5.97721
 20
3.72117
 30
0.000000
  70
    32
  0
VERTEX
  8
AM_VIS
  5
5A2
 10
5.97730
 20
3.72167
 30
0.000000
  70
    32
  0
VERTEX
  8
AM_VIS
  5
5A3
 10
5.97738
 20
3.72217
 30
0.000000
  70
    32
  0
VERTEX
  8
AM_VIS
  5
5A4
 10
5.97747
 20
3.72268
 30
0.000000
  70
    32
  0
VERTEX
  8
AM_VIS
  5
5A5
 10
5.97755
 20
3.72318
 30
0.000000
  70
    32
  0
VERTEX
  8
AM_VIS
  5
5A6
 10
5.97763
 20
3.72368
 30
0.000000
  70
    32
  0
VERTEX
  8
AM_VIS
  5
5A7
 10
5.97772
 20
3.72419
 30
0.000000
  70
    32
  0
VERTEX
  8
AM_VIS
  5
5A8
 10
5.97780
 20
3.72469
 30
0.000000
  70
    32
  0
VERTEX
  8
AM_VIS
  5
5A9
 10
5.97788
 20
3.72520
 30
0.000000
  70
    32
  0
VERTEX
  8
AM_VIS
  5
5AA
 10
5.97797
 20
3.72570
 30
0.000000
  70
    32
  0
VERTEX
  8
AM_VIS
  5
5AB
 10
5.97805
 20
3.72621
 30
0.000000
  70
    32
  0
VERTEX
  8
AM_VIS
  5
5AC
 10
5.97813
 20
3.72672
 30
0.000000
  70
    32
  0
VERTEX
  8
AM_VIS
  5
5AD
 10
5.97822
 20
3.72722
 30
0.000000
  70
    32
  0
VERTEX
  8
AM_VIS
  5
5AE
 10
5.97830
 20
3.72773
 30
0.000000
  70
    32
  0
VERTEX
  8
AM_VIS
  5
5AF
 10
5.97838
 20
3.72824
 30
0.000000
  70
    32
  0
VERTEX
  8
AM_VIS
  5
5B0
 10
5.97846
 20
3.72874
 30
0.000000
  70
    32
  0
VERTEX
  8
AM_VIS
  5
5B1
 10
5.97854
 20
3.72925
 30
0.000000
  70
    32
  0
VERTEX
  8
AM_VIS
  5
5B2
 10
5.97863
 20
3.72976
 30
0.000000
  70
    32
  0
VERTEX
  8
AM_VIS
  5
5B3
 10
5.97871
 20
3.73027
 30
0.000000
  70
    32
  0
VERTEX
  8
AM_VIS
  5
5B4
 10
5.97879
 20
3.73078
 30
0.000000
  70
    32
  0
VERTEX
  8
AM_VIS
  5
5B5
 10
5.97887
 20
3.73129
 30
0.000000
  70
    32
  0
VERTEX
  8
AM_VIS
  5
5B6
 10
5.97895
 20
3.73180
 30
0.000000
  70
    32
  0
VERTEX
  8
AM_VIS
  5
5B7
 10
5.97903
 20
3.73231
 30
0.000000
  70
    32
  0
VERTEX
  8
AM_VIS
  5
5B8
 10
5.97911
 20
3.73282
 30
0.000000
  70
    32
  0
VERTEX
  8
AM_VIS
  5
5B9
 10
5.97919
 20
3.73333
 30
0.000000
  70
    32
  0
VERTEX
  8
AM_VIS
  5
5BA
 10
5.97927
 20
3.73384
 30
0.000000
  70
    32
  0
VERTEX
  8
AM_VIS
  5
5BB
 10
5.97935
 20
3.73435
 30
0.000000
  70
    32
  0
VERTEX
  8
AM_VIS
  5
5BC
 10
5.97943
 20
3.73486
 30
0.000000
  70
    32
  0
VERTEX
  8
AM_VIS
  5
5BD
 10
5.97951
 20
3.73537
 30
0.000000
  70
    32
  0
VERTEX
  8
AM_VIS
  5
5BE
 10
5.97959
 20
3.73589
 30
0.000000
  70
    32
  0
VERTEX
  8
AM_VIS
  5
5BF
 10
5.97967
 20
3.73640
 30
0.000000
  70
    32
  0
VERTEX
  8
AM_VIS
  5
5C0
 10
5.97975
 20
3.73691
 30
0.000000
  70
    32
  0
VERTEX
  8
AM_VIS
  5
5C1
 10
5.97983
 20
3.73743
 30
0.000000
  70
    32
  0
VERTEX
  8
AM_VIS
  5
5C2
 10
5.97991
 20
3.73794
 30
0.000000
  70
    32
  0
VERTEX
  8
AM_VIS
  5
5C3
 10
5.97999
 20
3.73845
 30
0.000000
  70
    32
  0
VERTEX
  8
AM_VIS
  5
5C4
 10
5.98007
 20
3.73897
 30
0.000000
  70
    32
  0
VERTEX
  8
AM_VIS
  5
5C5
 10
5.98014
 20
3.73948
 30
0.000000
  70
    32
  0
VERTEX
  8
AM_VIS
  5
5C6
 10
5.98022
 20
3.74000
 30
0.000000
  70
    32
  0
VERTEX
  8
AM_VIS
  5
5C7
 10
5.98030
 20
3.74051
 30
0.000000
  70
    32
  0
VERTEX
  8
AM_VIS
  5
5C8
 10
5.98038
 20
3.74103
 30
0.000000
  70
    32
  0
VERTEX
  8
AM_VIS
  5
5C9
 10
5.98045
 20
3.74154
 30
0.000000
  70
    32
  0
VERTEX
  8
AM_VIS
  5
5CA
 10
5.98053
 20
3.74206
 30
0.000000
  70
    32
  0
VERTEX
  8
AM_VIS
  5
5CB
 10
5.98061
 20
3.74257
 30
0.000000
  70
    32
  0
VERTEX
  8
AM_VIS
  5
5CC
 10
5.98068
 20
3.74308
 30
0.000000
  70
    32
  0
VERTEX
  8
AM_VIS
  5
5CD
 10
5.98076
 20
3.74360
 30
0.000000
  70
    32
  0
VERTEX
  8
AM_VIS
  5
5CE
 10
5.98084
 20
3.74411
 30
0.000000
  70
    32
  0
VERTEX
  8
AM_VIS
  5
5CF
 10
5.98091
 20
3.74463
 30
0.000000
  70
    32
  0
VERTEX
  8
AM_VIS
  5
5D0
 10
5.98099
 20
3.74514
 30
0.000000
  70
    32
  0
VERTEX
  8
AM_VIS
  5
5D1
 10
5.98106
 20
3.74566
 30
0.000000
  70
    32
  0
VERTEX
  8
AM_VIS
  5
5D2
 10
5.98114
 20
3.74617
 30
0.000000
  70
    32
  0
VERTEX
  8
AM_VIS
  5
5D3
 10
5.98121
 20
3.74669
 30
0.000000
  70
    32
  0
VERTEX
  8
AM_VIS
  5
5D4
 10
5.98128
 20
3.74720
 30
0.000000
  70
    32
  0
VERTEX
  8
AM_VIS
  5
5D5
 10
5.98136
 20
3.74771
 30
0.000000
  70
    32
  0
VERTEX
  8
AM_VIS
  5
5D6
 10
5.98143
 20
3.74823
 30
0.000000
  70
    32
  0
VERTEX
  8
AM_VIS
  5
5D7
 10
5.98151
 20
3.74874
 30
0.000000
  70
    32
  0
VERTEX
  8
AM_VIS
  5
5D8
 10
5.98158
 20
3.74926
 30
0.000000
  70
    32
  0
VERTEX
  8
AM_VIS
  5
5D9
 10
5.98165
 20
3.74977
 30
0.000000
  70
    32
  0
VERTEX
  8
AM_VIS
  5
5DA
 10
5.98172
 20
3.75029
 30
0.000000
  70
    32
  0
VERTEX
  8
AM_VIS
  5
5DB
 10
5.98180
 20
3.75080
 30
0.000000
  70
    32
  0
VERTEX
  8
AM_VIS
  5
5DC
 10
5.98187
 20
3.75131
 30
0.000000
  70
    32
  0
VERTEX
  8
AM_VIS
  5
5DD
 10
5.98194
 20
3.75183
 30
0.000000
  70
    32
  0
VERTEX
  8
AM_VIS
  5
5DE
 10
5.98201
 20
3.75234
 30
0.000000
  70
    32
  0
VERTEX
  8
AM_VIS
  5
5DF
 10
5.98208
 20
3.75286
 30
0.000000
  70
    32
  0
VERTEX
  8
AM_VIS
  5
5E0
 10
5.98215
 20
3.75337
 30
0.000000
  70
    32
  0
VERTEX
  8
AM_VIS
  5
5E1
 10
5.98222
 20
3.75389
 30
0.000000
  70
    32
  0
VERTEX
  8
AM_VIS
  5
5E2
 10
5.98229
 20
3.75440
 30
0.000000
  70
    32
  0
VERTEX
  8
AM_VIS
  5
5E3
 10
5.98236
 20
3.75491
 30
0.000000
  70
    32
  0
VERTEX
  8
AM_VIS
  5
5E4
 10
5.98243
 20
3.75543
 30
0.000000
  70
    32
  0
VERTEX
  8
AM_VIS
  5
5E5
 10
5.98250
 20
3.75594
 30
0.000000
  70
    32
  0
VERTEX
  8
AM_VIS
  5
5E6
 10
5.98257
 20
3.75646
 30
0.000000
  70
    32
  0
VERTEX
  8
AM_VIS
  5
5E7
 10
5.98264
 20
3.75697
 30
0.000000
  70
    32
  0
VERTEX
  8
AM_VIS
  5
5E8
 10
5.98271
 20
3.75749
 30
0.000000
  70
    32
  0
VERTEX
  8
AM_VIS
  5
5E9
 10
5.98277
 20
3.75800
 30
0.000000
  70
    32
  0
VERTEX
  8
AM_VIS
  5
5EA
 10
5.98284
 20
3.75852
 30
0.000000
  70
    32
  0
VERTEX
  8
AM_VIS
  5
5EB
 10
5.98291
 20
3.75903
 30
0.000000
  70
    32
  0
VERTEX
  8
AM_VIS
  5
5EC
 10
5.98298
 20
3.75954
 30
0.000000
  70
    32
  0
VERTEX
  8
AM_VIS
  5
5ED
 10
5.98304
 20
3.76006
 30
0.000000
  70
    32
  0
VERTEX
  8
AM_VIS
  5
5EE
 10
5.98311
 20
3.76057
 30
0.000000
  70
    32
  0
VERTEX
  8
AM_VIS
  5
5EF
 10
5.98318
 20
3.76109
 30
0.000000
  70
    32
  0
VERTEX
  8
AM_VIS
  5
5F0
 10
5.98324
 20
3.76160
 30
0.000000
  70
    32
  0
VERTEX
  8
AM_VIS
  5
5F1
 10
5.98331
 20
3.76212
 30
0.000000
  70
    32
  0
VERTEX
  8
AM_VIS
  5
5F2
 10
5.98337
 20
3.76263
 30
0.000000
  70
    32
  0
VERTEX
  8
AM_VIS
  5
5F3
 10
5.98344
 20
3.76315
 30
0.000000
  70
    32
  0
VERTEX
  8
AM_VIS
  5
5F4
 10
5.98350
 20
3.76366
 30
0.000000
  70
    32
  0
VERTEX
  8
AM_VIS
  5
5F5
 10
5.98357
 20
3.76418
 30
0.000000
  70
    32
  0
VERTEX
  8
AM_VIS
  5
5F6
 10
5.98363
 20
3.76469
 30
0.000000
  70
    32
  0
VERTEX
  8
AM_VIS
  5
5F7
 10
5.98369
 20
3.76521
 30
0.000000
  70
    32
  0
VERTEX
  8
AM_VIS
  5
5F8
 10
5.98376
 20
3.76572
 30
0.000000
  70
    32
  0
VERTEX
  8
AM_VIS
  5
5F9
 10
5.98382
 20
3.76624
 30
0.000000
  70
    32
  0
VERTEX
  8
AM_VIS
  5
5FA
 10
5.98388
 20
3.76675
 30
0.000000
  70
    32
  0
VERTEX
  8
AM_VIS
  5
5FB
 10
5.98395
 20
3.76727
 30
0.000000
  70
    32
  0
VERTEX
  8
AM_VIS
  5
5FC
 10
5.98401
 20
3.76778
 30
0.000000
  70
    32
  0
VERTEX
  8
AM_VIS
  5
5FD
 10
5.98407
 20
3.76830
 30
0.000000
  70
    32
  0
VERTEX
  8
AM_VIS
  5
5FE
 10
5.98413
 20
3.76881
 30
0.000000
  70
    32
  0
VERTEX
  8
AM_VIS
  5
5FF
 10
5.98419
 20
3.76933
 30
0.000000
  70
    32
  0
VERTEX
  8
AM_VIS
  5
600
 10
5.98425
 20
3.76984
 30
0.000000
  70
    32
  0
VERTEX
  8
AM_VIS
  5
601
 10
5.98431
 20
3.77036
 30
0.000000
  70
    32
  0
VERTEX
  8
AM_VIS
  5
602
 10
5.98437
 20
3.77087
 30
0.000000
  70
    32
  0
VERTEX
  8
AM_VIS
  5
603
 10
5.98443
 20
3.77139
 30
0.000000
  70
    32
  0
VERTEX
  8
AM_VIS
  5
604
 10
5.98449
 20
3.77190
 30
0.000000
  70
    32
  0
VERTEX
  8
AM_VIS
  5
605
 10
5.98455
 20
3.77242
 30
0.000000
  70
    32
  0
VERTEX
  8
AM_VIS
  5
606
 10
5.98461
 20
3.77293
 30
0.000000
  70
    32
  0
VERTEX
  8
AM_VIS
  5
607
 10
5.98467
 20
3.77345
 30
0.000000
  70
    32
  0
VERTEX
  8
AM_VIS
  5
608
 10
5.98473
 20
3.77396
 30
0.000000
  70
    32
  0
VERTEX
  8
AM_VIS
  5
609
 10
5.98479
 20
3.77448
 30
0.000000
  70
    32
  0
VERTEX
  8
AM_VIS
  5
60A
 10
5.98484
 20
3.77500
 30
0.000000
  70
    32
  0
VERTEX
  8
AM_VIS
  5
60B
 10
5.98490
 20
3.77551
 30
0.000000
  70
    32
  0
VERTEX
  8
AM_VIS
  5
60C
 10
5.98496
 20
3.77603
 30
0.000000
  70
    32
  0
VERTEX
  8
AM_VIS
  5
60D
 10
5.98502
 20
3.77654
 30
0.000000
  70
    32
  0
VERTEX
  8
AM_VIS
  5
60E
 10
5.98507
 20
3.77706
 30
0.000000
  70
    32
  0
VERTEX
  8
AM_VIS
  5
60F
 10
5.98513
 20
3.77758
 30
0.000000
  70
    32
  0
VERTEX
  8
AM_VIS
  5
610
 10
5.98518
 20
3.77809
 30
0.000000
  70
    32
  0
VERTEX
  8
AM_VIS
  5
611
 10
5.98524
 20
3.77861
 30
0.000000
  70
    32
  0
VERTEX
  8
AM_VIS
  5
612
 10
5.98529
 20
3.77912
 30
0.000000
  70
    32
  0
VERTEX
  8
AM_VIS
  5
613
 10
5.98535
 20
3.77964
 30
0.000000
  70
    32
  0
VERTEX
  8
AM_VIS
  5
614
 10
5.98540
 20
3.78016
 30
0.000000
  70
    32
  0
VERTEX
  8
AM_VIS
  5
615
 10
5.98546
 20
3.78067
 30
0.000000
  70
    32
  0
VERTEX
  8
AM_VIS
  5
616
 10
5.98551
 20
3.78119
 30
0.000000
  70
    32
  0
VERTEX
  8
AM_VIS
  5
617
 10
5.98556
 20
3.78171
 30
0.000000
  70
    32
  0
VERTEX
  8
AM_VIS
  5
618
 10
5.98562
 20
3.78222
 30
0.000000
  70
    32
  0
VERTEX
  8
AM_VIS
  5
619
 10
5.98567
 20
3.78274
 30
0.000000
  70
    32
  0
VERTEX
  8
AM_VIS
  5
61A
 10
5.98572
 20
3.78326
 30
0.000000
  70
    32
  0
VERTEX
  8
AM_VIS
  5
61B
 10
5.98577
 20
3.78377
 30
0.000000
  70
    32
  0
VERTEX
  8
AM_VIS
  5
61C
 10
5.98582
 20
3.78429
 30
0.000000
  70
    32
  0
VERTEX
  8
AM_VIS
  5
61D
 10
5.98587
 20
3.78481
 30
0.000000
  70
    32
  0
VERTEX
  8
AM_VIS
  5
61E
 10
5.98593
 20
3.78533
 30
0.000000
  70
    32
  0
VERTEX
  8
AM_VIS
  5
61F
 10
5.98598
 20
3.78584
 30
0.000000
  70
    32
  0
VERTEX
  8
AM_VIS
  5
620
 10
5.98603
 20
3.78636
 30
0.000000
  70
    32
  0
VERTEX
  8
AM_VIS
  5
621
 10
5.98608
 20
3.78688
 30
0.000000
  70
    32
  0
VERTEX
  8
AM_VIS
  5
622
 10
5.98612
 20
3.78740
 30
0.000000
  70
    32
  0
VERTEX
  8
AM_VIS
  5
623
 10
5.98617
 20
3.78791
 30
0.000000
  70
    32
  0
VERTEX
  8
AM_VIS
  5
624
 10
5.98622
 20
3.78843
 30
0.000000
  70
    32
  0
VERTEX
  8
AM_VIS
  5
625
 10
5.98627
 20
3.78895
 30
0.000000
  70
    32
  0
VERTEX
  8
AM_VIS
  5
626
 10
5.98632
 20
3.78947
 30
0.000000
  70
    32
  0
VERTEX
  8
AM_VIS
  5
627
 10
5.98637
 20
3.78999
 30
0.000000
  70
    32
  0
VERTEX
  8
AM_VIS
  5
628
 10
5.98641
 20
3.79050
 30
0.000000
  70
    32
  0
VERTEX
  8
AM_VIS
  5
629
 10
5.98646
 20
3.79102
 30
0.000000
  70
    32
  0
VERTEX
  8
AM_VIS
  5
62A
 10
5.98651
 20
3.79154
 30
0.000000
  70
    32
  0
VERTEX
  8
AM_VIS
  5
62B
 10
5.98655
 20
3.79206
 30
0.000000
  70
    32
  0
VERTEX
  8
AM_VIS
  5
62C
 10
5.98660
 20
3.79258
 30
0.000000
  70
    32
  0
VERTEX
  8
AM_VIS
  5
62D
 10
5.98664
 20
3.79310
 30
0.000000
  70
    32
  0
VERTEX
  8
AM_VIS
  5
62E
 10
5.98669
 20
3.79362
 30
0.000000
  70
    32
  0
VERTEX
  8
AM_VIS
  5
62F
 10
5.98673
 20
3.79414
 30
0.000000
  70
    32
  0
VERTEX
  8
AM_VIS
  5
630
 10
5.98678
 20
3.79465
 30
0.000000
  70
    32
  0
VERTEX
  8
AM_VIS
  5
631
 10
5.98682
 20
3.79517
 30
0.000000
  70
    32
  0
VERTEX
  8
AM_VIS
  5
632
 10
5.98687
 20
3.79569
 30
0.000000
  70
    32
  0
VERTEX
  8
AM_VIS
  5
633
 10
5.98691
 20
3.79621
 30
0.000000
  70
    32
  0
VERTEX
  8
AM_VIS
  5
634
 10
5.98695
 20
3.79673
 30
0.000000
  70
    32
  0
VERTEX
  8
AM_VIS
  5
635
 10
5.98699
 20
3.79725
 30
0.000000
  70
    32
  0
VERTEX
  8
AM_VIS
  5
636
 10
5.98704
 20
3.79777
 30
0.000000
  70
    32
  0
VERTEX
  8
AM_VIS
  5
637
 10
5.98708
 20
3.79829
 30
0.000000
  70
    32
  0
VERTEX
  8
AM_VIS
  5
638
 10
5.98712
 20
3.79881
 30
0.000000
  70
    32
  0
VERTEX
  8
AM_VIS
  5
639
 10
5.98716
 20
3.79933
 30
0.000000
  70
    32
  0
VERTEX
  8
AM_VIS
  5
63A
 10
5.98720
 20
3.79985
 30
0.000000
  70
    32
  0
VERTEX
  8
AM_VIS
  5
63B
 10
5.98724
 20
3.80037
 30
0.000000
  70
    32
  0
VERTEX
  8
AM_VIS
  5
63C
 10
5.98728
 20
3.80089
 30
0.000000
  70
    32
  0
VERTEX
  8
AM_VIS
  5
63D
 10
5.98732
 20
3.80142
 30
0.000000
  70
    32
  0
VERTEX
  8
AM_VIS
  5
63E
 10
5.98736
 20
3.80194
 30
0.000000
  70
    32
  0
VERTEX
  8
AM_VIS
  5
63F
 10
5.98740
 20
3.80246
 30
0.000000
  70
    32
  0
VERTEX
  8
AM_VIS
  5
640
 10
5.98744
 20
3.80298
 30
0.000000
  70
    32
  0
VERTEX
  8
AM_VIS
  5
641
 10
5.98747
 20
3.80350
 30
0.000000
  70
    32
  0
VERTEX
  8
AM_VIS
  5
642
 10
5.98751
 20
3.80402
 30
0.000000
  70
    32
  0
VERTEX
  8
AM_VIS
  5
643
 10
5.98755
 20
3.80454
 30
0.000000
  70
    32
  0
VERTEX
  8
AM_VIS
  5
644
 10
5.98758
 20
3.80506
 30
0.000000
  70
    32
  0
VERTEX
  8
AM_VIS
  5
645
 10
5.98762
 20
3.80559
 30
0.000000
  70
    32
  0
VERTEX
  8
AM_VIS
  5
646
 10
5.98766
 20
3.80611
 30
0.000000
  70
    32
  0
VERTEX
  8
AM_VIS
  5
647
 10
5.98769
 20
3.80663
 30
0.000000
  70
    32
  0
VERTEX
  8
AM_VIS
  5
648
 10
5.98773
 20
3.80715
 30
0.000000
  70
    32
  0
VERTEX
  8
AM_VIS
  5
649
 10
5.98776
 20
3.80768
 30
0.000000
  70
    32
  0
VERTEX
  8
AM_VIS
  5
64A
 10
5.98780
 20
3.80820
 30
0.000000
  70
    32
  0
VERTEX
  8
AM_VIS
  5
64B
 10
5.98783
 20
3.80872
 30
0.000000
  70
    32
  0
VERTEX
  8
AM_VIS
  5
64C
 10
5.98786
 20
3.80924
 30
0.000000
  70
    32
  0
VERTEX
  8
AM_VIS
  5
64D
 10
5.98790
 20
3.80976
 30
0.000000
  70
    32
  0
VERTEX
  8
AM_VIS
  5
64E
 10
5.98793
 20
3.81029
 30
0.000000
  70
    32
  0
VERTEX
  8
AM_VIS
  5
64F
 10
5.98796
 20
3.81081
 30
0.000000
  70
    32
  0
VERTEX
  8
AM_VIS
  5
650
 10
5.98799
 20
3.81133
 30
0.000000
  70
    32
  0
VERTEX
  8
AM_VIS
  5
651
 10
5.98803
 20
3.81185
 30
0.000000
  70
    32
  0
VERTEX
  8
AM_VIS
  5
652
 10
5.98806
 20
3.81238
 30
0.000000
  70
    32
  0
VERTEX
  8
AM_VIS
  5
653
 10
5.98809
 20
3.81290
 30
0.000000
  70
    32
  0
VERTEX
  8
AM_VIS
  5
654
 10
5.98812
 20
3.81342
 30
0.000000
  70
    32
  0
VERTEX
  8
AM_VIS
  5
655
 10
5.98815
 20
3.81394
 30
0.000000
  70
    32
  0
VERTEX
  8
AM_VIS
  5
656
 10
5.98818
 20
3.81446
 30
0.000000
  70
    32
  0
VERTEX
  8
AM_VIS
  5
657
 10
5.98821
 20
3.81499
 30
0.000000
  70
    32
  0
VERTEX
  8
AM_VIS
  5
658
 10
5.98823
 20
3.81551
 30
0.000000
  70
    32
  0
VERTEX
  8
AM_VIS
  5
659
 10
5.98826
 20
3.81603
 30
0.000000
  70
    32
  0
VERTEX
  8
AM_VIS
  5
65A
 10
5.98829
 20
3.81655
 30
0.000000
  70
    32
  0
VERTEX
  8
AM_VIS
  5
65B
 10
5.98832
 20
3.81708
 30
0.000000
  70
    32
  0
VERTEX
  8
AM_VIS
  5
65C
 10
5.98835
 20
3.81760
 30
0.000000
  70
    32
  0
VERTEX
  8
AM_VIS
  5
65D
 10
5.98837
 20
3.81812
 30
0.000000
  70
    32
  0
VERTEX
  8
AM_VIS
  5
65E
 10
5.98840
 20
3.81864
 30
0.000000
  70
    32
  0
VERTEX
  8
AM_VIS
  5
65F
 10
5.98842
 20
3.81917
 30
0.000000
  70
    32
  0
VERTEX
  8
AM_VIS
  5
660
 10
5.98845
 20
3.81969
 30
0.000000
  70
    32
  0
VERTEX
  8
AM_VIS
  5
661
 10
5.98847
 20
3.82021
 30
0.000000
  70
    32
  0
VERTEX
  8
AM_VIS
  5
662
 10
5.98850
 20
3.82073
 30
0.000000
  70
    32
  0
VERTEX
  8
AM_VIS
  5
663
 10
5.98852
 20
3.82126
 30
0.000000
  70
    32
  0
VERTEX
  8
AM_VIS
  5
664
 10
5.98855
 20
3.82178
 30
0.000000
  70
    32
  0
VERTEX
  8
AM_VIS
  5
665
 10
5.98857
 20
3.82230
 30
0.000000
  70
    32
  0
VERTEX
  8
AM_VIS
  5
666
 10
5.98859
 20
3.82282
 30
0.000000
  70
    32
  0
VERTEX
  8
AM_VIS
  5
667
 10
5.98862
 20
3.82335
 30
0.000000
  70
    32
  0
VERTEX
  8
AM_VIS
  5
668
 10
5.98864
 20
3.82387
 30
0.000000
  70
    32
  0
VERTEX
  8
AM_VIS
  5
669
 10
5.98866
 20
3.82439
 30
0.000000
  70
    32
  0
VERTEX
  8
AM_VIS
  5
66A
 10
5.98868
 20
3.82491
 30
0.000000
  70
    32
  0
VERTEX
  8
AM_VIS
  5
66B
 10
5.98870
 20
3.82544
 30
0.000000
  70
    32
  0
VERTEX
  8
AM_VIS
  5
66C
 10
5.98872
 20
3.82596
 30
0.000000
  70
    32
  0
VERTEX
  8
AM_VIS
  5
66D
 10
5.98874
 20
3.82648
 30
0.000000
  70
    32
  0
VERTEX
  8
AM_VIS
  5
66E
 10
5.98876
 20
3.82700
 30
0.000000
  70
    32
  0
VERTEX
  8
AM_VIS
  5
66F
 10
5.98878
 20
3.82753
 30
0.000000
  70
    32
  0
VERTEX
  8
AM_VIS
  5
670
 10
5.98880
 20
3.82805
 30
0.000000
  70
    32
  0
VERTEX
  8
AM_VIS
  5
671
 10
5.98882
 20
3.82857
 30
0.000000
  70
    32
  0
VERTEX
  8
AM_VIS
  5
672
 10
5.98884
 20
3.82910
 30
0.000000
  70
    32
  0
VERTEX
  8
AM_VIS
  5
673
 10
5.98885
 20
3.82962
 30
0.000000
  70
    32
  0
VERTEX
  8
AM_VIS
  5
674
 10
5.98887
 20
3.83014
 30
0.000000
  70
    32
  0
VERTEX
  8
AM_VIS
  5
675
 10
5.98889
 20
3.83067
 30
0.000000
  70
    32
  0
VERTEX
  8
AM_VIS
  5
676
 10
5.98890
 20
3.83119
 30
0.000000
  70
    32
  0
VERTEX
  8
AM_VIS
  5
677
 10
5.98892
 20
3.83171
 30
0.000000
  70
    32
  0
VERTEX
  8
AM_VIS
  5
678
 10
5.98894
 20
3.83224
 30
0.000000
  70
    32
  0
VERTEX
  8
AM_VIS
  5
679
 10
5.98895
 20
3.83276
 30
0.000000
  70
    32
  0
VERTEX
  8
AM_VIS
  5
67A
 10
5.98897
 20
3.83328
 30
0.000000
  70
    32
  0
VERTEX
  8
AM_VIS
  5
67B
 10
5.98898
 20
3.83381
 30
0.000000
  70
    32
  0
VERTEX
  8
AM_VIS
  5
67C
 10
5.98899
 20
3.83433
 30
0.000000
  70
    32
  0
VERTEX
  8
AM_VIS
  5
67D
 10
5.98901
 20
3.83485
 30
0.000000
  70
    32
  0
VERTEX
  8
AM_VIS
  5
67E
 10
5.98902
 20
3.83538
 30
0.000000
  70
    32
  0
VERTEX
  8
AM_VIS
  5
67F
 10
5.98903
 20
3.83590
 30
0.000000
  70
    32
  0
VERTEX
  8
AM_VIS
  5
680
 10
5.98904
 20
3.83642
 30
0.000000
  70
    32
  0
VERTEX
  8
AM_VIS
  5
681
 10
5.98906
 20
3.83695
 30
0.000000
  70
    32
  0
VERTEX
  8
AM_VIS
  5
682
 10
5.98907
 20
3.83747
 30
0.000000
  70
    32
  0
VERTEX
  8
AM_VIS
  5
683
 10
5.98908
 20
3.83800
 30
0.000000
  70
    32
  0
VERTEX
  8
AM_VIS
  5
684
 10
5.98909
 20
3.83852
 30
0.000000
  70
    32
  0
VERTEX
  8
AM_VIS
  5
685
 10
5.98910
 20
3.83904
 30
0.000000
  70
    32
  0
VERTEX
  8
AM_VIS
  5
686
 10
5.98911
 20
3.83957
 30
0.000000
  70
    32
  0
VERTEX
  8
AM_VIS
  5
687
 10
5.98912
 20
3.84009
 30
0.000000
  70
    32
  0
VERTEX
  8
AM_VIS
  5
688
 10
5.98913
 20
3.84061
 30
0.000000
  70
    32
  0
VERTEX
  8
AM_VIS
  5
689
 10
5.98913
 20
3.84114
 30
0.000000
  70
    32
  0
VERTEX
  8
AM_VIS
  5
68A
 10
5.98914
 20
3.84166
 30
0.000000
  70
    32
  0
VERTEX
  8
AM_VIS
  5
68B
 10
5.98915
 20
3.84218
 30
0.000000
  70
    32
  0
VERTEX
  8
AM_VIS
  5
68C
 10
5.98916
 20
3.84271
 30
0.000000
  70
    32
  0
VERTEX
  8
AM_VIS
  5
68D
 10
5.98916
 20
3.84323
 30
0.000000
  70
    32
  0
VERTEX
  8
AM_VIS
  5
68E
 10
5.98917
 20
3.84375
 30
0.000000
  70
    32
  0
VERTEX
  8
AM_VIS
  5
68F
 10
5.98918
 20
3.84428
 30
0.000000
  70
    32
  0
VERTEX
  8
AM_VIS
  5
690
 10
5.98918
 20
3.84480
 30
0.000000
  70
    32
  0
VERTEX
  8
AM_VIS
  5
691
 10
5.98919
 20
3.84533
 30
0.000000
  70
    32
  0
VERTEX
  8
AM_VIS
  5
692
 10
5.98919
 20
3.84585
 30
0.000000
  70
    32
  0
VERTEX
  8
AM_VIS
  5
693
 10
5.98919
 20
3.84637
 30
0.000000
  70
    32
  0
VERTEX
  8
AM_VIS
  5
694
 10
5.98920
 20
3.84690
 30
0.000000
  70
    32
  0
VERTEX
  8
AM_VIS
  5
695
 10
5.98920
 20
3.84742
 30
0.000000
  70
    32
  0
VERTEX
  8
AM_VIS
  5
696
 10
5.98920
 20
3.84794
 30
0.000000
  70
    32
  0
VERTEX
  8
AM_VIS
  5
697
 10
5.98921
 20
3.84847
 30
0.000000
  70
    32
  0
VERTEX
  8
AM_VIS
  5
698
 10
5.98921
 20
3.84899
 30
0.000000
  70
    32
  0
VERTEX
  8
AM_VIS
  5
699
 10
5.98921
 20
3.84951
 30
0.000000
  70
    32
  0
VERTEX
  8
AM_VIS
  5
69A
 10
5.98921
 20
3.85004
 30
0.000000
  70
    32
  0
VERTEX
  8
AM_VIS
  5
69B
 10
5.98921
 20
3.85056
 30
0.000000
  70
    32
  0
VERTEX
  8
AM_VIS
  5
69C
 10
5.98921
 20
3.85108
 30
0.000000
  70
    32
  0
SEQEND
  8
AM_VIS
  5
69D
  0
LINE
  5
32
  8
AM_VIS
 10
5.984527764142288
 20
4.225977457077347
 30
0.0
 11
6.6221347922214333
 21
4.8635844851564931
 31
0.0
  0
LINE
  5
33
  8
AM_VIS
 10
5.984527764142288
 20
3.476191513235642
 30
0.0
 11
6.6221347922214333
 21
2.8385844851564959
 31
0.0
  0
POLYLINE
  8
AM_VIS
  5
69E
  66
     1
 10
0.000000
 20
0.000000
 30
0.000000
  70
     8
  0
VERTEX
  8
AM_VIS
  5
69F
 10
5.84009
 20
4.13494
 30
0.000000
  70
    32
  0
VERTEX
  8
AM_VIS
  5
6A0
 10
5.83910
 20
4.13574
 30
0.000000
  70
    32
  0
VERTEX
  8
AM_VIS
  5
6A1
 10
5.83811
 20
4.13654
 30
0.000000
  70
    32
  0
VERTEX
  8
AM_VIS
  5
6A2
 10
5.83712
 20
4.13733
 30
0.000000
  70
    32
  0
VERTEX
  8
AM_VIS
  5
6A3
 10
5.83612
 20
4.13812
 30
0.000000
  70
    32
  0
VERTEX
  8
AM_VIS
  5
6A4
 10
5.83512
 20
4.13891
 30
0.000000
  70
    32
  0
VERTEX
  8
AM_VIS
  5
6A5
 10
5.83412
 20
4.13970
 30
0.000000
  70
    32
  0
VERTEX
  8
AM_VIS
  5
6A6
 10
5.83312
 20
4.14048
 30
0.000000
  70
    32
  0
VERTEX
  8
AM_VIS
  5
6A7
 10
5.83212
 20
4.14126
 30
0.000000
  70
    32
  0
VERTEX
  8
AM_VIS
  5
6A8
 10
5.83112
 20
4.14204
 30
0.000000
  70
    32
  0
VERTEX
  8
AM_VIS
  5
6A9
 10
5.83011
 20
4.14282
 30
0.000000
  70
    32
  0
VERTEX
  8
AM_VIS
  5
6AA
 10
5.82910
 20
4.14359
 30
0.000000
  70
    32
  0
VERTEX
  8
AM_VIS
  5
6AB
 10
5.82809
 20
4.14436
 30
0.000000
  70
    32
  0
VERTEX
  8
AM_VIS
  5
6AC
 10
5.82708
 20
4.14513
 30
0.000000
  70
    32
  0
VERTEX
  8
AM_VIS
  5
6AD
 10
5.82606
 20
4.14589
 30
0.000000
  70
    32
  0
VERTEX
  8
AM_VIS
  5
6AE
 10
5.82505
 20
4.14665
 30
0.000000
  70
    32
  0
VERTEX
  8
AM_VIS
  5
6AF
 10
5.82403
 20
4.14741
 30
0.000000
  70
    32
  0
VERTEX
  8
AM_VIS
  5
6B0
 10
5.82301
 20
4.14816
 30
0.000000
  70
    32
  0
VERTEX
  8
AM_VIS
  5
6B1
 10
5.82199
 20
4.14891
 30
0.000000
  70
    32
  0
VERTEX
  8
AM_VIS
  5
6B2
 10
5.82096
 20
4.14966
 30
0.000000
  70
    32
  0
VERTEX
  8
AM_VIS
  5
6B3
 10
5.81994
 20
4.15041
 30
0.000000
  70
    32
  0
VERTEX
  8
AM_VIS
  5
6B4
 10
5.81891
 20
4.15115
 30
0.000000
  70
    32
  0
VERTEX
  8
AM_VIS
  5
6B5
 10
5.81788
 20
4.15189
 30
0.000000
  70
    32
  0
VERTEX
  8
AM_VIS
  5
6B6
 10
5.81685
 20
4.15262
 30
0.000000
  70
    32
  0
VERTEX
  8
AM_VIS
  5
6B7
 10
5.81582
 20
4.15336
 30
0.000000
  70
    32
  0
VERTEX
  8
AM_VIS
  5
6B8
 10
5.81478
 20
4.15409
 30
0.000000
  70
    32
  0
VERTEX
  8
AM_VIS
  5
6B9
 10
5.81375
 20
4.15481
 30
0.000000
  70
    32
  0
VERTEX
  8
AM_VIS
  5
6BA
 10
5.81271
 20
4.15554
 30
0.000000
  70
    32
  0
VERTEX
  8
AM_VIS
  5
6BB
 10
5.81167
 20
4.15626
 30
0.000000
  70
    32
  0
VERTEX
  8
AM_VIS
  5
6BC
 10
5.81063
 20
4.15697
 30
0.000000
  70
    32
  0
VERTEX
  8
AM_VIS
  5
6BD
 10
5.80959
 20
4.15769
 30
0.000000
  70
    32
  0
VERTEX
  8
AM_VIS
  5
6BE
 10
5.80854
 20
4.15840
 30
0.000000
  70
    32
  0
VERTEX
  8
AM_VIS
  5
6BF
 10
5.80749
 20
4.15911
 30
0.000000
  70
    32
  0
VERTEX
  8
AM_VIS
  5
6C0
 10
5.80644
 20
4.15982
 30
0.000000
  70
    32
  0
VERTEX
  8
AM_VIS
  5
6C1
 10
5.80539
 20
4.16052
 30
0.000000
  70
    32
  0
VERTEX
  8
AM_VIS
  5
6C2
 10
5.80433
 20
4.16122
 30
0.000000
  70
    32
  0
VERTEX
  8
AM_VIS
  5
6C3
 10
5.80327
 20
4.16192
 30
0.000000
  70
    32
  0
VERTEX
  8
AM_VIS
  5
6C4
 10
5.80221
 20
4.16262
 30
0.000000
  70
    32
  0
VERTEX
  8
AM_VIS
  5
6C5
 10
5.80115
 20
4.16331
 30
0.000000
  70
    32
  0
VERTEX
  8
AM_VIS
  5
6C6
 10
5.80009
 20
4.16400
 30
0.000000
  70
    32
  0
VERTEX
  8
AM_VIS
  5
6C7
 10
5.79902
 20
4.16469
 30
0.000000
  70
    32
  0
VERTEX
  8
AM_VIS
  5
6C8
 10
5.79795
 20
4.16537
 30
0.000000
  70
    32
  0
VERTEX
  8
AM_VIS
  5
6C9
 10
5.79688
 20
4.16605
 30
0.000000
  70
    32
  0
VERTEX
  8
AM_VIS
  5
6CA
 10
5.79580
 20
4.16673
 30
0.000000
  70
    32
  0
VERTEX
  8
AM_VIS
  5
6CB
 10
5.79473
 20
4.16740
 30
0.000000
  70
    32
  0
VERTEX
  8
AM_VIS
  5
6CC
 10
5.79365
 20
4.16808
 30
0.000000
  70
    32
  0
VERTEX
  8
AM_VIS
  5
6CD
 10
5.79257
 20
4.16875
 30
0.000000
  70
    32
  0
VERTEX
  8
AM_VIS
  5
6CE
 10
5.79149
 20
4.16941
 30
0.000000
  70
    32
  0
VERTEX
  8
AM_VIS
  5
6CF
 10
5.79040
 20
4.17007
 30
0.000000
  70
    32
  0
VERTEX
  8
AM_VIS
  5
6D0
 10
5.78931
 20
4.17073
 30
0.000000
  70
    32
  0
VERTEX
  8
AM_VIS
  5
6D1
 10
5.78822
 20
4.17139
 30
0.000000
  70
    32
  0
VERTEX
  8
AM_VIS
  5
6D2
 10
5.78713
 20
4.17204
 30
0.000000
  70
    32
  0
VERTEX
  8
AM_VIS
  5
6D3
 10
5.78604
 20
4.17270
 30
0.000000
  70
    32
  0
VERTEX
  8
AM_VIS
  5
6D4
 10
5.78494
 20
4.17334
 30
0.000000
  70
    32
  0
VERTEX
  8
AM_VIS
  5
6D5
 10
5.78384
 20
4.17399
 30
0.000000
  70
    32
  0
VERTEX
  8
AM_VIS
  5
6D6
 10
5.78274
 20
4.17463
 30
0.000000
  70
    32
  0
VERTEX
  8
AM_VIS
  5
6D7
 10
5.78164
 20
4.17527
 30
0.000000
  70
    32
  0
VERTEX
  8
AM_VIS
  5
6D8
 10
5.78053
 20
4.17590
 30
0.000000
  70
    32
  0
VERTEX
  8
AM_VIS
  5
6D9
 10
5.77942
 20
4.17653
 30
0.000000
  70
    32
  0
VERTEX
  8
AM_VIS
  5
6DA
 10
5.77832
 20
4.17716
 30
0.000000
  70
    32
  0
VERTEX
  8
AM_VIS
  5
6DB
 10
5.77720
 20
4.17779
 30
0.000000
  70
    32
  0
VERTEX
  8
AM_VIS
  5
6DC
 10
5.77609
 20
4.17841
 30
0.000000
  70
    32
  0
VERTEX
  8
AM_VIS
  5
6DD
 10
5.77497
 20
4.17902
 30
0.000000
  70
    32
  0
VERTEX
  8
AM_VIS
  5
6DE
 10
5.77386
 20
4.17964
 30
0.000000
  70
    32
  0
VERTEX
  8
AM_VIS
  5
6DF
 10
5.77273
 20
4.18025
 30
0.000000
  70
    32
  0
VERTEX
  8
AM_VIS
  5
6E0
 10
5.77161
 20
4.18086
 30
0.000000
  70
    32
  0
VERTEX
  8
AM_VIS
  5
6E1
 10
5.77049
 20
4.18146
 30
0.000000
  70
    32
  0
VERTEX
  8
AM_VIS
  5
6E2
 10
5.76936
 20
4.18207
 30
0.000000
  70
    32
  0
VERTEX
  8
AM_VIS
  5
6E3
 10
5.76823
 20
4.18266
 30
0.000000
  70
    32
  0
VERTEX
  8
AM_VIS
  5
6E4
 10
5.76710
 20
4.18326
 30
0.000000
  70
    32
  0
VERTEX
  8
AM_VIS
  5
6E5
 10
5.76597
 20
4.18385
 30
0.000000
  70
    32
  0
VERTEX
  8
AM_VIS
  5
6E6
 10
5.76483
 20
4.18444
 30
0.000000
  70
    32
  0
VERTEX
  8
AM_VIS
  5
6E7
 10
5.76370
 20
4.18502
 30
0.000000
  70
    32
  0
VERTEX
  8
AM_VIS
  5
6E8
 10
5.76256
 20
4.18560
 30
0.000000
  70
    32
  0
VERTEX
  8
AM_VIS
  5
6E9
 10
5.76141
 20
4.18618
 30
0.000000
  70
    32
  0
VERTEX
  8
AM_VIS
  5
6EA
 10
5.76027
 20
4.18675
 30
0.000000
  70
    32
  0
VERTEX
  8
AM_VIS
  5
6EB
 10
5.75913
 20
4.18732
 30
0.000000
  70
    32
  0
VERTEX
  8
AM_VIS
  5
6EC
 10
5.75798
 20
4.18789
 30
0.000000
  70
    32
  0
VERTEX
  8
AM_VIS
  5
6ED
 10
5.75683
 20
4.18845
 30
0.000000
  70
    32
  0
VERTEX
  8
AM_VIS
  5
6EE
 10
5.75568
 20
4.18901
 30
0.000000
  70
    32
  0
VERTEX
  8
AM_VIS
  5
6EF
 10
5.75452
 20
4.18956
 30
0.000000
  70
    32
  0
VERTEX
  8
AM_VIS
  5
6F0
 10
5.75337
 20
4.19011
 30
0.000000
  70
    32
  0
VERTEX
  8
AM_VIS
  5
6F1
 10
5.75221
 20
4.19066
 30
0.000000
  70
    32
  0
VERTEX
  8
AM_VIS
  5
6F2
 10
5.75105
 20
4.19121
 30
0.000000
  70
    32
  0
VERTEX
  8
AM_VIS
  5
6F3
 10
5.74989
 20
4.19175
 30
0.000000
  70
    32
  0
VERTEX
  8
AM_VIS
  5
6F4
 10
5.74872
 20
4.19228
 30
0.000000
  70
    32
  0
VERTEX
  8
AM_VIS
  5
6F5
 10
5.74756
 20
4.19282
 30
0.000000
  70
    32
  0
VERTEX
  8
AM_VIS
  5
6F6
 10
5.74639
 20
4.19334
 30
0.000000
  70
    32
  0
VERTEX
  8
AM_VIS
  5
6F7
 10
5.74522
 20
4.19387
 30
0.000000
  70
    32
  0
VERTEX
  8
AM_VIS
  5
6F8
 10
5.74405
 20
4.19439
 30
0.000000
  70
    32
  0
VERTEX
  8
AM_VIS
  5
6F9
 10
5.74287
 20
4.19491
 30
0.000000
  70
    32
  0
VERTEX
  8
AM_VIS
  5
6FA
 10
5.74170
 20
4.19542
 30
0.000000
  70
    32
  0
VERTEX
  8
AM_VIS
  5
6FB
 10
5.74052
 20
4.19593
 30
0.000000
  70
    32
  0
VERTEX
  8
AM_VIS
  5
6FC
 10
5.73934
 20
4.19644
 30
0.000000
  70
    32
  0
VERTEX
  8
AM_VIS
  5
6FD
 10
5.73816
 20
4.19694
 30
0.000000
  70
    32
  0
VERTEX
  8
AM_VIS
  5
6FE
 10
5.73697
 20
4.19744
 30
0.000000
  70
    32
  0
VERTEX
  8
AM_VIS
  5
6FF
 10
5.73579
 20
4.19793
 30
0.000000
  70
    32
  0
VERTEX
  8
AM_VIS
  5
700
 10
5.73460
 20
4.19842
 30
0.000000
  70
    32
  0
VERTEX
  8
AM_VIS
  5
701
 10
5.73341
 20
4.19890
 30
0.000000
  70
    32
  0
VERTEX
  8
AM_VIS
  5
702
 10
5.73222
 20
4.19939
 30
0.000000
  70
    32
  0
VERTEX
  8
AM_VIS
  5
703
 10
5.73103
 20
4.19986
 30
0.000000
  70
    32
  0
VERTEX
  8
AM_VIS
  5
704
 10
5.72983
 20
4.20034
 30
0.000000
  70
    32
  0
VERTEX
  8
AM_VIS
  5
705
 10
5.72863
 20
4.20081
 30
0.000000
  70
    32
  0
VERTEX
  8
AM_VIS
  5
706
 10
5.72743
 20
4.20127
 30
0.000000
  70
    32
  0
VERTEX
  8
AM_VIS
  5
707
 10
5.72623
 20
4.20173
 30
0.000000
  70
    32
  0
VERTEX
  8
AM_VIS
  5
708
 10
5.72503
 20
4.20219
 30
0.000000
  70
    32
  0
VERTEX
  8
AM_VIS
  5
709
 10
5.72383
 20
4.20264
 30
0.000000
  70
    32
  0
VERTEX
  8
AM_VIS
  5
70A
 10
5.72262
 20
4.20309
 30
0.000000
  70
    32
  0
VERTEX
  8
AM_VIS
  5
70B
 10
5.72141
 20
4.20354
 30
0.000000
  70
    32
  0
VERTEX
  8
AM_VIS
  5
70C
 10
5.72020
 20
4.20398
 30
0.000000
  70
    32
  0
VERTEX
  8
AM_VIS
  5
70D
 10
5.71899
 20
4.20441
 30
0.000000
  70
    32
  0
VERTEX
  8
AM_VIS
  5
70E
 10
5.71777
 20
4.20484
 30
0.000000
  70
    32
  0
VERTEX
  8
AM_VIS
  5
70F
 10
5.71656
 20
4.20527
 30
0.000000
  70
    32
  0
VERTEX
  8
AM_VIS
  5
710
 10
5.71534
 20
4.20569
 30
0.000000
  70
    32
  0
VERTEX
  8
AM_VIS
  5
711
 10
5.71412
 20
4.20611
 30
0.000000
  70
    32
  0
VERTEX
  8
AM_VIS
  5
712
 10
5.71290
 20
4.20653
 30
0.000000
  70
    32
  0
VERTEX
  8
AM_VIS
  5
713
 10
5.71168
 20
4.20694
 30
0.000000
  70
    32
  0
VERTEX
  8
AM_VIS
  5
714
 10
5.71045
 20
4.20734
 30
0.000000
  70
    32
  0
VERTEX
  8
AM_VIS
  5
715
 10
5.70923
 20
4.20774
 30
0.000000
  70
    32
  0
VERTEX
  8
AM_VIS
  5
716
 10
5.70800
 20
4.20814
 30
0.000000
  70
    32
  0
VERTEX
  8
AM_VIS
  5
717
 10
5.70677
 20
4.20853
 30
0.000000
  70
    32
  0
VERTEX
  8
AM_VIS
  5
718
 10
5.70553
 20
4.20892
 30
0.000000
  70
    32
  0
VERTEX
  8
AM_VIS
  5
719
 10
5.70430
 20
4.20930
 30
0.000000
  70
    32
  0
VERTEX
  8
AM_VIS
  5
71A
 10
5.70306
 20
4.20968
 30
0.000000
  70
    32
  0
VERTEX
  8
AM_VIS
  5
71B
 10
5.70183
 20
4.21006
 30
0.000000
  70
    32
  0
VERTEX
  8
AM_VIS
  5
71C
 10
5.70059
 20
4.21043
 30
0.000000
  70
    32
  0
VERTEX
  8
AM_VIS
  5
71D
 10
5.69935
 20
4.21079
 30
0.000000
  70
    32
  0
VERTEX
  8
AM_VIS
  5
71E
 10
5.69810
 20
4.21115
 30
0.000000
  70
    32
  0
VERTEX
  8
AM_VIS
  5
71F
 10
5.69686
 20
4.21151
 30
0.000000
  70
    32
  0
VERTEX
  8
AM_VIS
  5
720
 10
5.69561
 20
4.21186
 30
0.000000
  70
    32
  0
VERTEX
  8
AM_VIS
  5
721
 10
5.69437
 20
4.21221
 30
0.000000
  70
    32
  0
VERTEX
  8
AM_VIS
  5
722
 10
5.69312
 20
4.21255
 30
0.000000
  70
    32
  0
VERTEX
  8
AM_VIS
  5
723
 10
5.69187
 20
4.21288
 30
0.000000
  70
    32
  0
VERTEX
  8
AM_VIS
  5
724
 10
5.69061
 20
4.21322
 30
0.000000
  70
    32
  0
VERTEX
  8
AM_VIS
  5
725
 10
5.68936
 20
4.21354
 30
0.000000
  70
    32
  0
VERTEX
  8
AM_VIS
  5
726
 10
5.68810
 20
4.21387
 30
0.000000
  70
    32
  0
VERTEX
  8
AM_VIS
  5
727
 10
5.68684
 20
4.21419
 30
0.000000
  70
    32
  0
VERTEX
  8
AM_VIS
  5
728
 10
5.68558
 20
4.21450
 30
0.000000
  70
    32
  0
VERTEX
  8
AM_VIS
  5
729
 10
5.68432
 20
4.21481
 30
0.000000
  70
    32
  0
VERTEX
  8
AM_VIS
  5
72A
 10
5.68306
 20
4.21511
 30
0.000000
  70
    32
  0
VERTEX
  8
AM_VIS
  5
72B
 10
5.68179
 20
4.21541
 30
0.000000
  70
    32
  0
VERTEX
  8
AM_VIS
  5
72C
 10
5.68053
 20
4.21571
 30
0.000000
  70
    32
  0
VERTEX
  8
AM_VIS
  5
72D
 10
5.67926
 20
4.21600
 30
0.000000
  70
    32
  0
VERTEX
  8
AM_VIS
  5
72E
 10
5.67799
 20
4.21628
 30
0.000000
  70
    32
  0
VERTEX
  8
AM_VIS
  5
72F
 10
5.67672
 20
4.21656
 30
0.000000
  70
    32
  0
VERTEX
  8
AM_VIS
  5
730
 10
5.67545
 20
4.21683
 30
0.000000
  70
    32
  0
VERTEX
  8
AM_VIS
  5
731
 10
5.67417
 20
4.21710
 30
0.000000
  70
    32
  0
VERTEX
  8
AM_VIS
  5
732
 10
5.67290
 20
4.21737
 30
0.000000
  70
    32
  0
VERTEX
  8
AM_VIS
  5
733
 10
5.67162
 20
4.21763
 30
0.000000
  70
    32
  0
VERTEX
  8
AM_VIS
  5
734
 10
5.67034
 20
4.21788
 30
0.000000
  70
    32
  0
VERTEX
  8
AM_VIS
  5
735
 10
5.66906
 20
4.21813
 30
0.000000
  70
    32
  0
VERTEX
  8
AM_VIS
  5
736
 10
5.66779
 20
4.21838
 30
0.000000
  70
    32
  0
VERTEX
  8
AM_VIS
  5
737
 10
5.66651
 20
4.21861
 30
0.000000
  70
    32
  0
VERTEX
  8
AM_VIS
  5
738
 10
5.66523
 20
4.21885
 30
0.000000
  70
    32
  0
VERTEX
  8
AM_VIS
  5
739
 10
5.66395
 20
4.21908
 30
0.000000
  70
    32
  0
VERTEX
  8
AM_VIS
  5
73A
 10
5.66267
 20
4.21930
 30
0.000000
  70
    32
  0
VERTEX
  8
AM_VIS
  5
73B
 10
5.66139
 20
4.21952
 30
0.000000
  70
    32
  0
VERTEX
  8
AM_VIS
  5
73C
 10
5.66011
 20
4.21973
 30
0.000000
  70
    32
  0
VERTEX
  8
AM_VIS
  5
73D
 10
5.65883
 20
4.21994
 30
0.000000
  70
    32
  0
VERTEX
  8
AM_VIS
  5
73E
 10
5.65754
 20
4.22014
 30
0.000000
  70
    32
  0
VERTEX
  8
AM_VIS
  5
73F
 10
5.65626
 20
4.22033
 30
0.000000
  70
    32
  0
VERTEX
  8
AM_VIS
  5
740
 10
5.65498
 20
4.22052
 30
0.000000
  70
    32
  0
VERTEX
  8
AM_VIS
  5
741
 10
5.65370
 20
4.22071
 30
0.000000
  70
    32
  0
VERTEX
  8
AM_VIS
  5
742
 10
5.65241
 20
4.22089
 30
0.000000
  70
    32
  0
VERTEX
  8
AM_VIS
  5
743
 10
5.65113
 20
4.22107
 30
0.000000
  70
    32
  0
VERTEX
  8
AM_VIS
  5
744
 10
5.64984
 20
4.22124
 30
0.000000
  70
    32
  0
VERTEX
  8
AM_VIS
  5
745
 10
5.64856
 20
4.22140
 30
0.000000
  70
    32
  0
VERTEX
  8
AM_VIS
  5
746
 10
5.64727
 20
4.22156
 30
0.000000
  70
    32
  0
VERTEX
  8
AM_VIS
  5
747
 10
5.64599
 20
4.22172
 30
0.000000
  70
    32
  0
VERTEX
  8
AM_VIS
  5
748
 10
5.64470
 20
4.22186
 30
0.000000
  70
    32
  0
VERTEX
  8
AM_VIS
  5
749
 10
5.64341
 20
4.22201
 30
0.000000
  70
    32
  0
VERTEX
  8
AM_VIS
  5
74A
 10
5.64212
 20
4.22215
 30
0.000000
  70
    32
  0
VERTEX
  8
AM_VIS
  5
74B
 10
5.64084
 20
4.22228
 30
0.000000
  70
    32
  0
VERTEX
  8
AM_VIS
  5
74C
 10
5.63955
 20
4.22241
 30
0.000000
  70
    32
  0
VERTEX
  8
AM_VIS
  5
74D
 10
5.63826
 20
4.22253
 30
0.000000
  70
    32
  0
VERTEX
  8
AM_VIS
  5
74E
 10
5.63697
 20
4.22265
 30
0.000000
  70
    32
  0
VERTEX
  8
AM_VIS
  5
74F
 10
5.63568
 20
4.22276
 30
0.000000
  70
    32
  0
VERTEX
  8
AM_VIS
  5
750
 10
5.63439
 20
4.22286
 30
0.000000
  70
    32
  0
VERTEX
  8
AM_VIS
  5
751
 10
5.63310
 20
4.22296
 30
0.000000
  70
    32
  0
VERTEX
  8
AM_VIS
  5
752
 10
5.63181
 20
4.22306
 30
0.000000
  70
    32
  0
VERTEX
  8
AM_VIS
  5
753
 10
5.63052
 20
4.22315
 30
0.000000
  70
    32
  0
VERTEX
  8
AM_VIS
  5
754
 10
5.62922
 20
4.22323
 30
0.000000
  70
    32
  0
VERTEX
  8
AM_VIS
  5
755
 10
5.62793
 20
4.22331
 30
0.000000
  70
    32
  0
VERTEX
  8
AM_VIS
  5
756
 10
5.62664
 20
4.22339
 30
0.000000
  70
    32
  0
VERTEX
  8
AM_VIS
  5
757
 10
5.62535
 20
4.22346
 30
0.000000
  70
    32
  0
VERTEX
  8
AM_VIS
  5
758
 10
5.62405
 20
4.22352
 30
0.000000
  70
    32
  0
VERTEX
  8
AM_VIS
  5
759
 10
5.62276
 20
4.22358
 30
0.000000
  70
    32
  0
VERTEX
  8
AM_VIS
  5
75A
 10
5.62146
 20
4.22363
 30
0.000000
  70
    32
  0
VERTEX
  8
AM_VIS
  5
75B
 10
5.62017
 20
4.22368
 30
0.000000
  70
    32
  0
VERTEX
  8
AM_VIS
  5
75C
 10
5.61887
 20
4.22372
 30
0.000000
  70
    32
  0
VERTEX
  8
AM_VIS
  5
75D
 10
5.61758
 20
4.22375
 30
0.000000
  70
    32
  0
VERTEX
  8
AM_VIS
  5
75E
 10
5.61628
 20
4.22378
 30
0.000000
  70
    32
  0
VERTEX
  8
AM_VIS
  5
75F
 10
5.61499
 20
4.22381
 30
0.000000
  70
    32
  0
VERTEX
  8
AM_VIS
  5
760
 10
5.61369
 20
4.22383
 30
0.000000
  70
    32
  0
VERTEX
  8
AM_VIS
  5
761
 10
5.61239
 20
4.22384
 30
0.000000
  70
    32
  0
VERTEX
  8
AM_VIS
  5
762
 10
5.61110
 20
4.22385
 30
0.000000
  70
    32
  0
VERTEX
  8
AM_VIS
  5
763
 10
5.60980
 20
4.22385
 30
0.000000
  70
    32
  0
VERTEX
  8
AM_VIS
  5
764
 10
5.60850
 20
4.22385
 30
0.000000
  70
    32
  0
VERTEX
  8
AM_VIS
  5
765
 10
5.60720
 20
4.22385
 30
0.000000
  70
    32
  0
VERTEX
  8
AM_VIS
  5
766
 10
5.60590
 20
4.22383
 30
0.000000
  70
    32
  0
VERTEX
  8
AM_VIS
  5
767
 10
5.60460
 20
4.22381
 30
0.000000
  70
    32
  0
VERTEX
  8
AM_VIS
  5
768
 10
5.60330
 20
4.22379
 30
0.000000
  70
    32
  0
VERTEX
  8
AM_VIS
  5
769
 10
5.60200
 20
4.22376
 30
0.000000
  70
    32
  0
VERTEX
  8
AM_VIS
  5
76A
 10
5.60070
 20
4.22373
 30
0.000000
  70
    32
  0
VERTEX
  8
AM_VIS
  5
76B
 10
5.59940
 20
4.22369
 30
0.000000
  70
    32
  0
VERTEX
  8
AM_VIS
  5
76C
 10
5.59810
 20
4.22364
 30
0.000000
  70
    32
  0
VERTEX
  8
AM_VIS
  5
76D
 10
5.59680
 20
4.22359
 30
0.000000
  70
    32
  0
VERTEX
  8
AM_VIS
  5
76E
 10
5.59549
 20
4.22353
 30
0.000000
  70
    32
  0
VERTEX
  8
AM_VIS
  5
76F
 10
5.59419
 20
4.22347
 30
0.000000
  70
    32
  0
VERTEX
  8
AM_VIS
  5
770
 10
5.59289
 20
4.22340
 30
0.000000
  70
    32
  0
VERTEX
  8
AM_VIS
  5
771
 10
5.59159
 20
4.22333
 30
0.000000
  70
    32
  0
VERTEX
  8
AM_VIS
  5
772
 10
5.59028
 20
4.22325
 30
0.000000
  70
    32
  0
VERTEX
  8
AM_VIS
  5
773
 10
5.58898
 20
4.22316
 30
0.000000
  70
    32
  0
VERTEX
  8
AM_VIS
  5
774
 10
5.58768
 20
4.22307
 30
0.000000
  70
    32
  0
VERTEX
  8
AM_VIS
  5
775
 10
5.58637
 20
4.22298
 30
0.000000
  70
    32
  0
VERTEX
  8
AM_VIS
  5
776
 10
5.58507
 20
4.22288
 30
0.000000
  70
    32
  0
VERTEX
  8
AM_VIS
  5
777
 10
5.58376
 20
4.22277
 30
0.000000
  70
    32
  0
VERTEX
  8
AM_VIS
  5
778
 10
5.58246
 20
4.22266
 30
0.000000
  70
    32
  0
VERTEX
  8
AM_VIS
  5
779
 10
5.58115
 20
4.22254
 30
0.000000
  70
    32
  0
VERTEX
  8
AM_VIS
  5
77A
 10
5.57984
 20
4.22242
 30
0.000000
  70
    32
  0
VERTEX
  8
AM_VIS
  5
77B
 10
5.57854
 20
4.22229
 30
0.000000
  70
    32
  0
VERTEX
  8
AM_VIS
  5
77C
 10
5.57723
 20
4.22215
 30
0.000000
  70
    32
  0
VERTEX
  8
AM_VIS
  5
77D
 10
5.57592
 20
4.22201
 30
0.000000
  70
    32
  0
VERTEX
  8
AM_VIS
  5
77E
 10
5.57462
 20
4.22187
 30
0.000000
  70
    32
  0
VERTEX
  8
AM_VIS
  5
77F
 10
5.57331
 20
4.22172
 30
0.000000
  70
    32
  0
VERTEX
  8
AM_VIS
  5
780
 10
5.57200
 20
4.22156
 30
0.000000
  70
    32
  0
VERTEX
  8
AM_VIS
  5
781
 10
5.57069
 20
4.22140
 30
0.000000
  70
    32
  0
VERTEX
  8
AM_VIS
  5
782
 10
5.56938
 20
4.22123
 30
0.000000
  70
    32
  0
VERTEX
  8
AM_VIS
  5
783
 10
5.56807
 20
4.22106
 30
0.000000
  70
    32
  0
VERTEX
  8
AM_VIS
  5
784
 10
5.56676
 20
4.22088
 30
0.000000
  70
    32
  0
VERTEX
  8
AM_VIS
  5
785
 10
5.56545
 20
4.22069
 30
0.000000
  70
    32
  0
VERTEX
  8
AM_VIS
  5
786
 10
5.56414
 20
4.22050
 30
0.000000
  70
    32
  0
VERTEX
  8
AM_VIS
  5
787
 10
5.56283
 20
4.22031
 30
0.000000
  70
    32
  0
VERTEX
  8
AM_VIS
  5
788
 10
5.56152
 20
4.22011
 30
0.000000
  70
    32
  0
VERTEX
  8
AM_VIS
  5
789
 10
5.56021
 20
4.21990
 30
0.000000
  70
    32
  0
VERTEX
  8
AM_VIS
  5
78A
 10
5.55890
 20
4.21969
 30
0.000000
  70
    32
  0
VERTEX
  8
AM_VIS
  5
78B
 10
5.55759
 20
4.21947
 30
0.000000
  70
    32
  0
VERTEX
  8
AM_VIS
  5
78C
 10
5.55628
 20
4.21924
 30
0.000000
  70
    32
  0
VERTEX
  8
AM_VIS
  5
78D
 10
5.55497
 20
4.21901
 30
0.000000
  70
    32
  0
VERTEX
  8
AM_VIS
  5
78E
 10
5.55366
 20
4.21878
 30
0.000000
  70
    32
  0
VERTEX
  8
AM_VIS
  5
78F
 10
5.55234
 20
4.21854
 30
0.000000
  70
    32
  0
VERTEX
  8
AM_VIS
  5
790
 10
5.55103
 20
4.21829
 30
0.000000
  70
    32
  0
VERTEX
  8
AM_VIS
  5
791
 10
5.54972
 20
4.21804
 30
0.000000
  70
    32
  0
VERTEX
  8
AM_VIS
  5
792
 10
5.54840
 20
4.21778
 30
0.000000
  70
    32
  0
VERTEX
  8
AM_VIS
  5
793
 10
5.54709
 20
4.21752
 30
0.000000
  70
    32
  0
VERTEX
  8
AM_VIS
  5
794
 10
5.54578
 20
4.21725
 30
0.000000
  70
    32
  0
VERTEX
  8
AM_VIS
  5
795
 10
5.54447
 20
4.21697
 30
0.000000
  70
    32
  0
VERTEX
  8
AM_VIS
  5
796
 10
5.54316
 20
4.21669
 30
0.000000
  70
    32
  0
VERTEX
  8
AM_VIS
  5
797
 10
5.54185
 20
4.21641
 30
0.000000
  70
    32
  0
VERTEX
  8
AM_VIS
  5
798
 10
5.54055
 20
4.21612
 30
0.000000
  70
    32
  0
VERTEX
  8
AM_VIS
  5
799
 10
5.53924
 20
4.21582
 30
0.000000
  70
    32
  0
VERTEX
  8
AM_VIS
  5
79A
 10
5.53793
 20
4.21552
 30
0.000000
  70
    32
  0
VERTEX
  8
AM_VIS
  5
79B
 10
5.53663
 20
4.21521
 30
0.000000
  70
    32
  0
VERTEX
  8
AM_VIS
  5
79C
 10
5.53533
 20
4.21490
 30
0.000000
  70
    32
  0
VERTEX
  8
AM_VIS
  5
79D
 10
5.53403
 20
4.21458
 30
0.000000
  70
    32
  0
VERTEX
  8
AM_VIS
  5
79E
 10
5.53273
 20
4.21426
 30
0.000000
  70
    32
  0
VERTEX
  8
AM_VIS
  5
79F
 10
5.53143
 20
4.21393
 30
0.000000
  70
    32
  0
VERTEX
  8
AM_VIS
  5
7A0
 10
5.53013
 20
4.21360
 30
0.000000
  70
    32
  0
VERTEX
  8
AM_VIS
  5
7A1
 10
5.52883
 20
4.21326
 30
0.000000
  70
    32
  0
VERTEX
  8
AM_VIS
  5
7A2
 10
5.52754
 20
4.21292
 30
0.000000
  70
    32
  0
VERTEX
  8
AM_VIS
  5
7A3
 10
5.52624
 20
4.21257
 30
0.000000
  70
    32
  0
VERTEX
  8
AM_VIS
  5
7A4
 10
5.52495
 20
4.21221
 30
0.000000
  70
    32
  0
VERTEX
  8
AM_VIS
  5
7A5
 10
5.52366
 20
4.21185
 30
0.000000
  70
    32
  0
VERTEX
  8
AM_VIS
  5
7A6
 10
5.52237
 20
4.21149
 30
0.000000
  70
    32
  0
VERTEX
  8
AM_VIS
  5
7A7
 10
5.52108
 20
4.21112
 30
0.000000
  70
    32
  0
VERTEX
  8
AM_VIS
  5
7A8
 10
5.51979
 20
4.21074
 30
0.000000
  70
    32
  0
VERTEX
  8
AM_VIS
  5
7A9
 10
5.51850
 20
4.21036
 30
0.000000
  70
    32
  0
VERTEX
  8
AM_VIS
  5
7AA
 10
5.51722
 20
4.20998
 30
0.000000
  70
    32
  0
VERTEX
  8
AM_VIS
  5
7AB
 10
5.51593
 20
4.20959
 30
0.000000
  70
    32
  0
VERTEX
  8
AM_VIS
  5
7AC
 10
5.51465
 20
4.20919
 30
0.000000
  70
    32
  0
VERTEX
  8
AM_VIS
  5
7AD
 10
5.51337
 20
4.20879
 30
0.000000
  70
    32
  0
VERTEX
  8
AM_VIS
  5
7AE
 10
5.51209
 20
4.20839
 30
0.000000
  70
    32
  0
VERTEX
  8
AM_VIS
  5
7AF
 10
5.51081
 20
4.20798
 30
0.000000
  70
    32
  0
VERTEX
  8
AM_VIS
  5
7B0
 10
5.50953
 20
4.20756
 30
0.000000
  70
    32
  0
VERTEX
  8
AM_VIS
  5
7B1
 10
5.50825
 20
4.20714
 30
0.000000
  70
    32
  0
VERTEX
  8
AM_VIS
  5
7B2
 10
5.50698
 20
4.20672
 30
0.000000
  70
    32
  0
VERTEX
  8
AM_VIS
  5
7B3
 10
5.50570
 20
4.20629
 30
0.000000
  70
    32
  0
VERTEX
  8
AM_VIS
  5
7B4
 10
5.50443
 20
4.20585
 30
0.000000
  70
    32
  0
VERTEX
  8
AM_VIS
  5
7B5
 10
5.50316
 20
4.20541
 30
0.000000
  70
    32
  0
VERTEX
  8
AM_VIS
  5
7B6
 10
5.50189
 20
4.20497
 30
0.000000
  70
    32
  0
VERTEX
  8
AM_VIS
  5
7B7
 10
5.50062
 20
4.20452
 30
0.000000
  70
    32
  0
VERTEX
  8
AM_VIS
  5
7B8
 10
5.49936
 20
4.20406
 30
0.000000
  70
    32
  0
VERTEX
  8
AM_VIS
  5
7B9
 10
5.49809
 20
4.20361
 30
0.000000
  70
    32
  0
VERTEX
  8
AM_VIS
  5
7BA
 10
5.49683
 20
4.20314
 30
0.000000
  70
    32
  0
VERTEX
  8
AM_VIS
  5
7BB
 10
5.49557
 20
4.20267
 30
0.000000
  70
    32
  0
VERTEX
  8
AM_VIS
  5
7BC
 10
5.49430
 20
4.20220
 30
0.000000
  70
    32
  0
VERTEX
  8
AM_VIS
  5
7BD
 10
5.49304
 20
4.20172
 30
0.000000
  70
    32
  0
VERTEX
  8
AM_VIS
  5
7BE
 10
5.49179
 20
4.20124
 30
0.000000
  70
    32
  0
VERTEX
  8
AM_VIS
  5
7BF
 10
5.49053
 20
4.20075
 30
0.000000
  70
    32
  0
VERTEX
  8
AM_VIS
  5
7C0
 10
5.48928
 20
4.20026
 30
0.000000
  70
    32
  0
VERTEX
  8
AM_VIS
  5
7C1
 10
5.48802
 20
4.19976
 30
0.000000
  70
    32
  0
VERTEX
  8
AM_VIS
  5
7C2
 10
5.48677
 20
4.19926
 30
0.000000
  70
    32
  0
VERTEX
  8
AM_VIS
  5
7C3
 10
5.48552
 20
4.19875
 30
0.000000
  70
    32
  0
VERTEX
  8
AM_VIS
  5
7C4
 10
5.48427
 20
4.19824
 30
0.000000
  70
    32
  0
VERTEX
  8
AM_VIS
  5
7C5
 10
5.48302
 20
4.19772
 30
0.000000
  70
    32
  0
VERTEX
  8
AM_VIS
  5
7C6
 10
5.48178
 20
4.19720
 30
0.000000
  70
    32
  0
VERTEX
  8
AM_VIS
  5
7C7
 10
5.48053
 20
4.19667
 30
0.000000
  70
    32
  0
VERTEX
  8
AM_VIS
  5
7C8
 10
5.47929
 20
4.19614
 30
0.000000
  70
    32
  0
VERTEX
  8
AM_VIS
  5
7C9
 10
5.47805
 20
4.19561
 30
0.000000
  70
    32
  0
VERTEX
  8
AM_VIS
  5
7CA
 10
5.47681
 20
4.19507
 30
0.000000
  70
    32
  0
VERTEX
  8
AM_VIS
  5
7CB
 10
5.47557
 20
4.19453
 30
0.000000
  70
    32
  0
VERTEX
  8
AM_VIS
  5
7CC
 10
5.47433
 20
4.19398
 30
0.000000
  70
    32
  0
VERTEX
  8
AM_VIS
  5
7CD
 10
5.47310
 20
4.19342
 30
0.000000
  70
    32
  0
VERTEX
  8
AM_VIS
  5
7CE
 10
5.47187
 20
4.19287
 30
0.000000
  70
    32
  0
VERTEX
  8
AM_VIS
  5
7CF
 10
5.47064
 20
4.19231
 30
0.000000
  70
    32
  0
VERTEX
  8
AM_VIS
  5
7D0
 10
5.46941
 20
4.19174
 30
0.000000
  70
    32
  0
VERTEX
  8
AM_VIS
  5
7D1
 10
5.46818
 20
4.19117
 30
0.000000
  70
    32
  0
VERTEX
  8
AM_VIS
  5
7D2
 10
5.46695
 20
4.19059
 30
0.000000
  70
    32
  0
VERTEX
  8
AM_VIS
  5
7D3
 10
5.46573
 20
4.19001
 30
0.000000
  70
    32
  0
VERTEX
  8
AM_VIS
  5
7D4
 10
5.46450
 20
4.18943
 30
0.000000
  70
    32
  0
VERTEX
  8
AM_VIS
  5
7D5
 10
5.46328
 20
4.18884
 30
0.000000
  70
    32
  0
VERTEX
  8
AM_VIS
  5
7D6
 10
5.46206
 20
4.18825
 30
0.000000
  70
    32
  0
VERTEX
  8
AM_VIS
  5
7D7
 10
5.46084
 20
4.18765
 30
0.000000
  70
    32
  0
VERTEX
  8
AM_VIS
  5
7D8
 10
5.45963
 20
4.18705
 30
0.000000
  70
    32
  0
VERTEX
  8
AM_VIS
  5
7D9
 10
5.45841
 20
4.18644
 30
0.000000
  70
    32
  0
VERTEX
  8
AM_VIS
  5
7DA
 10
5.45720
 20
4.18583
 30
0.000000
  70
    32
  0
VERTEX
  8
AM_VIS
  5
7DB
 10
5.45599
 20
4.18522
 30
0.000000
  70
    32
  0
VERTEX
  8
AM_VIS
  5
7DC
 10
5.45478
 20
4.18460
 30
0.000000
  70
    32
  0
VERTEX
  8
AM_VIS
  5
7DD
 10
5.45357
 20
4.18398
 30
0.000000
  70
    32
  0
VERTEX
  8
AM_VIS
  5
7DE
 10
5.45237
 20
4.18335
 30
0.000000
  70
    32
  0
VERTEX
  8
AM_VIS
  5
7DF
 10
5.45117
 20
4.18272
 30
0.000000
  70
    32
  0
VERTEX
  8
AM_VIS
  5
7E0
 10
5.44996
 20
4.18208
 30
0.000000
  70
    32
  0
VERTEX
  8
AM_VIS
  5
7E1
 10
5.44876
 20
4.18144
 30
0.000000
  70
    32
  0
VERTEX
  8
AM_VIS
  5
7E2
 10
5.44757
 20
4.18080
 30
0.000000
  70
    32
  0
VERTEX
  8
AM_VIS
  5
7E3
 10
5.44637
 20
4.18015
 30
0.000000
  70
    32
  0
VERTEX
  8
AM_VIS
  5
7E4
 10
5.44517
 20
4.17950
 30
0.000000
  70
    32
  0
VERTEX
  8
AM_VIS
  5
7E5
 10
5.44398
 20
4.17884
 30
0.000000
  70
    32
  0
VERTEX
  8
AM_VIS
  5
7E6
 10
5.44279
 20
4.17818
 30
0.000000
  70
    32
  0
VERTEX
  8
AM_VIS
  5
7E7
 10
5.44160
 20
4.17752
 30
0.000000
  70
    32
  0
VERTEX
  8
AM_VIS
  5
7E8
 10
5.44042
 20
4.17685
 30
0.000000
  70
    32
  0
VERTEX
  8
AM_VIS
  5
7E9
 10
5.43923
 20
4.17617
 30
0.000000
  70
    32
  0
VERTEX
  8
AM_VIS
  5
7EA
 10
5.43805
 20
4.17550
 30
0.000000
  70
    32
  0
VERTEX
  8
AM_VIS
  5
7EB
 10
5.43687
 20
4.17482
 30
0.000000
  70
    32
  0
VERTEX
  8
AM_VIS
  5
7EC
 10
5.43569
 20
4.17413
 30
0.000000
  70
    32
  0
VERTEX
  8
AM_VIS
  5
7ED
 10
5.43451
 20
4.17344
 30
0.000000
  70
    32
  0
VERTEX
  8
AM_VIS
  5
7EE
 10
5.43333
 20
4.17275
 30
0.000000
  70
    32
  0
VERTEX
  8
AM_VIS
  5
7EF
 10
5.43216
 20
4.17205
 30
0.000000
  70
    32
  0
VERTEX
  8
AM_VIS
  5
7F0
 10
5.43099
 20
4.17135
 30
0.000000
  70
    32
  0
VERTEX
  8
AM_VIS
  5
7F1
 10
5.42982
 20
4.17065
 30
0.000000
  70
    32
  0
VERTEX
  8
AM_VIS
  5
7F2
 10
5.42865
 20
4.16994
 30
0.000000
  70
    32
  0
VERTEX
  8
AM_VIS
  5
7F3
 10
5.42749
 20
4.16922
 30
0.000000
  70
    32
  0
VERTEX
  8
AM_VIS
  5
7F4
 10
5.42632
 20
4.16851
 30
0.000000
  70
    32
  0
VERTEX
  8
AM_VIS
  5
7F5
 10
5.42516
 20
4.16779
 30
0.000000
  70
    32
  0
VERTEX
  8
AM_VIS
  5
7F6
 10
5.42400
 20
4.16706
 30
0.000000
  70
    32
  0
VERTEX
  8
AM_VIS
  5
7F7
 10
5.42285
 20
4.16634
 30
0.000000
  70
    32
  0
VERTEX
  8
AM_VIS
  5
7F8
 10
5.42169
 20
4.16560
 30
0.000000
  70
    32
  0
VERTEX
  8
AM_VIS
  5
7F9
 10
5.42054
 20
4.16487
 30
0.000000
  70
    32
  0
VERTEX
  8
AM_VIS
  5
7FA
 10
5.41939
 20
4.16413
 30
0.000000
  70
    32
  0
VERTEX
  8
AM_VIS
  5
7FB
 10
5.41824
 20
4.16339
 30
0.000000
  70
    32
  0
VERTEX
  8
AM_VIS
  5
7FC
 10
5.41709
 20
4.16264
 30
0.000000
  70
    32
  0
VERTEX
  8
AM_VIS
  5
7FD
 10
5.41595
 20
4.16189
 30
0.000000
  70
    32
  0
VERTEX
  8
AM_VIS
  5
7FE
 10
5.41480
 20
4.16113
 30
0.000000
  70
    32
  0
VERTEX
  8
AM_VIS
  5
7FF
 10
5.41366
 20
4.16037
 30
0.000000
  70
    32
  0
VERTEX
  8
AM_VIS
  5
800
 10
5.41252
 20
4.15961
 30
0.000000
  70
    32
  0
VERTEX
  8
AM_VIS
  5
801
 10
5.41139
 20
4.15885
 30
0.000000
  70
    32
  0
VERTEX
  8
AM_VIS
  5
802
 10
5.41025
 20
4.15808
 30
0.000000
  70
    32
  0
VERTEX
  8
AM_VIS
  5
803
 10
5.40912
 20
4.15730
 30
0.000000
  70
    32
  0
VERTEX
  8
AM_VIS
  5
804
 10
5.40799
 20
4.15653
 30
0.000000
  70
    32
  0
VERTEX
  8
AM_VIS
  5
805
 10
5.40686
 20
4.15575
 30
0.000000
  70
    32
  0
VERTEX
  8
AM_VIS
  5
806
 10
5.40573
 20
4.15496
 30
0.000000
  70
    32
  0
VERTEX
  8
AM_VIS
  5
807
 10
5.40460
 20
4.15417
 30
0.000000
  70
    32
  0
VERTEX
  8
AM_VIS
  5
808
 10
5.40348
 20
4.15338
 30
0.000000
  70
    32
  0
VERTEX
  8
AM_VIS
  5
809
 10
5.40236
 20
4.15258
 30
0.000000
  70
    32
  0
VERTEX
  8
AM_VIS
  5
80A
 10
5.40123
 20
4.15178
 30
0.000000
  70
    32
  0
VERTEX
  8
AM_VIS
  5
80B
 10
5.40011
 20
4.15097
 30
0.000000
  70
    32
  0
VERTEX
  8
AM_VIS
  5
80C
 10
5.39900
 20
4.15016
 30
0.000000
  70
    32
  0
VERTEX
  8
AM_VIS
  5
80D
 10
5.39788
 20
4.14935
 30
0.000000
  70
    32
  0
VERTEX
  8
AM_VIS
  5
80E
 10
5.39676
 20
4.14853
 30
0.000000
  70
    32
  0
VERTEX
  8
AM_VIS
  5
80F
 10
5.39565
 20
4.14771
 30
0.000000
  70
    32
  0
VERTEX
  8
AM_VIS
  5
810
 10
5.39454
 20
4.14689
 30
0.000000
  70
    32
  0
VERTEX
  8
AM_VIS
  5
811
 10
5.39343
 20
4.14606
 30
0.000000
  70
    32
  0
VERTEX
  8
AM_VIS
  5
812
 10
5.39232
 20
4.14522
 30
0.000000
  70
    32
  0
VERTEX
  8
AM_VIS
  5
813
 10
5.39122
 20
4.14439
 30
0.000000
  70
    32
  0
VERTEX
  8
AM_VIS
  5
814
 10
5.39011
 20
4.14355
 30
0.000000
  70
    32
  0
VERTEX
  8
AM_VIS
  5
815
 10
5.38901
 20
4.14270
 30
0.000000
  70
    32
  0
VERTEX
  8
AM_VIS
  5
816
 10
5.38791
 20
4.14186
 30
0.000000
  70
    32
  0
VERTEX
  8
AM_VIS
  5
817
 10
5.38681
 20
4.14100
 30
0.000000
  70
    32
  0
VERTEX
  8
AM_VIS
  5
818
 10
5.38572
 20
4.14015
 30
0.000000
  70
    32
  0
VERTEX
  8
AM_VIS
  5
819
 10
5.38462
 20
4.13929
 30
0.000000
  70
    32
  0
VERTEX
  8
AM_VIS
  5
81A
 10
5.38353
 20
4.13843
 30
0.000000
  70
    32
  0
VERTEX
  8
AM_VIS
  5
81B
 10
5.38244
 20
4.13756
 30
0.000000
  70
    32
  0
VERTEX
  8
AM_VIS
  5
81C
 10
5.38135
 20
4.13669
 30
0.000000
  70
    32
  0
VERTEX
  8
AM_VIS
  5
81D
 10
5.38027
 20
4.13582
 30
0.000000
  70
    32
  0
VERTEX
  8
AM_VIS
  5
81E
 10
5.37918
 20
4.13494
 30
0.000000
  70
    32
  0
SEQEND
  8
AM_VIS
  5
81F
  0
LINE
  5
35
  8
AM_VIS
 10
6.6221347922214342
 20
4.863584485156494
 30
0.0
 11
6.6446347922214333
 21
4.886084485156494
 31
0.0
  0
POLYLINE
  8
AM_VIS
  5
820
  66
     1
 10
0.000000
 20
0.000000
 30
0.000000
  70
     8
  0
VERTEX
  8
AM_VIS
  5
821
 10
5.98453
 20
4.22598
 30
0.000000
  70
    32
  0
VERTEX
  8
AM_VIS
  5
822
 10
5.98423
 20
4.22568
 30
0.000000
  70
    32
  0
VERTEX
  8
AM_VIS
  5
823
 10
5.98394
 20
4.22538
 30
0.000000
  70
    32
  0
VERTEX
  8
AM_VIS
  5
824
 10
5.98364
 20
4.22508
 30
0.000000
  70
    32
  0
VERTEX
  8
AM_VIS
  5
825
 10
5.98335
 20
4.22478
 30
0.000000
  70
    32
  0
VERTEX
  8
AM_VIS
  5
826
 10
5.98306
 20
4.22448
 30
0.000000
  70
    32
  0
VERTEX
  8
AM_VIS
  5
827
 10
5.98277
 20
4.22418
 30
0.000000
  70
    32
  0
VERTEX
  8
AM_VIS
  5
828
 10
5.98249
 20
4.22387
 30
0.000000
  70
    32
  0
VERTEX
  8
AM_VIS
  5
829
 10
5.98220
 20
4.22357
 30
0.000000
  70
    32
  0
VERTEX
  8
AM_VIS
  5
82A
 10
5.98191
 20
4.22326
 30
0.000000
  70
    32
  0
VERTEX
  8
AM_VIS
  5
82B
 10
5.98163
 20
4.22295
 30
0.000000
  70
    32
  0
VERTEX
  8
AM_VIS
  5
82C
 10
5.98135
 20
4.22264
 30
0.000000
  70
    32
  0
VERTEX
  8
AM_VIS
  5
82D
 10
5.98107
 20
4.22233
 30
0.000000
  70
    32
  0
VERTEX
  8
AM_VIS
  5
82E
 10
5.98079
 20
4.22202
 30
0.000000
  70
    32
  0
VERTEX
  8
AM_VIS
  5
82F
 10
5.98051
 20
4.22170
 30
0.000000
  70
    32
  0
VERTEX
  8
AM_VIS
  5
830
 10
5.98023
 20
4.22139
 30
0.000000
  70
    32
  0
VERTEX
  8
AM_VIS
  5
831
 10
5.97996
 20
4.22107
 30
0.000000
  70
    32
  0
VERTEX
  8
AM_VIS
  5
832
 10
5.97968
 20
4.22076
 30
0.000000
  70
    32
  0
VERTEX
  8
AM_VIS
  5
833
 10
5.97941
 20
4.22044
 30
0.000000
  70
    32
  0
VERTEX
  8
AM_VIS
  5
834
 10
5.97914
 20
4.22012
 30
0.000000
  70
    32
  0
VERTEX
  8
AM_VIS
  5
835
 10
5.97887
 20
4.21980
 30
0.000000
  70
    32
  0
VERTEX
  8
AM_VIS
  5
836
 10
5.97861
 20
4.21948
 30
0.000000
  70
    32
  0
VERTEX
  8
AM_VIS
  5
837
 10
5.97834
 20
4.21916
 30
0.000000
  70
    32
  0
VERTEX
  8
AM_VIS
  5
838
 10
5.97808
 20
4.21884
 30
0.000000
  70
    32
  0
VERTEX
  8
AM_VIS
  5
839
 10
5.97782
 20
4.21852
 30
0.000000
  70
    32
  0
VERTEX
  8
AM_VIS
  5
83A
 10
5.97756
 20
4.21820
 30
0.000000
  70
    32
  0
VERTEX
  8
AM_VIS
  5
83B
 10
5.97730
 20
4.21787
 30
0.000000
  70
    32
  0
VERTEX
  8
AM_VIS
  5
83C
 10
5.97704
 20
4.21755
 30
0.000000
  70
    32
  0
VERTEX
  8
AM_VIS
  5
83D
 10
5.97679
 20
4.21722
 30
0.000000
  70
    32
  0
VERTEX
  8
AM_VIS
  5
83E
 10
5.97653
 20
4.21689
 30
0.000000
  70
    32
  0
VERTEX
  8
AM_VIS
  5
83F
 10
5.97628
 20
4.21656
 30
0.000000
  70
    32
  0
VERTEX
  8
AM_VIS
  5
840
 10
5.97603
 20
4.21623
 30
0.000000
  70
    32
  0
VERTEX
  8
AM_VIS
  5
841
 10
5.97578
 20
4.21590
 30
0.000000
  70
    32
  0
VERTEX
  8
AM_VIS
  5
842
 10
5.97553
 20
4.21557
 30
0.000000
  70
    32
  0
VERTEX
  8
AM_VIS
  5
843
 10
5.97529
 20
4.21524
 30
0.000000
  70
    32
  0
VERTEX
  8
AM_VIS
  5
844
 10
5.97504
 20
4.21491
 30
0.000000
  70
    32
  0
VERTEX
  8
AM_VIS
  5
845
 10
5.97480
 20
4.21458
 30
0.000000
  70
    32
  0
VERTEX
  8
AM_VIS
  5
846
 10
5.97456
 20
4.21424
 30
0.000000
  70
    32
  0
VERTEX
  8
AM_VIS
  5
847
 10
5.97432
 20
4.21391
 30
0.000000
  70
    32
  0
VERTEX
  8
AM_VIS
  5
848
 10
5.97408
 20
4.21357
 30
0.000000
  70
    32
  0
VERTEX
  8
AM_VIS
  5
849
 10
5.97385
 20
4.21323
 30
0.000000
  70
    32
  0
VERTEX
  8
AM_VIS
  5
84A
 10
5.97361
 20
4.21289
 30
0.000000
  70
    32
  0
VERTEX
  8
AM_VIS
  5
84B
 10
5.97338
 20
4.21255
 30
0.000000
  70
    32
  0
VERTEX
  8
AM_VIS
  5
84C
 10
5.97315
 20
4.21221
 30
0.000000
  70
    32
  0
VERTEX
  8
AM_VIS
  5
84D
 10
5.97292
 20
4.21187
 30
0.000000
  70
    32
  0
VERTEX
  8
AM_VIS
  5
84E
 10
5.97269
 20
4.21153
 30
0.000000
  70
    32
  0
VERTEX
  8
AM_VIS
  5
84F
 10
5.97246
 20
4.21119
 30
0.000000
  70
    32
  0
VERTEX
  8
AM_VIS
  5
850
 10
5.97224
 20
4.21084
 30
0.000000
  70
    32
  0
VERTEX
  8
AM_VIS
  5
851
 10
5.97201
 20
4.21050
 30
0.000000
  70
    32
  0
VERTEX
  8
AM_VIS
  5
852
 10
5.97179
 20
4.21015
 30
0.000000
  70
    32
  0
VERTEX
  8
AM_VIS
  5
853
 10
5.97157
 20
4.20981
 30
0.000000
  70
    32
  0
VERTEX
  8
AM_VIS
  5
854
 10
5.97135
 20
4.20946
 30
0.000000
  70
    32
  0
VERTEX
  8
AM_VIS
  5
855
 10
5.97113
 20
4.20911
 30
0.000000
  70
    32
  0
VERTEX
  8
AM_VIS
  5
856
 10
5.97092
 20
4.20876
 30
0.000000
  70
    32
  0
VERTEX
  8
AM_VIS
  5
857
 10
5.97070
 20
4.20841
 30
0.000000
  70
    32
  0
VERTEX
  8
AM_VIS
  5
858
 10
5.97049
 20
4.20806
 30
0.000000
  70
    32
  0
VERTEX
  8
AM_VIS
  5
859
 10
5.97028
 20
4.20771
 30
0.000000
  70
    32
  0
VERTEX
  8
AM_VIS
  5
85A
 10
5.97007
 20
4.20736
 30
0.000000
  70
    32
  0
VERTEX
  8
AM_VIS
  5
85B
 10
5.96986
 20
4.20700
 30
0.000000
  70
    32
  0
VERTEX
  8
AM_VIS
  5
85C
 10
5.96965
 20
4.20665
 30
0.000000
  70
    32
  0
VERTEX
  8
AM_VIS
  5
85D
 10
5.96945
 20
4.20629
 30
0.000000
  70
    32
  0
VERTEX
  8
AM_VIS
  5
85E
 10
5.96924
 20
4.20594
 30
0.000000
  70
    32
  0
VERTEX
  8
AM_VIS
  5
85F
 10
5.96904
 20
4.20558
 30
0.000000
  70
    32
  0
VERTEX
  8
AM_VIS
  5
860
 10
5.96884
 20
4.20522
 30
0.000000
  70
    32
  0
VERTEX
  8
AM_VIS
  5
861
 10
5.96864
 20
4.20486
 30
0.000000
  70
    32
  0
VERTEX
  8
AM_VIS
  5
862
 10
5.96844
 20
4.20450
 30
0.000000
  70
    32
  0
VERTEX
  8
AM_VIS
  5
863
 10
5.96825
 20
4.20414
 30
0.000000
  70
    32
  0
VERTEX
  8
AM_VIS
  5
864
 10
5.96805
 20
4.20378
 30
0.000000
  70
    32
  0
VERTEX
  8
AM_VIS
  5
865
 10
5.96786
 20
4.20342
 30
0.000000
  70
    32
  0
VERTEX
  8
AM_VIS
  5
866
 10
5.96767
 20
4.20305
 30
0.000000
  70
    32
  0
VERTEX
  8
AM_VIS
  5
867
 10
5.96748
 20
4.20269
 30
0.000000
  70
    32
  0
VERTEX
  8
AM_VIS
  5
868
 10
5.96729
 20
4.20232
 30
0.000000
  70
    32
  0
VERTEX
  8
AM_VIS
  5
869
 10
5.96710
 20
4.20196
 30
0.000000
  70
    32
  0
VERTEX
  8
AM_VIS
  5
86A
 10
5.96691
 20
4.20159
 30
0.000000
  70
    32
  0
VERTEX
  8
AM_VIS
  5
86B
 10
5.96673
 20
4.20122
 30
0.000000
  70
    32
  0
VERTEX
  8
AM_VIS
  5
86C
 10
5.96655
 20
4.20085
 30
0.000000
  70
    32
  0
VERTEX
  8
AM_VIS
  5
86D
 10
5.96637
 20
4.20048
 30
0.000000
  70
    32
  0
VERTEX
  8
AM_VIS
  5
86E
 10
5.96619
 20
4.20011
 30
0.000000
  70
    32
  0
VERTEX
  8
AM_VIS
  5
86F
 10
5.96601
 20
4.19974
 30
0.000000
  70
    32
  0
VERTEX
  8
AM_VIS
  5
870
 10
5.96583
 20
4.19937
 30
0.000000
  70
    32
  0
VERTEX
  8
AM_VIS
  5
871
 10
5.96565
 20
4.19900
 30
0.000000
  70
    32
  0
VERTEX
  8
AM_VIS
  5
872
 10
5.96548
 20
4.19862
 30
0.000000
  70
    32
  0
VERTEX
  8
AM_VIS
  5
873
 10
5.96531
 20
4.19825
 30
0.000000
  70
    32
  0
VERTEX
  8
AM_VIS
  5
874
 10
5.96514
 20
4.19787
 30
0.000000
  70
    32
  0
VERTEX
  8
AM_VIS
  5
875
 10
5.96497
 20
4.19750
 30
0.000000
  70
    32
  0
VERTEX
  8
AM_VIS
  5
876
 10
5.96480
 20
4.19712
 30
0.000000
  70
    32
  0
VERTEX
  8
AM_VIS
  5
877
 10
5.96463
 20
4.19674
 30
0.000000
  70
    32
  0
VERTEX
  8
AM_VIS
  5
878
 10
5.96447
 20
4.19636
 30
0.000000
  70
    32
  0
VERTEX
  8
AM_VIS
  5
879
 10
5.96430
 20
4.19598
 30
0.000000
  70
    32
  0
VERTEX
  8
AM_VIS
  5
87A
 10
5.96414
 20
4.19560
 30
0.000000
  70
    32
  0
VERTEX
  8
AM_VIS
  5
87B
 10
5.96398
 20
4.19522
 30
0.000000
  70
    32
  0
VERTEX
  8
AM_VIS
  5
87C
 10
5.96382
 20
4.19484
 30
0.000000
  70
    32
  0
VERTEX
  8
AM_VIS
  5
87D
 10
5.96366
 20
4.19445
 30
0.000000
  70
    32
  0
VERTEX
  8
AM_VIS
  5
87E
 10
5.96350
 20
4.19407
 30
0.000000
  70
    32
  0
VERTEX
  8
AM_VIS
  5
87F
 10
5.96335
 20
4.19369
 30
0.000000
  70
    32
  0
VERTEX
  8
AM_VIS
  5
880
 10
5.96319
 20
4.19330
 30
0.000000
  70
    32
  0
VERTEX
  8
AM_VIS
  5
881
 10
5.96304
 20
4.19291
 30
0.000000
  70
    32
  0
VERTEX
  8
AM_VIS
  5
882
 10
5.96289
 20
4.19253
 30
0.000000
  70
    32
  0
VERTEX
  8
AM_VIS
  5
883
 10
5.96274
 20
4.19214
 30
0.000000
  70
    32
  0
VERTEX
  8
AM_VIS
  5
884
 10
5.96259
 20
4.19175
 30
0.000000
  70
    32
  0
VERTEX
  8
AM_VIS
  5
885
 10
5.96245
 20
4.19136
 30
0.000000
  70
    32
  0
VERTEX
  8
AM_VIS
  5
886
 10
5.96230
 20
4.19097
 30
0.000000
  70
    32
  0
VERTEX
  8
AM_VIS
  5
887
 10
5.96216
 20
4.19058
 30
0.000000
  70
    32
  0
VERTEX
  8
AM_VIS
  5
888
 10
5.96202
 20
4.19019
 30
0.000000
  70
    32
  0
VERTEX
  8
AM_VIS
  5
889
 10
5.96188
 20
4.18980
 30
0.000000
  70
    32
  0
VERTEX
  8
AM_VIS
  5
88A
 10
5.96174
 20
4.18941
 30
0.000000
  70
    32
  0
VERTEX
  8
AM_VIS
  5
88B
 10
5.96160
 20
4.18902
 30
0.000000
  70
    32
  0
VERTEX
  8
AM_VIS
  5
88C
 10
5.96147
 20
4.18863
 30
0.000000
  70
    32
  0
VERTEX
  8
AM_VIS
  5
88D
 10
5.96133
 20
4.18823
 30
0.000000
  70
    32
  0
VERTEX
  8
AM_VIS
  5
88E
 10
5.96120
 20
4.18784
 30
0.000000
  70
    32
  0
VERTEX
  8
AM_VIS
  5
88F
 10
5.96107
 20
4.18745
 30
0.000000
  70
    32
  0
VERTEX
  8
AM_VIS
  5
890
 10
5.96094
 20
4.18705
 30
0.000000
  70
    32
  0
VERTEX
  8
AM_VIS
  5
891
 10
5.96081
 20
4.18666
 30
0.000000
  70
    32
  0
VERTEX
  8
AM_VIS
  5
892
 10
5.96068
 20
4.18626
 30
0.000000
  70
    32
  0
VERTEX
  8
AM_VIS
  5
893
 10
5.96056
 20
4.18587
 30
0.000000
  70
    32
  0
VERTEX
  8
AM_VIS
  5
894
 10
5.96043
 20
4.18547
 30
0.000000
  70
    32
  0
VERTEX
  8
AM_VIS
  5
895
 10
5.96031
 20
4.18508
 30
0.000000
  70
    32
  0
VERTEX
  8
AM_VIS
  5
896
 10
5.96019
 20
4.18468
 30
0.000000
  70
    32
  0
VERTEX
  8
AM_VIS
  5
897
 10
5.96007
 20
4.18428
 30
0.000000
  70
    32
  0
VERTEX
  8
AM_VIS
  5
898
 10
5.95995
 20
4.18389
 30
0.000000
  70
    32
  0
VERTEX
  8
AM_VIS
  5
899
 10
5.95983
 20
4.18349
 30
0.000000
  70
    32
  0
VERTEX
  8
AM_VIS
  5
89A
 10
5.95972
 20
4.18309
 30
0.000000
  70
    32
  0
VERTEX
  8
AM_VIS
  5
89B
 10
5.95960
 20
4.18269
 30
0.000000
  70
    32
  0
VERTEX
  8
AM_VIS
  5
89C
 10
5.95949
 20
4.18229
 30
0.000000
  70
    32
  0
VERTEX
  8
AM_VIS
  5
89D
 10
5.95938
 20
4.18189
 30
0.000000
  70
    32
  0
VERTEX
  8
AM_VIS
  5
89E
 10
5.95927
 20
4.18149
 30
0.000000
  70
    32
  0
VERTEX
  8
AM_VIS
  5
89F
 10
5.95916
 20
4.18109
 30
0.000000
  70
    32
  0
VERTEX
  8
AM_VIS
  5
8A0
 10
5.95905
 20
4.18069
 30
0.000000
  70
    32
  0
VERTEX
  8
AM_VIS
  5
8A1
 10
5.95895
 20
4.18029
 30
0.000000
  70
    32
  0
VERTEX
  8
AM_VIS
  5
8A2
 10
5.95884
 20
4.17989
 30
0.000000
  70
    32
  0
VERTEX
  8
AM_VIS
  5
8A3
 10
5.95874
 20
4.17949
 30
0.000000
  70
    32
  0
VERTEX
  8
AM_VIS
  5
8A4
 10
5.95864
 20
4.17909
 30
0.000000
  70
    32
  0
VERTEX
  8
AM_VIS
  5
8A5
 10
5.95854
 20
4.17868
 30
0.000000
  70
    32
  0
VERTEX
  8
AM_VIS
  5
8A6
 10
5.95844
 20
4.17828
 30
0.000000
  70
    32
  0
VERTEX
  8
AM_VIS
  5
8A7
 10
5.95834
 20
4.17788
 30
0.000000
  70
    32
  0
VERTEX
  8
AM_VIS
  5
8A8
 10
5.95824
 20
4.17747
 30
0.000000
  70
    32
  0
VERTEX
  8
AM_VIS
  5
8A9
 10
5.95815
 20
4.17707
 30
0.000000
  70
    32
  0
VERTEX
  8
AM_VIS
  5
8AA
 10
5.95805
 20
4.17667
 30
0.000000
  70
    32
  0
VERTEX
  8
AM_VIS
  5
8AB
 10
5.95796
 20
4.17626
 30
0.000000
  70
    32
  0
VERTEX
  8
AM_VIS
  5
8AC
 10
5.95787
 20
4.17586
 30
0.000000
  70
    32
  0
VERTEX
  8
AM_VIS
  5
8AD
 10
5.95778
 20
4.17545
 30
0.000000
  70
    32
  0
VERTEX
  8
AM_VIS
  5
8AE
 10
5.95769
 20
4.17505
 30
0.000000
  70
    32
  0
VERTEX
  8
AM_VIS
  5
8AF
 10
5.95760
 20
4.17464
 30
0.000000
  70
    32
  0
VERTEX
  8
AM_VIS
  5
8B0
 10
5.95752
 20
4.17423
 30
0.000000
  70
    32
  0
VERTEX
  8
AM_VIS
  5
8B1
 10
5.95743
 20
4.17383
 30
0.000000
  70
    32
  0
VERTEX
  8
AM_VIS
  5
8B2
 10
5.95735
 20
4.17342
 30
0.000000
  70
    32
  0
VERTEX
  8
AM_VIS
  5
8B3
 10
5.95727
 20
4.17301
 30
0.000000
  70
    32
  0
VERTEX
  8
AM_VIS
  5
8B4
 10
5.95719
 20
4.17261
 30
0.000000
  70
    32
  0
VERTEX
  8
AM_VIS
  5
8B5
 10
5.95711
 20
4.17220
 30
0.000000
  70
    32
  0
VERTEX
  8
AM_VIS
  5
8B6
 10
5.95703
 20
4.17179
 30
0.000000
  70
    32
  0
VERTEX
  8
AM_VIS
  5
8B7
 10
5.95695
 20
4.17138
 30
0.000000
  70
    32
  0
VERTEX
  8
AM_VIS
  5
8B8
 10
5.95687
 20
4.17097
 30
0.000000
  70
    32
  0
VERTEX
  8
AM_VIS
  5
8B9
 10
5.95680
 20
4.17056
 30
0.000000
  70
    32
  0
VERTEX
  8
AM_VIS
  5
8BA
 10
5.95672
 20
4.17015
 30
0.000000
  70
    32
  0
VERTEX
  8
AM_VIS
  5
8BB
 10
5.95665
 20
4.16974
 30
0.000000
  70
    32
  0
VERTEX
  8
AM_VIS
  5
8BC
 10
5.95658
 20
4.16933
 30
0.000000
  70
    32
  0
VERTEX
  8
AM_VIS
  5
8BD
 10
5.95651
 20
4.16892
 30
0.000000
  70
    32
  0
VERTEX
  8
AM_VIS
  5
8BE
 10
5.95644
 20
4.16851
 30
0.000000
  70
    32
  0
VERTEX
  8
AM_VIS
  5
8BF
 10
5.95637
 20
4.16810
 30
0.000000
  70
    32
  0
VERTEX
  8
AM_VIS
  5
8C0
 10
5.95631
 20
4.16769
 30
0.000000
  70
    32
  0
VERTEX
  8
AM_VIS
  5
8C1
 10
5.95624
 20
4.16728
 30
0.000000
  70
    32
  0
VERTEX
  8
AM_VIS
  5
8C2
 10
5.95618
 20
4.16687
 30
0.000000
  70
    32
  0
VERTEX
  8
AM_VIS
  5
8C3
 10
5.95611
 20
4.16646
 30
0.000000
  70
    32
  0
VERTEX
  8
AM_VIS
  5
8C4
 10
5.95605
 20
4.16605
 30
0.000000
  70
    32
  0
VERTEX
  8
AM_VIS
  5
8C5
 10
5.95599
 20
4.16563
 30
0.000000
  70
    32
  0
VERTEX
  8
AM_VIS
  5
8C6
 10
5.95593
 20
4.16522
 30
0.000000
  70
    32
  0
VERTEX
  8
AM_VIS
  5
8C7
 10
5.95587
 20
4.16481
 30
0.000000
  70
    32
  0
VERTEX
  8
AM_VIS
  5
8C8
 10
5.95581
 20
4.16440
 30
0.000000
  70
    32
  0
VERTEX
  8
AM_VIS
  5
8C9
 10
5.95576
 20
4.16398
 30
0.000000
  70
    32
  0
VERTEX
  8
AM_VIS
  5
8CA
 10
5.95570
 20
4.16357
 30
0.000000
  70
    32
  0
VERTEX
  8
AM_VIS
  5
8CB
 10
5.95565
 20
4.16316
 30
0.000000
  70
    32
  0
VERTEX
  8
AM_VIS
  5
8CC
 10
5.95559
 20
4.16274
 30
0.000000
  70
    32
  0
VERTEX
  8
AM_VIS
  5
8CD
 10
5.95554
 20
4.16233
 30
0.000000
  70
    32
  0
VERTEX
  8
AM_VIS
  5
8CE
 10
5.95549
 20
4.16191
 30
0.000000
  70
    32
  0
VERTEX
  8
AM_VIS
  5
8CF
 10
5.95544
 20
4.16150
 30
0.000000
  70
    32
  0
VERTEX
  8
AM_VIS
  5
8D0
 10
5.95539
 20
4.16109
 30
0.000000
  70
    32
  0
VERTEX
  8
AM_VIS
  5
8D1
 10
5.95534
 20
4.16067
 30
0.000000
  70
    32
  0
VERTEX
  8
AM_VIS
  5
8D2
 10
5.95530
 20
4.16026
 30
0.000000
  70
    32
  0
VERTEX
  8
AM_VIS
  5
8D3
 10
5.95525
 20
4.15984
 30
0.000000
  70
    32
  0
VERTEX
  8
AM_VIS
  5
8D4
 10
5.95521
 20
4.15943
 30
0.000000
  70
    32
  0
VERTEX
  8
AM_VIS
  5
8D5
 10
5.95516
 20
4.15901
 30
0.000000
  70
    32
  0
VERTEX
  8
AM_VIS
  5
8D6
 10
5.95512
 20
4.15859
 30
0.000000
  70
    32
  0
VERTEX
  8
AM_VIS
  5
8D7
 10
5.95508
 20
4.15818
 30
0.000000
  70
    32
  0
VERTEX
  8
AM_VIS
  5
8D8
 10
5.95504
 20
4.15776
 30
0.000000
  70
    32
  0
VERTEX
  8
AM_VIS
  5
8D9
 10
5.95500
 20
4.15735
 30
0.000000
  70
    32
  0
VERTEX
  8
AM_VIS
  5
8DA
 10
5.95496
 20
4.15693
 30
0.000000
  70
    32
  0
VERTEX
  8
AM_VIS
  5
8DB
 10
5.95492
 20
4.15651
 30
0.000000
  70
    32
  0
VERTEX
  8
AM_VIS
  5
8DC
 10
5.95489
 20
4.15610
 30
0.000000
  70
    32
  0
VERTEX
  8
AM_VIS
  5
8DD
 10
5.95485
 20
4.15568
 30
0.000000
  70
    32
  0
VERTEX
  8
AM_VIS
  5
8DE
 10
5.95482
 20
4.15526
 30
0.000000
  70
    32
  0
VERTEX
  8
AM_VIS
  5
8DF
 10
5.95478
 20
4.15485
 30
0.000000
  70
    32
  0
VERTEX
  8
AM_VIS
  5
8E0
 10
5.95475
 20
4.15443
 30
0.000000
  70
    32
  0
VERTEX
  8
AM_VIS
  5
8E1
 10
5.95472
 20
4.15401
 30
0.000000
  70
    32
  0
VERTEX
  8
AM_VIS
  5
8E2
 10
5.95469
 20
4.15360
 30
0.000000
  70
    32
  0
VERTEX
  8
AM_VIS
  5
8E3
 10
5.95466
 20
4.15318
 30
0.000000
  70
    32
  0
VERTEX
  8
AM_VIS
  5
8E4
 10
5.95463
 20
4.15276
 30
0.000000
  70
    32
  0
VERTEX
  8
AM_VIS
  5
8E5
 10
5.95460
 20
4.15234
 30
0.000000
  70
    32
  0
VERTEX
  8
AM_VIS
  5
8E6
 10
5.95458
 20
4.15193
 30
0.000000
  70
    32
  0
VERTEX
  8
AM_VIS
  5
8E7
 10
5.95455
 20
4.15151
 30
0.000000
  70
    32
  0
VERTEX
  8
AM_VIS
  5
8E8
 10
5.95453
 20
4.15109
 30
0.000000
  70
    32
  0
VERTEX
  8
AM_VIS
  5
8E9
 10
5.95450
 20
4.15067
 30
0.000000
  70
    32
  0
VERTEX
  8
AM_VIS
  5
8EA
 10
5.95448
 20
4.15026
 30
0.000000
  70
    32
  0
VERTEX
  8
AM_VIS
  5
8EB
 10
5.95446
 20
4.14984
 30
0.000000
  70
    32
  0
VERTEX
  8
AM_VIS
  5
8EC
 10
5.95444
 20
4.14942
 30
0.000000
  70
    32
  0
VERTEX
  8
AM_VIS
  5
8ED
 10
5.95442
 20
4.14900
 30
0.000000
  70
    32
  0
VERTEX
  8
AM_VIS
  5
8EE
 10
5.95440
 20
4.14858
 30
0.000000
  70
    32
  0
VERTEX
  8
AM_VIS
  5
8EF
 10
5.95438
 20
4.14816
 30
0.000000
  70
    32
  0
VERTEX
  8
AM_VIS
  5
8F0
 10
5.95436
 20
4.14775
 30
0.000000
  70
    32
  0
VERTEX
  8
AM_VIS
  5
8F1
 10
5.95434
 20
4.14733
 30
0.000000
  70
    32
  0
VERTEX
  8
AM_VIS
  5
8F2
 10
5.95433
 20
4.14691
 30
0.000000
  70
    32
  0
VERTEX
  8
AM_VIS
  5
8F3
 10
5.95431
 20
4.14649
 30
0.000000
  70
    32
  0
VERTEX
  8
AM_VIS
  5
8F4
 10
5.95430
 20
4.14607
 30
0.000000
  70
    32
  0
VERTEX
  8
AM_VIS
  5
8F5
 10
5.95429
 20
4.14565
 30
0.000000
  70
    32
  0
VERTEX
  8
AM_VIS
  5
8F6
 10
5.95427
 20
4.14523
 30
0.000000
  70
    32
  0
VERTEX
  8
AM_VIS
  5
8F7
 10
5.95426
 20
4.14481
 30
0.000000
  70
    32
  0
VERTEX
  8
AM_VIS
  5
8F8
 10
5.95425
 20
4.14439
 30
0.000000
  70
    32
  0
VERTEX
  8
AM_VIS
  5
8F9
 10
5.95424
 20
4.14397
 30
0.000000
  70
    32
  0
VERTEX
  8
AM_VIS
  5
8FA
 10
5.95423
 20
4.14356
 30
0.000000
  70
    32
  0
VERTEX
  8
AM_VIS
  5
8FB
 10
5.95422
 20
4.14314
 30
0.000000
  70
    32
  0
VERTEX
  8
AM_VIS
  5
8FC
 10
5.95422
 20
4.14272
 30
0.000000
  70
    32
  0
VERTEX
  8
AM_VIS
  5
8FD
 10
5.95421
 20
4.14230
 30
0.000000
  70
    32
  0
VERTEX
  8
AM_VIS
  5
8FE
 10
5.95420
 20
4.14188
 30
0.000000
  70
    32
  0
VERTEX
  8
AM_VIS
  5
8FF
 10
5.95420
 20
4.14146
 30
0.000000
  70
    32
  0
VERTEX
  8
AM_VIS
  5
900
 10
5.95419
 20
4.14104
 30
0.000000
  70
    32
  0
VERTEX
  8
AM_VIS
  5
901
 10
5.95419
 20
4.14062
 30
0.000000
  70
    32
  0
VERTEX
  8
AM_VIS
  5
902
 10
5.95419
 20
4.14020
 30
0.000000
  70
    32
  0
VERTEX
  8
AM_VIS
  5
903
 10
5.95419
 20
4.13978
 30
0.000000
  70
    32
  0
VERTEX
  8
AM_VIS
  5
904
 10
5.95418
 20
4.13936
 30
0.000000
  70
    32
  0
VERTEX
  8
AM_VIS
  5
905
 10
5.95418
 20
4.13894
 30
0.000000
  70
    32
  0
VERTEX
  8
AM_VIS
  5
906
 10
5.95418
 20
4.13852
 30
0.000000
  70
    32
  0
VERTEX
  8
AM_VIS
  5
907
 10
5.95418
 20
4.13810
 30
0.000000
  70
    32
  0
VERTEX
  8
AM_VIS
  5
908
 10
5.95419
 20
4.13768
 30
0.000000
  70
    32
  0
VERTEX
  8
AM_VIS
  5
909
 10
5.95419
 20
4.13726
 30
0.000000
  70
    32
  0
VERTEX
  8
AM_VIS
  5
90A
 10
5.95419
 20
4.13684
 30
0.000000
  70
    32
  0
VERTEX
  8
AM_VIS
  5
90B
 10
5.95420
 20
4.13642
 30
0.000000
  70
    32
  0
VERTEX
  8
AM_VIS
  5
90C
 10
5.95420
 20
4.13600
 30
0.000000
  70
    32
  0
VERTEX
  8
AM_VIS
  5
90D
 10
5.95421
 20
4.13558
 30
0.000000
  70
    32
  0
VERTEX
  8
AM_VIS
  5
90E
 10
5.95421
 20
4.13516
 30
0.000000
  70
    32
  0
VERTEX
  8
AM_VIS
  5
90F
 10
5.95422
 20
4.13474
 30
0.000000
  70
    32
  0
VERTEX
  8
AM_VIS
  5
910
 10
5.95423
 20
4.13432
 30
0.000000
  70
    32
  0
VERTEX
  8
AM_VIS
  5
911
 10
5.95424
 20
4.13390
 30
0.000000
  70
    32
  0
VERTEX
  8
AM_VIS
  5
912
 10
5.95425
 20
4.13348
 30
0.000000
  70
    32
  0
VERTEX
  8
AM_VIS
  5
913
 10
5.95425
 20
4.13306
 30
0.000000
  70
    32
  0
VERTEX
  8
AM_VIS
  5
914
 10
5.95427
 20
4.13263
 30
0.000000
  70
    32
  0
VERTEX
  8
AM_VIS
  5
915
 10
5.95428
 20
4.13221
 30
0.000000
  70
    32
  0
VERTEX
  8
AM_VIS
  5
916
 10
5.95429
 20
4.13179
 30
0.000000
  70
    32
  0
VERTEX
  8
AM_VIS
  5
917
 10
5.95430
 20
4.13137
 30
0.000000
  70
    32
  0
VERTEX
  8
AM_VIS
  5
918
 10
5.95431
 20
4.13095
 30
0.000000
  70
    32
  0
VERTEX
  8
AM_VIS
  5
919
 10
5.95433
 20
4.13053
 30
0.000000
  70
    32
  0
VERTEX
  8
AM_VIS
  5
91A
 10
5.95434
 20
4.13011
 30
0.000000
  70
    32
  0
VERTEX
  8
AM_VIS
  5
91B
 10
5.95436
 20
4.12969
 30
0.000000
  70
    32
  0
VERTEX
  8
AM_VIS
  5
91C
 10
5.95437
 20
4.12927
 30
0.000000
  70
    32
  0
VERTEX
  8
AM_VIS
  5
91D
 10
5.95439
 20
4.12885
 30
0.000000
  70
    32
  0
VERTEX
  8
AM_VIS
  5
91E
 10
5.95441
 20
4.12842
 30
0.000000
  70
    32
  0
VERTEX
  8
AM_VIS
  5
91F
 10
5.95442
 20
4.12800
 30
0.000000
  70
    32
  0
VERTEX
  8
AM_VIS
  5
920
 10
5.95444
 20
4.12758
 30
0.000000
  70
    32
  0
VERTEX
  8
AM_VIS
  5
921
 10
5.95446
 20
4.12716
 30
0.000000
  70
    32
  0
VERTEX
  8
AM_VIS
  5
922
 10
5.95448
 20
4.12674
 30
0.000000
  70
    32
  0
VERTEX
  8
AM_VIS
  5
923
 10
5.95450
 20
4.12632
 30
0.000000
  70
    32
  0
VERTEX
  8
AM_VIS
  5
924
 10
5.95452
 20
4.12590
 30
0.000000
  70
    32
  0
VERTEX
  8
AM_VIS
  5
925
 10
5.95454
 20
4.12548
 30
0.000000
  70
    32
  0
VERTEX
  8
AM_VIS
  5
926
 10
5.95457
 20
4.12505
 30
0.000000
  70
    32
  0
VERTEX
  8
AM_VIS
  5
927
 10
5.95459
 20
4.12463
 30
0.000000
  70
    32
  0
VERTEX
  8
AM_VIS
  5
928
 10
5.95461
 20
4.12421
 30
0.000000
  70
    32
  0
VERTEX
  8
AM_VIS
  5
929
 10
5.95463
 20
4.12379
 30
0.000000
  70
    32
  0
VERTEX
  8
AM_VIS
  5
92A
 10
5.95466
 20
4.12337
 30
0.000000
  70
    32
  0
VERTEX
  8
AM_VIS
  5
92B
 10
5.95468
 20
4.12295
 30
0.000000
  70
    32
  0
VERTEX
  8
AM_VIS
  5
92C
 10
5.95471
 20
4.12253
 30
0.000000
  70
    32
  0
VERTEX
  8
AM_VIS
  5
92D
 10
5.95474
 20
4.12211
 30
0.000000
  70
    32
  0
VERTEX
  8
AM_VIS
  5
92E
 10
5.95476
 20
4.12169
 30
0.000000
  70
    32
  0
VERTEX
  8
AM_VIS
  5
92F
 10
5.95479
 20
4.12126
 30
0.000000
  70
    32
  0
VERTEX
  8
AM_VIS
  5
930
 10
5.95482
 20
4.12084
 30
0.000000
  70
    32
  0
VERTEX
  8
AM_VIS
  5
931
 10
5.95485
 20
4.12042
 30
0.000000
  70
    32
  0
VERTEX
  8
AM_VIS
  5
932
 10
5.95487
 20
4.12000
 30
0.000000
  70
    32
  0
VERTEX
  8
AM_VIS
  5
933
 10
5.95490
 20
4.11958
 30
0.000000
  70
    32
  0
VERTEX
  8
AM_VIS
  5
934
 10
5.95493
 20
4.11916
 30
0.000000
  70
    32
  0
VERTEX
  8
AM_VIS
  5
935
 10
5.95496
 20
4.11873
 30
0.000000
  70
    32
  0
VERTEX
  8
AM_VIS
  5
936
 10
5.95500
 20
4.11831
 30
0.000000
  70
    32
  0
VERTEX
  8
AM_VIS
  5
937
 10
5.95503
 20
4.11789
 30
0.000000
  70
    32
  0
VERTEX
  8
AM_VIS
  5
938
 10
5.95506
 20
4.11747
 30
0.000000
  70
    32
  0
VERTEX
  8
AM_VIS
  5
939
 10
5.95509
 20
4.11704
 30
0.000000
  70
    32
  0
VERTEX
  8
AM_VIS
  5
93A
 10
5.95513
 20
4.11662
 30
0.000000
  70
    32
  0
VERTEX
  8
AM_VIS
  5
93B
 10
5.95516
 20
4.11620
 30
0.000000
  70
    32
  0
VERTEX
  8
AM_VIS
  5
93C
 10
5.95519
 20
4.11577
 30
0.000000
  70
    32
  0
VERTEX
  8
AM_VIS
  5
93D
 10
5.95523
 20
4.11535
 30
0.000000
  70
    32
  0
VERTEX
  8
AM_VIS
  5
93E
 10
5.95526
 20
4.11493
 30
0.000000
  70
    32
  0
VERTEX
  8
AM_VIS
  5
93F
 10
5.95530
 20
4.11450
 30
0.000000
  70
    32
  0
VERTEX
  8
AM_VIS
  5
940
 10
5.95534
 20
4.11408
 30
0.000000
  70
    32
  0
VERTEX
  8
AM_VIS
  5
941
 10
5.95537
 20
4.11366
 30
0.000000
  70
    32
  0
VERTEX
  8
AM_VIS
  5
942
 10
5.95541
 20
4.11323
 30
0.000000
  70
    32
  0
VERTEX
  8
AM_VIS
  5
943
 10
5.95545
 20
4.11281
 30
0.000000
  70
    32
  0
VERTEX
  8
AM_VIS
  5
944
 10
5.95549
 20
4.11239
 30
0.000000
  70
    32
  0
VERTEX
  8
AM_VIS
  5
945
 10
5.95553
 20
4.11196
 30
0.000000
  70
    32
  0
VERTEX
  8
AM_VIS
  5
946
 10
5.95556
 20
4.11154
 30
0.000000
  70
    32
  0
VERTEX
  8
AM_VIS
  5
947
 10
5.95560
 20
4.11112
 30
0.000000
  70
    32
  0
VERTEX
  8
AM_VIS
  5
948
 10
5.95565
 20
4.11069
 30
0.000000
  70
    32
  0
VERTEX
  8
AM_VIS
  5
949
 10
5.95569
 20
4.11027
 30
0.000000
  70
    32
  0
VERTEX
  8
AM_VIS
  5
94A
 10
5.95573
 20
4.10984
 30
0.000000
  70
    32
  0
VERTEX
  8
AM_VIS
  5
94B
 10
5.95577
 20
4.10942
 30
0.000000
  70
    32
  0
VERTEX
  8
AM_VIS
  5
94C
 10
5.95581
 20
4.10900
 30
0.000000
  70
    32
  0
VERTEX
  8
AM_VIS
  5
94D
 10
5.95585
 20
4.10857
 30
0.000000
  70
    32
  0
VERTEX
  8
AM_VIS
  5
94E
 10
5.95590
 20
4.10815
 30
0.000000
  70
    32
  0
VERTEX
  8
AM_VIS
  5
94F
 10
5.95594
 20
4.10772
 30
0.000000
  70
    32
  0
VERTEX
  8
AM_VIS
  5
950
 10
5.95598
 20
4.10730
 30
0.000000
  70
    32
  0
VERTEX
  8
AM_VIS
  5
951
 10
5.95603
 20
4.10687
 30
0.000000
  70
    32
  0
VERTEX
  8
AM_VIS
  5
952
 10
5.95607
 20
4.10645
 30
0.000000
  70
    32
  0
VERTEX
  8
AM_VIS
  5
953
 10
5.95612
 20
4.10603
 30
0.000000
  70
    32
  0
VERTEX
  8
AM_VIS
  5
954
 10
5.95616
 20
4.10560
 30
0.000000
  70
    32
  0
VERTEX
  8
AM_VIS
  5
955
 10
5.95621
 20
4.10518
 30
0.000000
  70
    32
  0
VERTEX
  8
AM_VIS
  5
956
 10
5.95626
 20
4.10475
 30
0.000000
  70
    32
  0
VERTEX
  8
AM_VIS
  5
957
 10
5.95630
 20
4.10433
 30
0.000000
  70
    32
  0
VERTEX
  8
AM_VIS
  5
958
 10
5.95635
 20
4.10390
 30
0.000000
  70
    32
  0
VERTEX
  8
AM_VIS
  5
959
 10
5.95640
 20
4.10348
 30
0.000000
  70
    32
  0
VERTEX
  8
AM_VIS
  5
95A
 10
5.95645
 20
4.10305
 30
0.000000
  70
    32
  0
VERTEX
  8
AM_VIS
  5
95B
 10
5.95650
 20
4.10263
 30
0.000000
  70
    32
  0
VERTEX
  8
AM_VIS
  5
95C
 10
5.95654
 20
4.10221
 30
0.000000
  70
    32
  0
VERTEX
  8
AM_VIS
  5
95D
 10
5.95659
 20
4.10178
 30
0.000000
  70
    32
  0
VERTEX
  8
AM_VIS
  5
95E
 10
5.95664
 20
4.10136
 30
0.000000
  70
    32
  0
VERTEX
  8
AM_VIS
  5
95F
 10
5.95669
 20
4.10093
 30
0.000000
  70
    32
  0
VERTEX
  8
AM_VIS
  5
960
 10
5.95674
 20
4.10051
 30
0.000000
  70
    32
  0
VERTEX
  8
AM_VIS
  5
961
 10
5.95680
 20
4.10009
 30
0.000000
  70
    32
  0
VERTEX
  8
AM_VIS
  5
962
 10
5.95685
 20
4.09966
 30
0.000000
  70
    32
  0
VERTEX
  8
AM_VIS
  5
963
 10
5.95690
 20
4.09924
 30
0.000000
  70
    32
  0
VERTEX
  8
AM_VIS
  5
964
 10
5.95695
 20
4.09881
 30
0.000000
  70
    32
  0
VERTEX
  8
AM_VIS
  5
965
 10
5.95700
 20
4.09839
 30
0.000000
  70
    32
  0
VERTEX
  8
AM_VIS
  5
966
 10
5.95706
 20
4.09797
 30
0.000000
  70
    32
  0
VERTEX
  8
AM_VIS
  5
967
 10
5.95711
 20
4.09754
 30
0.000000
  70
    32
  0
VERTEX
  8
AM_VIS
  5
968
 10
5.95716
 20
4.09712
 30
0.000000
  70
    32
  0
VERTEX
  8
AM_VIS
  5
969
 10
5.95722
 20
4.09669
 30
0.000000
  70
    32
  0
VERTEX
  8
AM_VIS
  5
96A
 10
5.95727
 20
4.09627
 30
0.000000
  70
    32
  0
VERTEX
  8
AM_VIS
  5
96B
 10
5.95732
 20
4.09585
 30
0.000000
  70
    32
  0
VERTEX
  8
AM_VIS
  5
96C
 10
5.95738
 20
4.09542
 30
0.000000
  70
    32
  0
VERTEX
  8
AM_VIS
  5
96D
 10
5.95743
 20
4.09500
 30
0.000000
  70
    32
  0
VERTEX
  8
AM_VIS
  5
96E
 10
5.95749
 20
4.09458
 30
0.000000
  70
    32
  0
VERTEX
  8
AM_VIS
  5
96F
 10
5.95755
 20
4.09415
 30
0.000000
  70
    32
  0
VERTEX
  8
AM_VIS
  5
970
 10
5.95760
 20
4.09373
 30
0.000000
  70
    32
  0
VERTEX
  8
AM_VIS
  5
971
 10
5.95766
 20
4.09331
 30
0.000000
  70
    32
  0
VERTEX
  8
AM_VIS
  5
972
 10
5.95771
 20
4.09289
 30
0.000000
  70
    32
  0
VERTEX
  8
AM_VIS
  5
973
 10
5.95777
 20
4.09246
 30
0.000000
  70
    32
  0
VERTEX
  8
AM_VIS
  5
974
 10
5.95783
 20
4.09204
 30
0.000000
  70
    32
  0
VERTEX
  8
AM_VIS
  5
975
 10
5.95789
 20
4.09162
 30
0.000000
  70
    32
  0
VERTEX
  8
AM_VIS
  5
976
 10
5.95794
 20
4.09120
 30
0.000000
  70
    32
  0
VERTEX
  8
AM_VIS
  5
977
 10
5.95800
 20
4.09077
 30
0.000000
  70
    32
  0
VERTEX
  8
AM_VIS
  5
978
 10
5.95806
 20
4.09035
 30
0.000000
  70
    32
  0
VERTEX
  8
AM_VIS
  5
979
 10
5.95812
 20
4.08993
 30
0.000000
  70
    32
  0
VERTEX
  8
AM_VIS
  5
97A
 10
5.95818
 20
4.08951
 30
0.000000
  70
    32
  0
VERTEX
  8
AM_VIS
  5
97B
 10
5.95824
 20
4.08909
 30
0.000000
  70
    32
  0
VERTEX
  8
AM_VIS
  5
97C
 10
5.95830
 20
4.08866
 30
0.000000
  70
    32
  0
VERTEX
  8
AM_VIS
  5
97D
 10
5.95836
 20
4.08824
 30
0.000000
  70
    32
  0
VERTEX
  8
AM_VIS
  5
97E
 10
5.95842
 20
4.08782
 30
0.000000
  70
    32
  0
VERTEX
  8
AM_VIS
  5
97F
 10
5.95848
 20
4.08740
 30
0.000000
  70
    32
  0
VERTEX
  8
AM_VIS
  5
980
 10
5.95854
 20
4.08698
 30
0.000000
  70
    32
  0
VERTEX
  8
AM_VIS
  5
981
 10
5.95860
 20
4.08656
 30
0.000000
  70
    32
  0
VERTEX
  8
AM_VIS
  5
982
 10
5.95866
 20
4.08613
 30
0.000000
  70
    32
  0
VERTEX
  8
AM_VIS
  5
983
 10
5.95872
 20
4.08571
 30
0.000000
  70
    32
  0
VERTEX
  8
AM_VIS
  5
984
 10
5.95879
 20
4.08529
 30
0.000000
  70
    32
  0
VERTEX
  8
AM_VIS
  5
985
 10
5.95885
 20
4.08486
 30
0.000000
  70
    32
  0
VERTEX
  8
AM_VIS
  5
986
 10
5.95891
 20
4.08444
 30
0.000000
  70
    32
  0
VERTEX
  8
AM_VIS
  5
987
 10
5.95898
 20
4.08401
 30
0.000000
  70
    32
  0
VERTEX
  8
AM_VIS
  5
988
 10
5.95904
 20
4.08359
 30
0.000000
  70
    32
  0
VERTEX
  8
AM_VIS
  5
989
 10
5.95910
 20
4.08316
 30
0.000000
  70
    32
  0
VERTEX
  8
AM_VIS
  5
98A
 10
5.95917
 20
4.08274
 30
0.000000
  70
    32
  0
VERTEX
  8
AM_VIS
  5
98B
 10
5.95923
 20
4.08231
 30
0.000000
  70
    32
  0
VERTEX
  8
AM_VIS
  5
98C
 10
5.95930
 20
4.08188
 30
0.000000
  70
    32
  0
VERTEX
  8
AM_VIS
  5
98D
 10
5.95936
 20
4.08146
 30
0.000000
  70
    32
  0
VERTEX
  8
AM_VIS
  5
98E
 10
5.95943
 20
4.08103
 30
0.000000
  70
    32
  0
VERTEX
  8
AM_VIS
  5
98F
 10
5.95949
 20
4.08060
 30
0.000000
  70
    32
  0
VERTEX
  8
AM_VIS
  5
990
 10
5.95956
 20
4.08017
 30
0.000000
  70
    32
  0
VERTEX
  8
AM_VIS
  5
991
 10
5.95962
 20
4.07975
 30
0.000000
  70
    32
  0
VERTEX
  8
AM_VIS
  5
992
 10
5.95969
 20
4.07932
 30
0.000000
  70
    32
  0
VERTEX
  8
AM_VIS
  5
993
 10
5.95976
 20
4.07889
 30
0.000000
  70
    32
  0
VERTEX
  8
AM_VIS
  5
994
 10
5.95983
 20
4.07846
 30
0.000000
  70
    32
  0
VERTEX
  8
AM_VIS
  5
995
 10
5.95989
 20
4.07803
 30
0.000000
  70
    32
  0
VERTEX
  8
AM_VIS
  5
996
 10
5.95996
 20
4.07760
 30
0.000000
  70
    32
  0
VERTEX
  8
AM_VIS
  5
997
 10
5.96003
 20
4.07717
 30
0.000000
  70
    32
  0
VERTEX
  8
AM_VIS
  5
998
 10
5.96010
 20
4.07674
 30
0.000000
  70
    32
  0
VERTEX
  8
AM_VIS
  5
999
 10
5.96017
 20
4.07631
 30
0.000000
  70
    32
  0
VERTEX
  8
AM_VIS
  5
99A
 10
5.96023
 20
4.07587
 30
0.000000
  70
    32
  0
VERTEX
  8
AM_VIS
  5
99B
 10
5.96030
 20
4.07544
 30
0.000000
  70
    32
  0
VERTEX
  8
AM_VIS
  5
99C
 10
5.96037
 20
4.07501
 30
0.000000
  70
    32
  0
VERTEX
  8
AM_VIS
  5
99D
 10
5.96044
 20
4.07458
 30
0.000000
  70
    32
  0
VERTEX
  8
AM_VIS
  5
99E
 10
5.96051
 20
4.07414
 30
0.000000
  70
    32
  0
VERTEX
  8
AM_VIS
  5
99F
 10
5.96058
 20
4.07371
 30
0.000000
  70
    32
  0
VERTEX
  8
AM_VIS
  5
9A0
 10
5.96065
 20
4.07328
 30
0.000000
  70
    32
  0
VERTEX
  8
AM_VIS
  5
9A1
 10
5.96072
 20
4.07284
 30
0.000000
  70
    32
  0
VERTEX
  8
AM_VIS
  5
9A2
 10
5.96080
 20
4.07241
 30
0.000000
  70
    32
  0
VERTEX
  8
AM_VIS
  5
9A3
 10
5.96087
 20
4.07197
 30
0.000000
  70
    32
  0
VERTEX
  8
AM_VIS
  5
9A4
 10
5.96094
 20
4.07154
 30
0.000000
  70
    32
  0
VERTEX
  8
AM_VIS
  5
9A5
 10
5.96101
 20
4.07110
 30
0.000000
  70
    32
  0
VERTEX
  8
AM_VIS
  5
9A6
 10
5.96108
 20
4.07067
 30
0.000000
  70
    32
  0
VERTEX
  8
AM_VIS
  5
9A7
 10
5.96116
 20
4.07023
 30
0.000000
  70
    32
  0
VERTEX
  8
AM_VIS
  5
9A8
 10
5.96123
 20
4.06980
 30
0.000000
  70
    32
  0
VERTEX
  8
AM_VIS
  5
9A9
 10
5.96130
 20
4.06936
 30
0.000000
  70
    32
  0
VERTEX
  8
AM_VIS
  5
9AA
 10
5.96137
 20
4.06892
 30
0.000000
  70
    32
  0
VERTEX
  8
AM_VIS
  5
9AB
 10
5.96145
 20
4.06848
 30
0.000000
  70
    32
  0
VERTEX
  8
AM_VIS
  5
9AC
 10
5.96152
 20
4.06805
 30
0.000000
  70
    32
  0
VERTEX
  8
AM_VIS
  5
9AD
 10
5.96160
 20
4.06761
 30
0.000000
  70
    32
  0
VERTEX
  8
AM_VIS
  5
9AE
 10
5.96167
 20
4.06717
 30
0.000000
  70
    32
  0
VERTEX
  8
AM_VIS
  5
9AF
 10
5.96174
 20
4.06673
 30
0.000000
  70
    32
  0
VERTEX
  8
AM_VIS
  5
9B0
 10
5.96182
 20
4.06629
 30
0.000000
  70
    32
  0
VERTEX
  8
AM_VIS
  5
9B1
 10
5.96189
 20
4.06585
 30
0.000000
  70
    32
  0
VERTEX
  8
AM_VIS
  5
9B2
 10
5.96197
 20
4.06541
 30
0.000000
  70
    32
  0
VERTEX
  8
AM_VIS
  5
9B3
 10
5.96204
 20
4.06497
 30
0.000000
  70
    32
  0
VERTEX
  8
AM_VIS
  5
9B4
 10
5.96212
 20
4.06453
 30
0.000000
  70
    32
  0
VERTEX
  8
AM_VIS
  5
9B5
 10
5.96220
 20
4.06409
 30
0.000000
  70
    32
  0
VERTEX
  8
AM_VIS
  5
9B6
 10
5.96227
 20
4.06365
 30
0.000000
  70
    32
  0
VERTEX
  8
AM_VIS
  5
9B7
 10
5.96235
 20
4.06321
 30
0.000000
  70
    32
  0
VERTEX
  8
AM_VIS
  5
9B8
 10
5.96242
 20
4.06276
 30
0.000000
  70
    32
  0
VERTEX
  8
AM_VIS
  5
9B9
 10
5.96250
 20
4.06232
 30
0.000000
  70
    32
  0
VERTEX
  8
AM_VIS
  5
9BA
 10
5.96258
 20
4.06188
 30
0.000000
  70
    32
  0
VERTEX
  8
AM_VIS
  5
9BB
 10
5.96265
 20
4.06144
 30
0.000000
  70
    32
  0
VERTEX
  8
AM_VIS
  5
9BC
 10
5.96273
 20
4.06099
 30
0.000000
  70
    32
  0
VERTEX
  8
AM_VIS
  5
9BD
 10
5.96281
 20
4.06055
 30
0.000000
  70
    32
  0
VERTEX
  8
AM_VIS
  5
9BE
 10
5.96289
 20
4.06010
 30
0.000000
  70
    32
  0
VERTEX
  8
AM_VIS
  5
9BF
 10
5.96297
 20
4.05966
 30
0.000000
  70
    32
  0
VERTEX
  8
AM_VIS
  5
9C0
 10
5.96304
 20
4.05921
 30
0.000000
  70
    32
  0
VERTEX
  8
AM_VIS
  5
9C1
 10
5.96312
 20
4.05877
 30
0.000000
  70
    32
  0
VERTEX
  8
AM_VIS
  5
9C2
 10
5.96320
 20
4.05832
 30
0.000000
  70
    32
  0
VERTEX
  8
AM_VIS
  5
9C3
 10
5.96328
 20
4.05788
 30
0.000000
  70
    32
  0
VERTEX
  8
AM_VIS
  5
9C4
 10
5.96336
 20
4.05743
 30
0.000000
  70
    32
  0
VERTEX
  8
AM_VIS
  5
9C5
 10
5.96344
 20
4.05698
 30
0.000000
  70
    32
  0
VERTEX
  8
AM_VIS
  5
9C6
 10
5.96352
 20
4.05654
 30
0.000000
  70
    32
  0
VERTEX
  8
AM_VIS
  5
9C7
 10
5.96360
 20
4.05609
 30
0.000000
  70
    32
  0
VERTEX
  8
AM_VIS
  5
9C8
 10
5.96368
 20
4.05564
 30
0.000000
  70
    32
  0
VERTEX
  8
AM_VIS
  5
9C9
 10
5.96376
 20
4.05519
 30
0.000000
  70
    32
  0
VERTEX
  8
AM_VIS
  5
9CA
 10
5.96384
 20
4.05475
 30
0.000000
  70
    32
  0
VERTEX
  8
AM_VIS
  5
9CB
 10
5.96392
 20
4.05430
 30
0.000000
  70
    32
  0
VERTEX
  8
AM_VIS
  5
9CC
 10
5.96400
 20
4.05385
 30
0.000000
  70
    32
  0
VERTEX
  8
AM_VIS
  5
9CD
 10
5.96408
 20
4.05340
 30
0.000000
  70
    32
  0
VERTEX
  8
AM_VIS
  5
9CE
 10
5.96416
 20
4.05295
 30
0.000000
  70
    32
  0
VERTEX
  8
AM_VIS
  5
9CF
 10
5.96424
 20
4.05250
 30
0.000000
  70
    32
  0
VERTEX
  8
AM_VIS
  5
9D0
 10
5.96432
 20
4.05205
 30
0.000000
  70
    32
  0
VERTEX
  8
AM_VIS
  5
9D1
 10
5.96440
 20
4.05160
 30
0.000000
  70
    32
  0
VERTEX
  8
AM_VIS
  5
9D2
 10
5.96448
 20
4.05115
 30
0.000000
  70
    32
  0
VERTEX
  8
AM_VIS
  5
9D3
 10
5.96457
 20
4.05069
 30
0.000000
  70
    32
  0
VERTEX
  8
AM_VIS
  5
9D4
 10
5.96465
 20
4.05024
 30
0.000000
  70
    32
  0
VERTEX
  8
AM_VIS
  5
9D5
 10
5.96473
 20
4.04979
 30
0.000000
  70
    32
  0
VERTEX
  8
AM_VIS
  5
9D6
 10
5.96481
 20
4.04934
 30
0.000000
  70
    32
  0
VERTEX
  8
AM_VIS
  5
9D7
 10
5.96489
 20
4.04888
 30
0.000000
  70
    32
  0
VERTEX
  8
AM_VIS
  5
9D8
 10
5.96498
 20
4.04843
 30
0.000000
  70
    32
  0
VERTEX
  8
AM_VIS
  5
9D9
 10
5.96506
 20
4.04798
 30
0.000000
  70
    32
  0
VERTEX
  8
AM_VIS
  5
9DA
 10
5.96514
 20
4.04752
 30
0.000000
  70
    32
  0
VERTEX
  8
AM_VIS
  5
9DB
 10
5.96523
 20
4.04707
 30
0.000000
  70
    32
  0
VERTEX
  8
AM_VIS
  5
9DC
 10
5.96531
 20
4.04661
 30
0.000000
  70
    32
  0
VERTEX
  8
AM_VIS
  5
9DD
 10
5.96539
 20
4.04616
 30
0.000000
  70
    32
  0
VERTEX
  8
AM_VIS
  5
9DE
 10
5.96548
 20
4.04570
 30
0.000000
  70
    32
  0
VERTEX
  8
AM_VIS
  5
9DF
 10
5.96556
 20
4.04525
 30
0.000000
  70
    32
  0
VERTEX
  8
AM_VIS
  5
9E0
 10
5.96564
 20
4.04479
 30
0.000000
  70
    32
  0
VERTEX
  8
AM_VIS
  5
9E1
 10
5.96573
 20
4.04433
 30
0.000000
  70
    32
  0
VERTEX
  8
AM_VIS
  5
9E2
 10
5.96581
 20
4.04388
 30
0.000000
  70
    32
  0
VERTEX
  8
AM_VIS
  5
9E3
 10
5.96590
 20
4.04342
 30
0.000000
  70
    32
  0
VERTEX
  8
AM_VIS
  5
9E4
 10
5.96598
 20
4.04296
 30
0.000000
  70
    32
  0
VERTEX
  8
AM_VIS
  5
9E5
 10
5.96606
 20
4.04250
 30
0.000000
  70
    32
  0
VERTEX
  8
AM_VIS
  5
9E6
 10
5.96615
 20
4.04205
 30
0.000000
  70
    32
  0
VERTEX
  8
AM_VIS
  5
9E7
 10
5.96623
 20
4.04159
 30
0.000000
  70
    32
  0
VERTEX
  8
AM_VIS
  5
9E8
 10
5.96632
 20
4.04113
 30
0.000000
  70
    32
  0
VERTEX
  8
AM_VIS
  5
9E9
 10
5.96640
 20
4.04067
 30
0.000000
  70
    32
  0
VERTEX
  8
AM_VIS
  5
9EA
 10
5.96649
 20
4.04021
 30
0.000000
  70
    32
  0
VERTEX
  8
AM_VIS
  5
9EB
 10
5.96657
 20
4.03975
 30
0.000000
  70
    32
  0
VERTEX
  8
AM_VIS
  5
9EC
 10
5.96666
 20
4.03929
 30
0.000000
  70
    32
  0
VERTEX
  8
AM_VIS
  5
9ED
 10
5.96674
 20
4.03883
 30
0.000000
  70
    32
  0
VERTEX
  8
AM_VIS
  5
9EE
 10
5.96683
 20
4.03837
 30
0.000000
  70
    32
  0
VERTEX
  8
AM_VIS
  5
9EF
 10
5.96691
 20
4.03790
 30
0.000000
  70
    32
  0
VERTEX
  8
AM_VIS
  5
9F0
 10
5.96700
 20
4.03744
 30
0.000000
  70
    32
  0
VERTEX
  8
AM_VIS
  5
9F1
 10
5.96709
 20
4.03698
 30
0.000000
  70
    32
  0
VERTEX
  8
AM_VIS
  5
9F2
 10
5.96717
 20
4.03652
 30
0.000000
  70
    32
  0
VERTEX
  8
AM_VIS
  5
9F3
 10
5.96726
 20
4.03605
 30
0.000000
  70
    32
  0
VERTEX
  8
AM_VIS
  5
9F4
 10
5.96734
 20
4.03559
 30
0.000000
  70
    32
  0
VERTEX
  8
AM_VIS
  5
9F5
 10
5.96743
 20
4.03513
 30
0.000000
  70
    32
  0
VERTEX
  8
AM_VIS
  5
9F6
 10
5.96752
 20
4.03466
 30
0.000000
  70
    32
  0
VERTEX
  8
AM_VIS
  5
9F7
 10
5.96760
 20
4.03420
 30
0.000000
  70
    32
  0
VERTEX
  8
AM_VIS
  5
9F8
 10
5.96769
 20
4.03374
 30
0.000000
  70
    32
  0
VERTEX
  8
AM_VIS
  5
9F9
 10
5.96778
 20
4.03327
 30
0.000000
  70
    32
  0
VERTEX
  8
AM_VIS
  5
9FA
 10
5.96786
 20
4.03280
 30
0.000000
  70
    32
  0
VERTEX
  8
AM_VIS
  5
9FB
 10
5.96795
 20
4.03234
 30
0.000000
  70
    32
  0
VERTEX
  8
AM_VIS
  5
9FC
 10
5.96804
 20
4.03187
 30
0.000000
  70
    32
  0
VERTEX
  8
AM_VIS
  5
9FD
 10
5.96812
 20
4.03141
 30
0.000000
  70
    32
  0
VERTEX
  8
AM_VIS
  5
9FE
 10
5.96821
 20
4.03094
 30
0.000000
  70
    32
  0
VERTEX
  8
AM_VIS
  5
9FF
 10
5.96830
 20
4.03047
 30
0.000000
  70
    32
  0
VERTEX
  8
AM_VIS
  5
A00
 10
5.96838
 20
4.03001
 30
0.000000
  70
    32
  0
VERTEX
  8
AM_VIS
  5
A01
 10
5.96847
 20
4.02954
 30
0.000000
  70
    32
  0
VERTEX
  8
AM_VIS
  5
A02
 10
5.96856
 20
4.02907
 30
0.000000
  70
    32
  0
VERTEX
  8
AM_VIS
  5
A03
 10
5.96865
 20
4.02860
 30
0.000000
  70
    32
  0
VERTEX
  8
AM_VIS
  5
A04
 10
5.96873
 20
4.02813
 30
0.000000
  70
    32
  0
VERTEX
  8
AM_VIS
  5
A05
 10
5.96882
 20
4.02766
 30
0.000000
  70
    32
  0
VERTEX
  8
AM_VIS
  5
A06
 10
5.96891
 20
4.02719
 30
0.000000
  70
    32
  0
VERTEX
  8
AM_VIS
  5
A07
 10
5.96900
 20
4.02672
 30
0.000000
  70
    32
  0
VERTEX
  8
AM_VIS
  5
A08
 10
5.96908
 20
4.02625
 30
0.000000
  70
    32
  0
VERTEX
  8
AM_VIS
  5
A09
 10
5.96917
 20
4.02578
 30
0.000000
  70
    32
  0
VERTEX
  8
AM_VIS
  5
A0A
 10
5.96926
 20
4.02531
 30
0.000000
  70
    32
  0
VERTEX
  8
AM_VIS
  5
A0B
 10
5.96935
 20
4.02484
 30
0.000000
  70
    32
  0
VERTEX
  8
AM_VIS
  5
A0C
 10
5.96944
 20
4.02437
 30
0.000000
  70
    32
  0
VERTEX
  8
AM_VIS
  5
A0D
 10
5.96952
 20
4.02390
 30
0.000000
  70
    32
  0
VERTEX
  8
AM_VIS
  5
A0E
 10
5.96961
 20
4.02342
 30
0.000000
  70
    32
  0
VERTEX
  8
AM_VIS
  5
A0F
 10
5.96970
 20
4.02295
 30
0.000000
  70
    32
  0
VERTEX
  8
AM_VIS
  5
A10
 10
5.96979
 20
4.02248
 30
0.000000
  70
    32
  0
VERTEX
  8
AM_VIS
  5
A11
 10
5.96988
 20
4.02201
 30
0.000000
  70
    32
  0
VERTEX
  8
AM_VIS
  5
A12
 10
5.96996
 20
4.02153
 30
0.000000
  70
    32
  0
VERTEX
  8
AM_VIS
  5
A13
 10
5.97005
 20
4.02106
 30
0.000000
  70
    32
  0
VERTEX
  8
AM_VIS
  5
A14
 10
5.97014
 20
4.02058
 30
0.000000
  70
    32
  0
VERTEX
  8
AM_VIS
  5
A15
 10
5.97023
 20
4.02011
 30
0.000000
  70
    32
  0
VERTEX
  8
AM_VIS
  5
A16
 10
5.97032
 20
4.01963
 30
0.000000
  70
    32
  0
VERTEX
  8
AM_VIS
  5
A17
 10
5.97040
 20
4.01916
 30
0.000000
  70
    32
  0
VERTEX
  8
AM_VIS
  5
A18
 10
5.97049
 20
4.01868
 30
0.000000
  70
    32
  0
VERTEX
  8
AM_VIS
  5
A19
 10
5.97058
 20
4.01821
 30
0.000000
  70
    32
  0
VERTEX
  8
AM_VIS
  5
A1A
 10
5.97067
 20
4.01773
 30
0.000000
  70
    32
  0
VERTEX
  8
AM_VIS
  5
A1B
 10
5.97076
 20
4.01725
 30
0.000000
  70
    32
  0
VERTEX
  8
AM_VIS
  5
A1C
 10
5.97085
 20
4.01678
 30
0.000000
  70
    32
  0
VERTEX
  8
AM_VIS
  5
A1D
 10
5.97094
 20
4.01630
 30
0.000000
  70
    32
  0
VERTEX
  8
AM_VIS
  5
A1E
 10
5.97102
 20
4.01582
 30
0.000000
  70
    32
  0
VERTEX
  8
AM_VIS
  5
A1F
 10
5.97111
 20
4.01534
 30
0.000000
  70
    32
  0
VERTEX
  8
AM_VIS
  5
A20
 10
5.97120
 20
4.01486
 30
0.000000
  70
    32
  0
VERTEX
  8
AM_VIS
  5
A21
 10
5.97129
 20
4.01438
 30
0.000000
  70
    32
  0
VERTEX
  8
AM_VIS
  5
A22
 10
5.97138
 20
4.01391
 30
0.000000
  70
    32
  0
VERTEX
  8
AM_VIS
  5
A23
 10
5.97147
 20
4.01343
 30
0.000000
  70
    32
  0
VERTEX
  8
AM_VIS
  5
A24
 10
5.97155
 20
4.01295
 30
0.000000
  70
    32
  0
VERTEX
  8
AM_VIS
  5
A25
 10
5.97164
 20
4.01247
 30
0.000000
  70
    32
  0
VERTEX
  8
AM_VIS
  5
A26
 10
5.97173
 20
4.01198
 30
0.000000
  70
    32
  0
VERTEX
  8
AM_VIS
  5
A27
 10
5.97182
 20
4.01150
 30
0.000000
  70
    32
  0
VERTEX
  8
AM_VIS
  5
A28
 10
5.97191
 20
4.01102
 30
0.000000
  70
    32
  0
VERTEX
  8
AM_VIS
  5
A29
 10
5.97200
 20
4.01054
 30
0.000000
  70
    32
  0
VERTEX
  8
AM_VIS
  5
A2A
 10
5.97209
 20
4.01006
 30
0.000000
  70
    32
  0
VERTEX
  8
AM_VIS
  5
A2B
 10
5.97217
 20
4.00958
 30
0.000000
  70
    32
  0
VERTEX
  8
AM_VIS
  5
A2C
 10
5.97226
 20
4.00909
 30
0.000000
  70
    32
  0
VERTEX
  8
AM_VIS
  5
A2D
 10
5.97235
 20
4.00861
 30
0.000000
  70
    32
  0
VERTEX
  8
AM_VIS
  5
A2E
 10
5.97244
 20
4.00813
 30
0.000000
  70
    32
  0
VERTEX
  8
AM_VIS
  5
A2F
 10
5.97253
 20
4.00764
 30
0.000000
  70
    32
  0
VERTEX
  8
AM_VIS
  5
A30
 10
5.97262
 20
4.00716
 30
0.000000
  70
    32
  0
VERTEX
  8
AM_VIS
  5
A31
 10
5.97270
 20
4.00667
 30
0.000000
  70
    32
  0
VERTEX
  8
AM_VIS
  5
A32
 10
5.97279
 20
4.00619
 30
0.000000
  70
    32
  0
VERTEX
  8
AM_VIS
  5
A33
 10
5.97288
 20
4.00570
 30
0.000000
  70
    32
  0
VERTEX
  8
AM_VIS
  5
A34
 10
5.97297
 20
4.00522
 30
0.000000
  70
    32
  0
VERTEX
  8
AM_VIS
  5
A35
 10
5.97306
 20
4.00473
 30
0.000000
  70
    32
  0
VERTEX
  8
AM_VIS
  5
A36
 10
5.97315
 20
4.00425
 30
0.000000
  70
    32
  0
VERTEX
  8
AM_VIS
  5
A37
 10
5.97323
 20
4.00376
 30
0.000000
  70
    32
  0
VERTEX
  8
AM_VIS
  5
A38
 10
5.97332
 20
4.00327
 30
0.000000
  70
    32
  0
VERTEX
  8
AM_VIS
  5
A39
 10
5.97341
 20
4.00279
 30
0.000000
  70
    32
  0
VERTEX
  8
AM_VIS
  5
A3A
 10
5.97350
 20
4.00230
 30
0.000000
  70
    32
  0
VERTEX
  8
AM_VIS
  5
A3B
 10
5.97359
 20
4.00181
 30
0.000000
  70
    32
  0
VERTEX
  8
AM_VIS
  5
A3C
 10
5.97367
 20
4.00132
 30
0.000000
  70
    32
  0
VERTEX
  8
AM_VIS
  5
A3D
 10
5.97376
 20
4.00083
 30
0.000000
  70
    32
  0
VERTEX
  8
AM_VIS
  5
A3E
 10
5.97385
 20
4.00034
 30
0.000000
  70
    32
  0
VERTEX
  8
AM_VIS
  5
A3F
 10
5.97394
 20
3.99985
 30
0.000000
  70
    32
  0
VERTEX
  8
AM_VIS
  5
A40
 10
5.97403
 20
3.99936
 30
0.000000
  70
    32
  0
VERTEX
  8
AM_VIS
  5
A41
 10
5.97411
 20
3.99887
 30
0.000000
  70
    32
  0
VERTEX
  8
AM_VIS
  5
A42
 10
5.97420
 20
3.99838
 30
0.000000
  70
    32
  0
VERTEX
  8
AM_VIS
  5
A43
 10
5.97429
 20
3.99789
 30
0.000000
  70
    32
  0
VERTEX
  8
AM_VIS
  5
A44
 10
5.97438
 20
3.99740
 30
0.000000
  70
    32
  0
VERTEX
  8
AM_VIS
  5
A45
 10
5.97446
 20
3.99691
 30
0.000000
  70
    32
  0
VERTEX
  8
AM_VIS
  5
A46
 10
5.97455
 20
3.99642
 30
0.000000
  70
    32
  0
VERTEX
  8
AM_VIS
  5
A47
 10
5.97464
 20
3.99593
 30
0.000000
  70
    32
  0
VERTEX
  8
AM_VIS
  5
A48
 10
5.97473
 20
3.99543
 30
0.000000
  70
    32
  0
VERTEX
  8
AM_VIS
  5
A49
 10
5.97481
 20
3.99494
 30
0.000000
  70
    32
  0
VERTEX
  8
AM_VIS
  5
A4A
 10
5.97490
 20
3.99445
 30
0.000000
  70
    32
  0
VERTEX
  8
AM_VIS
  5
A4B
 10
5.97499
 20
3.99396
 30
0.000000
  70
    32
  0
VERTEX
  8
AM_VIS
  5
A4C
 10
5.97507
 20
3.99346
 30
0.000000
  70
    32
  0
VERTEX
  8
AM_VIS
  5
A4D
 10
5.97516
 20
3.99297
 30
0.000000
  70
    32
  0
VERTEX
  8
AM_VIS
  5
A4E
 10
5.97525
 20
3.99247
 30
0.000000
  70
    32
  0
VERTEX
  8
AM_VIS
  5
A4F
 10
5.97533
 20
3.99198
 30
0.000000
  70
    32
  0
VERTEX
  8
AM_VIS
  5
A50
 10
5.97542
 20
3.99148
 30
0.000000
  70
    32
  0
VERTEX
  8
AM_VIS
  5
A51
 10
5.97551
 20
3.99099
 30
0.000000
  70
    32
  0
VERTEX
  8
AM_VIS
  5
A52
 10
5.97559
 20
3.99049
 30
0.000000
  70
    32
  0
VERTEX
  8
AM_VIS
  5
A53
 10
5.97568
 20
3.98999
 30
0.000000
  70
    32
  0
VERTEX
  8
AM_VIS
  5
A54
 10
5.97577
 20
3.98950
 30
0.000000
  70
    32
  0
VERTEX
  8
AM_VIS
  5
A55
 10
5.97585
 20
3.98900
 30
0.000000
  70
    32
  0
VERTEX
  8
AM_VIS
  5
A56
 10
5.97594
 20
3.98850
 30
0.000000
  70
    32
  0
VERTEX
  8
AM_VIS
  5
A57
 10
5.97602
 20
3.98801
 30
0.000000
  70
    32
  0
VERTEX
  8
AM_VIS
  5
A58
 10
5.97611
 20
3.98751
 30
0.000000
  70
    32
  0
VERTEX
  8
AM_VIS
  5
A59
 10
5.97620
 20
3.98701
 30
0.000000
  70
    32
  0
VERTEX
  8
AM_VIS
  5
A5A
 10
5.97628
 20
3.98651
 30
0.000000
  70
    32
  0
VERTEX
  8
AM_VIS
  5
A5B
 10
5.97637
 20
3.98601
 30
0.000000
  70
    32
  0
VERTEX
  8
AM_VIS
  5
A5C
 10
5.97645
 20
3.98551
 30
0.000000
  70
    32
  0
VERTEX
  8
AM_VIS
  5
A5D
 10
5.97654
 20
3.98501
 30
0.000000
  70
    32
  0
VERTEX
  8
AM_VIS
  5
A5E
 10
5.97662
 20
3.98451
 30
0.000000
  70
    32
  0
VERTEX
  8
AM_VIS
  5
A5F
 10
5.97671
 20
3.98401
 30
0.000000
  70
    32
  0
VERTEX
  8
AM_VIS
  5
A60
 10
5.97679
 20
3.98351
 30
0.000000
  70
    32
  0
VERTEX
  8
AM_VIS
  5
A61
 10
5.97688
 20
3.98301
 30
0.000000
  70
    32
  0
VERTEX
  8
AM_VIS
  5
A62
 10
5.97696
 20
3.98251
 30
0.000000
  70
    32
  0
VERTEX
  8
AM_VIS
  5
A63
 10
5.97705
 20
3.98201
 30
0.000000
  70
    32
  0
VERTEX
  8
AM_VIS
  5
A64
 10
5.97713
 20
3.98151
 30
0.000000
  70
    32
  0
VERTEX
  8
AM_VIS
  5
A65
 10
5.97721
 20
3.98100
 30
0.000000
  70
    32
  0
VERTEX
  8
AM_VIS
  5
A66
 10
5.97730
 20
3.98050
 30
0.000000
  70
    32
  0
VERTEX
  8
AM_VIS
  5
A67
 10
5.97738
 20
3.98000
 30
0.000000
  70
    32
  0
VERTEX
  8
AM_VIS
  5
A68
 10
5.97747
 20
3.97949
 30
0.000000
  70
    32
  0
VERTEX
  8
AM_VIS
  5
A69
 10
5.97755
 20
3.97899
 30
0.000000
  70
    32
  0
VERTEX
  8
AM_VIS
  5
A6A
 10
5.97763
 20
3.97849
 30
0.000000
  70
    32
  0
VERTEX
  8
AM_VIS
  5
A6B
 10
5.97772
 20
3.97798
 30
0.000000
  70
    32
  0
VERTEX
  8
AM_VIS
  5
A6C
 10
5.97780
 20
3.97748
 30
0.000000
  70
    32
  0
VERTEX
  8
AM_VIS
  5
A6D
 10
5.97788
 20
3.97697
 30
0.000000
  70
    32
  0
VERTEX
  8
AM_VIS
  5
A6E
 10
5.97797
 20
3.97647
 30
0.000000
  70
    32
  0
VERTEX
  8
AM_VIS
  5
A6F
 10
5.97805
 20
3.97596
 30
0.000000
  70
    32
  0
VERTEX
  8
AM_VIS
  5
A70
 10
5.97813
 20
3.97545
 30
0.000000
  70
    32
  0
VERTEX
  8
AM_VIS
  5
A71
 10
5.97822
 20
3.97495
 30
0.000000
  70
    32
  0
VERTEX
  8
AM_VIS
  5
A72
 10
5.97830
 20
3.97444
 30
0.000000
  70
    32
  0
VERTEX
  8
AM_VIS
  5
A73
 10
5.97838
 20
3.97393
 30
0.000000
  70
    32
  0
VERTEX
  8
AM_VIS
  5
A74
 10
5.97846
 20
3.97343
 30
0.000000
  70
    32
  0
VERTEX
  8
AM_VIS
  5
A75
 10
5.97854
 20
3.97292
 30
0.000000
  70
    32
  0
VERTEX
  8
AM_VIS
  5
A76
 10
5.97863
 20
3.97241
 30
0.000000
  70
    32
  0
VERTEX
  8
AM_VIS
  5
A77
 10
5.97871
 20
3.97190
 30
0.000000
  70
    32
  0
VERTEX
  8
AM_VIS
  5
A78
 10
5.97879
 20
3.97139
 30
0.000000
  70
    32
  0
VERTEX
  8
AM_VIS
  5
A79
 10
5.97887
 20
3.97088
 30
0.000000
  70
    32
  0
VERTEX
  8
AM_VIS
  5
A7A
 10
5.97895
 20
3.97037
 30
0.000000
  70
    32
  0
VERTEX
  8
AM_VIS
  5
A7B
 10
5.97903
 20
3.96986
 30
0.000000
  70
    32
  0
VERTEX
  8
AM_VIS
  5
A7C
 10
5.97911
 20
3.96935
 30
0.000000
  70
    32
  0
VERTEX
  8
AM_VIS
  5
A7D
 10
5.97919
 20
3.96884
 30
0.000000
  70
    32
  0
VERTEX
  8
AM_VIS
  5
A7E
 10
5.97927
 20
3.96833
 30
0.000000
  70
    32
  0
VERTEX
  8
AM_VIS
  5
A7F
 10
5.97935
 20
3.96782
 30
0.000000
  70
    32
  0
VERTEX
  8
AM_VIS
  5
A80
 10
5.97943
 20
3.96731
 30
0.000000
  70
    32
  0
VERTEX
  8
AM_VIS
  5
A81
 10
5.97951
 20
3.96679
 30
0.000000
  70
    32
  0
VERTEX
  8
AM_VIS
  5
A82
 10
5.97959
 20
3.96628
 30
0.000000
  70
    32
  0
VERTEX
  8
AM_VIS
  5
A83
 10
5.97967
 20
3.96577
 30
0.000000
  70
    32
  0
VERTEX
  8
AM_VIS
  5
A84
 10
5.97975
 20
3.96526
 30
0.000000
  70
    32
  0
VERTEX
  8
AM_VIS
  5
A85
 10
5.97983
 20
3.96474
 30
0.000000
  70
    32
  0
VERTEX
  8
AM_VIS
  5
A86
 10
5.97991
 20
3.96423
 30
0.000000
  70
    32
  0
VERTEX
  8
AM_VIS
  5
A87
 10
5.97999
 20
3.96372
 30
0.000000
  70
    32
  0
VERTEX
  8
AM_VIS
  5
A88
 10
5.98007
 20
3.96320
 30
0.000000
  70
    32
  0
VERTEX
  8
AM_VIS
  5
A89
 10
5.98014
 20
3.96269
 30
0.000000
  70
    32
  0
VERTEX
  8
AM_VIS
  5
A8A
 10
5.98022
 20
3.96217
 30
0.000000
  70
    32
  0
VERTEX
  8
AM_VIS
  5
A8B
 10
5.98030
 20
3.96166
 30
0.000000
  70
    32
  0
VERTEX
  8
AM_VIS
  5
A8C
 10
5.98038
 20
3.96114
 30
0.000000
  70
    32
  0
VERTEX
  8
AM_VIS
  5
A8D
 10
5.98045
 20
3.96063
 30
0.000000
  70
    32
  0
VERTEX
  8
AM_VIS
  5
A8E
 10
5.98053
 20
3.96011
 30
0.000000
  70
    32
  0
VERTEX
  8
AM_VIS
  5
A8F
 10
5.98061
 20
3.95960
 30
0.000000
  70
    32
  0
VERTEX
  8
AM_VIS
  5
A90
 10
5.98068
 20
3.95908
 30
0.000000
  70
    32
  0
VERTEX
  8
AM_VIS
  5
A91
 10
5.98076
 20
3.95857
 30
0.000000
  70
    32
  0
VERTEX
  8
AM_VIS
  5
A92
 10
5.98084
 20
3.95806
 30
0.000000
  70
    32
  0
VERTEX
  8
AM_VIS
  5
A93
 10
5.98091
 20
3.95754
 30
0.000000
  70
    32
  0
VERTEX
  8
AM_VIS
  5
A94
 10
5.98099
 20
3.95703
 30
0.000000
  70
    32
  0
VERTEX
  8
AM_VIS
  5
A95
 10
5.98106
 20
3.95651
 30
0.000000
  70
    32
  0
VERTEX
  8
AM_VIS
  5
A96
 10
5.98114
 20
3.95600
 30
0.000000
  70
    32
  0
VERTEX
  8
AM_VIS
  5
A97
 10
5.98121
 20
3.95548
 30
0.000000
  70
    32
  0
VERTEX
  8
AM_VIS
  5
A98
 10
5.98128
 20
3.95497
 30
0.000000
  70
    32
  0
VERTEX
  8
AM_VIS
  5
A99
 10
5.98136
 20
3.95445
 30
0.000000
  70
    32
  0
VERTEX
  8
AM_VIS
  5
A9A
 10
5.98143
 20
3.95394
 30
0.000000
  70
    32
  0
VERTEX
  8
AM_VIS
  5
A9B
 10
5.98151
 20
3.95343
 30
0.000000
  70
    32
  0
VERTEX
  8
AM_VIS
  5
A9C
 10
5.98158
 20
3.95291
 30
0.000000
  70
    32
  0
VERTEX
  8
AM_VIS
  5
A9D
 10
5.98165
 20
3.95240
 30
0.000000
  70
    32
  0
VERTEX
  8
AM_VIS
  5
A9E
 10
5.98172
 20
3.95188
 30
0.000000
  70
    32
  0
VERTEX
  8
AM_VIS
  5
A9F
 10
5.98180
 20
3.95137
 30
0.000000
  70
    32
  0
VERTEX
  8
AM_VIS
  5
AA0
 10
5.98187
 20
3.95085
 30
0.000000
  70
    32
  0
VERTEX
  8
AM_VIS
  5
AA1
 10
5.98194
 20
3.95034
 30
0.000000
  70
    32
  0
VERTEX
  8
AM_VIS
  5
AA2
 10
5.98201
 20
3.94983
 30
0.000000
  70
    32
  0
VERTEX
  8
AM_VIS
  5
AA3
 10
5.98208
 20
3.94931
 30
0.000000
  70
    32
  0
VERTEX
  8
AM_VIS
  5
AA4
 10
5.98215
 20
3.94880
 30
0.000000
  70
    32
  0
VERTEX
  8
AM_VIS
  5
AA5
 10
5.98222
 20
3.94828
 30
0.000000
  70
    32
  0
VERTEX
  8
AM_VIS
  5
AA6
 10
5.98229
 20
3.94777
 30
0.000000
  70
    32
  0
VERTEX
  8
AM_VIS
  5
AA7
 10
5.98236
 20
3.94725
 30
0.000000
  70
    32
  0
VERTEX
  8
AM_VIS
  5
AA8
 10
5.98243
 20
3.94674
 30
0.000000
  70
    32
  0
VERTEX
  8
AM_VIS
  5
AA9
 10
5.98250
 20
3.94623
 30
0.000000
  70
    32
  0
VERTEX
  8
AM_VIS
  5
AAA
 10
5.98257
 20
3.94571
 30
0.000000
  70
    32
  0
VERTEX
  8
AM_VIS
  5
AAB
 10
5.98264
 20
3.94520
 30
0.000000
  70
    32
  0
VERTEX
  8
AM_VIS
  5
AAC
 10
5.98271
 20
3.94468
 30
0.000000
  70
    32
  0
VERTEX
  8
AM_VIS
  5
AAD
 10
5.98277
 20
3.94417
 30
0.000000
  70
    32
  0
VERTEX
  8
AM_VIS
  5
AAE
 10
5.98284
 20
3.94365
 30
0.000000
  70
    32
  0
VERTEX
  8
AM_VIS
  5
AAF
 10
5.98291
 20
3.94314
 30
0.000000
  70
    32
  0
VERTEX
  8
AM_VIS
  5
AB0
 10
5.98298
 20
3.94262
 30
0.000000
  70
    32
  0
VERTEX
  8
AM_VIS
  5
AB1
 10
5.98304
 20
3.94211
 30
0.000000
  70
    32
  0
VERTEX
  8
AM_VIS
  5
AB2
 10
5.98311
 20
3.94160
 30
0.000000
  70
    32
  0
VERTEX
  8
AM_VIS
  5
AB3
 10
5.98318
 20
3.94108
 30
0.000000
  70
    32
  0
VERTEX
  8
AM_VIS
  5
AB4
 10
5.98324
 20
3.94057
 30
0.000000
  70
    32
  0
VERTEX
  8
AM_VIS
  5
AB5
 10
5.98331
 20
3.94005
 30
0.000000
  70
    32
  0
VERTEX
  8
AM_VIS
  5
AB6
 10
5.98337
 20
3.93954
 30
0.000000
  70
    32
  0
VERTEX
  8
AM_VIS
  5
AB7
 10
5.98344
 20
3.93902
 30
0.000000
  70
    32
  0
VERTEX
  8
AM_VIS
  5
AB8
 10
5.98350
 20
3.93851
 30
0.000000
  70
    32
  0
VERTEX
  8
AM_VIS
  5
AB9
 10
5.98357
 20
3.93799
 30
0.000000
  70
    32
  0
VERTEX
  8
AM_VIS
  5
ABA
 10
5.98363
 20
3.93748
 30
0.000000
  70
    32
  0
VERTEX
  8
AM_VIS
  5
ABB
 10
5.98369
 20
3.93696
 30
0.000000
  70
    32
  0
VERTEX
  8
AM_VIS
  5
ABC
 10
5.98376
 20
3.93645
 30
0.000000
  70
    32
  0
VERTEX
  8
AM_VIS
  5
ABD
 10
5.98382
 20
3.93593
 30
0.000000
  70
    32
  0
VERTEX
  8
AM_VIS
  5
ABE
 10
5.98388
 20
3.93542
 30
0.000000
  70
    32
  0
VERTEX
  8
AM_VIS
  5
ABF
 10
5.98395
 20
3.93490
 30
0.000000
  70
    32
  0
VERTEX
  8
AM_VIS
  5
AC0
 10
5.98401
 20
3.93439
 30
0.000000
  70
    32
  0
VERTEX
  8
AM_VIS
  5
AC1
 10
5.98407
 20
3.93387
 30
0.000000
  70
    32
  0
VERTEX
  8
AM_VIS
  5
AC2
 10
5.98413
 20
3.93336
 30
0.000000
  70
    32
  0
VERTEX
  8
AM_VIS
  5
AC3
 10
5.98419
 20
3.93284
 30
0.000000
  70
    32
  0
VERTEX
  8
AM_VIS
  5
AC4
 10
5.98425
 20
3.93233
 30
0.000000
  70
    32
  0
VERTEX
  8
AM_VIS
  5
AC5
 10
5.98431
 20
3.93181
 30
0.000000
  70
    32
  0
VERTEX
  8
AM_VIS
  5
AC6
 10
5.98437
 20
3.93130
 30
0.000000
  70
    32
  0
VERTEX
  8
AM_VIS
  5
AC7
 10
5.98443
 20
3.93078
 30
0.000000
  70
    32
  0
VERTEX
  8
AM_VIS
  5
AC8
 10
5.98449
 20
3.93027
 30
0.000000
  70
    32
  0
VERTEX
  8
AM_VIS
  5
AC9
 10
5.98455
 20
3.92975
 30
0.000000
  70
    32
  0
VERTEX
  8
AM_VIS
  5
ACA
 10
5.98461
 20
3.92924
 30
0.000000
  70
    32
  0
VERTEX
  8
AM_VIS
  5
ACB
 10
5.98467
 20
3.92872
 30
0.000000
  70
    32
  0
VERTEX
  8
AM_VIS
  5
ACC
 10
5.98473
 20
3.92820
 30
0.000000
  70
    32
  0
VERTEX
  8
AM_VIS
  5
ACD
 10
5.98479
 20
3.92769
 30
0.000000
  70
    32
  0
VERTEX
  8
AM_VIS
  5
ACE
 10
5.98484
 20
3.92717
 30
0.000000
  70
    32
  0
VERTEX
  8
AM_VIS
  5
ACF
 10
5.98490
 20
3.92666
 30
0.000000
  70
    32
  0
VERTEX
  8
AM_VIS
  5
AD0
 10
5.98496
 20
3.92614
 30
0.000000
  70
    32
  0
VERTEX
  8
AM_VIS
  5
AD1
 10
5.98502
 20
3.92563
 30
0.000000
  70
    32
  0
VERTEX
  8
AM_VIS
  5
AD2
 10
5.98507
 20
3.92511
 30
0.000000
  70
    32
  0
VERTEX
  8
AM_VIS
  5
AD3
 10
5.98513
 20
3.92459
 30
0.000000
  70
    32
  0
VERTEX
  8
AM_VIS
  5
AD4
 10
5.98518
 20
3.92408
 30
0.000000
  70
    32
  0
VERTEX
  8
AM_VIS
  5
AD5
 10
5.98524
 20
3.92356
 30
0.000000
  70
    32
  0
VERTEX
  8
AM_VIS
  5
AD6
 10
5.98529
 20
3.92304
 30
0.000000
  70
    32
  0
VERTEX
  8
AM_VIS
  5
AD7
 10
5.98535
 20
3.92253
 30
0.000000
  70
    32
  0
VERTEX
  8
AM_VIS
  5
AD8
 10
5.98540
 20
3.92201
 30
0.000000
  70
    32
  0
VERTEX
  8
AM_VIS
  5
AD9
 10
5.98546
 20
3.92150
 30
0.000000
  70
    32
  0
VERTEX
  8
AM_VIS
  5
ADA
 10
5.98551
 20
3.92098
 30
0.000000
  70
    32
  0
VERTEX
  8
AM_VIS
  5
ADB
 10
5.98556
 20
3.92046
 30
0.000000
  70
    32
  0
VERTEX
  8
AM_VIS
  5
ADC
 10
5.98562
 20
3.91995
 30
0.000000
  70
    32
  0
VERTEX
  8
AM_VIS
  5
ADD
 10
5.98567
 20
3.91943
 30
0.000000
  70
    32
  0
VERTEX
  8
AM_VIS
  5
ADE
 10
5.98572
 20
3.91891
 30
0.000000
  70
    32
  0
VERTEX
  8
AM_VIS
  5
ADF
 10
5.98577
 20
3.91839
 30
0.000000
  70
    32
  0
VERTEX
  8
AM_VIS
  5
AE0
 10
5.98582
 20
3.91788
 30
0.000000
  70
    32
  0
VERTEX
  8
AM_VIS
  5
AE1
 10
5.98587
 20
3.91736
 30
0.000000
  70
    32
  0
VERTEX
  8
AM_VIS
  5
AE2
 10
5.98593
 20
3.91684
 30
0.000000
  70
    32
  0
VERTEX
  8
AM_VIS
  5
AE3
 10
5.98598
 20
3.91633
 30
0.000000
  70
    32
  0
VERTEX
  8
AM_VIS
  5
AE4
 10
5.98603
 20
3.91581
 30
0.000000
  70
    32
  0
VERTEX
  8
AM_VIS
  5
AE5
 10
5.98608
 20
3.91529
 30
0.000000
  70
    32
  0
VERTEX
  8
AM_VIS
  5
AE6
 10
5.98612
 20
3.91477
 30
0.000000
  70
    32
  0
VERTEX
  8
AM_VIS
  5
AE7
 10
5.98617
 20
3.91425
 30
0.000000
  70
    32
  0
VERTEX
  8
AM_VIS
  5
AE8
 10
5.98622
 20
3.91374
 30
0.000000
  70
    32
  0
VERTEX
  8
AM_VIS
  5
AE9
 10
5.98627
 20
3.91322
 30
0.000000
  70
    32
  0
VERTEX
  8
AM_VIS
  5
AEA
 10
5.98632
 20
3.91270
 30
0.000000
  70
    32
  0
VERTEX
  8
AM_VIS
  5
AEB
 10
5.98637
 20
3.91218
 30
0.000000
  70
    32
  0
VERTEX
  8
AM_VIS
  5
AEC
 10
5.98641
 20
3.91166
 30
0.000000
  70
    32
  0
VERTEX
  8
AM_VIS
  5
AED
 10
5.98646
 20
3.91115
 30
0.000000
  70
    32
  0
VERTEX
  8
AM_VIS
  5
AEE
 10
5.98651
 20
3.91063
 30
0.000000
  70
    32
  0
VERTEX
  8
AM_VIS
  5
AEF
 10
5.98655
 20
3.91011
 30
0.000000
  70
    32
  0
VERTEX
  8
AM_VIS
  5
AF0
 10
5.98660
 20
3.90959
 30
0.000000
  70
    32
  0
VERTEX
  8
AM_VIS
  5
AF1
 10
5.98664
 20
3.90907
 30
0.000000
  70
    32
  0
VERTEX
  8
AM_VIS
  5
AF2
 10
5.98669
 20
3.90855
 30
0.000000
  70
    32
  0
VERTEX
  8
AM_VIS
  5
AF3
 10
5.98673
 20
3.90803
 30
0.000000
  70
    32
  0
VERTEX
  8
AM_VIS
  5
AF4
 10
5.98678
 20
3.90751
 30
0.000000
  70
    32
  0
VERTEX
  8
AM_VIS
  5
AF5
 10
5.98682
 20
3.90699
 30
0.000000
  70
    32
  0
VERTEX
  8
AM_VIS
  5
AF6
 10
5.98687
 20
3.90648
 30
0.000000
  70
    32
  0
VERTEX
  8
AM_VIS
  5
AF7
 10
5.98691
 20
3.90596
 30
0.000000
  70
    32
  0
VERTEX
  8
AM_VIS
  5
AF8
 10
5.98695
 20
3.90544
 30
0.000000
  70
    32
  0
VERTEX
  8
AM_VIS
  5
AF9
 10
5.98699
 20
3.90492
 30
0.000000
  70
    32
  0
VERTEX
  8
AM_VIS
  5
AFA
 10
5.98704
 20
3.90440
 30
0.000000
  70
    32
  0
VERTEX
  8
AM_VIS
  5
AFB
 10
5.98708
 20
3.90388
 30
0.000000
  70
    32
  0
VERTEX
  8
AM_VIS
  5
AFC
 10
5.98712
 20
3.90336
 30
0.000000
  70
    32
  0
VERTEX
  8
AM_VIS
  5
AFD
 10
5.98716
 20
3.90284
 30
0.000000
  70
    32
  0
VERTEX
  8
AM_VIS
  5
AFE
 10
5.98720
 20
3.90232
 30
0.000000
  70
    32
  0
VERTEX
  8
AM_VIS
  5
AFF
 10
5.98724
 20
3.90180
 30
0.000000
  70
    32
  0
VERTEX
  8
AM_VIS
  5
B00
 10
5.98728
 20
3.90127
 30
0.000000
  70
    32
  0
VERTEX
  8
AM_VIS
  5
B01
 10
5.98732
 20
3.90075
 30
0.000000
  70
    32
  0
VERTEX
  8
AM_VIS
  5
B02
 10
5.98736
 20
3.90023
 30
0.000000
  70
    32
  0
VERTEX
  8
AM_VIS
  5
B03
 10
5.98740
 20
3.89971
 30
0.000000
  70
    32
  0
VERTEX
  8
AM_VIS
  5
B04
 10
5.98744
 20
3.89919
 30
0.000000
  70
    32
  0
VERTEX
  8
AM_VIS
  5
B05
 10
5.98747
 20
3.89867
 30
0.000000
  70
    32
  0
VERTEX
  8
AM_VIS
  5
B06
 10
5.98751
 20
3.89815
 30
0.000000
  70
    32
  0
VERTEX
  8
AM_VIS
  5
B07
 10
5.98755
 20
3.89763
 30
0.000000
  70
    32
  0
VERTEX
  8
AM_VIS
  5
B08
 10
5.98758
 20
3.89710
 30
0.000000
  70
    32
  0
VERTEX
  8
AM_VIS
  5
B09
 10
5.98762
 20
3.89658
 30
0.000000
  70
    32
  0
VERTEX
  8
AM_VIS
  5
B0A
 10
5.98766
 20
3.89606
 30
0.000000
  70
    32
  0
VERTEX
  8
AM_VIS
  5
B0B
 10
5.98769
 20
3.89554
 30
0.000000
  70
    32
  0
VERTEX
  8
AM_VIS
  5
B0C
 10
5.98773
 20
3.89502
 30
0.000000
  70
    32
  0
VERTEX
  8
AM_VIS
  5
B0D
 10
5.98776
 20
3.89449
 30
0.000000
  70
    32
  0
VERTEX
  8
AM_VIS
  5
B0E
 10
5.98780
 20
3.89397
 30
0.000000
  70
    32
  0
VERTEX
  8
AM_VIS
  5
B0F
 10
5.98783
 20
3.89345
 30
0.000000
  70
    32
  0
VERTEX
  8
AM_VIS
  5
B10
 10
5.98786
 20
3.89293
 30
0.000000
  70
    32
  0
VERTEX
  8
AM_VIS
  5
B11
 10
5.98790
 20
3.89240
 30
0.000000
  70
    32
  0
VERTEX
  8
AM_VIS
  5
B12
 10
5.98793
 20
3.89188
 30
0.000000
  70
    32
  0
VERTEX
  8
AM_VIS
  5
B13
 10
5.98796
 20
3.89136
 30
0.000000
  70
    32
  0
VERTEX
  8
AM_VIS
  5
B14
 10
5.98799
 20
3.89084
 30
0.000000
  70
    32
  0
VERTEX
  8
AM_VIS
  5
B15
 10
5.98803
 20
3.89032
 30
0.000000
  70
    32
  0
VERTEX
  8
AM_VIS
  5
B16
 10
5.98806
 20
3.88979
 30
0.000000
  70
    32
  0
VERTEX
  8
AM_VIS
  5
B17
 10
5.98809
 20
3.88927
 30
0.000000
  70
    32
  0
VERTEX
  8
AM_VIS
  5
B18
 10
5.98812
 20
3.88875
 30
0.000000
  70
    32
  0
VERTEX
  8
AM_VIS
  5
B19
 10
5.98815
 20
3.88823
 30
0.000000
  70
    32
  0
VERTEX
  8
AM_VIS
  5
B1A
 10
5.98818
 20
3.88770
 30
0.000000
  70
    32
  0
VERTEX
  8
AM_VIS
  5
B1B
 10
5.98821
 20
3.88718
 30
0.000000
  70
    32
  0
VERTEX
  8
AM_VIS
  5
B1C
 10
5.98823
 20
3.88666
 30
0.000000
  70
    32
  0
VERTEX
  8
AM_VIS
  5
B1D
 10
5.98826
 20
3.88614
 30
0.000000
  70
    32
  0
VERTEX
  8
AM_VIS
  5
B1E
 10
5.98829
 20
3.88562
 30
0.000000
  70
    32
  0
VERTEX
  8
AM_VIS
  5
B1F
 10
5.98832
 20
3.88509
 30
0.000000
  70
    32
  0
VERTEX
  8
AM_VIS
  5
B20
 10
5.98835
 20
3.88457
 30
0.000000
  70
    32
  0
VERTEX
  8
AM_VIS
  5
B21
 10
5.98837
 20
3.88405
 30
0.000000
  70
    32
  0
VERTEX
  8
AM_VIS
  5
B22
 10
5.98840
 20
3.88353
 30
0.000000
  70
    32
  0
VERTEX
  8
AM_VIS
  5
B23
 10
5.98842
 20
3.88300
 30
0.000000
  70
    32
  0
VERTEX
  8
AM_VIS
  5
B24
 10
5.98845
 20
3.88248
 30
0.000000
  70
    32
  0
VERTEX
  8
AM_VIS
  5
B25
 10
5.98847
 20
3.88196
 30
0.000000
  70
    32
  0
VERTEX
  8
AM_VIS
  5
B26
 10
5.98850
 20
3.88144
 30
0.000000
  70
    32
  0
VERTEX
  8
AM_VIS
  5
B27
 10
5.98852
 20
3.88091
 30
0.000000
  70
    32
  0
VERTEX
  8
AM_VIS
  5
B28
 10
5.98855
 20
3.88039
 30
0.000000
  70
    32
  0
VERTEX
  8
AM_VIS
  5
B29
 10
5.98857
 20
3.87987
 30
0.000000
  70
    32
  0
VERTEX
  8
AM_VIS
  5
B2A
 10
5.98859
 20
3.87935
 30
0.000000
  70
    32
  0
VERTEX
  8
AM_VIS
  5
B2B
 10
5.98862
 20
3.87882
 30
0.000000
  70
    32
  0
VERTEX
  8
AM_VIS
  5
B2C
 10
5.98864
 20
3.87830
 30
0.000000
  70
    32
  0
VERTEX
  8
AM_VIS
  5
B2D
 10
5.98866
 20
3.87778
 30
0.000000
  70
    32
  0
VERTEX
  8
AM_VIS
  5
B2E
 10
5.98868
 20
3.87726
 30
0.000000
  70
    32
  0
VERTEX
  8
AM_VIS
  5
B2F
 10
5.98870
 20
3.87673
 30
0.000000
  70
    32
  0
VERTEX
  8
AM_VIS
  5
B30
 10
5.98872
 20
3.87621
 30
0.000000
  70
    32
  0
VERTEX
  8
AM_VIS
  5
B31
 10
5.98874
 20
3.87569
 30
0.000000
  70
    32
  0
VERTEX
  8
AM_VIS
  5
B32
 10
5.98876
 20
3.87516
 30
0.000000
  70
    32
  0
VERTEX
  8
AM_VIS
  5
B33
 10
5.98878
 20
3.87464
 30
0.000000
  70
    32
  0
VERTEX
  8
AM_VIS
  5
B34
 10
5.98880
 20
3.87412
 30
0.000000
  70
    32
  0
VERTEX
  8
AM_VIS
  5
B35
 10
5.98882
 20
3.87360
 30
0.000000
  70
    32
  0
VERTEX
  8
AM_VIS
  5
B36
 10
5.98884
 20
3.87307
 30
0.000000
  70
    32
  0
VERTEX
  8
AM_VIS
  5
B37
 10
5.98885
 20
3.87255
 30
0.000000
  70
    32
  0
VERTEX
  8
AM_VIS
  5
B38
 10
5.98887
 20
3.87203
 30
0.000000
  70
    32
  0
VERTEX
  8
AM_VIS
  5
B39
 10
5.98889
 20
3.87150
 30
0.000000
  70
    32
  0
VERTEX
  8
AM_VIS
  5
B3A
 10
5.98890
 20
3.87098
 30
0.000000
  70
    32
  0
VERTEX
  8
AM_VIS
  5
B3B
 10
5.98892
 20
3.87046
 30
0.000000
  70
    32
  0
VERTEX
  8
AM_VIS
  5
B3C
 10
5.98894
 20
3.86993
 30
0.000000
  70
    32
  0
VERTEX
  8
AM_VIS
  5
B3D
 10
5.98895
 20
3.86941
 30
0.000000
  70
    32
  0
VERTEX
  8
AM_VIS
  5
B3E
 10
5.98897
 20
3.86889
 30
0.000000
  70
    32
  0
VERTEX
  8
AM_VIS
  5
B3F
 10
5.98898
 20
3.86836
 30
0.000000
  70
    32
  0
VERTEX
  8
AM_VIS
  5
B40
 10
5.98899
 20
3.86784
 30
0.000000
  70
    32
  0
VERTEX
  8
AM_VIS
  5
B41
 10
5.98901
 20
3.86732
 30
0.000000
  70
    32
  0
VERTEX
  8
AM_VIS
  5
B42
 10
5.98902
 20
3.86679
 30
0.000000
  70
    32
  0
VERTEX
  8
AM_VIS
  5
B43
 10
5.98903
 20
3.86627
 30
0.000000
  70
    32
  0
VERTEX
  8
AM_VIS
  5
B44
 10
5.98904
 20
3.86574
 30
0.000000
  70
    32
  0
VERTEX
  8
AM_VIS
  5
B45
 10
5.98906
 20
3.86522
 30
0.000000
  70
    32
  0
VERTEX
  8
AM_VIS
  5
B46
 10
5.98907
 20
3.86470
 30
0.000000
  70
    32
  0
VERTEX
  8
AM_VIS
  5
B47
 10
5.98908
 20
3.86417
 30
0.000000
  70
    32
  0
VERTEX
  8
AM_VIS
  5
B48
 10
5.98909
 20
3.86365
 30
0.000000
  70
    32
  0
VERTEX
  8
AM_VIS
  5
B49
 10
5.98910
 20
3.86313
 30
0.000000
  70
    32
  0
VERTEX
  8
AM_VIS
  5
B4A
 10
5.98911
 20
3.86260
 30
0.000000
  70
    32
  0
VERTEX
  8
AM_VIS
  5
B4B
 10
5.98912
 20
3.86208
 30
0.000000
  70
    32
  0
VERTEX
  8
AM_VIS
  5
B4C
 10
5.98913
 20
3.86156
 30
0.000000
  70
    32
  0
VERTEX
  8
AM_VIS
  5
B4D
 10
5.98913
 20
3.86103
 30
0.000000
  70
    32
  0
VERTEX
  8
AM_VIS
  5
B4E
 10
5.98914
 20
3.86051
 30
0.000000
  70
    32
  0
VERTEX
  8
AM_VIS
  5
B4F
 10
5.98915
 20
3.85998
 30
0.000000
  70
    32
  0
VERTEX
  8
AM_VIS
  5
B50
 10
5.98916
 20
3.85946
 30
0.000000
  70
    32
  0
VERTEX
  8
AM_VIS
  5
B51
 10
5.98916
 20
3.85894
 30
0.000000
  70
    32
  0
VERTEX
  8
AM_VIS
  5
B52
 10
5.98917
 20
3.85841
 30
0.000000
  70
    32
  0
VERTEX
  8
AM_VIS
  5
B53
 10
5.98918
 20
3.85789
 30
0.000000
  70
    32
  0
VERTEX
  8
AM_VIS
  5
B54
 10
5.98918
 20
3.85737
 30
0.000000
  70
    32
  0
VERTEX
  8
AM_VIS
  5
B55
 10
5.98919
 20
3.85684
 30
0.000000
  70
    32
  0
VERTEX
  8
AM_VIS
  5
B56
 10
5.98919
 20
3.85632
 30
0.000000
  70
    32
  0
VERTEX
  8
AM_VIS
  5
B57
 10
5.98919
 20
3.85580
 30
0.000000
  70
    32
  0
VERTEX
  8
AM_VIS
  5
B58
 10
5.98920
 20
3.85527
 30
0.000000
  70
    32
  0
VERTEX
  8
AM_VIS
  5
B59
 10
5.98920
 20
3.85475
 30
0.000000
  70
    32
  0
VERTEX
  8
AM_VIS
  5
B5A
 10
5.98920
 20
3.85423
 30
0.000000
  70
    32
  0
VERTEX
  8
AM_VIS
  5
B5B
 10
5.98921
 20
3.85370
 30
0.000000
  70
    32
  0
VERTEX
  8
AM_VIS
  5
B5C
 10
5.98921
 20
3.85318
 30
0.000000
  70
    32
  0
VERTEX
  8
AM_VIS
  5
B5D
 10
5.98921
 20
3.85266
 30
0.000000
  70
    32
  0
VERTEX
  8
AM_VIS
  5
B5E
 10
5.98921
 20
3.85213
 30
0.000000
  70
    32
  0
VERTEX
  8
AM_VIS
  5
B5F
 10
5.98921
 20
3.85161
 30
0.000000
  70
    32
  0
VERTEX
  8
AM_VIS
  5
B60
 10
5.98921
 20
3.85108
 30
0.000000
  70
    32
  0
SEQEND
  8
AM_VIS
  5
B61
  0
LINE
  5
37
  8
AM_VIS
 10
7.919661469884093
 20
4.2152885781583684
 30
0.0
 11
7.919661469884093
 21
3.8510844850667278
 31
0.0
  0
ARC
  5
38
  8
AM_VIS
 10
7.5048461944034992
 20
3.8405960946113038
 30
0.0
 40
0.3692967596140874
 50
139.29431560951761
 51
178.3717898942202
  0
ARC
  5
39
  8
AM_VIS
 10
7.5151392524848752
 20
3.84192673170406
 30
0.0
 40
0.3664645975648475
 50
1.432271715215069
 51
40.824881436170891
  0
LINE
  5
3A
  8
AM_HID
 10
6.5096347922214326
 20
4.7510844851564951
 30
0.0
 11
7.919661469884093
 21
4.7510844851564951
 31
0.0
  0
LINE
  5
3B
  8
AM_HID
 10
6.5096347922214326
 20
2.9510844851564939
 30
0.0
 11
7.919661469884093
 21
2.9510844851564939
 31
0.0
  0
LINE
  5
3C
  8
AM_HID
 10
6.644634792221435
 20
2.8385844851564981
 30
0.0
 11
6.644634792221435
 21
2.8160844851564959
 31
0.0
  0
LINE
  5
3D
  8
AM_VIS
 10
4.574634792221433
 20
4.8635844851564922
 30
0.0
 11
4.5746347922214339
 21
2.8385844851564981
 31
0.0
  0
LINE
  5
3E
  8
AM_VIS
 10
6.6446347922214333
 20
4.886084485156494
 30
0.0
 11
7.8746614698840931
 21
4.886084485156494
 31
0.0
  0
LINE
  5
3F
  8
AM_VIS
 10
6.6446347922214333
 20
2.8160844851564941
 30
0.0
 11
7.8746614698840931
 21
2.8160844851564941
 31
0.0
  0
LINE
  5
40
  8
AM_HID
 10
6.5096347922214344
 20
4.8860844851564922
 30
0.0
 11
6.5096347922214344
 21
4.7510844851564942
 31
0.0
  0
LINE
  5
41
  8
AM_HID
 10
6.5096347922214353
 20
2.9510844851564948
 30
0.0
 11
6.5096347922214353
 21
2.8160844851564981
 31
0.0
  0
LINE
  5
42
  8
AM_HID
 10
4.7096347922214328
 20
4.8860844851564922
 30
0.0
 11
4.7096347922214337
 21
2.8160844851564981
 31
0.0
  0
LINE
  5
43
  8
AM_HID
 10
6.644634792221435
 20
4.886084485156494
 30
0.0
 11
6.644634792221435
 21
4.8635844851564922
 31
0.0
  0
LINE
  5
44
  8
AM_HID
 10
6.6221347922214342
 20
2.8385844851564981
 30
0.0
 11
6.6446347922214342
 21
2.8385844851564981
 31
0.0
  0
ARC
  5
45
  8
AM_VIS
 10
7.508634792221434
 20
3.851084485156496
 30
0.0
 40
0.365625
 50
219.0723075591803
 51
320.92769244081938
  0
LINE
  5
46
  8
AM_VIS
 10
6.6221347922214342
 20
2.8160844851564981
 30
0.0
 11
4.597134792221433
 21
2.8160844851564981
 31
0.0
  0
ARC
  5
47
  8
AM_VIS
 10
5.609634792221434
 20
3.851084485156492
 30
0.0
 40
0.365625
 50
129.07230755918039
 51
230.9276924408191
  0
CIRCLE
  5
48
  8
AM_VIS
 10
5.609634792221434
 20
3.851084485156492
 30
0.0
 40
0.28125
  0
ARC
  5
49
  8
AM_VIS
 10
5.609634792221434
 20
3.851084485156496
 30
0.0
 40
0.365625
 50
309.07230755918027
 51
50.927692440819257
  0
LINE
  5
4A
  8
AM_VIS
 10
7.919661469884093
 20
2.8610844851564941
 30
0.0
 11
7.919661469884093
 21
3.486880392154621
 31
0.0
  0
LINE
  5
4B
  8
AM_VIS
 10
7.919661469884093
 20
4.2152885781583684
 30
0.0
 11
7.919661469884093
 21
4.841084485156494
 31
0.0
  0
CIRCLE
  5
4C
  8
AM_VIS
 10
7.508634792221434
 20
3.851084485156496
 30
0.0
 40
0.28125
  0
LINE
  5
4D
  8
AM_HID
 10
6.6221347922214342
 20
4.8635844851564922
 30
0.0
 11
6.6446347922214342
 21
4.8635844851564922
 31
0.0
  0
ARC
  5
4E
  8
AM_VIS
 10
7.508634792221434
 20
3.851084485156492
 30
0.0
 40
0.365625
 50
39.072307559180501
 51
140.92769244081961
  0
LINE
  5
4F
  8
AM_VIS
 10
6.6221347922214342
 20
4.8860844851564922
 30
0.0
 11
4.597134792221433
 21
4.8860844851564922
 31
0.0
  0
ARC
  5
50
  8
AM_HID
 10
6.6221347922214342
 20
2.8385844851564981
 30
0.0
 40
0.0225
 50
314.99999999999528
 51
0.0
  0
ARC
  5
51
  8
AM_VIS
 10
6.6221347922214342
 20
2.8385844851564981
 30
0.0
 40
0.0225
 50
270.0
 51
314.99999999999528
  0
ARC
  5
52
  8
AM_VIS
 10
4.597134792221433
 20
2.8385844851564981
 30
0.0
 40
0.0225
 50
180.0
 51
270.0
  0
ARC
  5
53
  8
AM_VIS
 10
7.8746614698840931
 20
2.8610844851564941
 30
0.0
 40
0.045
 50
270.0
 51
0.0
  0
ARC
  5
54
  8
AM_VIS
 10
7.8746614698840931
 20
4.841084485156494
 30
0.0
 40
0.045
 50
0.0
 51
90.0
  0
ARC
  5
55
  8
AM_VIS
 10
4.597134792221433
 20
4.8635844851564922
 30
0.0
 40
0.0225
 50
90.0
 51
180.0
  0
ARC
  5
56
  8
AM_VIS
 10
6.6221347922214342
 20
4.8635844851564922
 30
0.0
 40
0.0225
 50
45.000000000004277
 51
90.0
  0
ARC
  5
57
  8
AM_HID
 10
6.6221347922214342
 20
4.8635844851564922
 30
0.0
 40
0.0225
 50
0.0
 51
45.000000000004277
  0
INSERT
  5
171
  8
0
  2
*U7
 10
0.0
 20
0.0
 30
0.0
  0
INSERT
  5
172
  8
0
  2
*U8
 10
0.0
 20
0.0
 30
0.0
  0
LINE
  5
17D
  8
0
 10
5.609634792221434
 20
4.9423344851564908
 30
0.0
 11
5.609634792221434
 21
5.8371107247890697
 31
0.0
  0
LINE
  5
17E
  8
0
 10
7.919661469884093
 20
4.8973344851564944
 30
0.0
 11
7.919661469884093
 21
5.8371107247890697
 31
0.0
  0
LINE
  5
17F
  8
0
 10
5.722134792221433
 20
5.6751107247890697
 30
0.0
 11
6.4982843095282421
 21
5.6751107247890697
 31
0.0
  0
LINE
  5
180
  8
0
 10
7.8071614698840941
 20
5.6751107247890697
 30
0.0
 11
7.0554126565296738
 21
5.6751107247890697
 31
0.0
  0
SOLID
  5
181
  8
0
 10
5.722134792221433
 20
5.6938607247890696
 30
0.0
 11
5.722134792221433
 21
5.6563607247890699
 31
0.0
 12
5.609634792221434
 22
5.6751107247890697
 32
0.0
 13
5.609634792221434
 23
5.6751107247890697
 33
0.0
  0
SOLID
  5
182
  8
0
 10
7.8071614698840941
 20
5.6938607247890696
 30
0.0
 11
7.8071614698840941
 21
5.6563607247890699
 31
0.0
 12
7.919661469884093
 22
5.6751107247890697
 32
0.0
 13
7.919661469884093
 23
5.6751107247890697
 33
0.0
  0
INSERT
  5
183
  8
0
  2
*U9
 10
0.0
 20
0.0
 30
0.0
  0
ENDSEC
  0
EOF
