  0
SECTION
  2
HEADER
  9
$ACADVER
  1
AC1009
  9
$INSBASE
 10
0.0
 20
0.0
 30
0.0
  9
$EXTMIN
 10
10.55461458259779
 20
2.8319753018941309
 30
0.0
  9
$EXTMAX
 10
14.97961458259779
 20
6.0612887183909399
 30
0.0
  9
$LIMMIN
 10
0.0
 20
0.0
  9
$LIMMAX
 10
12.0
 20
9.0
  9
$ORTHOMODE
 70
     1
  9
$REGENMODE
 70
     0
  9
$FILLMODE
 70
     1
  9
$QTEXTMODE
 70
     0
  9
$MIRRTEXT
 70
     0
  9
$DRAGMODE
 70
     2
  9
$LTSCALE
 40
1.0
  9
$OSMODE
 70
    55
  9
$ATTMODE
 70
     1
  9
$TEXTSIZE
 40
0.2
  9
$TRACEWID
 40
0.05
  9
$TEXTSTYLE
  7
STANDARD
  9
$CLAYER
  8
0
  9
$CELTYPE
  6
BYLAYER
  9
$CECOLOR
 62
   256
  9
$DIMSCALE
 40
1.0
  9
$DIMASZ
 40
0.125
  9
$DIMEXO
 40
0.0625
  9
$DIMDLI
 40
0.38
  9
$DIMRND
 40
0.0
  9
$DIMDLE
 40
0.0
  9
$DIMEXE
 40
0.18
  9
$DIMTP
 40
0.0
  9
$DIMTM
 40
0.0
  9
$DIMTXT
 40
0.09375
  9
$DIMCEN
 40
-0.125
  9
$DIMTSZ
 40
0.0
  9
$DIMTOL
 70
     0
  9
$DIMLIM
 70
     0
  9
$DIMTIH
 70
     0
  9
$DIMTOH
 70
     0
  9
$DIMSE1
 70
     0
  9
$DIMSE2
 70
     0
  9
$DIMTAD
 70
     0
  9
$DIMZIN
 70
     3
  9
$DIMBLK
  1

  9
$DIMASO
 70
     0
  9
$DIMSHO
 70
     1
  9
$DIMPOST
  1

  9
$DIMAPOST
  1

  9
$DIMALT
 70
     0
  9
$DIMALTD
 70
     2
  9
$DIMALTF
 40
25.399999999999999
  9
$DIMLFAC
 40
1.0
  9
$DIMTOFL
 70
     1
  9
$DIMTVP
 40
0.0
  9
$DIMTIX
 70
     0
  9
$DIMSOXD
 70
     0
  9
$DIMSAH
 70
     0
  9
$DIMBLK1
  1

  9
$DIMBLK2
  1

  9
$DIMSTYLE
  2
STANDARD
  9
$DIMCLRD
 70
     0
  9
$DIMCLRE
 70
     0
  9
$DIMCLRT
 70
     0
  9
$DIMTFAC
 40
1.0
  9
$DIMGAP
 40
0.09
  9
$LUNITS
 70
     4
  9
$LUPREC
 70
     4
  9
$SKETCHINC
 40
0.1
  9
$FILLETRAD
 40
0.025
  9
$AUNITS
 70
     0
  9
$AUPREC
 70
     4
  9
$MENU
  1
.
  9
$ELEVATION
 40
0.0
  9
$PELEVATION
 40
0.0
  9
$THICKNESS
 40
0.0
  9
$LIMCHECK
 70
     0
  9
$BLIPMODE
 70
     0
  9
$CHAMFERA
 40
0.125
  9
$CHAMFERB
 40
0.5
  9
$SKPOLY
 70
     0
  9
$TDCREATE
 40
2451086.9109346061
  9
$TDUPDATE
 40
2453913.5789725119
  9
$TDINDWG
 40
0.0616364931
  9
$TDUSRTIMER
 40
0.0616364931
  9
$USRTIMER
 70
     1
  9
$ANGBASE
 50
0.0
  9
$ANGDIR
 70
     0
  9
$PDMODE
 70
    34
  9
$PDSIZE
 40
3.0
  9
$PLINEWID
 40
0.0
  9
$COORDS
 70
     1
  9
$SPLFRAME
 70
     0
  9
$SPLINETYPE
 70
     6
  9
$SPLINESEGS
 70
     8
  9
$ATTDIA
 70
     0
  9
$ATTREQ
 70
     1
  9
$HANDLING
 70
     1
  9
$HANDSEED
  5
2A3
  9
$SURFTAB1
 70
     6
  9
$SURFTAB2
 70
     6
  9
$SURFTYPE
 70
     6
  9
$SURFU
 70
     6
  9
$SURFV
 70
     6
  9
$UCSNAME
  2

  9
$UCSORG
 10
0.0
 20
0.0
 30
0.0
  9
$UCSXDIR
 10
1.0
 20
0.0
 30
0.0
  9
$UCSYDIR
 10
0.0
 20
1.0
 30
0.0
  9
$PUCSNAME
  2

  9
$PUCSORG
 10
0.0
 20
0.0
 30
0.0
  9
$PUCSXDIR
 10
1.0
 20
0.0
 30
0.0
  9
$PUCSYDIR
 10
0.0
 20
1.0
 30
0.0
  9
$USERI1
 70
     0
  9
$USERI2
 70
     0
  9
$USERI3
 70
     0
  9
$USERI4
 70
     0
  9
$USERI5
 70
     0
  9
$USERR1
 40
0.0
  9
$USERR2
 40
0.0
  9
$USERR3
 40
0.0
  9
$USERR4
 40
0.0
  9
$USERR5
 40
0.0
  9
$WORLDVIEW
 70
     1
  9
$SHADEDGE
 70
     3
  9
$SHADEDIF
 70
    70
  9
$TILEMODE
 70
     1
  9
$MAXACTVP
 70
    48
  9
$PLIMCHECK
 70
     0
  9
$PEXTMIN
 10
10.133364582597791
 20
2.5055466625361862
 30
0.0
  9
$PEXTMAX
 10
15.400864582597791
 20
5.6869767284109427
 30
0.0
  9
$PLIMMIN
 10
-0.1579164520023376
 20
-0.2812499887361301
  9
$PLIMMAX
 10
10.84208330770177
 20
8.2187497709679782
  9
$UNITMODE
 70
     0
  9
$VISRETAIN
 70
     1
  9
$PLINEGEN
 70
     0
  9
$PSLTSCALE
 70
     1
  0
ENDSEC
  0
SECTION
  2
TABLES
  0
TABLE
  2
VPORT
 70
     2
  0
VPORT
  2
*ACTIVE
 70
     0
 10
0.0
 20
0.0
 11
1.0
 21
1.0
 12
1.1149985976549159
 22
0.3681847310028237
 13
0.0
 23
0.0
 14
0.5
 24
0.5
 15
0.5
 25
0.5
 16
0.0
 26
0.0
 36
1.0
 17
12.76711458759779
 27
4.078256940280208
 37
0.0
 40
3.2662045419808439
 41
2.4581395348837201
 42
50.0
 43
0.0
 44
0.0
 50
0.0
 51
0.0
 71
     0
 72
   100
 73
     1
 74
     1
 75
     0
 76
     0
 77
     0
 78
     0
  0
ENDTAB
  0
TABLE
  2
LTYPE
 70
    18
  0
LTYPE
  2
CONTINUOUS
 70
     0
  3
Solid line
 72
    65
 73
     0
 40
0.0
  0
LTYPE
  2
HIDDEN
 70
     0
  3
__ __ __ __ __ __ __ __ __ __ __ __ __ __ __ __
 72
    65
 73
     2
 40
0.375
 49
0.25
 49
-0.125
  0
LTYPE
  2
PHANTOM2
 70
     0
  3
Phantom (.5x) ___ _ _ ___ _ _ ___ _ _ ___ _ _
 72
    65
 73
     6
 40
1.25
 49
0.625
 49
-0.125
 49
0.125
 49
-0.125
 49
0.125
 49
-0.125
  0
LTYPE
  2
CENTER
 70
     0
  3
Center ____ _ ____ _ ____ _ ____ _ ____ _ ____
 72
    65
 73
     4
 40
2.0
 49
1.25
 49
-0.25
 49
0.25
 49
-0.25
  0
LTYPE
  2
ASULTYPE
 70
     0
  3
Solid line
 72
    65
 73
     2
 40
3.0
 49
2.5
 49
0.5
  0
LTYPE
  2
ASVLTYPE
 70
     0
  3
__ __ __ __ __ __ __ __ __ __ __ __ __ __ __ __ __ __ __ __ __
 72
    65
 73
     2
 40
0.75
 49
0.5
 49
-0.25
  0
LTYPE
  2
AM_ISO02W050
 70
     0
  3
__ __ __ __ __ __ __ __ __ __ __ __ __ __ __
 72
    65
 73
     2
 40
7.5
 49
6.0
 49
-1.5
  0
LTYPE
  2
AM_ISO08W050
 70
     0
  3
____ . ____ . ____ . ____ . ____ . ____ . ____
 72
    65
 73
     4
 40
18.0
 49
12.0
 49
-1.5
 49
3.0
 49
-1.5
  0
LTYPE
  2
AM_ISO09W050
 70
     0
  3
_____ . . _____ . . _____ . . ____ .. ____
 72
    65
 73
     6
 40
22.5
 49
12.0
 49
-1.5
 49
3.0
 49
-1.5
 49
3.0
 49
-1.5
  0
LTYPE
  2
AMCONSTR
 70
     0
  3
_______________________
 72
    65
 73
     2
 40
9999.0
 49
9999.0
 49
0.0
  0
LTYPE
  2
AM_ISO08W050X2
 70
     0
  3
__ . __ . __ . __ . __ . __
 72
    65
 73
     4
 40
9.0
 49
6.0
 49
-0.75
 49
1.5
 49
-0.75
  0
LTYPE
  2
AM_ISO02W050X2
 70
     0
  3
 _ _ _ _ _ _ _ _ _ _ _ _
 72
    65
 73
     2
 40
3.75
 49
3.0
 49
-0.75
  0
LTYPE
  2
AMZIGZAG
 70
     0
  3
/\/-/\/-/\/-/\/-/\/-/\/
 72
    65
 73
     2
 40
11.0001
 49
0.0001
 49
-11.0
  0
LTYPE
  2
CENTER2
 70
     0
  3
Center (.5x) ___ _ ___ _ ___ _ ___ _ ___ _ ___
 72
    65
 73
     4
 40
1.125
 49
0.75
 49
-0.125
 49
0.125
 49
-0.125
  0
LTYPE
  2
HIDDEN2
 70
     0
  3
Hidden (.5x) _ _ _ _ _ _ _ _ _ _ _ _ _ _ _ _ _
 72
    65
 73
     2
 40
0.1875
 49
0.125
 49
-0.0625
  0
LTYPE
  2
AMZIGZAG2
 70
     0
  3
/\/-/\/-/\/-/\/-/\/-/\/
 72
    65
 73
     2
 40
0.4401
 49
0.0001
 49
-0.4400000000000001
  0
LTYPE
  2
ACANSTGB
 70
     0
  3
__ . . __ . .
 72
    65
 73
     6
 40
0.35433070866
 49
0.15748031496
 49
-0.03937007874
 49
0.03937007874
 49
-0.03937007874
 49
0.03937007874
 49
-0.03937007874
  0
LTYPE
  2
ACANSTGL
 70
     0
  3
_ _ _ _ _
 72
    65
 73
     2
 40
0.11811023622
 49
0.07874015748
 49
-0.03937007874
  0
ENDTAB
  0
TABLE
  2
LAYER
 70
     4
  0
LAYER
  2
0
 70
     0
 62
     7
  6
CONTINUOUS
  0
LAYER
  2
AM_VIS
 70
     0
 62
     7
  6
CONTINUOUS
  0
LAYER
  2
AM_HID
 70
     0
 62
     7
  6
HIDDEN
  0
LAYER
  2
KEE10
 70
     0
 62
     7
  6
CONTINUOUS
  0
ENDTAB
  0
TABLE
  2
STYLE
 70
     5
  0
STYLE
  2
STANDARD
 70
     0
 40
0.0
 41
1.0
 50
0.0
 71
     0
 42
0.2
  3
txt
  4

  0
STYLE
  2

 70
     1
 40
0.0
 41
1.0
 50
0.0
 71
     0
 42
0.2
  3
ltypeshp.shx
  4

  0
STYLE
  2
ACANSTS
 70
     0
 40
1.0
 41
1.0
 50
0.0
 71
     0
 42
0.2
  3
romans.shx
  4

  0
STYLE
  2
ACANSGDT
 70
     0
 40
0.0
 41
1.0
 50
0.0
 71
     0
 42
0.2
  3
amgdtans.shx
  4

  0
STYLE
  2
ACANSTSB
 70
     0
 40
1.0
 41
1.0
 50
0.0
 71
     0
 42
0.2
  3
romans.shx
  4

  0
ENDTAB
  0
TABLE
  2
VIEW
 70
     0
  0
ENDTAB
  0
TABLE
  2
UCS
 70
     0
  0
ENDTAB
  0
TABLE
  2
APPID
 70
    13
  0
APPID
  2
ACAD
 70
     0
  0
APPID
  2
GENIUS_GENDIM_13
 70
     0
  0
APPID
  2
GENIUS_GENDTOL_13
 70
     0
  0
APPID
  2
GENIUS_GE3DTOL_13
 70
     0
  0
APPID
  2
MCAD_NO_VIS
 70
     0
  0
APPID
  2
ACAD_TEMP_GRAPHIC
 70
     0
  0
APPID
  2
AD_DRAW
 70
     0
  0
APPID
  2
ACATTRIBSERVICES
 70
     0
  0
APPID
  2
ASURF_PCURVE_APPNAME
 70
     0
  0
APPID
  2
AMG_3D2D_5_0
 70
     0
  0
APPID
  2
DESIGNERASSEMBLIES
 70
     0
  0
APPID
  2
ACADM_DIM_EDIT
 70
     0
  0
APPID
  2
AMDT_DM_ADJ
 70
     0
  0
ENDTAB
  0
TABLE
  2
DIMSTYLE
 70
     7
  0
DIMSTYLE
  2
STANDARD
 70
     0
  3

  4

  5

  6

  7

 40
1.0
 41
0.18
 42
0.0625
 43
0.38
 44
0.18
 45
0.0
 46
0.0
 47
0.0
 48
0.0
140
0.18
141
0.09
142
0.0
143
25.399999999999999
144
1.0
145
0.0
146
1.0
147
0.09
 71
     0
 72
     0
 73
     1
 74
     1
 75
     0
 76
     0
 77
     0
 78
     0
170
     0
171
     2
172
     0
173
     0
174
     0
175
     0
176
     0
177
     0
178
     0
  0
DIMSTYLE
  2
AM_ANSI
 70
     0
  3

  4
mm
  5

  6

  7

 40
1.0
 41
0.1
 42
0.05
 43
0.5
 44
0.1
 45
0.0
 46
0.0
 47
0.1
 48
0.1
140
0.12
141
0.0
142
0.0
143
25.399999999999999
144
1.0
145
0.0
146
0.71
147
0.06
 71
     0
 72
     0
 73
     1
 74
     1
 75
     0
 76
     0
 77
     0
 78
     7
170
     0
171
     2
172
     0
173
     0
174
     0
175
     0
176
   256
177
   256
178
     2
  0
DIMSTYLE
  2
AM_ANSI$3
 70
     0
  3

  4
mm
  5

  6

  7

 40
1.0
 41
0.1
 42
0.05
 43
0.5
 44
0.1
 45
0.0
 46
0.0
 47
0.1
 48
0.1
140
0.12
141
0.0
142
0.0
143
25.399999999999999
144
1.0
145
0.0
146
0.71
147
0.06
 71
     0
 72
     0
 73
     1
 74
     1
 75
     0
 76
     0
 77
     0
 78
     7
170
     0
171
     2
172
     0
173
     0
174
     0
175
     0
176
   256
177
   256
178
     2
  0
DIMSTYLE
  2
AM_ANSI$4
 70
     0
  3

  4
mm
  5

  6

  7

 40
1.0
 41
0.1
 42
0.05
 43
0.5
 44
0.1
 45
0.0
 46
0.0
 47
0.1
 48
0.1
140
0.12
141
0.0
142
0.0
143
25.399999999999999
144
1.0
145
0.0
146
0.71
147
0.06
 71
     0
 72
     0
 73
     1
 74
     1
 75
     0
 76
     0
 77
     0
 78
     7
170
     0
171
     2
172
     0
173
     0
174
     0
175
     0
176
   256
177
   256
178
     2
  0
DIMSTYLE
  2
AM_ANSI$7
 70
     0
  3

  4
mm
  5

  6

  7

 40
1.0
 41
0.1
 42
0.05
 43
0.5
 44
0.1
 45
0.0
 46
0.0
 47
0.1
 48
0.1
140
0.24
141
0.0
142
0.0
143
25.399999999999999
144
1.0
145
0.0
146
0.71
147
0.06
 71
     0
 72
     0
 73
     1
 74
     1
 75
     0
 76
     0
 77
     0
 78
     7
170
     0
171
     2
172
     0
173
     0
174
     0
175
     0
176
   256
177
   256
178
     2
  0
DIMSTYLE
  2
AM_ANSI$SF
 70
     0
  3

  4
mm
  5

  6

  7

 40
1.0
 41
0.1
 42
0.05
 43
0.5
 44
0.1
 45
0.0
 46
0.0
 47
0.1
 48
0.1
140
0.12
141
0.0
142
0.0
143
25.399999999999999
144
1.0
145
0.0
146
0.71
147
0.06
 71
     0
 72
     0
 73
     1
 74
     1
 75
     1
 76
     1
 77
     0
 78
     7
170
     0
171
     2
172
     0
173
     0
174
     0
175
     0
176
   256
177
   256
178
     2
  0
DIMSTYLE
  2
AM_ANSI$SH
 70
     0
  3

  4
mm
  5

  6
GENAXEH
  7

 40
1.0
 41
0.1
 42
0.05
 43
0.5
 44
0.1
 45
0.0
 46
0.0
 47
0.1
 48
0.1
140
0.12
141
0.0
142
0.0
143
25.399999999999999
144
1.0
145
0.0
146
0.71
147
0.06
 71
     0
 72
     0
 73
     1
 74
     1
 75
     1
 76
     1
 77
     0
 78
     7
170
     0
171
     2
172
     0
173
     1
174
     0
175
     0
176
   256
177
   256
178
     2
  0
ENDTAB
  0
ENDSEC
  0
SECTION
  2
BLOCKS
  0
BLOCK
  8
0
  2
$MODEL_SPACE
 70
     0
 10
0.0
 20
0.0
 30
0.0
  3
$MODEL_SPACE
  1

  0
ENDBLK
  5
A
  8
0
  0
BLOCK
 67
     1
  8
0
  2
$PAPER_SPACE
 70
     0
 10
0.0
 20
0.0
 30
0.0
  3
$PAPER_SPACE
  1

  0
ENDBLK
  5
F
 67
     1
  8
0
  0
BLOCK
  8
0
  2
*U0
 70
     1
 10
0.0
 20
0.0
 30
0.0
  3
*U0
  1

  0
ENDBLK
  5
103
  8
0
  0
BLOCK
  8
0
  2
GENAXEH
 70
     0
 10
0.0
 20
0.0
 30
0.0
  3
GENAXEH
  1

  0
LINE
  5
141
  8
0
 10
-1.0
 20
0.0
 30
0.0
 11
1.0
 21
0.0
 31
0.0
  0
ENDBLK
  5
143
  8
0
  0
BLOCK
  8
0
  2
_DOT
 70
     0
 10
0.0
 20
0.0
 30
0.0
  3
_DOT
  1

  0
POLYLINE
  5
154
  8
0
  6
BYBLOCK
 62
     0
 66
     1
 10
0.0
 20
0.0
 30
0.0
 70
     1
 40
0.5
 41
0.5
  0
VERTEX
  5
155
  8
0
  6
BYBLOCK
 62
     0
 10
-0.25
 20
0.0
 30
0.0
 42
1.0
  0
VERTEX
  5
156
  8
0
  6
BYBLOCK
 62
     0
 10
0.25
 20
0.0
 30
0.0
 42
1.0
  0
SEQEND
  5
157
  8
0
  6
BYBLOCK
 62
     0
  0
LINE
  5
158
  8
0
  6
BYBLOCK
 62
     0
 10
-0.5
 20
0.0
 30
0.0
 11
-1.0
 21
0.0
 31
0.0
  0
ENDBLK
  5
15A
  8
0
  0
BLOCK
  8
0
  2
2D
 70
     0
 10
0.0
 20
0.0
 30
0.0
  3
2D
  1

  0
INSERT
  5
15E
  8
0
  2
*U5
 10
0.0
 20
0.0
 30
0.0
  0
INSERT
  5
15F
  8
0
  2
*U6
 10
0.0
 20
0.0
 30
0.0
  0
INSERT
  5
160
  8
0
  2
*U7
 10
0.0
 20
0.0
 30
0.0
  0
ENDBLK
  5
162
  8
0
  0
BLOCK
  8
0
  2
*U4
 70
     1
 10
0.0
 20
0.0
 30
0.0
  3
*U4
  1

  0
TEXT
  5
188
  8
0
 10
12.48586458259779
 20
5.8344137183909401
 30
0.0
 40
0.09375
  1
2-3/16"
  0
ENDBLK
  5
18A
  8
0
  0
BLOCK
  8
0
  2
*U5
 70
     1
 10
0.0
 20
0.0
 30
0.0
  3
*U5
  1

  0
TEXT
  5
18C
  8
KEE10
 10
-0.167740653382606
 20
0.7944046258072062
 30
0.0
 40
0.140625
  1
KEE
  0
ENDBLK
  5
18E
  8
0
  0
BLOCK
  8
0
  2
*U6
 70
     1
 10
0.0
 20
0.0
 30
0.0
  3
*U6
  1

  0
TEXT
  5
190
  8
KEE10
 10
-0.308365653382606
 20
0.4858688129746218
 30
0.0
 40
0.140625
  1
KLAMP
  0
ENDBLK
  5
192
  8
0
  0
BLOCK
  8
0
  2
*U7
 70
     1
 10
0.0
 20
0.0
 30
0.0
  3
*U7
  1

  0
TEXT
  5
194
  8
KEE10
 10
-0.202896903382606
 20
0.2018753139112972
 30
0.0
 40
0.140625
  1
10-8
  0
ENDBLK
  5
196
  8
0
  0
BLOCK
  8
0
  2
*U8
 70
     1
 10
0.0
 20
0.0
 30
0.0
  3
*U8
  1

  0
TEXT
  5
198
  8
KEE10
 10
11.550043103752071
 20
3.3578977740006848
 30
0.0
 40
0.1125
  1
KEE
  0
ENDBLK
  5
19A
  8
0
  0
BLOCK
  8
0
  2
*U9
 70
     1
 10
0.0
 20
0.0
 30
0.0
  3
*U9
  1

  0
TEXT
  5
19C
  8
KEE10
 10
11.43754310375207
 20
3.1110691237346182
 30
0.0
 40
0.1125
  1
KLAMP
  0
ENDBLK
  5
19E
  8
0
  0
ENDSEC
  0
SECTION
  2
ENTITIES
  0
LINE
  5
25
  8
AM_VIS
 10
10.55461458259779
 20
2.98197530189413
 30
0.0
 11
12.85461458259779
 21
2.98197530189413
 31
0.0
  0
LINE
  5
27
  8
AM_VIS
 10
12.85461458259779
 20
4.9819753018941313
 30
0.0
 11
10.55461458259779
 21
4.9819753018941313
 31
0.0
  0
ARC
  5
2A
  8
AM_VIS
 10
11.69296081532535
 20
3.9777657487630962
 30
0.0
 40
0.4103297329045449
 50
271.62821010577989
 51
310.70568439048219
  0
ARC
  5
2B
  8
AM_VIS
 10
11.716268349870219
 20
3.9777657487630971
 30
0.0
 40
0.4103297329045455
 50
229.29431560951781
 51
268.37178989422011
  0
ARC
  5
2C
  8
AM_VIS
 10
11.70461458259779
 20
3.98197530189413
 30
0.0
 40
0.40625
 50
309.0723075591805
 51
50.927692440819548
  0
ARC
  5
2D
  8
AM_VIS
 10
11.69296081532535
 20
3.986184855025166
 30
0.0
 40
0.4103297329045433
 50
49.29431560951776
 51
88.371789894220171
  0
CIRCLE
  5
2E
  8
AM_VIS
 10
11.70461458259779
 20
3.98197530189413
 30
0.0
 40
0.3125
  0
ARC
  5
2F
  8
AM_VIS
 10
11.716268349870219
 20
3.9861848550251691
 30
0.0
 40
0.410329732904541
 50
91.628210105779715
 51
130.7056843904823
  0
ARC
  5
30
  8
AM_VIS
 10
11.70461458259779
 20
3.9819753018941308
 30
0.0
 40
0.40625
 50
129.0723075591805
 51
230.9276924408195
  0
POLYLINE
  8
AM_VIS
  5
19F
  66
     1
 10
0.000000
 20
0.000000
 30
0.000000
  70
     8
  0
VERTEX
  8
AM_VIS
  5
1A0
 10
13.9806
 20
5.12203
 30
0.000000
  70
    32
  0
VERTEX
  8
AM_VIS
  5
1A1
 10
13.9794
 20
5.12218
 30
0.000000
  70
    32
  0
VERTEX
  8
AM_VIS
  5
1A2
 10
13.9783
 20
5.12233
 30
0.000000
  70
    32
  0
VERTEX
  8
AM_VIS
  5
1A3
 10
13.9771
 20
5.12248
 30
0.000000
  70
    32
  0
VERTEX
  8
AM_VIS
  5
1A4
 10
13.9759
 20
5.12263
 30
0.000000
  70
    32
  0
VERTEX
  8
AM_VIS
  5
1A5
 10
13.9748
 20
5.12278
 30
0.000000
  70
    32
  0
VERTEX
  8
AM_VIS
  5
1A6
 10
13.9736
 20
5.12293
 30
0.000000
  70
    32
  0
VERTEX
  8
AM_VIS
  5
1A7
 10
13.9725
 20
5.12308
 30
0.000000
  70
    32
  0
VERTEX
  8
AM_VIS
  5
1A8
 10
13.9713
 20
5.12323
 30
0.000000
  70
    32
  0
VERTEX
  8
AM_VIS
  5
1A9
 10
13.9702
 20
5.12337
 30
0.000000
  70
    32
  0
VERTEX
  8
AM_VIS
  5
1AA
 10
13.9690
 20
5.12352
 30
0.000000
  70
    32
  0
VERTEX
  8
AM_VIS
  5
1AB
 10
13.9679
 20
5.12367
 30
0.000000
  70
    32
  0
VERTEX
  8
AM_VIS
  5
1AC
 10
13.9667
 20
5.12381
 30
0.000000
  70
    32
  0
VERTEX
  8
AM_VIS
  5
1AD
 10
13.9656
 20
5.12396
 30
0.000000
  70
    32
  0
VERTEX
  8
AM_VIS
  5
1AE
 10
13.9644
 20
5.12410
 30
0.000000
  70
    32
  0
VERTEX
  8
AM_VIS
  5
1AF
 10
13.9633
 20
5.12424
 30
0.000000
  70
    32
  0
VERTEX
  8
AM_VIS
  5
1B0
 10
13.9621
 20
5.12438
 30
0.000000
  70
    32
  0
VERTEX
  8
AM_VIS
  5
1B1
 10
13.9610
 20
5.12453
 30
0.000000
  70
    32
  0
VERTEX
  8
AM_VIS
  5
1B2
 10
13.9598
 20
5.12467
 30
0.000000
  70
    32
  0
VERTEX
  8
AM_VIS
  5
1B3
 10
13.9587
 20
5.12481
 30
0.000000
  70
    32
  0
VERTEX
  8
AM_VIS
  5
1B4
 10
13.9575
 20
5.12495
 30
0.000000
  70
    32
  0
VERTEX
  8
AM_VIS
  5
1B5
 10
13.9564
 20
5.12508
 30
0.000000
  70
    32
  0
VERTEX
  8
AM_VIS
  5
1B6
 10
13.9552
 20
5.12522
 30
0.000000
  70
    32
  0
VERTEX
  8
AM_VIS
  5
1B7
 10
13.9541
 20
5.12536
 30
0.000000
  70
    32
  0
VERTEX
  8
AM_VIS
  5
1B8
 10
13.9529
 20
5.12549
 30
0.000000
  70
    32
  0
VERTEX
  8
AM_VIS
  5
1B9
 10
13.9518
 20
5.12563
 30
0.000000
  70
    32
  0
VERTEX
  8
AM_VIS
  5
1BA
 10
13.9506
 20
5.12576
 30
0.000000
  70
    32
  0
VERTEX
  8
AM_VIS
  5
1BB
 10
13.9495
 20
5.12590
 30
0.000000
  70
    32
  0
VERTEX
  8
AM_VIS
  5
1BC
 10
13.9483
 20
5.12603
 30
0.000000
  70
    32
  0
VERTEX
  8
AM_VIS
  5
1BD
 10
13.9472
 20
5.12616
 30
0.000000
  70
    32
  0
VERTEX
  8
AM_VIS
  5
1BE
 10
13.9460
 20
5.12629
 30
0.000000
  70
    32
  0
VERTEX
  8
AM_VIS
  5
1BF
 10
13.9449
 20
5.12642
 30
0.000000
  70
    32
  0
VERTEX
  8
AM_VIS
  5
1C0
 10
13.9437
 20
5.12655
 30
0.000000
  70
    32
  0
VERTEX
  8
AM_VIS
  5
1C1
 10
13.9426
 20
5.12668
 30
0.000000
  70
    32
  0
VERTEX
  8
AM_VIS
  5
1C2
 10
13.9414
 20
5.12681
 30
0.000000
  70
    32
  0
VERTEX
  8
AM_VIS
  5
1C3
 10
13.9402
 20
5.12693
 30
0.000000
  70
    32
  0
VERTEX
  8
AM_VIS
  5
1C4
 10
13.9391
 20
5.12706
 30
0.000000
  70
    32
  0
VERTEX
  8
AM_VIS
  5
1C5
 10
13.9379
 20
5.12718
 30
0.000000
  70
    32
  0
VERTEX
  8
AM_VIS
  5
1C6
 10
13.9368
 20
5.12731
 30
0.000000
  70
    32
  0
VERTEX
  8
AM_VIS
  5
1C7
 10
13.9356
 20
5.12743
 30
0.000000
  70
    32
  0
VERTEX
  8
AM_VIS
  5
1C8
 10
13.9345
 20
5.12755
 30
0.000000
  70
    32
  0
VERTEX
  8
AM_VIS
  5
1C9
 10
13.9333
 20
5.12767
 30
0.000000
  70
    32
  0
VERTEX
  8
AM_VIS
  5
1CA
 10
13.9321
 20
5.12779
 30
0.000000
  70
    32
  0
VERTEX
  8
AM_VIS
  5
1CB
 10
13.9310
 20
5.12791
 30
0.000000
  70
    32
  0
VERTEX
  8
AM_VIS
  5
1CC
 10
13.9298
 20
5.12803
 30
0.000000
  70
    32
  0
VERTEX
  8
AM_VIS
  5
1CD
 10
13.9287
 20
5.12815
 30
0.000000
  70
    32
  0
VERTEX
  8
AM_VIS
  5
1CE
 10
13.9275
 20
5.12826
 30
0.000000
  70
    32
  0
VERTEX
  8
AM_VIS
  5
1CF
 10
13.9263
 20
5.12838
 30
0.000000
  70
    32
  0
VERTEX
  8
AM_VIS
  5
1D0
 10
13.9252
 20
5.12849
 30
0.000000
  70
    32
  0
VERTEX
  8
AM_VIS
  5
1D1
 10
13.9240
 20
5.12860
 30
0.000000
  70
    32
  0
VERTEX
  8
AM_VIS
  5
1D2
 10
13.9228
 20
5.12871
 30
0.000000
  70
    32
  0
VERTEX
  8
AM_VIS
  5
1D3
 10
13.9217
 20
5.12882
 30
0.000000
  70
    32
  0
VERTEX
  8
AM_VIS
  5
1D4
 10
13.9205
 20
5.12893
 30
0.000000
  70
    32
  0
VERTEX
  8
AM_VIS
  5
1D5
 10
13.9193
 20
5.12904
 30
0.000000
  70
    32
  0
VERTEX
  8
AM_VIS
  5
1D6
 10
13.9182
 20
5.12915
 30
0.000000
  70
    32
  0
VERTEX
  8
AM_VIS
  5
1D7
 10
13.9170
 20
5.12926
 30
0.000000
  70
    32
  0
VERTEX
  8
AM_VIS
  5
1D8
 10
13.9158
 20
5.12936
 30
0.000000
  70
    32
  0
VERTEX
  8
AM_VIS
  5
1D9
 10
13.9147
 20
5.12946
 30
0.000000
  70
    32
  0
VERTEX
  8
AM_VIS
  5
1DA
 10
13.9135
 20
5.12957
 30
0.000000
  70
    32
  0
VERTEX
  8
AM_VIS
  5
1DB
 10
13.9123
 20
5.12967
 30
0.000000
  70
    32
  0
VERTEX
  8
AM_VIS
  5
1DC
 10
13.9111
 20
5.12977
 30
0.000000
  70
    32
  0
VERTEX
  8
AM_VIS
  5
1DD
 10
13.9100
 20
5.12987
 30
0.000000
  70
    32
  0
VERTEX
  8
AM_VIS
  5
1DE
 10
13.9088
 20
5.12997
 30
0.000000
  70
    32
  0
VERTEX
  8
AM_VIS
  5
1DF
 10
13.9076
 20
5.13006
 30
0.000000
  70
    32
  0
VERTEX
  8
AM_VIS
  5
1E0
 10
13.9064
 20
5.13016
 30
0.000000
  70
    32
  0
VERTEX
  8
AM_VIS
  5
1E1
 10
13.9053
 20
5.13025
 30
0.000000
  70
    32
  0
VERTEX
  8
AM_VIS
  5
1E2
 10
13.9041
 20
5.13035
 30
0.000000
  70
    32
  0
VERTEX
  8
AM_VIS
  5
1E3
 10
13.9029
 20
5.13044
 30
0.000000
  70
    32
  0
VERTEX
  8
AM_VIS
  5
1E4
 10
13.9017
 20
5.13053
 30
0.000000
  70
    32
  0
VERTEX
  8
AM_VIS
  5
1E5
 10
13.9006
 20
5.13062
 30
0.000000
  70
    32
  0
VERTEX
  8
AM_VIS
  5
1E6
 10
13.8994
 20
5.13071
 30
0.000000
  70
    32
  0
VERTEX
  8
AM_VIS
  5
1E7
 10
13.8982
 20
5.13080
 30
0.000000
  70
    32
  0
VERTEX
  8
AM_VIS
  5
1E8
 10
13.8970
 20
5.13088
 30
0.000000
  70
    32
  0
VERTEX
  8
AM_VIS
  5
1E9
 10
13.8958
 20
5.13097
 30
0.000000
  70
    32
  0
VERTEX
  8
AM_VIS
  5
1EA
 10
13.8946
 20
5.13105
 30
0.000000
  70
    32
  0
VERTEX
  8
AM_VIS
  5
1EB
 10
13.8934
 20
5.13113
 30
0.000000
  70
    32
  0
VERTEX
  8
AM_VIS
  5
1EC
 10
13.8923
 20
5.13121
 30
0.000000
  70
    32
  0
VERTEX
  8
AM_VIS
  5
1ED
 10
13.8911
 20
5.13129
 30
0.000000
  70
    32
  0
VERTEX
  8
AM_VIS
  5
1EE
 10
13.8899
 20
5.13137
 30
0.000000
  70
    32
  0
VERTEX
  8
AM_VIS
  5
1EF
 10
13.8887
 20
5.13145
 30
0.000000
  70
    32
  0
VERTEX
  8
AM_VIS
  5
1F0
 10
13.8875
 20
5.13152
 30
0.000000
  70
    32
  0
VERTEX
  8
AM_VIS
  5
1F1
 10
13.8863
 20
5.13159
 30
0.000000
  70
    32
  0
VERTEX
  8
AM_VIS
  5
1F2
 10
13.8851
 20
5.13167
 30
0.000000
  70
    32
  0
VERTEX
  8
AM_VIS
  5
1F3
 10
13.8839
 20
5.13174
 30
0.000000
  70
    32
  0
VERTEX
  8
AM_VIS
  5
1F4
 10
13.8827
 20
5.13181
 30
0.000000
  70
    32
  0
VERTEX
  8
AM_VIS
  5
1F5
 10
13.8815
 20
5.13188
 30
0.000000
  70
    32
  0
VERTEX
  8
AM_VIS
  5
1F6
 10
13.8803
 20
5.13194
 30
0.000000
  70
    32
  0
VERTEX
  8
AM_VIS
  5
1F7
 10
13.8791
 20
5.13201
 30
0.000000
  70
    32
  0
VERTEX
  8
AM_VIS
  5
1F8
 10
13.8779
 20
5.13207
 30
0.000000
  70
    32
  0
VERTEX
  8
AM_VIS
  5
1F9
 10
13.8767
 20
5.13214
 30
0.000000
  70
    32
  0
VERTEX
  8
AM_VIS
  5
1FA
 10
13.8755
 20
5.13220
 30
0.000000
  70
    32
  0
VERTEX
  8
AM_VIS
  5
1FB
 10
13.8743
 20
5.13226
 30
0.000000
  70
    32
  0
VERTEX
  8
AM_VIS
  5
1FC
 10
13.8730
 20
5.13231
 30
0.000000
  70
    32
  0
VERTEX
  8
AM_VIS
  5
1FD
 10
13.8718
 20
5.13237
 30
0.000000
  70
    32
  0
VERTEX
  8
AM_VIS
  5
1FE
 10
13.8706
 20
5.13243
 30
0.000000
  70
    32
  0
VERTEX
  8
AM_VIS
  5
1FF
 10
13.8694
 20
5.13248
 30
0.000000
  70
    32
  0
VERTEX
  8
AM_VIS
  5
200
 10
13.8682
 20
5.13253
 30
0.000000
  70
    32
  0
VERTEX
  8
AM_VIS
  5
201
 10
13.8670
 20
5.13258
 30
0.000000
  70
    32
  0
VERTEX
  8
AM_VIS
  5
202
 10
13.8658
 20
5.13263
 30
0.000000
  70
    32
  0
VERTEX
  8
AM_VIS
  5
203
 10
13.8645
 20
5.13268
 30
0.000000
  70
    32
  0
VERTEX
  8
AM_VIS
  5
204
 10
13.8633
 20
5.13273
 30
0.000000
  70
    32
  0
VERTEX
  8
AM_VIS
  5
205
 10
13.8621
 20
5.13277
 30
0.000000
  70
    32
  0
VERTEX
  8
AM_VIS
  5
206
 10
13.8609
 20
5.13282
 30
0.000000
  70
    32
  0
VERTEX
  8
AM_VIS
  5
207
 10
13.8596
 20
5.13286
 30
0.000000
  70
    32
  0
VERTEX
  8
AM_VIS
  5
208
 10
13.8584
 20
5.13290
 30
0.000000
  70
    32
  0
VERTEX
  8
AM_VIS
  5
209
 10
13.8572
 20
5.13294
 30
0.000000
  70
    32
  0
VERTEX
  8
AM_VIS
  5
20A
 10
13.8559
 20
5.13297
 30
0.000000
  70
    32
  0
VERTEX
  8
AM_VIS
  5
20B
 10
13.8547
 20
5.13301
 30
0.000000
  70
    32
  0
VERTEX
  8
AM_VIS
  5
20C
 10
13.8535
 20
5.13304
 30
0.000000
  70
    32
  0
VERTEX
  8
AM_VIS
  5
20D
 10
13.8522
 20
5.13307
 30
0.000000
  70
    32
  0
VERTEX
  8
AM_VIS
  5
20E
 10
13.8510
 20
5.13310
 30
0.000000
  70
    32
  0
VERTEX
  8
AM_VIS
  5
20F
 10
13.8497
 20
5.13313
 30
0.000000
  70
    32
  0
VERTEX
  8
AM_VIS
  5
210
 10
13.8485
 20
5.13316
 30
0.000000
  70
    32
  0
VERTEX
  8
AM_VIS
  5
211
 10
13.8473
 20
5.13318
 30
0.000000
  70
    32
  0
VERTEX
  8
AM_VIS
  5
212
 10
13.8460
 20
5.13321
 30
0.000000
  70
    32
  0
VERTEX
  8
AM_VIS
  5
213
 10
13.8448
 20
5.13323
 30
0.000000
  70
    32
  0
VERTEX
  8
AM_VIS
  5
214
 10
13.8435
 20
5.13325
 30
0.000000
  70
    32
  0
VERTEX
  8
AM_VIS
  5
215
 10
13.8423
 20
5.13327
 30
0.000000
  70
    32
  0
VERTEX
  8
AM_VIS
  5
216
 10
13.8410
 20
5.13328
 30
0.000000
  70
    32
  0
VERTEX
  8
AM_VIS
  5
217
 10
13.8397
 20
5.13330
 30
0.000000
  70
    32
  0
VERTEX
  8
AM_VIS
  5
218
 10
13.8385
 20
5.13331
 30
0.000000
  70
    32
  0
VERTEX
  8
AM_VIS
  5
219
 10
13.8372
 20
5.13332
 30
0.000000
  70
    32
  0
VERTEX
  8
AM_VIS
  5
21A
 10
13.8360
 20
5.13333
 30
0.000000
  70
    32
  0
VERTEX
  8
AM_VIS
  5
21B
 10
13.8347
 20
5.13334
 30
0.000000
  70
    32
  0
VERTEX
  8
AM_VIS
  5
21C
 10
13.8334
 20
5.13335
 30
0.000000
  70
    32
  0
VERTEX
  8
AM_VIS
  5
21D
 10
13.8322
 20
5.13335
 30
0.000000
  70
    32
  0
VERTEX
  8
AM_VIS
  5
21E
 10
13.8309
 20
5.13336
 30
0.000000
  70
    32
  0
VERTEX
  8
AM_VIS
  5
21F
 10
13.8296
 20
5.13336
 30
0.000000
  70
    32
  0
SEQEND
  8
AM_VIS
  5
220
  0
POLYLINE
  8
AM_VIS
  5
221
  66
     1
 10
0.000000
 20
0.000000
 30
0.000000
  70
     8
  0
VERTEX
  8
AM_VIS
  5
222
 10
13.8296
 20
5.13336
 30
0.000000
  70
    32
  0
VERTEX
  8
AM_VIS
  5
223
 10
13.8283
 20
5.13336
 30
0.000000
  70
    32
  0
VERTEX
  8
AM_VIS
  5
224
 10
13.8271
 20
5.13335
 30
0.000000
  70
    32
  0
VERTEX
  8
AM_VIS
  5
225
 10
13.8258
 20
5.13335
 30
0.000000
  70
    32
  0
VERTEX
  8
AM_VIS
  5
226
 10
13.8245
 20
5.13334
 30
0.000000
  70
    32
  0
VERTEX
  8
AM_VIS
  5
227
 10
13.8233
 20
5.13333
 30
0.000000
  70
    32
  0
VERTEX
  8
AM_VIS
  5
228
 10
13.8220
 20
5.13332
 30
0.000000
  70
    32
  0
VERTEX
  8
AM_VIS
  5
229
 10
13.8207
 20
5.13331
 30
0.000000
  70
    32
  0
VERTEX
  8
AM_VIS
  5
22A
 10
13.8195
 20
5.13330
 30
0.000000
  70
    32
  0
VERTEX
  8
AM_VIS
  5
22B
 10
13.8182
 20
5.13328
 30
0.000000
  70
    32
  0
VERTEX
  8
AM_VIS
  5
22C
 10
13.8170
 20
5.13327
 30
0.000000
  70
    32
  0
VERTEX
  8
AM_VIS
  5
22D
 10
13.8157
 20
5.13325
 30
0.000000
  70
    32
  0
VERTEX
  8
AM_VIS
  5
22E
 10
13.8145
 20
5.13323
 30
0.000000
  70
    32
  0
VERTEX
  8
AM_VIS
  5
22F
 10
13.8132
 20
5.13321
 30
0.000000
  70
    32
  0
VERTEX
  8
AM_VIS
  5
230
 10
13.8120
 20
5.13318
 30
0.000000
  70
    32
  0
VERTEX
  8
AM_VIS
  5
231
 10
13.8107
 20
5.13316
 30
0.000000
  70
    32
  0
VERTEX
  8
AM_VIS
  5
232
 10
13.8095
 20
5.13313
 30
0.000000
  70
    32
  0
VERTEX
  8
AM_VIS
  5
233
 10
13.8082
 20
5.13310
 30
0.000000
  70
    32
  0
VERTEX
  8
AM_VIS
  5
234
 10
13.8070
 20
5.13307
 30
0.000000
  70
    32
  0
VERTEX
  8
AM_VIS
  5
235
 10
13.8058
 20
5.13304
 30
0.000000
  70
    32
  0
VERTEX
  8
AM_VIS
  5
236
 10
13.8045
 20
5.13301
 30
0.000000
  70
    32
  0
VERTEX
  8
AM_VIS
  5
237
 10
13.8033
 20
5.13297
 30
0.000000
  70
    32
  0
VERTEX
  8
AM_VIS
  5
238
 10
13.8021
 20
5.13294
 30
0.000000
  70
    32
  0
VERTEX
  8
AM_VIS
  5
239
 10
13.8008
 20
5.13290
 30
0.000000
  70
    32
  0
VERTEX
  8
AM_VIS
  5
23A
 10
13.7996
 20
5.13286
 30
0.000000
  70
    32
  0
VERTEX
  8
AM_VIS
  5
23B
 10
13.7984
 20
5.13282
 30
0.000000
  70
    32
  0
VERTEX
  8
AM_VIS
  5
23C
 10
13.7971
 20
5.13277
 30
0.000000
  70
    32
  0
VERTEX
  8
AM_VIS
  5
23D
 10
13.7959
 20
5.13273
 30
0.000000
  70
    32
  0
VERTEX
  8
AM_VIS
  5
23E
 10
13.7947
 20
5.13268
 30
0.000000
  70
    32
  0
VERTEX
  8
AM_VIS
  5
23F
 10
13.7935
 20
5.13263
 30
0.000000
  70
    32
  0
VERTEX
  8
AM_VIS
  5
240
 10
13.7923
 20
5.13258
 30
0.000000
  70
    32
  0
VERTEX
  8
AM_VIS
  5
241
 10
13.7910
 20
5.13253
 30
0.000000
  70
    32
  0
VERTEX
  8
AM_VIS
  5
242
 10
13.7898
 20
5.13248
 30
0.000000
  70
    32
  0
VERTEX
  8
AM_VIS
  5
243
 10
13.7886
 20
5.13243
 30
0.000000
  70
    32
  0
VERTEX
  8
AM_VIS
  5
244
 10
13.7874
 20
5.13237
 30
0.000000
  70
    32
  0
VERTEX
  8
AM_VIS
  5
245
 10
13.7862
 20
5.13231
 30
0.000000
  70
    32
  0
VERTEX
  8
AM_VIS
  5
246
 10
13.7850
 20
5.13226
 30
0.000000
  70
    32
  0
VERTEX
  8
AM_VIS
  5
247
 10
13.7838
 20
5.13220
 30
0.000000
  70
    32
  0
VERTEX
  8
AM_VIS
  5
248
 10
13.7826
 20
5.13214
 30
0.000000
  70
    32
  0
VERTEX
  8
AM_VIS
  5
249
 10
13.7813
 20
5.13207
 30
0.000000
  70
    32
  0
VERTEX
  8
AM_VIS
  5
24A
 10
13.7801
 20
5.13201
 30
0.000000
  70
    32
  0
VERTEX
  8
AM_VIS
  5
24B
 10
13.7789
 20
5.13194
 30
0.000000
  70
    32
  0
VERTEX
  8
AM_VIS
  5
24C
 10
13.7777
 20
5.13188
 30
0.000000
  70
    32
  0
VERTEX
  8
AM_VIS
  5
24D
 10
13.7765
 20
5.13181
 30
0.000000
  70
    32
  0
VERTEX
  8
AM_VIS
  5
24E
 10
13.7753
 20
5.13174
 30
0.000000
  70
    32
  0
VERTEX
  8
AM_VIS
  5
24F
 10
13.7741
 20
5.13167
 30
0.000000
  70
    32
  0
VERTEX
  8
AM_VIS
  5
250
 10
13.7729
 20
5.13159
 30
0.000000
  70
    32
  0
VERTEX
  8
AM_VIS
  5
251
 10
13.7717
 20
5.13152
 30
0.000000
  70
    32
  0
VERTEX
  8
AM_VIS
  5
252
 10
13.7706
 20
5.13145
 30
0.000000
  70
    32
  0
VERTEX
  8
AM_VIS
  5
253
 10
13.7694
 20
5.13137
 30
0.000000
  70
    32
  0
VERTEX
  8
AM_VIS
  5
254
 10
13.7682
 20
5.13129
 30
0.000000
  70
    32
  0
VERTEX
  8
AM_VIS
  5
255
 10
13.7670
 20
5.13121
 30
0.000000
  70
    32
  0
VERTEX
  8
AM_VIS
  5
256
 10
13.7658
 20
5.13113
 30
0.000000
  70
    32
  0
VERTEX
  8
AM_VIS
  5
257
 10
13.7646
 20
5.13105
 30
0.000000
  70
    32
  0
VERTEX
  8
AM_VIS
  5
258
 10
13.7634
 20
5.13097
 30
0.000000
  70
    32
  0
VERTEX
  8
AM_VIS
  5
259
 10
13.7622
 20
5.13088
 30
0.000000
  70
    32
  0
VERTEX
  8
AM_VIS
  5
25A
 10
13.7610
 20
5.13080
 30
0.000000
  70
    32
  0
VERTEX
  8
AM_VIS
  5
25B
 10
13.7599
 20
5.13071
 30
0.000000
  70
    32
  0
VERTEX
  8
AM_VIS
  5
25C
 10
13.7587
 20
5.13062
 30
0.000000
  70
    32
  0
VERTEX
  8
AM_VIS
  5
25D
 10
13.7575
 20
5.13053
 30
0.000000
  70
    32
  0
VERTEX
  8
AM_VIS
  5
25E
 10
13.7563
 20
5.13044
 30
0.000000
  70
    32
  0
VERTEX
  8
AM_VIS
  5
25F
 10
13.7551
 20
5.13035
 30
0.000000
  70
    32
  0
VERTEX
  8
AM_VIS
  5
260
 10
13.7540
 20
5.13025
 30
0.000000
  70
    32
  0
VERTEX
  8
AM_VIS
  5
261
 10
13.7528
 20
5.13016
 30
0.000000
  70
    32
  0
VERTEX
  8
AM_VIS
  5
262
 10
13.7516
 20
5.13006
 30
0.000000
  70
    32
  0
VERTEX
  8
AM_VIS
  5
263
 10
13.7504
 20
5.12997
 30
0.000000
  70
    32
  0
VERTEX
  8
AM_VIS
  5
264
 10
13.7493
 20
5.12987
 30
0.000000
  70
    32
  0
VERTEX
  8
AM_VIS
  5
265
 10
13.7481
 20
5.12977
 30
0.000000
  70
    32
  0
VERTEX
  8
AM_VIS
  5
266
 10
13.7469
 20
5.12967
 30
0.000000
  70
    32
  0
VERTEX
  8
AM_VIS
  5
267
 10
13.7457
 20
5.12957
 30
0.000000
  70
    32
  0
VERTEX
  8
AM_VIS
  5
268
 10
13.7446
 20
5.12946
 30
0.000000
  70
    32
  0
VERTEX
  8
AM_VIS
  5
269
 10
13.7434
 20
5.12936
 30
0.000000
  70
    32
  0
VERTEX
  8
AM_VIS
  5
26A
 10
13.7422
 20
5.12926
 30
0.000000
  70
    32
  0
VERTEX
  8
AM_VIS
  5
26B
 10
13.7411
 20
5.12915
 30
0.000000
  70
    32
  0
VERTEX
  8
AM_VIS
  5
26C
 10
13.7399
 20
5.12904
 30
0.000000
  70
    32
  0
VERTEX
  8
AM_VIS
  5
26D
 10
13.7387
 20
5.12893
 30
0.000000
  70
    32
  0
VERTEX
  8
AM_VIS
  5
26E
 10
13.7376
 20
5.12882
 30
0.000000
  70
    32
  0
VERTEX
  8
AM_VIS
  5
26F
 10
13.7364
 20
5.12871
 30
0.000000
  70
    32
  0
VERTEX
  8
AM_VIS
  5
270
 10
13.7352
 20
5.12860
 30
0.000000
  70
    32
  0
VERTEX
  8
AM_VIS
  5
271
 10
13.7341
 20
5.12849
 30
0.000000
  70
    32
  0
VERTEX
  8
AM_VIS
  5
272
 10
13.7329
 20
5.12838
 30
0.000000
  70
    32
  0
VERTEX
  8
AM_VIS
  5
273
 10
13.7317
 20
5.12826
 30
0.000000
  70
    32
  0
VERTEX
  8
AM_VIS
  5
274
 10
13.7306
 20
5.12815
 30
0.000000
  70
    32
  0
VERTEX
  8
AM_VIS
  5
275
 10
13.7294
 20
5.12803
 30
0.000000
  70
    32
  0
VERTEX
  8
AM_VIS
  5
276
 10
13.7283
 20
5.12791
 30
0.000000
  70
    32
  0
VERTEX
  8
AM_VIS
  5
277
 10
13.7271
 20
5.12779
 30
0.000000
  70
    32
  0
VERTEX
  8
AM_VIS
  5
278
 10
13.7259
 20
5.12767
 30
0.000000
  70
    32
  0
VERTEX
  8
AM_VIS
  5
279
 10
13.7248
 20
5.12755
 30
0.000000
  70
    32
  0
VERTEX
  8
AM_VIS
  5
27A
 10
13.7236
 20
5.12743
 30
0.000000
  70
    32
  0
VERTEX
  8
AM_VIS
  5
27B
 10
13.7225
 20
5.12731
 30
0.000000
  70
    32
  0
VERTEX
  8
AM_VIS
  5
27C
 10
13.7213
 20
5.12718
 30
0.000000
  70
    32
  0
VERTEX
  8
AM_VIS
  5
27D
 10
13.7201
 20
5.12706
 30
0.000000
  70
    32
  0
VERTEX
  8
AM_VIS
  5
27E
 10
13.7190
 20
5.12693
 30
0.000000
  70
    32
  0
VERTEX
  8
AM_VIS
  5
27F
 10
13.7178
 20
5.12681
 30
0.000000
  70
    32
  0
VERTEX
  8
AM_VIS
  5
280
 10
13.7167
 20
5.12668
 30
0.000000
  70
    32
  0
VERTEX
  8
AM_VIS
  5
281
 10
13.7155
 20
5.12655
 30
0.000000
  70
    32
  0
VERTEX
  8
AM_VIS
  5
282
 10
13.7144
 20
5.12642
 30
0.000000
  70
    32
  0
VERTEX
  8
AM_VIS
  5
283
 10
13.7132
 20
5.12629
 30
0.000000
  70
    32
  0
VERTEX
  8
AM_VIS
  5
284
 10
13.7121
 20
5.12616
 30
0.000000
  70
    32
  0
VERTEX
  8
AM_VIS
  5
285
 10
13.7109
 20
5.12603
 30
0.000000
  70
    32
  0
VERTEX
  8
AM_VIS
  5
286
 10
13.7098
 20
5.12590
 30
0.000000
  70
    32
  0
VERTEX
  8
AM_VIS
  5
287
 10
13.7086
 20
5.12576
 30
0.000000
  70
    32
  0
VERTEX
  8
AM_VIS
  5
288
 10
13.7074
 20
5.12563
 30
0.000000
  70
    32
  0
VERTEX
  8
AM_VIS
  5
289
 10
13.7063
 20
5.12549
 30
0.000000
  70
    32
  0
VERTEX
  8
AM_VIS
  5
28A
 10
13.7051
 20
5.12536
 30
0.000000
  70
    32
  0
VERTEX
  8
AM_VIS
  5
28B
 10
13.7040
 20
5.12522
 30
0.000000
  70
    32
  0
VERTEX
  8
AM_VIS
  5
28C
 10
13.7028
 20
5.12508
 30
0.000000
  70
    32
  0
VERTEX
  8
AM_VIS
  5
28D
 10
13.7017
 20
5.12495
 30
0.000000
  70
    32
  0
VERTEX
  8
AM_VIS
  5
28E
 10
13.7005
 20
5.12481
 30
0.000000
  70
    32
  0
VERTEX
  8
AM_VIS
  5
28F
 10
13.6994
 20
5.12467
 30
0.000000
  70
    32
  0
VERTEX
  8
AM_VIS
  5
290
 10
13.6982
 20
5.12453
 30
0.000000
  70
    32
  0
VERTEX
  8
AM_VIS
  5
291
 10
13.6971
 20
5.12438
 30
0.000000
  70
    32
  0
VERTEX
  8
AM_VIS
  5
292
 10
13.6959
 20
5.12424
 30
0.000000
  70
    32
  0
VERTEX
  8
AM_VIS
  5
293
 10
13.6948
 20
5.12410
 30
0.000000
  70
    32
  0
VERTEX
  8
AM_VIS
  5
294
 10
13.6936
 20
5.12396
 30
0.000000
  70
    32
  0
VERTEX
  8
AM_VIS
  5
295
 10
13.6925
 20
5.12381
 30
0.000000
  70
    32
  0
VERTEX
  8
AM_VIS
  5
296
 10
13.6913
 20
5.12367
 30
0.000000
  70
    32
  0
VERTEX
  8
AM_VIS
  5
297
 10
13.6902
 20
5.12352
 30
0.000000
  70
    32
  0
VERTEX
  8
AM_VIS
  5
298
 10
13.6890
 20
5.12337
 30
0.000000
  70
    32
  0
VERTEX
  8
AM_VIS
  5
299
 10
13.6879
 20
5.12323
 30
0.000000
  70
    32
  0
VERTEX
  8
AM_VIS
  5
29A
 10
13.6867
 20
5.12308
 30
0.000000
  70
    32
  0
VERTEX
  8
AM_VIS
  5
29B
 10
13.6856
 20
5.12293
 30
0.000000
  70
    32
  0
VERTEX
  8
AM_VIS
  5
29C
 10
13.6844
 20
5.12278
 30
0.000000
  70
    32
  0
VERTEX
  8
AM_VIS
  5
29D
 10
13.6833
 20
5.12263
 30
0.000000
  70
    32
  0
VERTEX
  8
AM_VIS
  5
29E
 10
13.6821
 20
5.12248
 30
0.000000
  70
    32
  0
VERTEX
  8
AM_VIS
  5
29F
 10
13.6810
 20
5.12233
 30
0.000000
  70
    32
  0
VERTEX
  8
AM_VIS
  5
2A0
 10
13.6798
 20
5.12218
 30
0.000000
  70
    32
  0
VERTEX
  8
AM_VIS
  5
2A1
 10
13.6787
 20
5.12203
 30
0.000000
  70
    32
  0
SEQEND
  8
AM_VIS
  5
2A2
  0
ARC
  5
33
  8
AM_VIS
 10
14.48586458259779
 20
5.2186385290906054
 30
0.0
 40
0.2499999999999978
 50
179.9999999999998
 51
242.04681311661921
  0
LINE
  5
34
  8
AM_VIS
 10
13.82961458259682
 20
5.3194753018942791
 30
0.0
 11
14.08567422235858
 21
5.3194753018942791
 31
0.0
  0
LINE
  5
35
  8
AM_VIS
 10
13.573554942836999
 20
5.3194753018942791
 30
0.0
 11
13.82961458259876
 21
5.3194753018942791
 31
0.0
  0
ARC
  5
36
  8
AM_VIS
 10
13.17336458259779
 20
5.2186385290906054
 30
0.0
 40
0.2499999999999979
 50
297.95318688338079
 51
0.0
  0
LINE
  5
37
  8
AM_VIS
 10
14.08567422235858
 20
5.3194753018941308
 30
0.0
 11
14.23586458259779
 21
5.3194753018941308
 31
0.0
  0
LINE
  5
38
  8
AM_VIS
 10
13.42336458259779
 20
5.3194753018941308
 30
0.0
 11
13.573554942836999
 21
5.3194753018941308
 31
0.0
  0
CIRCLE
  5
39
  8
AM_VIS
 10
13.82961458259779
 20
3.9819753018941308
 30
0.0
 40
1.149999999999999
  0
CIRCLE
  5
3A
  8
AM_VIS
 10
13.82961458259779
 20
3.9819753018941308
 30
0.0
 40
1.0
  0
LINE
  5
3B
  8
AM_VIS
 10
12.85461458259779
 20
4.2041801623270132
 30
0.0
 11
12.85461458259779
 21
3.7597704414612472
 31
0.0
  0
LINE
  5
3C
  8
AM_VIS
 10
12.85461458259779
 20
4.9819753018941313
 30
0.0
 11
12.85461458259779
 21
4.591790847776652
 31
0.0
  0
LINE
  5
3D
  8
AM_VIS
 10
12.85461458259779
 20
3.3721597560116092
 30
0.0
 11
12.85461458259779
 21
2.98197530189413
 31
0.0
  0
LINE
  5
3E
  8
AM_VIS
 10
10.55461458259779
 20
4.9819753018941313
 30
0.0
 11
10.55461458259779
 21
2.9819753018941308
 31
0.0
  0
LINE
  5
3F
  8
AM_HID
 10
12.70461458259779
 20
4.9819753018941313
 30
0.0
 11
12.70461458259779
 21
4.2204601022483601
 31
0.0
  0
LINE
  5
42
  8
AM_HID
 10
12.70461458259779
 20
3.743490501539902
 30
0.0
 11
12.70461458259779
 21
2.98197530189413
 31
0.0
  0
LINE
  5
43
  8
AM_HID
 10
10.70461458259779
 20
4.9819753018941313
 30
0.0
 11
10.70461458259779
 21
2.9819753018941308
 31
0.0
  0
LINE
  5
44
  8
AM_VIS
 10
14.23586458259779
 20
5.3194753018941308
 30
0.0
 11
14.23586458259779
 21
5.2186385290906063
 31
0.0
  0
LINE
  5
45
  8
AM_VIS
 10
13.42336458259779
 20
5.2186385290906054
 30
0.0
 11
13.42336458259779
 21
5.3194753018941308
 31
0.0
  0
LINE
  5
46
  8
AM_HID
 10
14.14211458259779
 20
5.3194753018941308
 30
0.0
 11
14.14211458259779
 21
4.931893061492298
 31
0.0
  0
LINE
  5
47
  8
AM_HID
 10
13.51711458259779
 20
5.3194753018941308
 30
0.0
 11
13.51711458259779
 21
4.931893061492298
 31
0.0
  0
LINE
  5
14A
  8
0
 10
11.70461458259779
 20
5.0444753018941313
 30
0.0
 11
11.70461458259779
 21
6.061288718390939
 31
0.0
  0
LINE
  5
14B
  8
0
 10
13.82961458259779
 20
4.0444753018941313
 30
0.0
 11
13.82961458259779
 21
6.0612887183909399
 31
0.0
  0
LINE
  5
14C
  8
0
 10
11.82961458259779
 20
5.8812887183909401
 30
0.0
 11
12.39586458259779
 21
5.8812887183909401
 31
0.0
  0
LINE
  5
14D
  8
0
 10
13.70461458259779
 20
5.8812887183909401
 30
0.0
 11
13.13836458259779
 21
5.8812887183909401
 31
0.0
  0
SOLID
  5
14E
  8
0
 10
11.82961458259779
 20
5.9021220517242732
 30
0.0
 11
11.82961458259779
 21
5.8604553850576071
 31
0.0
 12
11.70461458259779
 22
5.8812887183909401
 32
0.0
 13
11.70461458259779
 23
5.8812887183909401
 33
0.0
  0
SOLID
  5
14F
  8
0
 10
13.70461458259779
 20
5.9021220517242732
 30
0.0
 11
13.70461458259779
 21
5.8604553850576071
 31
0.0
 12
13.82961458259779
 22
5.8812887183909401
 32
0.0
 13
13.82961458259779
 23
5.8812887183909401
 33
0.0
  0
INSERT
  5
150
  8
0
  2
*U4
 10
0.0
 20
0.0
 30
0.0
  0
INSERT
  5
167
  8
0
  2
*U8
 10
0.0
 20
0.0
 30
0.0
  0
INSERT
  5
168
  8
0
  2
*U9
 10
0.0
 20
0.0
 30
0.0
  0
ENDSEC
  0
EOF
