  0
SECTION
  2
HEADER
  9
$ACADVER
  1
AC1009
  9
$INSBASE
 10
0.0
 20
0.0
 30
0.0
  9
$EXTMIN
 10
12.16914944769688
 20
1.7795327252200659
 30
0.0
  9
$EXTMAX
 10
16.803480323090209
 20
7.1195327252200657
 30
0.0
  9
$LIMMIN
 10
0.0
 20
0.0
  9
$LIMMAX
 10
12.0
 20
9.0
  9
$ORTHOMODE
 70
     1
  9
$REGENMODE
 70
     0
  9
$FILLMODE
 70
     1
  9
$QTEXTMODE
 70
     0
  9
$MIRRTEXT
 70
     0
  9
$DRAGMODE
 70
     2
  9
$LTSCALE
 40
1.0
  9
$OSMODE
 70
    55
  9
$ATTMODE
 70
     1
  9
$TEXTSIZE
 40
0.2
  9
$TRACEWID
 40
0.05
  9
$TEXTSTYLE
  7
STANDARD
  9
$CLAYER
  8
0
  9
$CELTYPE
  6
BYLAYER
  9
$CECOLOR
 62
   256
  9
$DIMSCALE
 40
1.0
  9
$DIMASZ
 40
0.125
  9
$DIMEXO
 40
0.0625
  9
$DIMDLI
 40
0.38
  9
$DIMRND
 40
0.0
  9
$DIMDLE
 40
0.0
  9
$DIMEXE
 40
0.18
  9
$DIMTP
 40
0.0
  9
$DIMTM
 40
0.0
  9
$DIMTXT
 40
0.09375
  9
$DIMCEN
 40
-0.125
  9
$DIMTSZ
 40
0.0
  9
$DIMTOL
 70
     0
  9
$DIMLIM
 70
     0
  9
$DIMTIH
 70
     0
  9
$DIMTOH
 70
     0
  9
$DIMSE1
 70
     0
  9
$DIMSE2
 70
     0
  9
$DIMTAD
 70
     0
  9
$DIMZIN
 70
     3
  9
$DIMBLK
  1

  9
$DIMASO
 70
     0
  9
$DIMSHO
 70
     1
  9
$DIMPOST
  1

  9
$DIMAPOST
  1

  9
$DIMALT
 70
     0
  9
$DIMALTD
 70
     2
  9
$DIMALTF
 40
25.399999999999999
  9
$DIMLFAC
 40
1.0
  9
$DIMTOFL
 70
     1
  9
$DIMTVP
 40
0.0
  9
$DIMTIX
 70
     0
  9
$DIMSOXD
 70
     0
  9
$DIMSAH
 70
     0
  9
$DIMBLK1
  1

  9
$DIMBLK2
  1

  9
$DIMSTYLE
  2
STANDARD
  9
$DIMCLRD
 70
     0
  9
$DIMCLRE
 70
     0
  9
$DIMCLRT
 70
     0
  9
$DIMTFAC
 40
1.0
  9
$DIMGAP
 40
0.09
  9
$LUNITS
 70
     4
  9
$LUPREC
 70
     4
  9
$SKETCHINC
 40
0.1
  9
$FILLETRAD
 40
0.025
  9
$AUNITS
 70
     0
  9
$AUPREC
 70
     4
  9
$MENU
  1
.
  9
$ELEVATION
 40
0.0
  9
$PELEVATION
 40
0.0
  9
$THICKNESS
 40
0.0
  9
$LIMCHECK
 70
     0
  9
$BLIPMODE
 70
     0
  9
$CHAMFERA
 40
0.125
  9
$CHAMFERB
 40
0.5
  9
$SKPOLY
 70
     0
  9
$TDCREATE
 40
2451086.9109346061
  9
$TDUPDATE
 40
2453913.5806528358
  9
$TDINDWG
 40
0.0628253241
  9
$TDUSRTIMER
 40
0.0628253241
  9
$USRTIMER
 70
     1
  9
$ANGBASE
 50
0.0
  9
$ANGDIR
 70
     0
  9
$PDMODE
 70
    34
  9
$PDSIZE
 40
3.0
  9
$PLINEWID
 40
0.0
  9
$COORDS
 70
     1
  9
$SPLFRAME
 70
     0
  9
$SPLINETYPE
 70
     6
  9
$SPLINESEGS
 70
     8
  9
$ATTDIA
 70
     0
  9
$ATTREQ
 70
     1
  9
$HANDLING
 70
     1
  9
$HANDSEED
  5
1AD
  9
$SURFTAB1
 70
     6
  9
$SURFTAB2
 70
     6
  9
$SURFTYPE
 70
     6
  9
$SURFU
 70
     6
  9
$SURFV
 70
     6
  9
$UCSNAME
  2

  9
$UCSORG
 10
0.0
 20
0.0
 30
0.0
  9
$UCSXDIR
 10
1.0
 20
0.0
 30
0.0
  9
$UCSYDIR
 10
0.0
 20
1.0
 30
0.0
  9
$PUCSNAME
  2

  9
$PUCSORG
 10
0.0
 20
0.0
 30
0.0
  9
$PUCSXDIR
 10
1.0
 20
0.0
 30
0.0
  9
$PUCSYDIR
 10
0.0
 20
1.0
 30
0.0
  9
$USERI1
 70
     0
  9
$USERI2
 70
     0
  9
$USERI3
 70
     0
  9
$USERI4
 70
     0
  9
$USERI5
 70
     0
  9
$USERR1
 40
0.0
  9
$USERR2
 40
0.0
  9
$USERR3
 40
0.0
  9
$USERR4
 40
0.0
  9
$USERR5
 40
0.0
  9
$WORLDVIEW
 70
     1
  9
$SHADEDGE
 70
     3
  9
$SHADEDIF
 70
    70
  9
$TILEMODE
 70
     1
  9
$MAXACTVP
 70
    48
  9
$PLIMCHECK
 70
     0
  9
$PEXTMIN
 10
12.5912975027217
 20
1.286510677112833
 30
0.0
  9
$PEXTMAX
 10
17.219319550828939
 20
7.6125547733273002
 30
0.0
  9
$PLIMMIN
 10
-0.1579164520023376
 20
-0.2812499887361301
  9
$PLIMMAX
 10
10.84208330770177
 20
8.2187497709679782
  9
$UNITMODE
 70
     0
  9
$VISRETAIN
 70
     1
  9
$PLINEGEN
 70
     0
  9
$PSLTSCALE
 70
     1
  0
ENDSEC
  0
SECTION
  2
TABLES
  0
TABLE
  2
VPORT
 70
     2
  0
VPORT
  2
*ACTIVE
 70
     0
 10
0.0
 20
0.0
 11
1.0
 21
1.0
 12
-1.84499426962431
 22
0.0
 13
0.0
 23
0.0
 14
0.5
 24
0.5
 15
0.5
 25
0.5
 16
0.0
 26
0.0
 36
1.0
 17
17.723480323090211
 27
4.4495327252200658
 37
0.0
 40
5.339999999999999
 41
2.2104247104247099
 42
50.0
 43
0.0
 44
0.0
 50
0.0
 51
0.0
 71
     0
 72
   100
 73
     1
 74
     1
 75
     0
 76
     0
 77
     0
 78
     0
  0
ENDTAB
  0
TABLE
  2
LTYPE
 70
    18
  0
LTYPE
  2
CONTINUOUS
 70
     0
  3
Solid line
 72
    65
 73
     0
 40
0.0
  0
LTYPE
  2
HIDDEN
 70
     0
  3
__ __ __ __ __ __ __ __ __ __ __ __ __ __ __ __
 72
    65
 73
     2
 40
0.375
 49
0.25
 49
-0.125
  0
LTYPE
  2
PHANTOM2
 70
     0
  3
Phantom (.5x) ___ _ _ ___ _ _ ___ _ _ ___ _ _
 72
    65
 73
     6
 40
1.25
 49
0.625
 49
-0.125
 49
0.125
 49
-0.125
 49
0.125
 49
-0.125
  0
LTYPE
  2
CENTER
 70
     0
  3
Center ____ _ ____ _ ____ _ ____ _ ____ _ ____
 72
    65
 73
     4
 40
2.0
 49
1.25
 49
-0.25
 49
0.25
 49
-0.25
  0
LTYPE
  2
ASULTYPE
 70
     0
  3
Solid line
 72
    65
 73
     2
 40
3.0
 49
2.5
 49
0.5
  0
LTYPE
  2
ASVLTYPE
 70
     0
  3
__ __ __ __ __ __ __ __ __ __ __ __ __ __ __ __ __ __ __ __ __
 72
    65
 73
     2
 40
0.75
 49
0.5
 49
-0.25
  0
LTYPE
  2
AM_ISO02W050
 70
     0
  3
__ __ __ __ __ __ __ __ __ __ __ __ __ __ __
 72
    65
 73
     2
 40
7.5
 49
6.0
 49
-1.5
  0
LTYPE
  2
AM_ISO08W050
 70
     0
  3
____ . ____ . ____ . ____ . ____ . ____ . ____
 72
    65
 73
     4
 40
18.0
 49
12.0
 49
-1.5
 49
3.0
 49
-1.5
  0
LTYPE
  2
AM_ISO09W050
 70
     0
  3
_____ . . _____ . . _____ . . ____ .. ____
 72
    65
 73
     6
 40
22.5
 49
12.0
 49
-1.5
 49
3.0
 49
-1.5
 49
3.0
 49
-1.5
  0
LTYPE
  2
AMCONSTR
 70
     0
  3
_______________________
 72
    65
 73
     2
 40
9999.0
 49
9999.0
 49
0.0
  0
LTYPE
  2
AM_ISO08W050X2
 70
     0
  3
__ . __ . __ . __ . __ . __
 72
    65
 73
     4
 40
9.0
 49
6.0
 49
-0.75
 49
1.5
 49
-0.75
  0
LTYPE
  2
AM_ISO02W050X2
 70
     0
  3
 _ _ _ _ _ _ _ _ _ _ _ _
 72
    65
 73
     2
 40
3.75
 49
3.0
 49
-0.75
  0
LTYPE
  2
AMZIGZAG
 70
     0
  3
/\/-/\/-/\/-/\/-/\/-/\/
 72
    65
 73
     2
 40
11.0001
 49
0.0001
 49
-11.0
  0
LTYPE
  2
CENTER2
 70
     0
  3
Center (.5x) ___ _ ___ _ ___ _ ___ _ ___ _ ___
 72
    65
 73
     4
 40
1.125
 49
0.75
 49
-0.125
 49
0.125
 49
-0.125
  0
LTYPE
  2
HIDDEN2
 70
     0
  3
Hidden (.5x) _ _ _ _ _ _ _ _ _ _ _ _ _ _ _ _ _
 72
    65
 73
     2
 40
0.1875
 49
0.125
 49
-0.0625
  0
LTYPE
  2
AMZIGZAG2
 70
     0
  3
/\/-/\/-/\/-/\/-/\/-/\/
 72
    65
 73
     2
 40
0.4401
 49
0.0001
 49
-0.4400000000000001
  0
LTYPE
  2
ACANSTGB
 70
     0
  3
__ . . __ . .
 72
    65
 73
     6
 40
0.35433070866
 49
0.15748031496
 49
-0.03937007874
 49
0.03937007874
 49
-0.03937007874
 49
0.03937007874
 49
-0.03937007874
  0
LTYPE
  2
ACANSTGL
 70
     0
  3
_ _ _ _ _
 72
    65
 73
     2
 40
0.11811023622
 49
0.07874015748
 49
-0.03937007874
  0
ENDTAB
  0
TABLE
  2
LAYER
 70
     4
  0
LAYER
  2
0
 70
     0
 62
     7
  6
CONTINUOUS
  0
LAYER
  2
AM_VIS
 70
     0
 62
     7
  6
CONTINUOUS
  0
LAYER
  2
AM_HID
 70
     0
 62
     7
  6
HIDDEN
  0
LAYER
  2
KEE10
 70
     0
 62
     7
  6
CONTINUOUS
  0
ENDTAB
  0
TABLE
  2
STYLE
 70
     5
  0
STYLE
  2
STANDARD
 70
     0
 40
0.0
 41
1.0
 50
0.0
 71
     0
 42
0.2
  3
txt
  4

  0
STYLE
  2

 70
     1
 40
0.0
 41
1.0
 50
0.0
 71
     0
 42
0.2
  3
ltypeshp.shx
  4

  0
STYLE
  2
ACANSTS
 70
     0
 40
1.0
 41
1.0
 50
0.0
 71
     0
 42
0.2
  3
romans.shx
  4

  0
STYLE
  2
ACANSGDT
 70
     0
 40
0.0
 41
1.0
 50
0.0
 71
     0
 42
0.2
  3
amgdtans.shx
  4

  0
STYLE
  2
ACANSTSB
 70
     0
 40
1.0
 41
1.0
 50
0.0
 71
     0
 42
0.2
  3
romans.shx
  4

  0
ENDTAB
  0
TABLE
  2
VIEW
 70
     0
  0
ENDTAB
  0
TABLE
  2
UCS
 70
     0
  0
ENDTAB
  0
TABLE
  2
APPID
 70
    13
  0
APPID
  2
ACAD
 70
     0
  0
APPID
  2
GENIUS_GENDIM_13
 70
     0
  0
APPID
  2
GENIUS_GENDTOL_13
 70
     0
  0
APPID
  2
GENIUS_GE3DTOL_13
 70
     0
  0
APPID
  2
MCAD_NO_VIS
 70
     0
  0
APPID
  2
ACAD_TEMP_GRAPHIC
 70
     0
  0
APPID
  2
AD_DRAW
 70
     0
  0
APPID
  2
ACATTRIBSERVICES
 70
     0
  0
APPID
  2
ASURF_PCURVE_APPNAME
 70
     0
  0
APPID
  2
AMG_3D2D_5_0
 70
     0
  0
APPID
  2
DESIGNERASSEMBLIES
 70
     0
  0
APPID
  2
ACADM_DIM_EDIT
 70
     0
  0
APPID
  2
AMDT_DM_ADJ
 70
     0
  0
ENDTAB
  0
TABLE
  2
DIMSTYLE
 70
     7
  0
DIMSTYLE
  2
STANDARD
 70
     0
  3

  4

  5

  6

  7

 40
1.0
 41
0.18
 42
0.0625
 43
0.38
 44
0.18
 45
0.0
 46
0.0
 47
0.0
 48
0.0
140
0.18
141
0.09
142
0.0
143
25.399999999999999
144
1.0
145
0.0
146
1.0
147
0.09
 71
     0
 72
     0
 73
     1
 74
     1
 75
     0
 76
     0
 77
     0
 78
     0
170
     0
171
     2
172
     0
173
     0
174
     0
175
     0
176
     0
177
     0
178
     0
  0
DIMSTYLE
  2
AM_ANSI
 70
     0
  3

  4
mm
  5

  6

  7

 40
1.0
 41
0.1
 42
0.05
 43
0.5
 44
0.1
 45
0.0
 46
0.0
 47
0.1
 48
0.1
140
0.12
141
0.0
142
0.0
143
25.399999999999999
144
1.0
145
0.0
146
0.71
147
0.06
 71
     0
 72
     0
 73
     1
 74
     1
 75
     0
 76
     0
 77
     0
 78
     7
170
     0
171
     2
172
     0
173
     0
174
     0
175
     0
176
   256
177
   256
178
     2
  0
DIMSTYLE
  2
AM_ANSI$3
 70
     0
  3

  4
mm
  5

  6

  7

 40
1.0
 41
0.1
 42
0.05
 43
0.5
 44
0.1
 45
0.0
 46
0.0
 47
0.1
 48
0.1
140
0.12
141
0.0
142
0.0
143
25.399999999999999
144
1.0
145
0.0
146
0.71
147
0.06
 71
     0
 72
     0
 73
     1
 74
     1
 75
     0
 76
     0
 77
     0
 78
     7
170
     0
171
     2
172
     0
173
     0
174
     0
175
     0
176
   256
177
   256
178
     2
  0
DIMSTYLE
  2
AM_ANSI$4
 70
     0
  3

  4
mm
  5

  6

  7

 40
1.0
 41
0.1
 42
0.05
 43
0.5
 44
0.1
 45
0.0
 46
0.0
 47
0.1
 48
0.1
140
0.12
141
0.0
142
0.0
143
25.399999999999999
144
1.0
145
0.0
146
0.71
147
0.06
 71
     0
 72
     0
 73
     1
 74
     1
 75
     0
 76
     0
 77
     0
 78
     7
170
     0
171
     2
172
     0
173
     0
174
     0
175
     0
176
   256
177
   256
178
     2
  0
DIMSTYLE
  2
AM_ANSI$7
 70
     0
  3

  4
mm
  5

  6

  7

 40
1.0
 41
0.1
 42
0.05
 43
0.5
 44
0.1
 45
0.0
 46
0.0
 47
0.1
 48
0.1
140
0.24
141
0.0
142
0.0
143
25.399999999999999
144
1.0
145
0.0
146
0.71
147
0.06
 71
     0
 72
     0
 73
     1
 74
     1
 75
     0
 76
     0
 77
     0
 78
     7
170
     0
171
     2
172
     0
173
     0
174
     0
175
     0
176
   256
177
   256
178
     2
  0
DIMSTYLE
  2
AM_ANSI$SF
 70
     0
  3

  4
mm
  5

  6

  7

 40
1.0
 41
0.1
 42
0.05
 43
0.5
 44
0.1
 45
0.0
 46
0.0
 47
0.1
 48
0.1
140
0.12
141
0.0
142
0.0
143
25.399999999999999
144
1.0
145
0.0
146
0.71
147
0.06
 71
     0
 72
     0
 73
     1
 74
     1
 75
     1
 76
     1
 77
     0
 78
     7
170
     0
171
     2
172
     0
173
     0
174
     0
175
     0
176
   256
177
   256
178
     2
  0
DIMSTYLE
  2
AM_ANSI$SH
 70
     0
  3

  4
mm
  5

  6
GENAXEH
  7

 40
1.0
 41
0.1
 42
0.05
 43
0.5
 44
0.1
 45
0.0
 46
0.0
 47
0.1
 48
0.1
140
0.12
141
0.0
142
0.0
143
25.399999999999999
144
1.0
145
0.0
146
0.71
147
0.06
 71
     0
 72
     0
 73
     1
 74
     1
 75
     1
 76
     1
 77
     0
 78
     7
170
     0
171
     2
172
     0
173
     1
174
     0
175
     0
176
   256
177
   256
178
     2
  0
ENDTAB
  0
ENDSEC
  0
SECTION
  2
BLOCKS
  0
BLOCK
  8
0
  2
$MODEL_SPACE
 70
     0
 10
0.0
 20
0.0
 30
0.0
  3
$MODEL_SPACE
  1

  0
ENDBLK
  5
A
  8
0
  0
BLOCK
 67
     1
  8
0
  2
$PAPER_SPACE
 70
     0
 10
0.0
 20
0.0
 30
0.0
  3
$PAPER_SPACE
  1

  0
ENDBLK
  5
F
 67
     1
  8
0
  0
BLOCK
  8
0
  2
*U0
 70
     1
 10
0.0
 20
0.0
 30
0.0
  3
*U0
  1

  0
ENDBLK
  5
111
  8
0
  0
BLOCK
  8
0
  2
GENAXEH
 70
     0
 10
0.0
 20
0.0
 30
0.0
  3
GENAXEH
  1

  0
LINE
  5
14F
  8
0
 10
-1.0
 20
0.0
 30
0.0
 11
1.0
 21
0.0
 31
0.0
  0
ENDBLK
  5
151
  8
0
  0
BLOCK
  8
0
  2
_DOT
 70
     0
 10
0.0
 20
0.0
 30
0.0
  3
_DOT
  1

  0
POLYLINE
  5
158
  8
0
  6
BYBLOCK
 62
     0
 66
     1
 10
0.0
 20
0.0
 30
0.0
 70
     1
 40
0.5
 41
0.5
  0
VERTEX
  5
159
  8
0
  6
BYBLOCK
 62
     0
 10
-0.25
 20
0.0
 30
0.0
 42
1.0
  0
VERTEX
  5
15A
  8
0
  6
BYBLOCK
 62
     0
 10
0.25
 20
0.0
 30
0.0
 42
1.0
  0
SEQEND
  5
15B
  8
0
  6
BYBLOCK
 62
     0
  0
LINE
  5
15C
  8
0
  6
BYBLOCK
 62
     0
 10
-0.5
 20
0.0
 30
0.0
 11
-1.0
 21
0.0
 31
0.0
  0
ENDBLK
  5
15E
  8
0
  0
BLOCK
  8
0
  2
2D
 70
     0
 10
0.0
 20
0.0
 30
0.0
  3
2D
  1

  0
INSERT
  5
162
  8
0
  2
*U4
 10
0.0
 20
0.0
 30
0.0
  0
INSERT
  5
163
  8
0
  2
*U5
 10
0.0
 20
0.0
 30
0.0
  0
INSERT
  5
164
  8
0
  2
*U6
 10
0.0
 20
0.0
 30
0.0
  0
ENDBLK
  5
166
  8
0
  0
BLOCK
  8
0
  2
*U4
 70
     1
 10
0.0
 20
0.0
 30
0.0
  3
*U4
  1

  0
TEXT
  5
196
  8
KEE10
 10
-0.167740653382606
 20
0.7944046258072062
 30
0.0
 40
0.140625
  1
KEE
  0
ENDBLK
  5
198
  8
0
  0
BLOCK
  8
0
  2
*U5
 70
     1
 10
0.0
 20
0.0
 30
0.0
  3
*U5
  1

  0
TEXT
  5
19A
  8
KEE10
 10
-0.308365653382606
 20
0.4858688129746218
 30
0.0
 40
0.140625
  1
KLAMP
  0
ENDBLK
  5
19C
  8
0
  0
BLOCK
  8
0
  2
*U6
 70
     1
 10
0.0
 20
0.0
 30
0.0
  3
*U6
  1

  0
TEXT
  5
19E
  8
KEE10
 10
-0.202896903382606
 20
0.2018753139112972
 30
0.0
 40
0.140625
  1
10-8
  0
ENDBLK
  5
1A0
  8
0
  0
BLOCK
  8
0
  2
*U7
 70
     1
 10
0.0
 20
0.0
 30
0.0
  3
*U7
  1

  0
TEXT
  5
1A2
  8
KEE10
 10
13.96952259650898
 20
3.7367597787655602
 30
0.0
 40
0.140625
  1
KEE
  0
ENDBLK
  5
1A4
  8
0
  0
BLOCK
  8
0
  2
*U8
 70
     1
 10
0.0
 20
0.0
 30
0.0
  3
*U8
  1

  0
TEXT
  5
1A6
  8
KEE10
 10
13.828897596508989
 20
3.4282239659329758
 30
0.0
 40
0.140625
  1
KLAMP
  0
ENDBLK
  5
1A8
  8
0
  0
BLOCK
  8
0
  2
*U9
 70
     1
 10
0.0
 20
0.0
 30
0.0
  3
*U9
  1

  0
TEXT
  5
1AA
  8
0
 10
12.396024447696879
 20
4.1995327252200676
 30
0.0
 40
0.09375
  1
5-3/8"
 50
90.0
  0
ENDBLK
  5
1AC
  8
0
  0
ENDSEC
  0
SECTION
  2
ENTITIES
  0
LINE
  5
25
  8
AM_VIS
 10
15.28348032309021
 20
7.1195327252200657
 30
0.0
 11
14.28441782949902
 21
7.1195327252200657
 31
0.0
  0
LINE
  5
27
  8
AM_VIS
 10
13.982542816681409
 20
7.1195327252200657
 30
0.0
 11
12.98348032309022
 21
7.1195327252200657
 31
0.0
  0
LINE
  5
28
  8
AM_VIS
 10
15.28348032309021
 20
1.7795327252200659
 30
0.0
 11
14.28441782949902
 21
1.7795327252200659
 31
0.0
  0
LINE
  5
29
  8
AM_VIS
 10
13.982542816681409
 20
1.7795327252200659
 30
0.0
 11
12.98348032309022
 21
1.7795327252200659
 31
0.0
  0
LINE
  5
2A
  8
AM_VIS
 10
15.28348032309021
 20
3.2995327252200659
 30
0.0
 11
14.133480323090209
 21
4.4495327252200676
 31
0.0
  0
LINE
  5
2B
  8
AM_VIS
 10
14.13348032309022
 20
4.4495327252200658
 30
0.0
 11
15.28348032309021
 21
5.5995327252200653
 31
0.0
  0
LINE
  5
2C
  8
AM_VIS
 10
14.133480323090209
 20
1.7795327257794731
 30
0.0
 11
14.28441782949902
 21
1.7795327257794731
 31
0.0
  0
LINE
  5
2D
  8
AM_VIS
 10
13.982542816681409
 20
1.779532725779474
 30
0.0
 11
14.133480323090209
 21
1.779532725779474
 31
0.0
  0
ARC
  5
2E
  8
AM_VIS
 10
14.145134090362641
 20
2.405323172089024
 30
0.0
 40
0.4103297329045372
 50
229.29431560951741
 51
268.3717898942204
  0
ARC
  5
2F
  8
AM_VIS
 10
14.12182655581778
 20
2.4053231720890249
 30
0.0
 40
0.4103297329045395
 50
271.6282101057796
 51
310.70568439048242
  0
ARC
  5
30
  8
AM_VIS
 10
14.13348032309022
 20
2.4095327252200649
 30
0.0
 40
0.40625
 50
129.07230755918039
 51
230.9276924408195
  0
ARC
  5
31
  8
AM_VIS
 10
14.145134090362649
 20
2.4137422783510969
 30
0.0
 40
0.4103297329045473
 50
91.628210105780056
 51
130.70568439048199
  0
CIRCLE
  5
32
  8
AM_VIS
 10
14.133480323090209
 20
2.4095327252200649
 30
0.0
 40
0.3125
  0
ARC
  5
33
  8
AM_VIS
 10
14.133480323090209
 20
2.4095327252200658
 30
0.0
 40
0.40625
 50
309.07230755918039
 51
50.927692440819463
  0
ARC
  5
34
  8
AM_VIS
 10
14.12182655581778
 20
2.4137422783510991
 30
0.0
 40
0.4103297329045457
 50
49.294315609517881
 51
88.371789894220015
  0
LINE
  5
35
  8
AM_VIS
 10
13.982542816681409
 20
7.119532724660659
 30
0.0
 11
14.133480323090209
 21
7.119532724660659
 31
0.0
  0
LINE
  5
36
  8
AM_VIS
 10
14.133480323090209
 20
7.119532724660659
 30
0.0
 11
14.28441782949902
 21
7.119532724660659
 31
0.0
  0
ARC
  5
37
  8
AM_VIS
 10
14.145134090362649
 20
6.4937422783511058
 30
0.0
 40
0.4103297329045393
 50
91.628210105779672
 51
130.7056843904825
  0
ARC
  5
38
  8
AM_VIS
 10
14.12182655581778
 20
6.4937422783511023
 30
0.0
 40
0.4103297329045436
 50
49.294315609517859
 51
88.371789894220257
  0
ARC
  5
39
  8
AM_VIS
 10
14.13348032309022
 20
6.4895327252200667
 30
0.0
 40
0.40625
 50
129.0723075591805
 51
230.9276924408195
  0
ARC
  5
3A
  8
AM_VIS
 10
14.145134090362649
 20
6.4853231720890339
 30
0.0
 40
0.4103297329045466
 50
229.29431560951789
 51
268.37178989421989
  0
CIRCLE
  5
3B
  8
AM_VIS
 10
14.133480323090209
 20
6.4895327252200667
 30
0.0
 40
0.3125
  0
ARC
  5
3C
  8
AM_VIS
 10
14.12182655581778
 20
6.4853231720890347
 30
0.0
 40
0.4103297329045473
 50
271.62821010578
 51
310.70568439048202
  0
ARC
  5
3D
  8
AM_VIS
 10
14.133480323090209
 20
6.4895327252200659
 30
0.0
 40
0.40625
 50
309.07230755918062
 51
50.927692440819548
  0
LINE
  5
3E
  8
AM_VIS
 10
16.803480323090209
 20
5.5995327252200662
 30
0.0
 11
16.803480323090209
 21
4.6004702316288677
 31
0.0
  0
LINE
  5
3F
  8
AM_VIS
 10
16.803480323090209
 20
4.2985952188112631
 30
0.0
 11
16.803480323090209
 21
3.2995327252200659
 31
0.0
  0
LINE
  5
40
  8
AM_VIS
 10
16.803480322519111
 20
4.6004702316288677
 30
0.0
 11
16.803480322519111
 21
4.4495327252200667
 31
0.0
  0
LINE
  5
41
  8
AM_VIS
 10
16.803480322519111
 20
4.4495327252200667
 30
0.0
 11
16.803480322519111
 21
4.2985952188112631
 31
0.0
  0
ARC
  5
42
  8
AM_VIS
 10
16.177689876221251
 20
4.461186492492498
 30
0.0
 40
0.4103297329045403
 50
319.29431560951758
 51
358.37178989422029
  0
ARC
  5
43
  8
AM_VIS
 10
16.177689876221262
 20
4.4378789579476328
 30
0.0
 40
0.4103297329045396
 50
1.6282101057796079
 51
40.705684390482361
  0
ARC
  5
44
  8
AM_VIS
 10
16.173480323090221
 20
4.4495327252200676
 30
0.0
 40
0.40625
 50
219.0723075591805
 51
320.92769244081961
  0
ARC
  5
45
  8
AM_VIS
 10
16.16927076995918
 20
4.4611864924925007
 30
0.0
 40
0.4103297329045454
 50
181.62821010577991
 51
220.70568439048219
  0
CIRCLE
  5
46
  8
AM_VIS
 10
16.173480323090221
 20
4.449532725220064
 30
0.0
 40
0.3125
  0
ARC
  5
47
  8
AM_VIS
 10
16.173480323090221
 20
4.449532725220064
 30
0.0
 40
0.40625
 50
39.072307559180402
 51
140.92769244081941
  0
ARC
  5
48
  8
AM_VIS
 10
16.16927076995918
 20
4.437878957947631
 30
0.0
 40
0.4103297329045426
 50
139.29431560951761
 51
178.37178989422009
  0
LINE
  5
49
  8
AM_VIS
 10
12.983480323090211
 20
1.7795327252200659
 30
0.0
 11
12.983480323090211
 21
7.1195327252200657
 31
0.0
  0
LINE
  5
4A
  8
AM_VIS
 10
15.28348032309021
 20
1.7795327252200659
 30
0.0
 11
15.28348032309021
 21
3.2995327252200659
 31
0.0
  0
LINE
  5
4B
  8
AM_VIS
 10
15.28348032309021
 20
5.5995327252200662
 30
0.0
 11
15.28348032309021
 21
7.1195327252200657
 31
0.0
  0
LINE
  5
4C
  8
AM_HID
 10
15.133480323090209
 20
7.1195327252200657
 30
0.0
 11
15.133480323090209
 21
5.4495327252200658
 31
0.0
  0
LINE
  5
4F
  8
AM_HID
 10
15.133480323090209
 20
3.4495327252200658
 30
0.0
 11
15.133480323090209
 21
1.7795327252200659
 31
0.0
  0
LINE
  5
50
  8
AM_HID
 10
13.13348032309022
 20
7.1195327252200657
 30
0.0
 11
13.13348032309022
 21
1.7795327252200659
 31
0.0
  0
LINE
  5
51
  8
AM_VIS
 10
16.803480323090209
 20
3.2995327252200659
 30
0.0
 11
15.28348032309021
 21
3.2995327252200659
 31
0.0
  0
LINE
  5
52
  8
AM_VIS
 10
16.803480323090209
 20
5.5995327252200671
 30
0.0
 11
15.28348032309021
 21
5.5995327252200671
 31
0.0
  0
LINE
  5
53
  8
AM_HID
 10
16.803480323090209
 20
3.4495327252200658
 30
0.0
 11
15.133480323090209
 21
3.4495327252200658
 31
0.0
  0
LINE
  5
54
  8
AM_HID
 10
16.803480323090209
 20
5.4495327252200658
 30
0.0
 11
15.133480323090209
 21
5.4495327252200658
 31
0.0
  0
INSERT
  5
16E
  8
0
  2
*U7
 10
0.0
 20
0.0
 30
0.0
  0
INSERT
  5
16F
  8
0
  2
*U8
 10
0.0
 20
0.0
 30
0.0
  0
LINE
  5
171
  8
0
 10
12.920980323090211
 20
7.1195327252200657
 30
0.0
 11
12.16914944769688
 21
7.1195327252200657
 31
0.0
  0
LINE
  5
172
  8
0
 10
12.92098032309022
 20
1.7795327252200659
 30
0.0
 11
12.16914944769688
 21
1.7795327252200659
 31
0.0
  0
LINE
  5
173
  8
0
 10
12.349149447696879
 20
6.9945327252200657
 30
0.0
 11
12.349149447696879
 21
4.7895327252200657
 31
0.0
  0
LINE
  5
174
  8
0
 10
12.349149447696879
 20
1.9045327252200659
 30
0.0
 11
12.349149447696879
 21
4.109532725220066
 31
0.0
  0
SOLID
  5
175
  8
0
 10
12.328316114363551
 20
6.9945327252200657
 30
0.0
 11
12.36998278103022
 21
6.9945327252200657
 31
0.0
 12
12.349149447696879
 22
7.1195327252200657
 32
0.0
 13
12.349149447696879
 23
7.1195327252200657
 33
0.0
  0
SOLID
  5
176
  8
0
 10
12.328316114363551
 20
1.9045327252200659
 30
0.0
 11
12.36998278103022
 21
1.9045327252200659
 31
0.0
 12
12.349149447696879
 22
1.7795327252200659
 32
0.0
 13
12.349149447696879
 23
1.7795327252200659
 33
0.0
  0
INSERT
  5
177
  8
0
  2
*U9
 10
0.0
 20
0.0
 30
0.0
  0
ENDSEC
  0
EOF
