  0
SECTION
  2
HEADER
  9
$ACADVER
  1
AC1009
  9
$INSBASE
 10
0.0000000000000018
 20
2.6700000000000008
 30
0.0
  9
$EXTMIN
 10
-2.3210604836003368
 20
-0.0625
 30
0.0
  9
$EXTMAX
 10
12.778080440975749
 20
6.9074595013742419
 30
0.0
  9
$LIMMIN
 10
0.0
 20
0.0
  9
$LIMMAX
 10
12.0
 20
9.0
  9
$ORTHOMODE
 70
     1
  9
$REGENMODE
 70
     0
  9
$FILLMODE
 70
     1
  9
$QTEXTMODE
 70
     0
  9
$MIRRTEXT
 70
     0
  9
$DRAGMODE
 70
     2
  9
$LTSCALE
 40
0.5
  9
$OSMODE
 70
    55
  9
$ATTMODE
 70
     1
  9
$TEXTSIZE
 40
0.12
  9
$TRACEWID
 40
0.05
  9
$TEXTSTYLE
  7
ADESK1
  9
$CLAYER
  8
0
  9
$CELTYPE
  6
BYLAYER
  9
$CECOLOR
 62
   256
  9
$DIMSCALE
 40
0.0
  9
$DIMASZ
 40
0.125
  9
$DIMEXO
 40
0.0625
  9
$DIMDLI
 40
0.375
  9
$DIMRND
 40
0.0
  9
$DIMDLE
 40
0.0
  9
$DIMEXE
 40
0.1875
  9
$DIMTP
 40
0.0
  9
$DIMTM
 40
0.0
  9
$DIMTXT
 40
0.09375
  9
$DIMCEN
 40
-0.125
  9
$DIMTSZ
 40
0.0
  9
$DIMTOL
 70
     0
  9
$DIMLIM
 70
     0
  9
$DIMTIH
 70
     0
  9
$DIMTOH
 70
     0
  9
$DIMSE1
 70
     0
  9
$DIMSE2
 70
     0
  9
$DIMTAD
 70
     0
  9
$DIMZIN
 70
     3
  9
$DIMBLK
  1

  9
$DIMASO
 70
     0
  9
$DIMSHO
 70
     1
  9
$DIMPOST
  1

  9
$DIMAPOST
  1

  9
$DIMALT
 70
     0
  9
$DIMALTD
 70
     2
  9
$DIMALTF
 40
25.399999999999999
  9
$DIMLFAC
 40
1.0
  9
$DIMTOFL
 70
     1
  9
$DIMTVP
 40
0.0
  9
$DIMTIX
 70
     0
  9
$DIMSOXD
 70
     0
  9
$DIMSAH
 70
     1
  9
$DIMBLK1
  1
DOT
  9
$DIMBLK2
  1
DOT
  9
$DIMSTYLE
  2
STANDARD
  9
$DIMCLRD
 70
     0
  9
$DIMCLRE
 70
     0
  9
$DIMCLRT
 70
     0
  9
$DIMTFAC
 40
1.0
  9
$DIMGAP
 40
0.09
  9
$LUNITS
 70
     4
  9
$LUPREC
 70
     4
  9
$SKETCHINC
 40
0.1
  9
$FILLETRAD
 40
0.1
  9
$AUNITS
 70
     0
  9
$AUPREC
 70
     4
  9
$MENU
  1
.
  9
$ELEVATION
 40
0.0
  9
$PELEVATION
 40
0.0
  9
$THICKNESS
 40
0.0
  9
$LIMCHECK
 70
     0
  9
$BLIPMODE
 70
     0
  9
$CHAMFERA
 40
0.5
  9
$CHAMFERB
 40
0.5
  9
$SKPOLY
 70
     1
  9
$TDCREATE
 40
2451065.425472917
  9
$TDUPDATE
 40
2453913.5769857061
  9
$TDINDWG
 40
0.0438730903
  9
$TDUSRTIMER
 40
0.0438730903
  9
$USRTIMER
 70
     1
  9
$ANGBASE
 50
0.0
  9
$ANGDIR
 70
     0
  9
$PDMODE
 70
    34
  9
$PDSIZE
 40
3.0
  9
$PLINEWID
 40
0.0
  9
$COORDS
 70
     1
  9
$SPLFRAME
 70
     0
  9
$SPLINETYPE
 70
     6
  9
$SPLINESEGS
 70
     8
  9
$ATTDIA
 70
     0
  9
$ATTREQ
 70
     1
  9
$HANDLING
 70
     1
  9
$HANDSEED
  5
1C9
  9
$SURFTAB1
 70
     6
  9
$SURFTAB2
 70
     6
  9
$SURFTYPE
 70
     6
  9
$SURFU
 70
     6
  9
$SURFV
 70
     6
  9
$UCSNAME
  2

  9
$UCSORG
 10
0.0
 20
0.0
 30
0.0
  9
$UCSXDIR
 10
1.0
 20
0.0
 30
0.0
  9
$UCSYDIR
 10
0.0
 20
1.0
 30
0.0
  9
$PUCSNAME
  2

  9
$PUCSORG
 10
0.0
 20
0.0
 30
0.0
  9
$PUCSXDIR
 10
1.0
 20
0.0
 30
0.0
  9
$PUCSYDIR
 10
0.0
 20
1.0
 30
0.0
  9
$USERI1
 70
     0
  9
$USERI2
 70
     0
  9
$USERI3
 70
     0
  9
$USERI4
 70
     0
  9
$USERI5
 70
     0
  9
$USERR1
 40
0.0
  9
$USERR2
 40
0.0
  9
$USERR3
 40
0.0
  9
$USERR4
 40
0.0
  9
$USERR5
 40
0.0
  9
$WORLDVIEW
 70
     1
  9
$SHADEDGE
 70
     3
  9
$SHADEDIF
 70
    70
  9
$TILEMODE
 70
     1
  9
$MAXACTVP
 70
    48
  9
$PLIMCHECK
 70
     0
  9
$PEXTMIN
 10
9.1880804299757557
 20
2.1679595013742392
 30
0.0
  9
$PEXTMAX
 10
12.778080440975749
 20
6.9074595013742419
 30
0.0
  9
$PLIMMIN
 10
0.0
 20
0.0
  9
$PLIMMAX
 10
12.0
 20
9.0
  9
$UNITMODE
 70
     0
  9
$VISRETAIN
 70
     1
  9
$PLINEGEN
 70
     0
  9
$PSLTSCALE
 70
     1
  0
ENDSEC
  0
SECTION
  2
TABLES
  0
TABLE
  2
VPORT
 70
     2
  0
VPORT
  2
*ACTIVE
 70
     0
 10
0.0
 20
0.0
 11
1.0
 21
1.0
 12
1.359202389615987
 22
2.1717735805172871
 13
0.0
 23
0.0
 14
0.5
 24
0.5
 15
0.5
 25
0.5
 16
0.0
 26
-0.0000000000000001
 36
1.0
 17
0.0
 27
0.0
 37
0.0
 40
4.9753653247212286
 41
2.2104247104247099
 42
50.0
 43
0.0
 44
0.0
 50
0.0
 51
0.0
 71
     0
 72
   100
 73
     1
 74
     1
 75
     0
 76
     0
 77
     0
 78
     0
  0
ENDTAB
  0
TABLE
  2
LTYPE
 70
    17
  0
LTYPE
  2
CONTINUOUS
 70
     0
  3
Solid line
 72
    65
 73
     0
 40
0.0
  0
LTYPE
  2
HIDDEN
 70
     0
  3
__ __ __ __ __ __ __ __ __ __ __ __ __ __ __ __
 72
    65
 73
     2
 40
0.375
 49
0.25
 49
-0.125
  0
LTYPE
  2
PHANTOM2
 70
     0
  3
___ _ _ ___ _ _ ___ _ _ ___ _ _ ___ _ _ ___ _ _
 72
    65
 73
     6
 40
1.25
 49
0.625
 49
-0.125
 49
0.125
 49
-0.125
 49
0.125
 49
-0.125
  0
LTYPE
  2
CENTER
 70
     0
  3
____ _ ____ _ ____ _ ____ _ ____ _ ____ _ ____ 
 72
    65
 73
     4
 40
2.0
 49
1.25
 49
-0.25
 49
0.25
 49
-0.25
  0
LTYPE
  2
ACJISTGB
 70
     0
  3
__ . . __ . .
 72
    65
 73
     6
 40
9.0
 49
4.0
 49
-1.0
 49
1.0
 49
-1.0
 49
1.0
 49
-1.0
  0
LTYPE
  2
ACJISTGL
 70
     0
  3
_ _ _ _ _
 72
    65
 73
     2
 40
3.0
 49
2.0
 49
-1.0
  0
LTYPE
  2
ACANSTGB
 70
     0
  3
__ . . __ . .
 72
    65
 73
     6
 40
0.35433070866
 49
0.15748031496
 49
-0.03937007874
 49
0.03937007874
 49
-0.03937007874
 49
0.03937007874
 49
-0.03937007874
  0
LTYPE
  2
ACANSTGL
 70
     0
  3
_ _ _ _ _
 72
    65
 73
     2
 40
0.11811023622
 49
0.07874015748
 49
-0.03937007874
  0
LTYPE
  2
ACBSIWELD
 70
     0
  3
_ _ _ _ _
 72
    65
 73
     2
 40
2.0
 49
2.0
 49
-1.0
  0
LTYPE
  2
ACBSITGB
 70
     0
  3
__ . . __ . .
 72
    65
 73
     6
 40
9.0
 49
4.0
 49
-1.0
 49
1.0
 49
-1.0
 49
1.0
 49
-1.0
  0
LTYPE
  2
ACBSITGL
 70
     0
  3
_ _ _ _ _
 72
    65
 73
     2
 40
3.0
 49
2.0
 49
-1.0
  0
LTYPE
  2
ACDINWELD
 70
     0
  3
_ _ _ _ _
 72
    65
 73
     2
 40
2.0
 49
2.0
 49
-1.0
  0
LTYPE
  2
ACDINTGB
 70
     0
  3
__ . . __ . .
 72
    65
 73
     6
 40
9.0
 49
4.0
 49
-1.0
 49
1.0
 49
-1.0
 49
1.0
 49
-1.0
  0
LTYPE
  2
ACDINTGL
 70
     0
  3
_ _ _ _ _
 72
    65
 73
     2
 40
3.0
 49
2.0
 49
-1.0
  0
LTYPE
  2
ACISOWELD
 70
     0
  3
_ _ _ _ _
 72
    65
 73
     2
 40
2.0
 49
2.0
 49
-1.0
  0
LTYPE
  2
ACISOTGB
 70
     0
  3
__ . . __ . .
 72
    65
 73
     6
 40
9.0
 49
4.0
 49
-1.0
 49
1.0
 49
-1.0
 49
1.0
 49
-1.0
  0
LTYPE
  2
ACISOTGL
 70
     0
  3
_ _ _ _ _
 72
    65
 73
     2
 40
3.0
 49
2.0
 49
-1.0
  0
ENDTAB
  0
TABLE
  2
LAYER
 70
    10
  0
LAYER
  2
0
 70
     0
 62
     7
  6
CONTINUOUS
  0
LAYER
  2
AM_VIEWS
 70
     0
 62
    -7
  6
CONTINUOUS
  0
LAYER
  2
AM_VIS
 70
     0
 62
     7
  6
CONTINUOUS
  0
LAYER
  2
AM_HID
 70
     0
 62
     7
  6
HIDDEN
  0
LAYER
  2
AM_BM
 70
     0
 62
     7
  6
CONTINUOUS
  0
LAYER
  2
AM_BL
 70
     0
 62
     7
  6
CONTINUOUS
  0
LAYER
  2
AM_PARDIM
 70
     0
 62
     3
  6
CONTINUOUS
  0
LAYER
  2
AM_REFDIM
 70
     0
 62
     4
  6
CONTINUOUS
  0
LAYER
  2
KEEA10
 70
     0
 62
     7
  6
CONTINUOUS
  0
LAYER
  2
DIMKEE
 70
     0
 62
     7
  6
CONTINUOUS
  0
ENDTAB
  0
TABLE
  2
STYLE
 70
    12
  0
STYLE
  2
STANDARD
 70
     0
 40
0.0
 41
1.0
 50
0.0
 71
     0
 42
0.2
  3
txt
  4

  0
STYLE
  2
ADESK1
 70
     0
 40
0.0
 41
1.0
 50
0.0
 71
     0
 42
0.12
  3
romans.shx
  4

  0
STYLE
  2
ACJISTS
 70
     0
 40
1.0
 41
1.0
 50
0.0
 71
     0
 42
0.12
  3
isocp.shx
  4
bigfont.shx
  0
STYLE
  2
ACJISGDT
 70
     0
 40
0.0
 41
1.0
 50
0.0
 71
     0
 42
0.12
  3
amgdt.shx
  4

  0
STYLE
  2
ACANSTSB
 70
     0
 40
1.0
 41
1.0
 50
0.0
 71
     0
 42
0.12
  3
romans.shx
  4

  0
STYLE
  2
ACANSGDT
 70
     0
 40
0.0
 41
1.0
 50
0.0
 71
     0
 42
0.12
  3
amgdt.shx
  4

  0
STYLE
  2
ACBSITS
 70
     0
 40
1.0
 41
1.0
 50
0.0
 71
     0
 42
0.12
  3
isocp.shx
  4

  0
STYLE
  2
ACBSIGDT
 70
     0
 40
0.0
 41
1.0
 50
0.0
 71
     0
 42
0.12
  3
amgdt.shx
  4

  0
STYLE
  2
ACDINTS
 70
     0
 40
1.0
 41
1.0
 50
0.0
 71
     0
 42
0.12
  3
isocp.shx
  4

  0
STYLE
  2
ACDINGDT
 70
     0
 40
0.0
 41
1.0
 50
0.0
 71
     0
 42
0.12
  3
amgdt.shx
  4

  0
STYLE
  2
ACISOTS
 70
     0
 40
1.0
 41
1.0
 50
0.0
 71
     0
 42
0.12
  3
isocp.shx
  4

  0
STYLE
  2
ACISOGDT
 70
     0
 40
0.0
 41
1.0
 50
0.0
 71
     0
 42
0.12
  3
amgdt.shx
  4

  0
ENDTAB
  0
TABLE
  2
VIEW
 70
     0
  0
ENDTAB
  0
TABLE
  2
UCS
 70
     0
  0
ENDTAB
  0
TABLE
  2
APPID
 70
     5
  0
APPID
  2
ACAD
 70
     0
  0
APPID
  2
MCAD_NO_VIS
 70
     0
  0
APPID
  2
AD_DRAW
 70
     0
  0
APPID
  2
DESIGNERASSEMBLIES
 70
     0
  0
APPID
  2
ASURF_PCURVE_APPNAME
 70
     0
  0
ENDTAB
  0
TABLE
  2
DIMSTYLE
 70
     1
  0
DIMSTYLE
  2
STANDARD
 70
     0
  3

  4

  5

  6

  7

 40
1.0
 41
0.18
 42
0.0625
 43
0.38
 44
0.18
 45
0.0
 46
0.0
 47
0.0
 48
0.0
140
0.18
141
0.09
142
0.0
143
25.399999999999999
144
1.0
145
0.0
146
1.0
147
0.09
 71
     0
 72
     0
 73
     1
 74
     1
 75
     0
 76
     0
 77
     0
 78
     0
170
     0
171
     2
172
     0
173
     0
174
     0
175
     0
176
     0
177
     0
178
     0
  0
ENDTAB
  0
ENDSEC
  0
SECTION
  2
BLOCKS
  0
BLOCK
  8
0
  2
$MODEL_SPACE
 70
     0
 10
0.0
 20
0.0
 30
0.0
  3
$MODEL_SPACE
  1

  0
ENDBLK
  5
7
  8
0
  0
BLOCK
 67
     1
  8
0
  2
$PAPER_SPACE
 70
     0
 10
0.0
 20
0.0
 30
0.0
  3
$PAPER_SPACE
  1

  0
ENDBLK
  5
A
 67
     1
  8
0
  0
BLOCK
  8
0
  2
*U0
 70
     1
 10
0.0
 20
0.0
 30
0.0
  3
*U0
  1

  0
ENDBLK
  5
B4
  8
0
  0
BLOCK
  8
0
  2
_DOT
 70
     0
 10
0.0
 20
0.0
 30
0.0
  3
_DOT
  1

  0
POLYLINE
  5
10A
  8
0
  6
BYBLOCK
 62
     0
 66
     1
 10
0.0
 20
0.0
 30
0.0
 70
     1
 40
0.5
 41
0.5
  0
VERTEX
  5
1AA
  8
0
  6
BYBLOCK
 62
     0
 10
-0.25
 20
0.0
 30
0.0
 42
1.0
  0
VERTEX
  5
1AB
  8
0
  6
BYBLOCK
 62
     0
 10
0.25
 20
0.0
 30
0.0
 42
1.0
  0
SEQEND
  5
1AC
  8
0
  6
BYBLOCK
 62
     0
  0
LINE
  5
10E
  8
0
  6
BYBLOCK
 62
     0
 10
-0.5
 20
0.0
 30
0.0
 11
-1.0
 21
0.0
 31
0.0
  0
ENDBLK
  5
10F
  8
0
  0
BLOCK
  8
0
  2
*U2
 70
     1
 10
0.0
 20
0.0
 30
0.0
  3
*U2
  1

  0
TEXT
  5
1AE
  8
DIMKEE
 10
-2.0866854836003368
 20
1.134107142857143
 30
0.0
 40
0.09375
  1
2.625
 50
90.0
  7
ADESK1
  0
ENDBLK
  5
1B0
  8
0
  0
BLOCK
  8
0
  2
*U3
 70
     1
 10
0.0
 20
0.0
 30
0.0
  3
*U3
  1

  0
TEXT
  5
1B2
  8
DIMKEE
 10
2.0217088211393088
 20
1.8999107142857139
 30
0.0
 40
0.09375
  1
1.125
 50
90.0
  7
ADESK1
  0
ENDBLK
  5
1B4
  8
0
  0
BLOCK
  8
0
  2
*U4
 70
     1
 10
0.0
 20
0.0
 30
0.0
  3
*U4
  1

  0
TEXT
  5
1B6
  8
KEEA10
 10
-0.0035230725124369
 20
-0.0001727163222396
 30
0.0
 40
0.0006
  1
KEE KLAMP 15-8
  0
ENDBLK
  5
1B8
  8
0
  0
BLOCK
  8
0
  2
*U5
 70
     1
 10
0.0
 20
0.0
 30
0.0
  3
*U5
  1

  0
TEXT
  5
1BA
  8
KEEA10
 10
-0.2732094033826069
 20
0.2018753139112972
 30
0.0
 40
0.140625
  1
A10-8
  0
ENDBLK
  5
1BC
  8
0
  0
BLOCK
  8
0
  2
*U6
 70
     1
 10
0.0
 20
0.0
 30
0.0
  3
*U6
  1

  0
TEXT
  5
1BE
  8
KEEA10
 10
-0.3083656533826069
 20
0.4858688129746218
 30
0.0
 40
0.140625
  1
KLAMP
  0
ENDBLK
  5
1C0
  8
0
  0
BLOCK
  8
0
  2
*U7
 70
     1
 10
0.0
 20
0.0
 30
0.0
  3
*U7
  1

  0
TEXT
  5
1C2
  8
KEEA10
 10
-0.1677406533826069
 20
0.7944046258072062
 30
0.0
 40
0.140625
  1
KEE
  0
ENDBLK
  5
1C4
  8
0
  0
ENDSEC
  0
SECTION
  2
ENTITIES
  0
POLYLINE
  5
1F
  8
AM_VIEWS
 66
     1
 10
0.0
 20
0.0
 30
0.0
  0
VERTEX
  5
17C
  8
AM_VIEWS
 10
9.1880804299757557
 20
2.1679595013742392
 30
0.0
  0
VERTEX
  5
17D
  8
AM_VIEWS
 10
9.1880804299757557
 20
6.9074595013742419
 30
0.0
  0
VERTEX
  5
17E
  8
AM_VIEWS
 10
12.778080440975749
 20
6.9074595013742419
 30
0.0
  0
VERTEX
  5
17F
  8
AM_VIEWS
 10
12.778080440975749
 20
2.1679595013742392
 30
0.0
  0
VERTEX
  5
180
  8
AM_VIEWS
 10
9.1880804299757557
 20
2.1679595013742392
 30
0.0
  0
SEQEND
  5
181
  8
AM_VIEWS
  0
CIRCLE
  5
21
  8
KEEA10
 10
1.200000000000002
 20
2.6699999999999999
 30
0.0
 40
0.103750141311238
  0
CIRCLE
  5
23
  8
KEEA10
 10
1.1999999999999971
 20
2.6699999999999999
 30
0.0
 40
0.103750141311238
210
0.0
220
0.0
230
-1.0
  0
LINE
  5
24
  8
KEEA10
  6
HIDDEN
 10
-0.185608085088452
 20
3.6016918153283299
 30
0.0
 11
-0.185608085088452
 21
3.9450000000000012
 31
0.0
  0
LINE
  5
2A
  8
KEEA10
 10
0.3125000000000018
 20
3.9450000000000012
 30
0.0
 11
-0.3124999999999982
 21
3.9450000000000012
 31
0.0
  0
LINE
  5
2D
  8
KEEA10
  6
HIDDEN
 10
0.1856080850884538
 20
3.6016918153283299
 30
0.0
 11
0.1856080850884538
 21
3.9450000000000012
 31
0.0
  0
ARC
  5
2E
  8
KEEA10
 10
-1.200000000000002
 20
2.6699999999999999
 30
0.0
 40
0.25
210
0.0
220
0.0
230
-1.0
 50
90.0
 51
261.78678929826168
  0
ARC
  5
2F
  8
KEEA10
 10
-0.0000000000000018
 20
2.6700000000000008
 30
0.0
 40
1.1499999999999999
210
0.0
220
0.0
230
-1.0
 50
16.2602047083119
 51
163.7397952916881
  0
ARC
  5
30
  8
KEEA10
 10
-1.1999999999999971
 20
2.6699999999999999
 30
0.0
 40
0.25
 50
90.000000000000398
 51
261.78678929826202
  0
ARC
  5
31
  8
KEEA10
 10
-0.0000000000000018
 20
2.6700000000000008
 30
0.0
 40
0.95
210
0.0
220
0.0
230
-1.0
 50
359.9999999999992
 51
180.0
  0
LINE
  5
32
  8
KEEA10
 10
-1.1999999999999971
 20
2.9200000000000021
 30
0.0
 11
-0.9444582339339611
 21
2.7724628925725829
 31
0.0
  0
LINE
  5
33
  8
KEEA10
 10
1.2000000000000011
 20
2.9199999999999999
 30
0.0
 11
0.9444582339339646
 21
2.772462892572582
 31
0.0
  0
CIRCLE
  5
34
  8
KEEA10
 10
-1.200000000000002
 20
2.6699999999999999
 30
0.0
 40
0.103750141311238
210
0.0
220
0.0
230
-1.0
  0
CIRCLE
  5
35
  8
KEEA10
 10
1.1999999999999971
 20
2.6699999999999999
 30
0.0
 40
0.103750141311238
210
0.0
220
0.0
230
-1.0
  0
LINE
  5
36
  8
KEEA10
 10
1.2749999999999999
 20
0.2475
 30
0.0
 11
1.2749999999999999
 21
0.8725000000000001
 31
0.0
  0
POLYLINE
  5
37
  8
KEEA10
 66
     1
 10
0.0
 20
0.0
 30
0.0
  0
VERTEX
  5
182
  8
KEEA10
 10
1.1500000000000019
 20
0.9059936490538905
 30
0.0
  0
VERTEX
  5
183
  8
KEEA10
 10
1.1479300147324889
 20
0.8996725183901684
 30
0.0
  0
VERTEX
  5
184
  8
KEEA10
 10
1.1419467443443769
 20
0.880549282493963
 30
0.0
  0
VERTEX
  5
185
  8
KEEA10
 10
1.1327385130047649
 20
0.8489959411802004
 30
0.0
  0
VERTEX
  5
186
  8
KEEA10
 10
1.1220277430658709
 20
0.8077914098207772
 30
0.0
  0
VERTEX
  5
187
  8
KEEA10
 10
1.1108878039803749
 20
0.7565142359407107
 30
0.0
  0
VERTEX
  5
188
  8
KEEA10
 10
1.1008609779274821
 20
0.6956137643284142
 30
0.0
  0
VERTEX
  5
189
  8
KEEA10
 10
1.094079467622441
 20
0.628523226383098
 30
0.0
  0
VERTEX
  5
18A
  8
KEEA10
 10
1.09166262454257
 20
0.5600000000000005
 30
0.0
  0
VERTEX
  5
18B
  8
KEEA10
 10
1.094079467622441
 20
0.4914767736169004
 30
0.0
  0
VERTEX
  5
18C
  8
KEEA10
 10
1.1008609779274821
 20
0.4243862356715824
 30
0.0
  0
VERTEX
  5
18D
  8
KEEA10
 10
1.1108878039803749
 20
0.363485764059285
 30
0.0
  0
VERTEX
  5
18E
  8
KEEA10
 10
1.1220277430658721
 20
0.312208590179218
 30
0.0
  0
VERTEX
  5
18F
  8
KEEA10
 10
1.1327385130047669
 20
0.2710040588197953
 30
0.0
  0
VERTEX
  5
190
  8
KEEA10
 10
1.141946744344378
 20
0.2394507175060352
 30
0.0
  0
VERTEX
  5
191
  8
KEEA10
 10
1.1479300147324909
 20
0.22032748160983
 30
0.0
  0
VERTEX
  5
192
  8
KEEA10
 10
1.1500000000000019
 20
0.2140063509461103
 30
0.0
  0
SEQEND
  5
193
  8
KEEA10
  0
LINE
  5
38
  8
KEEA10
 10
1.1499999999999999
 20
-0.0000000000000004
 30
0.0
 11
-1.1499999999999999
 21
0.0000000000000004
 31
0.0
  0
LINE
  5
39
  8
KEEA10
  6
HIDDEN
 10
1.2750000000000019
 20
0.3743919149115489
 30
0.0
 11
0.950000000000001
 21
0.3743919149115489
 31
0.0
  0
LINE
  5
3F
  8
KEEA10
  6
HIDDEN
 10
1.2750000000000019
 20
0.7456080850884539
 30
0.0
 11
0.9500000000000028
 21
0.7456080850884544
 31
0.0
  0
POLYLINE
  5
42
  8
KEEA10
 66
     1
 10
0.0
 20
0.0
 30
0.0
  0
VERTEX
  5
194
  8
KEEA10
 10
0.9500000000000028
 20
2.6700000000000008
 30
0.0
  0
VERTEX
  5
195
  8
KEEA10
 10
0.9449746373948428
 20
2.5724332051543741
 30
0.0
  0
VERTEX
  5
196
  8
KEEA10
 10
0.9302737129346212
 20
2.4774102312612709
 30
0.0
  0
VERTEX
  5
197
  8
KEEA10
 10
0.8740750621319648
 20
2.2978538113066218
 30
0.0
  0
VERTEX
  5
198
  8
KEEA10
 10
0.7857290342174661
 20
2.1362653011182662
 30
0.0
  0
VERTEX
  5
199
  8
KEEA10
 10
0.6717514421272189
 20
1.9982485578727771
 30
0.0
  0
VERTEX
  5
19A
  8
KEEA10
 10
0.5362704133960019
 20
1.8860993047229391
 30
0.0
  0
VERTEX
  5
19B
  8
KEEA10
 10
0.3732473228323556
 20
1.796394576482889
 30
0.0
  0
VERTEX
  5
19C
  8
KEEA10
 10
0.190378164751154
 20
1.7395532649383401
 30
0.0
  0
VERTEX
  5
19D
  8
KEEA10
 10
-0.0000000000000053
 20
1.72
 30
0.0
  0
VERTEX
  5
19E
  8
KEEA10
 10
-0.1903781647511646
 20
1.7395532649383421
 30
0.0
  0
VERTEX
  5
19F
  8
KEEA10
 10
-0.3732473228323663
 20
1.796394576482895
 30
0.0
  0
VERTEX
  5
1A0
  8
KEEA10
 10
-0.5362704133960108
 20
1.8860993047229471
 30
0.0
  0
VERTEX
  5
1A1
  8
KEEA10
 10
-0.671751442127226
 20
1.9982485578727871
 30
0.0
  0
VERTEX
  5
1A2
  8
KEEA10
 10
-0.7857290342174679
 20
2.1362653011182751
 30
0.0
  0
VERTEX
  5
1A3
  8
KEEA10
 10
-0.8740750621319648
 20
2.2978538113066289
 30
0.0
  0
VERTEX
  5
1A4
  8
KEEA10
 10
-0.9302737129346194
 20
2.4774102312612758
 30
0.0
  0
VERTEX
  5
1A5
  8
KEEA10
 10
-0.9449746373948393
 20
2.572433205154375
 30
0.0
  0
VERTEX
  5
1A6
  8
KEEA10
 10
-0.9499999999999992
 20
2.6699999999999999
 30
0.0
  0
SEQEND
  5
1A7
  8
KEEA10
  0
LINE
  5
43
  8
KEEA10
 10
1.2749999999999999
 20
0.8725000000000001
 30
0.0
 11
1.1499999999999999
 21
0.9059936490538902
 31
0.0
  0
LINE
  5
44
  8
KEEA10
 10
1.1499999999999999
 20
0.2140063509461099
 30
0.0
 11
1.2749999999999999
 21
0.2475
 31
0.0
  0
LINE
  5
46
  8
KEEA10
 10
-1.1499999999999959
 20
2.323589838486221
 30
0.0
 11
-1.1499999999999979
 21
0.0
 31
0.0
  0
LINE
  5
47
  8
KEEA10
 10
1.1499999999999999
 20
0.9059936490538902
 30
0.0
 11
1.1499999999999999
 21
2.3235898384862619
 31
0.0
  0
LINE
  5
49
  8
KEEA10
 10
1.1499999999999999
 20
-0.0000000000000004
 30
0.0
 11
1.1499999999999999
 21
0.2140063509461099
 31
0.0
  0
LINE
  5
4A
  8
KEEA10
  6
HIDDEN
 10
-0.9499999999999975
 20
2.6699999999999999
 30
0.0
 11
-0.9499999999999992
 21
0.0
 31
0.0
  0
LINE
  5
4B
  8
KEEA10
  6
HIDDEN
 10
0.950000000000001
 20
-0.0000000000000004
 30
0.0
 11
0.9500000000000028
 21
2.6699999999999999
 31
0.0
  0
LINE
  5
4C
  8
KEEA10
 10
-0.3124999999999982
 20
3.9450000000000012
 30
0.0
 11
-0.3616251016962586
 21
3.7616626245425699
 31
0.0
  0
LINE
  5
4D
  8
KEEA10
 10
0.3616251016962604
 20
3.7616626245425699
 30
0.0
 11
0.3125
 21
3.9450000000000012
 31
0.0
  0
ARC
  5
100
  8
KEEA10
 10
-1.249999999999996
 20
2.323589838486221
 30
0.0
 40
0.1
 50
0.0
 51
81.786789298262093
  0
ARC
  5
101
  8
KEEA10
 10
1.249999999999998
 20
2.3235898384862619
 30
0.0
 40
0.1
 50
98.213210701738234
 51
180.0
  0
ARC
  5
102
  8
KEEA10
 10
1.200000000000002
 20
3.02
 30
0.0
 40
0.1
 50
196.26020470831219
 51
270.0
  0
ARC
  5
103
  8
KEEA10
 10
-1.1999999999999991
 20
3.02
 30
0.0
 40
0.1
 50
270.0
 51
343.73979529168821
  0
ARC
  5
104
  8
KEEA10
 10
-1.1999999999999971
 20
2.6699999999999999
 30
0.0
 40
0.2500000000000002
 50
89.999999999999204
 51
30.000000000000501
  0
ARC
  5
105
  8
KEEA10
 10
1.200000000000002
 20
2.6699999999999999
 30
0.0
 40
0.2500000000000004
 50
149.99999999999929
 51
90.000000000000398
  0
LINE
  5
110
  8
DIMKEE
 10
-1.2624999999999971
 20
2.6699999999999999
 30
0.0
 11
-2.3210604836003368
 21
2.6699999999999999
 31
0.0
  0
LINE
  5
111
  8
DIMKEE
 10
-1.2124999999999979
 20
0.0
 30
0.0
 11
-2.3210604836003368
 21
0.0
 31
0.0
  0
LINE
  5
112
  8
DIMKEE
 10
-2.1335604836003368
 20
2.5449999999999999
 30
0.0
 11
-2.1335604836003368
 21
1.657142857142857
 31
0.0
  0
LINE
  5
113
  8
DIMKEE
 10
-2.1335604836003368
 20
0.125
 30
0.0
 11
-2.1335604836003368
 21
1.0128571428571429
 31
0.0
  0
INSERT
  5
114
  8
DIMKEE
  2
_DOT
 10
-2.1335604836003368
 20
2.6699999999999999
 30
0.0
 41
0.125
 42
0.125
 43
0.125
 50
90.0
  0
INSERT
  5
115
  8
DIMKEE
  2
_DOT
 10
-2.1335604836003368
 20
0.0
 30
0.0
 41
0.125
 42
0.125
 43
0.125
 50
270.0
  0
INSERT
  5
116
  8
0
  2
*U2
 10
0.0
 20
0.0
 30
0.0
  0
LINE
  5
118
  8
0
  6
HIDDEN
 10
-0.9499999999999992
 20
1.5449999999999999
 30
0.0
 11
0.9500000000000028
 21
1.5449999999999999
 31
0.0
  0
LINE
  5
119
  8
DIMKEE
 10
1.262500000000002
 20
2.6699999999999999
 30
0.0
 11
2.1623338211393088
 21
2.6699999999999999
 31
0.0
  0
LINE
  5
11A
  8
DIMKEE
 10
1.012500000000002
 20
1.5449999999999999
 30
0.0
 11
2.1623338211393088
 21
1.5449999999999999
 31
0.0
  0
LINE
  5
11B
  8
DIMKEE
 10
1.9748338211393091
 20
2.5449999999999999
 30
0.0
 11
1.9748338211393091
 21
2.4229464285714291
 31
0.0
  0
LINE
  5
11C
  8
DIMKEE
 10
1.9748338211393091
 20
1.6699999999999999
 30
0.0
 11
1.9748338211393091
 21
1.792053571428571
 31
0.0
  0
INSERT
  5
11D
  8
DIMKEE
  2
_DOT
 10
1.9748338211393091
 20
2.6699999999999999
 30
0.0
 41
0.125
 42
0.125
 43
0.125
 50
90.0
  0
INSERT
  5
11E
  8
DIMKEE
  2
_DOT
 10
1.9748338211393091
 20
1.5449999999999999
 30
0.0
 41
0.125
 42
0.125
 43
0.125
 50
270.0
  0
INSERT
  5
11F
  8
0
  2
*U3
 10
0.0
 20
0.0
 30
0.0
  0
INSERT
  5
155
  8
0
  2
*U4
 10
0.0
 20
0.0
 30
0.0
  0
INSERT
  5
15E
  8
0
  2
*U5
 10
0.0
 20
0.0
 30
0.0
  0
INSERT
  5
15F
  8
0
  2
*U6
 10
0.0
 20
0.0
 30
0.0
  0
INSERT
  5
160
  8
0
  2
*U7
 10
0.0
 20
0.0
 30
0.0
  0
VIEWPORT
  5
BF
 67
     1
  8
0
 10
6.0
 20
4.5
 30
0.0
 40
12.0
 41
9.0
 68
    -1
 69
     1
1001
ACAD
1000
MVIEW
1002
{
1070
    16
1010
0.0
1020
0.0
1030
0.0
1010
0.0
1020
0.0
1030
1.0
1040
0.0
1040
9.0
1040
8.8361344537815114
1040
4.5
1040
50.0
1040
0.0
1040
0.0
1070
     0
1070
   100
1070
     1
1070
     1
1070
     0
1070
     0
1070
     0
1070
     0
1040
0.0
1040
0.0
1040
0.0
1040
0.5
1040
0.5
1040
0.5
1040
0.5
1070
     0
1002
{
1002
}
1002
}
  0
ENDSEC
  0
EOF
