  0
SECTION
  2
HEADER
  9
$ACADVER
  1
AC1009
  9
$INSBASE
 10
0.0
 20
0.0
 30
0.0
  9
$EXTMIN
 10
4.1203779907342568
 20
0.8874306272216617
 30
0.0
  9
$EXTMAX
 10
9.6133518920368282
 20
6.1907601471563369
 30
0.0
  9
$LIMMIN
 10
0.0
 20
0.0
  9
$LIMMAX
 10
12.0
 20
9.0
  9
$ORTHOMODE
 70
     1
  9
$REGENMODE
 70
     0
  9
$FILLMODE
 70
     1
  9
$QTEXTMODE
 70
     0
  9
$MIRRTEXT
 70
     0
  9
$DRAGMODE
 70
     2
  9
$LTSCALE
 40
1.0
  9
$OSMODE
 70
    55
  9
$ATTMODE
 70
     1
  9
$TEXTSIZE
 40
0.12
  9
$TRACEWID
 40
0.05
  9
$TEXTSTYLE
  7
ADESK1
  9
$CLAYER
  8
0
  9
$CELTYPE
  6
BYLAYER
  9
$CECOLOR
 62
   256
  9
$DIMSCALE
 40
1.0
  9
$DIMASZ
 40
0.125
  9
$DIMEXO
 40
0.0625
  9
$DIMDLI
 40
0.38
  9
$DIMRND
 40
0.0
  9
$DIMDLE
 40
0.0
  9
$DIMEXE
 40
0.18
  9
$DIMTP
 40
0.0
  9
$DIMTM
 40
0.0
  9
$DIMTXT
 40
0.09375
  9
$DIMCEN
 40
-0.125
  9
$DIMTSZ
 40
0.0
  9
$DIMTOL
 70
     0
  9
$DIMLIM
 70
     0
  9
$DIMTIH
 70
     0
  9
$DIMTOH
 70
     0
  9
$DIMSE1
 70
     0
  9
$DIMSE2
 70
     0
  9
$DIMTAD
 70
     0
  9
$DIMZIN
 70
     3
  9
$DIMBLK
  1

  9
$DIMASO
 70
     0
  9
$DIMSHO
 70
     1
  9
$DIMPOST
  1

  9
$DIMAPOST
  1

  9
$DIMALT
 70
     0
  9
$DIMALTD
 70
     2
  9
$DIMALTF
 40
25.399999999999999
  9
$DIMLFAC
 40
1.0
  9
$DIMTOFL
 70
     1
  9
$DIMTVP
 40
0.0
  9
$DIMTIX
 70
     0
  9
$DIMSOXD
 70
     0
  9
$DIMSAH
 70
     0
  9
$DIMBLK1
  1

  9
$DIMBLK2
  1

  9
$DIMSTYLE
  2
STANDARD
  9
$DIMCLRD
 70
     0
  9
$DIMCLRE
 70
     0
  9
$DIMCLRT
 70
     0
  9
$DIMTFAC
 40
1.0
  9
$DIMGAP
 40
0.09
  9
$LUNITS
 70
     4
  9
$LUPREC
 70
     4
  9
$SKETCHINC
 40
0.1
  9
$FILLETRAD
 40
0.5
  9
$AUNITS
 70
     0
  9
$AUPREC
 70
     4
  9
$MENU
  1
.
  9
$ELEVATION
 40
0.0
  9
$PELEVATION
 40
0.0
  9
$THICKNESS
 40
0.0
  9
$LIMCHECK
 70
     0
  9
$BLIPMODE
 70
     0
  9
$CHAMFERA
 40
0.5
  9
$CHAMFERB
 40
0.5
  9
$SKPOLY
 70
     0
  9
$TDCREATE
 40
2451065.3838062501
  9
$TDUPDATE
 40
2453913.578096007
  9
$TDINDWG
 40
0.0661416667
  9
$TDUSRTIMER
 40
0.0661416667
  9
$USRTIMER
 70
     1
  9
$ANGBASE
 50
0.0
  9
$ANGDIR
 70
     0
  9
$PDMODE
 70
    34
  9
$PDSIZE
 40
3.0
  9
$PLINEWID
 40
0.0
  9
$COORDS
 70
     1
  9
$SPLFRAME
 70
     0
  9
$SPLINETYPE
 70
     6
  9
$SPLINESEGS
 70
     8
  9
$ATTDIA
 70
     0
  9
$ATTREQ
 70
     1
  9
$HANDLING
 70
     1
  9
$HANDSEED
  5
21E
  9
$SURFTAB1
 70
     6
  9
$SURFTAB2
 70
     6
  9
$SURFTYPE
 70
     6
  9
$SURFU
 70
     6
  9
$SURFV
 70
     6
  9
$UCSNAME
  2

  9
$UCSORG
 10
0.0
 20
0.0
 30
0.0
  9
$UCSXDIR
 10
1.0
 20
0.0
 30
0.0
  9
$UCSYDIR
 10
0.0
 20
1.0
 30
0.0
  9
$PUCSNAME
  2

  9
$PUCSORG
 10
0.0
 20
0.0
 30
0.0
  9
$PUCSXDIR
 10
1.0
 20
0.0
 30
0.0
  9
$PUCSYDIR
 10
0.0
 20
1.0
 30
0.0
  9
$USERI1
 70
     0
  9
$USERI2
 70
     0
  9
$USERI3
 70
     0
  9
$USERI4
 70
     0
  9
$USERI5
 70
     0
  9
$USERR1
 40
0.0
  9
$USERR2
 40
0.0
  9
$USERR3
 40
0.0
  9
$USERR4
 40
0.0
  9
$USERR5
 40
0.0
  9
$WORLDVIEW
 70
     1
  9
$SHADEDGE
 70
     3
  9
$SHADEDIF
 70
    70
  9
$TILEMODE
 70
     1
  9
$MAXACTVP
 70
    48
  9
$PLIMCHECK
 70
     0
  9
$PEXTMIN
 10
2.6417260730035421
 20
-0.6227071282996671
 30
0.0
  9
$PEXTMAX
 10
9.6040523731006964
 20
7.4644569554119897
 30
0.0
  9
$PLIMMIN
 10
-0.1579164520023376
 20
-0.2812499887361301
  9
$PLIMMAX
 10
10.84208330770177
 20
8.2187497709679782
  9
$UNITMODE
 70
     0
  9
$VISRETAIN
 70
     1
  9
$PLINEGEN
 70
     0
  9
$PSLTSCALE
 70
     1
  0
ENDSEC
  0
SECTION
  2
TABLES
  0
TABLE
  2
VPORT
 70
     2
  0
VPORT
  2
*ACTIVE
 70
     0
 10
0.0
 20
0.0
 11
1.0
 21
1.0
 12
3.5207815633559281
 22
0.9252715222940043
 13
0.0
 23
0.0
 14
0.5
 24
0.5
 15
0.5
 25
0.5
 16
0.0
 26
0.0
 36
1.0
 17
6.5381247202690274
 27
3.4665892332351329
 37
0.0
 40
9.5608122642292663
 41
2.6243523316062172
 42
50.0
 43
0.0
 44
0.0
 50
0.0
 51
0.0
 71
     0
 72
   100
 73
     1
 74
     1
 75
     0
 76
     0
 77
     0
 78
     0
  0
ENDTAB
  0
TABLE
  2
LTYPE
 70
    18
  0
LTYPE
  2
CONTINUOUS
 70
     0
  3
Solid line
 72
    65
 73
     0
 40
0.0
  0
LTYPE
  2
HIDDEN
 70
     0
  3
__ __ __ __ __ __ __ __ __ __ __ __ __ __ __ __
 72
    65
 73
     2
 40
0.375
 49
0.25
 49
-0.125
  0
LTYPE
  2
PHANTOM2
 70
     0
  3
Phantom (.5x) ___ _ _ ___ _ _ ___ _ _ ___ _ _
 72
    65
 73
     6
 40
1.25
 49
0.625
 49
-0.125
 49
0.125
 49
-0.125
 49
0.125
 49
-0.125
  0
LTYPE
  2
CENTER
 70
     0
  3
Center ____ _ ____ _ ____ _ ____ _ ____ _ ____
 72
    65
 73
     4
 40
2.0
 49
1.25
 49
-0.25
 49
0.25
 49
-0.25
  0
LTYPE
  2
ASULTYPE
 70
     0
  3
Solid line
 72
    65
 73
     2
 40
3.0
 49
2.5
 49
0.5
  0
LTYPE
  2
ASVLTYPE
 70
     0
  3
__ __ __ __ __ __ __ __ __ __ __ __ __ __ __ __ __ __ __ __ __
 72
    65
 73
     2
 40
0.75
 49
0.5
 49
-0.25
  0
LTYPE
  2
AM_ISO02W050
 70
     0
  3
__ __ __ __ __ __ __ __ __ __ __ __ __ __ __
 72
    65
 73
     2
 40
7.5
 49
6.0
 49
-1.5
  0
LTYPE
  2
AM_ISO08W050
 70
     0
  3
____ . ____ . ____ . ____ . ____ . ____ . ____
 72
    65
 73
     4
 40
18.0
 49
12.0
 49
-1.5
 49
3.0
 49
-1.5
  0
LTYPE
  2
AM_ISO09W050
 70
     0
  3
_____ . . _____ . . _____ . . ____ .. ____
 72
    65
 73
     6
 40
22.5
 49
12.0
 49
-1.5
 49
3.0
 49
-1.5
 49
3.0
 49
-1.5
  0
LTYPE
  2
AMCONSTR
 70
     0
  3
_______________________
 72
    65
 73
     2
 40
9999.0
 49
9999.0
 49
0.0
  0
LTYPE
  2
AM_ISO08W050X2
 70
     0
  3
__ . __ . __ . __ . __ . __
 72
    65
 73
     4
 40
9.0
 49
6.0
 49
-0.75
 49
1.5
 49
-0.75
  0
LTYPE
  2
AM_ISO02W050X2
 70
     0
  3
 _ _ _ _ _ _ _ _ _ _ _ _
 72
    65
 73
     2
 40
3.75
 49
3.0
 49
-0.75
  0
LTYPE
  2
AMZIGZAG
 70
     0
  3
/\/-/\/-/\/-/\/-/\/-/\/
 72
    65
 73
     2
 40
11.0001
 49
0.0001
 49
-11.0
  0
LTYPE
  2
CENTER2
 70
     0
  3
Center (.5x) ___ _ ___ _ ___ _ ___ _ ___ _ ___
 72
    65
 73
     4
 40
1.125
 49
0.75
 49
-0.125
 49
0.125
 49
-0.125
  0
LTYPE
  2
HIDDEN2
 70
     0
  3
Hidden (.5x) _ _ _ _ _ _ _ _ _ _ _ _ _ _ _ _ _
 72
    65
 73
     2
 40
0.1875
 49
0.125
 49
-0.0625
  0
LTYPE
  2
AMZIGZAG2
 70
     0
  3
/\/-/\/-/\/-/\/-/\/-/\/
 72
    65
 73
     2
 40
0.4401
 49
0.0001
 49
-0.4400000000000001
  0
LTYPE
  2
ACANSTGB
 70
     0
  3
__ . . __ . .
 72
    65
 73
     6
 40
0.35433070866
 49
0.15748031496
 49
-0.03937007874
 49
0.03937007874
 49
-0.03937007874
 49
0.03937007874
 49
-0.03937007874
  0
LTYPE
  2
ACANSTGL
 70
     0
  3
_ _ _ _ _
 72
    65
 73
     2
 40
0.11811023622
 49
0.07874015748
 49
-0.03937007874
  0
ENDTAB
  0
TABLE
  2
LAYER
 70
     4
  0
LAYER
  2
0
 70
     0
 62
     7
  6
CONTINUOUS
  0
LAYER
  2
AM_VIS
 70
     0
 62
     7
  6
CONTINUOUS
  0
LAYER
  2
AM_HID
 70
     0
 62
     7
  6
HIDDEN
  0
LAYER
  2
KEE10
 70
     0
 62
     7
  6
CONTINUOUS
  0
ENDTAB
  0
TABLE
  2
STYLE
 70
     6
  0
STYLE
  2
STANDARD
 70
     0
 40
0.0
 41
1.0
 50
0.0
 71
     0
 42
0.2
  3
txt
  4

  0
STYLE
  2
ADESK1
 70
     0
 40
0.0
 41
1.0
 50
0.0
 71
     0
 42
0.12
  3
romans.shx
  4

  0
STYLE
  2

 70
     1
 40
0.0
 41
1.0
 50
0.0
 71
     0
 42
0.12
  3
ltypeshp.shx
  4

  0
STYLE
  2
ACANSTS
 70
     0
 40
1.0
 41
1.0
 50
0.0
 71
     0
 42
0.12
  3
romans.shx
  4

  0
STYLE
  2
ACANSGDT
 70
     0
 40
0.0
 41
1.0
 50
0.0
 71
     0
 42
0.12
  3
amgdtans.shx
  4

  0
STYLE
  2
ACANSTSB
 70
     0
 40
1.0
 41
1.0
 50
0.0
 71
     0
 42
0.2
  3
romans.shx
  4

  0
ENDTAB
  0
TABLE
  2
VIEW
 70
     0
  0
ENDTAB
  0
TABLE
  2
UCS
 70
     0
  0
ENDTAB
  0
TABLE
  2
APPID
 70
    13
  0
APPID
  2
ACAD
 70
     0
  0
APPID
  2
GENIUS_GENDIM_13
 70
     0
  0
APPID
  2
GENIUS_GENDTOL_13
 70
     0
  0
APPID
  2
GENIUS_GE3DTOL_13
 70
     0
  0
APPID
  2
MCAD_NO_VIS
 70
     0
  0
APPID
  2
ACAD_TEMP_GRAPHIC
 70
     0
  0
APPID
  2
AD_DRAW
 70
     0
  0
APPID
  2
ACATTRIBSERVICES
 70
     0
  0
APPID
  2
ASURF_PCURVE_APPNAME
 70
     0
  0
APPID
  2
AMG_3D2D_5_0
 70
     0
  0
APPID
  2
DESIGNERASSEMBLIES
 70
     0
  0
APPID
  2
ACADM_DIM_EDIT
 70
     0
  0
APPID
  2
AMDT_DM_ADJ
 70
     0
  0
ENDTAB
  0
TABLE
  2
DIMSTYLE
 70
     7
  0
DIMSTYLE
  2
STANDARD
 70
     0
  3

  4

  5

  6

  7

 40
1.0
 41
0.18
 42
0.0625
 43
0.38
 44
0.18
 45
0.0
 46
0.0
 47
0.0
 48
0.0
140
0.18
141
0.09
142
0.0
143
25.399999999999999
144
1.0
145
0.0
146
1.0
147
0.09
 71
     0
 72
     0
 73
     1
 74
     1
 75
     0
 76
     0
 77
     0
 78
     0
170
     0
171
     2
172
     0
173
     0
174
     0
175
     0
176
     0
177
     0
178
     0
  0
DIMSTYLE
  2
AM_ANSI
 70
     0
  3

  4
mm
  5

  6

  7

 40
1.0
 41
0.1
 42
0.05
 43
0.5
 44
0.1
 45
0.0
 46
0.0
 47
0.1
 48
0.1
140
0.12
141
0.0
142
0.0
143
25.399999999999999
144
1.0
145
0.0
146
0.71
147
0.06
 71
     0
 72
     0
 73
     1
 74
     1
 75
     0
 76
     0
 77
     0
 78
     7
170
     0
171
     2
172
     0
173
     0
174
     0
175
     0
176
   256
177
   256
178
     2
  0
DIMSTYLE
  2
AM_ANSI$3
 70
     0
  3

  4
mm
  5

  6

  7

 40
1.0
 41
0.1
 42
0.05
 43
0.5
 44
0.1
 45
0.0
 46
0.0
 47
0.1
 48
0.1
140
0.12
141
0.0
142
0.0
143
25.399999999999999
144
1.0
145
0.0
146
0.71
147
0.06
 71
     0
 72
     0
 73
     1
 74
     1
 75
     0
 76
     0
 77
     0
 78
     7
170
     0
171
     2
172
     0
173
     0
174
     0
175
     0
176
   256
177
   256
178
     2
  0
DIMSTYLE
  2
AM_ANSI$4
 70
     0
  3

  4
mm
  5

  6

  7

 40
1.0
 41
0.1
 42
0.05
 43
0.5
 44
0.1
 45
0.0
 46
0.0
 47
0.1
 48
0.1
140
0.12
141
0.0
142
0.0
143
25.399999999999999
144
1.0
145
0.0
146
0.71
147
0.06
 71
     0
 72
     0
 73
     1
 74
     1
 75
     0
 76
     0
 77
     0
 78
     7
170
     0
171
     2
172
     0
173
     0
174
     0
175
     0
176
   256
177
   256
178
     2
  0
DIMSTYLE
  2
AM_ANSI$7
 70
     0
  3

  4
mm
  5

  6

  7

 40
1.0
 41
0.1
 42
0.05
 43
0.5
 44
0.1
 45
0.0
 46
0.0
 47
0.1
 48
0.1
140
0.24
141
0.0
142
0.0
143
25.399999999999999
144
1.0
145
0.0
146
0.71
147
0.06
 71
     0
 72
     0
 73
     1
 74
     1
 75
     0
 76
     0
 77
     0
 78
     7
170
     0
171
     2
172
     0
173
     0
174
     0
175
     0
176
   256
177
   256
178
     2
  0
DIMSTYLE
  2
AM_ANSI$SF
 70
     0
  3

  4
mm
  5

  6

  7

 40
1.0
 41
0.1
 42
0.05
 43
0.5
 44
0.1
 45
0.0
 46
0.0
 47
0.1
 48
0.1
140
0.12
141
0.0
142
0.0
143
25.399999999999999
144
1.0
145
0.0
146
0.71
147
0.06
 71
     0
 72
     0
 73
     1
 74
     1
 75
     1
 76
     1
 77
     0
 78
     7
170
     0
171
     2
172
     0
173
     0
174
     0
175
     0
176
   256
177
   256
178
     2
  0
DIMSTYLE
  2
AM_ANSI$SH
 70
     0
  3

  4
mm
  5

  6
GENAXEH
  7

 40
1.0
 41
0.1
 42
0.05
 43
0.5
 44
0.1
 45
0.0
 46
0.0
 47
0.1
 48
0.1
140
0.12
141
0.0
142
0.0
143
25.399999999999999
144
1.0
145
0.0
146
0.71
147
0.06
 71
     0
 72
     0
 73
     1
 74
     1
 75
     1
 76
     1
 77
     0
 78
     7
170
     0
171
     2
172
     0
173
     1
174
     0
175
     0
176
   256
177
   256
178
     2
  0
ENDTAB
  0
ENDSEC
  0
SECTION
  2
BLOCKS
  0
BLOCK
  8
0
  2
$MODEL_SPACE
 70
     0
 10
0.0
 20
0.0
 30
0.0
  3
$MODEL_SPACE
  1

  0
ENDBLK
  5
A
  8
0
  0
BLOCK
 67
     1
  8
0
  2
$PAPER_SPACE
 70
     0
 10
0.0
 20
0.0
 30
0.0
  3
$PAPER_SPACE
  1

  0
ENDBLK
  5
F
 67
     1
  8
0
  0
BLOCK
  8
0
  2
*U0
 70
     1
 10
0.0
 20
0.0
 30
0.0
  3
*U0
  1

  0
ENDBLK
  5
140
  8
0
  0
BLOCK
  8
0
  2
GENAXEH
 70
     0
 10
0.0
 20
0.0
 30
0.0
  3
GENAXEH
  1

  0
LINE
  5
17D
  8
0
 10
-1.0
 20
0.0
 30
0.0
 11
1.0
 21
0.0
 31
0.0
  0
ENDBLK
  5
17F
  8
0
  0
BLOCK
  8
0
  2
_DOT
 70
     0
 10
0.0
 20
0.0
 30
0.0
  3
_DOT
  1

  0
POLYLINE
  5
186
  8
0
  6
BYBLOCK
 62
     0
 66
     1
 10
0.0
 20
0.0
 30
0.0
 70
     1
 40
0.5
 41
0.5
  0
VERTEX
  5
187
  8
0
  6
BYBLOCK
 62
     0
 10
-0.25
 20
0.0
 30
0.0
 42
1.0
  0
VERTEX
  5
188
  8
0
  6
BYBLOCK
 62
     0
 10
0.25
 20
0.0
 30
0.0
 42
1.0
  0
SEQEND
  5
189
  8
0
  6
BYBLOCK
 62
     0
  0
LINE
  5
18A
  8
0
  6
BYBLOCK
 62
     0
 10
-0.5
 20
0.0
 30
0.0
 11
-1.0
 21
0.0
 31
0.0
  0
ENDBLK
  5
18C
  8
0
  0
BLOCK
  8
0
  2
2D
 70
     0
 10
0.0
 20
0.0
 30
0.0
  3
2D
  1

  0
INSERT
  5
190
  8
0
  2
*U4
 10
0.0
 20
0.0
 30
0.0
  0
INSERT
  5
191
  8
0
  2
*U5
 10
0.0
 20
0.0
 30
0.0
  0
INSERT
  5
192
  8
0
  2
*U6
 10
0.0
 20
0.0
 30
0.0
  0
ENDBLK
  5
194
  8
0
  0
BLOCK
  8
0
  2
*U4
 70
     1
 10
0.0
 20
0.0
 30
0.0
  3
*U4
  1

  0
TEXT
  5
207
  8
KEE10
 10
-0.167740653382606
 20
0.7944046258072062
 30
0.0
 40
0.140625
  1
KEE
  0
ENDBLK
  5
209
  8
0
  0
BLOCK
  8
0
  2
*U5
 70
     1
 10
0.0
 20
0.0
 30
0.0
  3
*U5
  1

  0
TEXT
  5
20B
  8
KEE10
 10
-0.308365653382606
 20
0.4858688129746218
 30
0.0
 40
0.140625
  1
KLAMP
  0
ENDBLK
  5
20D
  8
0
  0
BLOCK
  8
0
  2
*U6
 70
     1
 10
0.0
 20
0.0
 30
0.0
  3
*U6
  1

  0
TEXT
  5
20F
  8
KEE10
 10
-0.202896903382606
 20
0.2018753139112972
 30
0.0
 40
0.140625
  1
10-8
  0
ENDBLK
  5
211
  8
0
  0
BLOCK
  8
0
  2
*U7
 70
     1
 10
0.0
 20
0.0
 30
0.0
  3
*U7
  1

  0
TEXT
  5
213
  8
KEE10
 10
7.2895181121525567
 20
3.343807735320381
 30
0.0
 40
0.10125
  1
KEE
  0
ENDBLK
  5
215
  8
0
  0
BLOCK
  8
0
  2
*U8
 70
     1
 10
0.0
 20
0.0
 30
0.0
  3
*U8
  1

  0
TEXT
  5
217
  8
KEE10
 10
7.1882681121525573
 20
3.1216619500809202
 30
0.0
 40
0.10125
  1
KLAMP
  0
ENDBLK
  5
219
  8
0
  0
BLOCK
  8
0
  2
*U9
 70
     1
 10
0.0
 20
0.0
 30
0.0
  3
*U9
  1

  0
TEXT
  5
21B
  8
0
 10
9.5126804634654007
 20
1.9515427505441461
 30
0.0
 40
0.0675
  1
2-1/4"
 50
90.0
  7
ADESK1
  0
ENDBLK
  5
21D
  8
0
  0
ENDSEC
  0
SECTION
  2
ENTITIES
  0
POINT
  5
26
  8
0
 10
0.0
 20
0.0
 30
0.0
  0
POINT
  5
27
  8
0
 10
0.0
 20
0.0
 30
0.0
  0
CIRCLE
  5
28
  8
AM_VIS
 10
5.8303779907342559
 20
1.8558271719833881
 30
0.0
 40
0.2025
  0
LINE
  5
2A
  8
AM_VIS
 10
7.5403779907342576
 20
1.067430627221662
 30
0.0
 11
4.1203779907342568
 21
1.067430627221662
 31
0.0
  0
LINE
  5
2B
  8
AM_VIS
 10
4.1203779907342568
 20
0.8874306272216617
 30
0.0
 11
4.1203779907342568
 21
1.067430627221662
 31
0.0
  0
LINE
  5
2C
  8
AM_VIS
 10
4.1203779907342568
 20
0.8874306272216617
 30
0.0
 11
7.5403779907342576
 21
0.8874306272216617
 31
0.0
  0
LINE
  5
2D
  8
AM_VIS
 10
7.5403779907342576
 20
0.8874306272216617
 30
0.0
 11
7.5403779907342576
 21
1.067430627221662
 31
0.0
  0
LINE
  5
2E
  8
AM_VIS
 10
5.3621304017141957
 20
2.324091579961415
 30
0.0
 11
6.2986255797543187
 21
2.324091579961415
 31
0.0
  0
LINE
  5
2F
  8
AM_VIS
 10
5.3621304017141949
 20
1.067430627221662
 30
0.0
 11
5.3621304017141949
 21
2.7321306158261498
 31
0.0
  0
LINE
  5
30
  8
AM_VIS
 10
6.5686255797543192
 20
2.732130615826152
 30
0.0
 11
6.2986255797543178
 21
2.732130615826152
 31
0.0
  0
LINE
  5
31
  8
AM_VIS
 10
5.3621304017141949
 20
2.732130615826152
 30
0.0
 11
5.0921304017141962
 21
2.732130615826152
 31
0.0
  0
LINE
  5
32
  8
AM_VIS
 10
8.3953779907342572
 20
2.3130120167237722
 30
0.0
 11
8.3953779907342572
 21
3.9618492377195511
 31
0.0
  0
LINE
  5
33
  8
AM_VIS
 10
4.9753779907342546
 20
2.3130120167237722
 30
0.0
 11
4.9753779907342546
 21
3.9618492377195511
 31
0.0
  0
LINE
  5
34
  8
AM_VIS
 10
8.3953779903230572
 20
3.9700070167942751
 30
0.0
 11
8.3953779903230572
 21
3.9618492377195511
 31
0.0
  0
ARC
  5
35
  8
AM_VIS
 10
8.4142779907335452
 20
4.1490120167232147
 30
0.0
 40
0.1799999999991536
 50
194.47751218581431
 51
263.97283343904593
  0
LINE
  5
36
  8
AM_VIS
 10
8.1688606984050125
 20
4.1040120167239351
 30
0.0
 11
8.2399937401549721
 21
4.1040120167239351
 31
0.0
  0
ARC
  5
37
  8
AM_VIS
 10
7.4692779907342581
 20
4.1490120167237707
 30
0.0
 40
0.1799999999999994
 50
270.00000000000011
 51
345.5224878140707
  0
LINE
  5
38
  8
AM_VIS
 10
7.64356224131354
 20
4.1040120167239351
 30
0.0
 11
7.7146952830635023
 21
4.1040120167239351
 31
0.0
  0
LINE
  5
39
  8
AM_VIS
 10
7.7146952830635023
 20
4.1040120167237717
 30
0.0
 11
8.1688606984050125
 21
4.1040120167237717
 31
0.0
  0
ARC
  5
3A
  8
AM_HID
 10
7.936787078634052
 20
4.5746746330028492
 30
0.0
 40
0.7497558227828969
 50
270.38141343096697
 51
287.86249115412619
  0
ARC
  5
3D
  8
AM_HID
 10
7.9467689028344584
 20
4.5746746330028314
 30
0.0
 40
0.7497558227828796
 50
252.1375088458737
 51
269.6185865690332
  0
LINE
  5
3E
  8
AM_VIS
 10
4.9753779911454519
 20
3.9700070167942738
 30
0.0
 11
4.9753779911454519
 21
3.9618492377195502
 31
0.0
  0
ARC
  5
3F
  8
AM_VIS
 10
4.9564779907349656
 20
4.149012016723213
 30
0.0
 40
0.1799999999991542
 50
276.02716656095407
 51
345.52248781418552
  0
LINE
  5
40
  8
AM_VIS
 10
5.1307622413135388
 20
4.1040120167239351
 30
0.0
 11
5.2018952830635001
 21
4.1040120167239351
 31
0.0
  0
ARC
  5
41
  8
AM_VIS
 10
5.9014779907342554
 20
4.1490120167237707
 30
0.0
 40
0.1799999999999995
 50
194.47751218592961
 51
270.0
  0
LINE
  5
42
  8
AM_VIS
 10
5.6560606984050112
 20
4.1040120167237708
 30
0.0
 11
5.2018952830635001
 21
4.1040120167237708
 31
0.0
  0
LINE
  5
43
  8
AM_VIS
 10
5.6560606984050104
 20
4.1040120167239351
 30
0.0
 11
5.7271937401549708
 21
4.1040120167239351
 31
0.0
  0
ARC
  5
44
  8
AM_HID
 10
5.4239870786340534
 20
4.5746746330028349
 30
0.0
 40
0.7497558227828846
 50
270.3814134309668
 51
287.8624911541263
  0
ARC
  5
45
  8
AM_HID
 10
5.4339689028344562
 20
4.5746746330028234
 30
0.0
 40
0.7497558227828718
 50
252.13750884587361
 51
269.61858656903331
  0
LINE
  5
46
  8
AM_VIS
 10
6.2986255797543187
 20
1.067430627221662
 30
0.0
 11
6.2986255797543187
 21
2.7321306158261511
 31
0.0
  0
LINE
  5
47
  8
AM_VIS
 10
6.5686255797543192
 20
1.067430627221662
 30
0.0
 11
6.5686255797543192
 21
2.7321306158261511
 31
0.0
  0
LINE
  5
48
  8
AM_VIS
 10
5.0921304017141962
 20
1.067430627221662
 30
0.0
 11
5.0921304017141962
 21
2.7321306158261498
 31
0.0
  0
LINE
  5
49
  8
AM_HID
 10
6.8878779907342569
 20
0.8874306272216617
 30
0.0
 11
6.8878779907342569
 21
1.067430627221662
 31
0.0
  0
LINE
  5
4A
  8
AM_HID
 10
7.292877990734258
 20
0.8874306272216617
 30
0.0
 11
7.292877990734258
 21
1.067430627221662
 31
0.0
  0
LINE
  5
4B
  8
AM_HID
 10
4.3678779907342573
 20
0.8874306272216617
 30
0.0
 11
4.3678779907342573
 21
1.067430627221662
 31
0.0
  0
LINE
  5
4C
  8
AM_HID
 10
4.7728779907342567
 20
0.8874306272216617
 30
0.0
 11
4.7728779907342567
 21
1.067430627221662
 31
0.0
  0
LINE
  5
4D
  8
AM_VIS
 10
5.9014779907342554
 20
3.969012016723771
 30
0.0
 11
7.4692779907342572
 21
3.969012016723771
 31
0.0
  0
LINE
  5
4E
  8
AM_VIS
 10
4.9753779907342546
 20
2.3130120167237722
 30
0.0
 11
5.0921304017141953
 21
2.3130120167237722
 31
0.0
  0
LINE
  5
4F
  8
AM_VIS
 10
6.5686255797543192
 20
2.3130120167237722
 30
0.0
 11
8.3953779907342572
 21
2.3130120167237722
 31
0.0
  0
LINE
  5
50
  8
AM_HID
 10
8.166777990734257
 20
4.1040120167237717
 30
0.0
 11
8.166777990734257
 21
3.8610120167237718
 31
0.0
  0
LINE
  5
51
  8
AM_HID
 10
7.7167779907342569
 20
4.1040120167237717
 30
0.0
 11
7.7167779907342569
 21
3.8610120167237718
 31
0.0
  0
LINE
  5
52
  8
AM_HID
 10
5.2039779907342547
 20
3.8610120167237709
 30
0.0
 11
5.2039779907342547
 21
4.1040120167237708
 31
0.0
  0
LINE
  5
53
  8
AM_HID
 10
5.653977990734254
 20
3.8610120167237709
 30
0.0
 11
5.653977990734254
 21
4.1040120167237708
 31
0.0
  0
LINE
  5
54
  8
AM_HID
 10
4.9753779907342546
 20
3.8610120167237709
 30
0.0
 11
5.2039779907342556
 21
3.8610120167237709
 31
0.0
  0
LINE
  5
55
  8
AM_HID
 10
5.653977990734254
 20
3.8610120167237709
 30
0.0
 11
7.7167779907342569
 21
3.8610120167237709
 31
0.0
  0
LINE
  5
56
  8
AM_HID
 10
8.166777990734257
 20
3.8610120167237709
 30
0.0
 11
8.3953779907342572
 21
3.8610120167237709
 31
0.0
  0
LINE
  5
57
  8
AM_HID
 10
4.9753779907342546
 20
2.421012016723771
 30
0.0
 11
8.3953779907342572
 21
2.421012016723771
 31
0.0
  0
LINE
  5
58
  8
AM_VIS
 10
4.1203779907342568
 20
4.5752601471563361
 30
0.0
 11
4.1203779907342568
 21
6.1502601471563372
 31
0.0
  0
LINE
  5
59
  8
AM_HID
 10
7.5403779907342576
 20
4.5752601471563361
 30
0.0
 11
4.9753779907342564
 21
4.5752601471563361
 31
0.0
  0
LINE
  5
5A
  8
AM_VIS
 10
4.9753779907342564
 20
4.5752601471563361
 30
0.0
 11
4.1203779907342568
 21
4.5752601471563361
 31
0.0
  0
LINE
  5
5B
  8
AM_HID
 10
7.5403779907342576
 20
6.1502601471563372
 30
0.0
 11
7.5403779907342576
 21
4.5752601471563361
 31
0.0
  0
LINE
  5
5C
  8
AM_VIS
 10
4.1203779907342568
 20
6.1502601471563372
 30
0.0
 11
4.9753779907342546
 21
6.1502601471563372
 31
0.0
  0
LINE
  5
5D
  8
AM_HID
 10
4.9753779907342546
 20
6.1502601471563372
 30
0.0
 11
7.5403779907342567
 21
6.1502601471563372
 31
0.0
  0
CIRCLE
  5
5E
  8
AM_VIS
 10
4.570377990734257
 20
5.3627601471563349
 30
0.0
 40
0.2025
  0
CIRCLE
  5
5F
  8
AM_HID
 10
7.0903779907342583
 20
5.3627601471563349
 30
0.0
 40
0.2025
  0
LINE
  5
60
  8
AM_HID
 10
5.3621304017141957
 20
5.2277601471563342
 30
0.0
 11
6.2986255797543187
 21
5.2277601471563351
 31
0.0
  0
LINE
  5
61
  8
AM_HID
 10
6.2986255797543187
 20
5.4977601471563329
 30
0.0
 11
5.3621304017141957
 21
5.4977601471563329
 31
0.0
  0
LINE
  5
62
  8
AM_HID
 10
5.3621304017141949
 20
6.0827601471563364
 30
0.0
 11
5.3621304017141949
 21
5.4977601471563347
 31
0.0
  0
LINE
  5
63
  8
AM_HID
 10
5.3621304017141957
 20
5.227760147156336
 30
0.0
 11
5.3621304017141957
 21
4.642760147156336
 31
0.0
  0
LINE
  5
64
  8
AM_HID
 10
6.2986255797543187
 20
5.4977601471563347
 30
0.0
 11
6.2986255797543187
 21
6.0827601471563364
 31
0.0
  0
LINE
  5
65
  8
AM_HID
 10
6.2986255797543187
 20
4.642760147156336
 30
0.0
 11
6.2986255797543187
 21
5.227760147156336
 31
0.0
  0
LINE
  5
66
  8
AM_HID
 10
6.5686255797543192
 20
6.0827601471563364
 30
0.0
 11
6.5686255797543192
 21
4.642760147156336
 31
0.0
  0
LINE
  5
67
  8
AM_HID
 10
5.0921304017141962
 20
4.642760147156336
 30
0.0
 11
5.0921304017141962
 21
6.0827601471563364
 31
0.0
  0
LINE
  5
68
  8
AM_VIS
 10
8.3953779907342572
 20
4.5347601471563372
 30
0.0
 11
8.3953779907342572
 21
5.2540851425419994
 31
0.0
  0
LINE
  5
69
  8
AM_VIS
 10
8.3953779907342572
 20
5.471435151770673
 30
0.0
 11
8.3953779907342572
 21
6.1907601471563369
 31
0.0
  0
LINE
  5
6A
  8
AM_VIS
 10
4.9753779907342564
 20
4.5347601471563346
 30
0.0
 11
4.9753779907342546
 21
5.2540851425419959
 31
0.0
  0
LINE
  5
6B
  8
AM_VIS
 10
4.9753779907342546
 20
5.4714351517706721
 30
0.0
 11
4.9753779907342546
 21
6.190760147156336
 31
0.0
  0
LINE
  5
6C
  8
AM_VIS
 10
8.3953779903230572
 20
5.471435151770673
 30
0.0
 11
8.3953779903230572
 21
5.3627601471563349
 31
0.0
  0
LINE
  5
6D
  8
AM_VIS
 10
8.3953779903230572
 20
5.3627601471563349
 30
0.0
 11
8.3953779903230572
 21
5.2540851425419968
 31
0.0
  0
ARC
  5
6E
  8
AM_VIS
 10
7.9448088689886029
 20
5.3543694347201853
 30
0.0
 40
0.2954374076912691
 50
1.628210105779528
 51
40.705684390482119
  0
ARC
  5
6F
  8
AM_VIS
 10
7.9448088689886029
 20
5.3711508595924871
 30
0.0
 40
0.2954374076912685
 50
319.29431560951781
 51
358.37178989422051
  0
ARC
  5
70
  8
AM_VIS
 10
7.9417779907342574
 20
5.362760147156334
 30
0.0
 40
0.2925
 50
39.072307559180352
 51
140.92769244081961
  0
ARC
  5
71
  8
AM_VIS
 10
7.9387471124799047
 20
5.3543694347201871
 30
0.0
 40
0.2954374076912642
 50
139.2943156095175
 51
178.3717898942208
  0
CIRCLE
  5
72
  8
AM_VIS
 10
7.9417779907342574
 20
5.3627601471563366
 30
0.0
 40
0.225
  0
ARC
  5
73
  8
AM_VIS
 10
7.9387471124799074
 20
5.3711508595924844
 30
0.0
 40
0.2954374076912656
 50
181.6282101057792
 51
220.7056843904823
  0
ARC
  5
74
  8
AM_VIS
 10
7.9417779907342574
 20
5.3627601471563366
 30
0.0
 40
0.2925
 50
219.0723075591805
 51
320.9276924408195
  0
LINE
  5
75
  8
AM_VIS
 10
4.9753779911454519
 20
5.362760147156334
 30
0.0
 11
4.9753779911454519
 21
5.2540851425419959
 31
0.0
  0
LINE
  5
76
  8
AM_VIS
 10
4.9753779911454519
 20
5.4714351517706721
 30
0.0
 11
4.9753779911454519
 21
5.362760147156334
 31
0.0
  0
ARC
  5
77
  8
AM_VIS
 10
5.425947112479907
 20
5.3543694347201818
 30
0.0
 40
0.2954374076912698
 50
139.29431560951781
 51
178.37178989422031
  0
ARC
  5
78
  8
AM_VIS
 10
5.4259471124799097
 20
5.3711508595924871
 30
0.0
 40
0.2954374076912718
 50
181.6282101057798
 51
220.70568439048211
  0
ARC
  5
79
  8
AM_VIS
 10
5.4289779907342552
 20
5.3627601471563331
 30
0.0
 40
0.2925
 50
39.072307559180381
 51
140.92769244081961
  0
ARC
  5
7A
  8
AM_VIS
 10
5.4320088689886008
 20
5.3543694347201809
 30
0.0
 40
0.295437407691271
 50
1.628210105780167
 51
40.705684390482517
  0
CIRCLE
  5
7B
  8
AM_VIS
 10
5.4289779907342552
 20
5.3627601471563349
 30
0.0
 40
0.225
  0
ARC
  5
7C
  8
AM_VIS
 10
5.428977990734257
 20
5.3627601471563349
 30
0.0
 40
0.2925
 50
219.0723075591803
 51
320.92769244081938
  0
ARC
  5
7D
  8
AM_VIS
 10
5.4320088689885928
 20
5.3711508595924906
 30
0.0
 40
0.2954374076912797
 50
319.29431560951798
 51
358.37178989421949
  0
LINE
  5
7E
  8
AM_HID
 10
6.0328779907342573
 20
5.4977601471563347
 30
0.0
 11
6.0328779907342573
 21
5.227760147156336
 31
0.0
  0
LINE
  5
7F
  8
AM_HID
 10
5.6278779907342571
 20
5.4977601471563347
 30
0.0
 11
5.6278779907342571
 21
5.227760147156336
 31
0.0
  0
LINE
  5
80
  8
AM_VIS
 10
4.9753779907342546
 20
6.190760147156336
 30
0.0
 11
8.3953779907342554
 21
6.1907601471563369
 31
0.0
  0
LINE
  5
81
  8
AM_VIS
 10
4.9753779907342564
 20
4.5347601471563337
 30
0.0
 11
8.3953779907342572
 21
4.5347601471563364
 31
0.0
  0
LINE
  5
82
  8
AM_HID
 10
4.9753779907342546
 20
6.0827601471563346
 30
0.0
 11
8.3953779907342554
 21
6.0827601471563364
 31
0.0
  0
LINE
  5
83
  8
AM_HID
 10
4.9753779907342564
 20
4.642760147156336
 30
0.0
 11
8.3953779907342572
 21
4.642760147156336
 31
0.0
  0
INSERT
  5
19C
  8
0
  2
*U7
 10
0.0
 20
0.0
 30
0.0
  0
INSERT
  5
19D
  8
0
  2
*U8
 10
0.0
 20
0.0
 30
0.0
  0
LINE
  5
19F
  8
0
 10
8.4403779907342571
 20
3.137430627221661
 30
0.0
 11
9.6133518920368282
 21
3.137430627221661
 31
0.0
  0
LINE
  5
1A0
  8
0
 10
7.5853779907342567
 20
0.8874306272216617
 30
0.0
 11
9.6133518920368282
 21
0.8874306272216617
 31
0.0
  0
LINE
  5
1A1
  8
0
 10
9.48375189203683
 20
3.047430627221662
 30
0.0
 11
9.48375189203683
 21
2.402057036258431
 31
0.0
  0
LINE
  5
1A2
  8
0
 10
9.48375189203683
 20
0.9774306272216616
 30
0.0
 11
9.48375189203683
 21
1.896385607687002
 31
0.0
  0
SOLID
  5
1A3
  8
0
 10
9.4687518920368294
 20
3.047430627221662
 30
0.0
 11
9.4987518920368306
 21
3.047430627221662
 31
0.0
 12
9.48375189203683
 22
3.137430627221661
 32
0.0
 13
9.48375189203683
 23
3.137430627221661
 33
0.0
  0
SOLID
  5
1A4
  8
0
 10
9.4687518920368294
 20
0.9774306272216616
 30
0.0
 11
9.4987518920368306
 21
0.9774306272216616
 31
0.0
 12
9.48375189203683
 22
0.8874306272216617
 32
0.0
 13
9.48375189203683
 23
0.8874306272216617
 33
0.0
  0
INSERT
  5
1A5
  8
0
  2
*U9
 10
0.0
 20
0.0
 30
0.0
  0
ENDSEC
  0
EOF
