  0
SECTION
  2
HEADER
  9
$ACADVER
  1
AC1009
  9
$INSBASE
 10
0.0
 20
0.0
 30
0.0
  9
$EXTMIN
 10
0.8114119899558929
 20
1.48268341384256
 30
0.0
  9
$EXTMAX
 10
7.3960714896957711
 20
6.85768341384256
 30
0.0
  9
$LIMMIN
 10
0.0
 20
0.0
  9
$LIMMAX
 10
12.0
 20
9.0
  9
$ORTHOMODE
 70
     1
  9
$REGENMODE
 70
     0
  9
$FILLMODE
 70
     1
  9
$QTEXTMODE
 70
     0
  9
$MIRRTEXT
 70
     0
  9
$DRAGMODE
 70
     2
  9
$LTSCALE
 40
1.0
  9
$OSMODE
 70
    55
  9
$ATTMODE
 70
     1
  9
$TEXTSIZE
 40
0.12
  9
$TRACEWID
 40
0.05
  9
$TEXTSTYLE
  7
ADESK1
  9
$CLAYER
  8
0
  9
$CELTYPE
  6
BYLAYER
  9
$CECOLOR
 62
   256
  9
$DIMSCALE
 40
1.0
  9
$DIMASZ
 40
0.125
  9
$DIMEXO
 40
0.0625
  9
$DIMDLI
 40
0.38
  9
$DIMRND
 40
0.0
  9
$DIMDLE
 40
0.0
  9
$DIMEXE
 40
0.18
  9
$DIMTP
 40
0.0
  9
$DIMTM
 40
0.0
  9
$DIMTXT
 40
0.09375
  9
$DIMCEN
 40
-0.125
  9
$DIMTSZ
 40
0.0
  9
$DIMTOL
 70
     0
  9
$DIMLIM
 70
     0
  9
$DIMTIH
 70
     0
  9
$DIMTOH
 70
     0
  9
$DIMSE1
 70
     0
  9
$DIMSE2
 70
     0
  9
$DIMTAD
 70
     0
  9
$DIMZIN
 70
     3
  9
$DIMBLK
  1

  9
$DIMASO
 70
     0
  9
$DIMSHO
 70
     1
  9
$DIMPOST
  1

  9
$DIMAPOST
  1

  9
$DIMALT
 70
     0
  9
$DIMALTD
 70
     2
  9
$DIMALTF
 40
25.399999999999999
  9
$DIMLFAC
 40
1.0
  9
$DIMTOFL
 70
     1
  9
$DIMTVP
 40
0.0
  9
$DIMTIX
 70
     0
  9
$DIMSOXD
 70
     0
  9
$DIMSAH
 70
     0
  9
$DIMBLK1
  1

  9
$DIMBLK2
  1

  9
$DIMSTYLE
  2
STANDARD
  9
$DIMCLRD
 70
     0
  9
$DIMCLRE
 70
     0
  9
$DIMCLRT
 70
     0
  9
$DIMTFAC
 40
1.0
  9
$DIMGAP
 40
0.09
  9
$LUNITS
 70
     4
  9
$LUPREC
 70
     4
  9
$SKETCHINC
 40
0.1
  9
$FILLETRAD
 40
0.0
  9
$AUNITS
 70
     0
  9
$AUPREC
 70
     4
  9
$MENU
  1
.
  9
$ELEVATION
 40
0.0
  9
$PELEVATION
 40
0.0
  9
$THICKNESS
 40
0.0
  9
$LIMCHECK
 70
     0
  9
$BLIPMODE
 70
     0
  9
$CHAMFERA
 40
0.5
  9
$CHAMFERB
 40
0.5
  9
$SKPOLY
 70
     0
  9
$TDCREATE
 40
2451065.3838062501
  9
$TDUPDATE
 40
2453913.5778754288
  9
$TDINDWG
 40
0.0441451042
  9
$TDUSRTIMER
 40
0.0441451042
  9
$USRTIMER
 70
     1
  9
$ANGBASE
 50
0.0
  9
$ANGDIR
 70
     0
  9
$PDMODE
 70
    34
  9
$PDSIZE
 40
3.0
  9
$PLINEWID
 40
0.0
  9
$COORDS
 70
     1
  9
$SPLFRAME
 70
     0
  9
$SPLINETYPE
 70
     6
  9
$SPLINESEGS
 70
     8
  9
$ATTDIA
 70
     0
  9
$ATTREQ
 70
     1
  9
$HANDLING
 70
     1
  9
$HANDSEED
  5
36B
  9
$SURFTAB1
 70
     6
  9
$SURFTAB2
 70
     6
  9
$SURFTYPE
 70
     6
  9
$SURFU
 70
     6
  9
$SURFV
 70
     6
  9
$UCSNAME
  2

  9
$UCSORG
 10
0.0
 20
0.0
 30
0.0
  9
$UCSXDIR
 10
1.0
 20
0.0
 30
0.0
  9
$UCSYDIR
 10
0.0
 20
1.0
 30
0.0
  9
$PUCSNAME
  2

  9
$PUCSORG
 10
0.0
 20
0.0
 30
0.0
  9
$PUCSXDIR
 10
1.0
 20
0.0
 30
0.0
  9
$PUCSYDIR
 10
0.0
 20
1.0
 30
0.0
  9
$USERI1
 70
     0
  9
$USERI2
 70
     0
  9
$USERI3
 70
     0
  9
$USERI4
 70
     0
  9
$USERI5
 70
     0
  9
$USERR1
 40
0.0
  9
$USERR2
 40
0.0
  9
$USERR3
 40
0.0
  9
$USERR4
 40
0.0
  9
$USERR5
 40
0.0
  9
$WORLDVIEW
 70
     1
  9
$SHADEDGE
 70
     3
  9
$SHADEDIF
 70
    70
  9
$TILEMODE
 70
     1
  9
$MAXACTVP
 70
    48
  9
$PLIMCHECK
 70
     0
  9
$PEXTMIN
 10
0.3364119899558928
 20
1.0139334138425591
 30
0.0
  9
$PEXTMAX
 10
6.7864119899558917
 20
7.3264334138425591
 30
0.0
  9
$PLIMMIN
 10
-0.1579164520023376
 20
-0.2812499887361301
  9
$PLIMMAX
 10
10.84208330770177
 20
8.2187497709679782
  9
$UNITMODE
 70
     0
  9
$VISRETAIN
 70
     1
  9
$PLINEGEN
 70
     0
  9
$PSLTSCALE
 70
     1
  0
ENDSEC
  0
SECTION
  2
TABLES
  0
TABLE
  2
VPORT
 70
     2
  0
VPORT
  2
*ACTIVE
 70
     0
 10
0.0
 20
0.0
 11
1.0
 21
1.0
 12
-0.8009432472994957
 22
0.7412251471454783
 13
0.0
 23
0.0
 14
0.5
 24
0.5
 15
0.5
 25
0.5
 16
0.0
 26
0.0
 36
1.0
 17
6.0871571875681152
 27
3.42884170692128
 37
0.0
 40
5.436036435433043
 41
2.2104247104247099
 42
50.0
 43
0.0
 44
0.0
 50
0.0
 51
0.0
 71
     0
 72
   100
 73
     1
 74
     1
 75
     0
 76
     0
 77
     0
 78
     0
  0
ENDTAB
  0
TABLE
  2
LTYPE
 70
    18
  0
LTYPE
  2
CONTINUOUS
 70
     0
  3
Solid line
 72
    65
 73
     0
 40
0.0
  0
LTYPE
  2
HIDDEN
 70
     0
  3
__ __ __ __ __ __ __ __ __ __ __ __ __ __ __ __
 72
    65
 73
     2
 40
0.375
 49
0.25
 49
-0.125
  0
LTYPE
  2
PHANTOM2
 70
     0
  3
Phantom (.5x) ___ _ _ ___ _ _ ___ _ _ ___ _ _
 72
    65
 73
     6
 40
1.25
 49
0.625
 49
-0.125
 49
0.125
 49
-0.125
 49
0.125
 49
-0.125
  0
LTYPE
  2
CENTER
 70
     0
  3
Center ____ _ ____ _ ____ _ ____ _ ____ _ ____
 72
    65
 73
     4
 40
2.0
 49
1.25
 49
-0.25
 49
0.25
 49
-0.25
  0
LTYPE
  2
ASULTYPE
 70
     0
  3
Solid line
 72
    65
 73
     2
 40
3.0
 49
2.5
 49
0.5
  0
LTYPE
  2
ASVLTYPE
 70
     0
  3
__ __ __ __ __ __ __ __ __ __ __ __ __ __ __ __ __ __ __ __ __
 72
    65
 73
     2
 40
0.75
 49
0.5
 49
-0.25
  0
LTYPE
  2
AM_ISO02W050
 70
     0
  3
__ __ __ __ __ __ __ __ __ __ __ __ __ __ __
 72
    65
 73
     2
 40
7.5
 49
6.0
 49
-1.5
  0
LTYPE
  2
AM_ISO08W050
 70
     0
  3
____ . ____ . ____ . ____ . ____ . ____ . ____
 72
    65
 73
     4
 40
18.0
 49
12.0
 49
-1.5
 49
3.0
 49
-1.5
  0
LTYPE
  2
AM_ISO09W050
 70
     0
  3
_____ . . _____ . . _____ . . ____ .. ____
 72
    65
 73
     6
 40
22.5
 49
12.0
 49
-1.5
 49
3.0
 49
-1.5
 49
3.0
 49
-1.5
  0
LTYPE
  2
AMCONSTR
 70
     0
  3
_______________________
 72
    65
 73
     2
 40
9999.0
 49
9999.0
 49
0.0
  0
LTYPE
  2
AM_ISO08W050X2
 70
     0
  3
__ . __ . __ . __ . __ . __
 72
    65
 73
     4
 40
9.0
 49
6.0
 49
-0.75
 49
1.5
 49
-0.75
  0
LTYPE
  2
AM_ISO02W050X2
 70
     0
  3
 _ _ _ _ _ _ _ _ _ _ _ _
 72
    65
 73
     2
 40
3.75
 49
3.0
 49
-0.75
  0
LTYPE
  2
AMZIGZAG
 70
     0
  3
/\/-/\/-/\/-/\/-/\/-/\/
 72
    65
 73
     2
 40
11.0001
 49
0.0001
 49
-11.0
  0
LTYPE
  2
CENTER2
 70
     0
  3
Center (.5x) ___ _ ___ _ ___ _ ___ _ ___ _ ___
 72
    65
 73
     4
 40
1.125
 49
0.75
 49
-0.125
 49
0.125
 49
-0.125
  0
LTYPE
  2
HIDDEN2
 70
     0
  3
Hidden (.5x) _ _ _ _ _ _ _ _ _ _ _ _ _ _ _ _ _
 72
    65
 73
     2
 40
0.1875
 49
0.125
 49
-0.0625
  0
LTYPE
  2
AMZIGZAG2
 70
     0
  3
/\/-/\/-/\/-/\/-/\/-/\/
 72
    65
 73
     2
 40
0.4401
 49
0.0001
 49
-0.4400000000000001
  0
LTYPE
  2
ACANSTGB
 70
     0
  3
__ . . __ . .
 72
    65
 73
     6
 40
0.35433070866
 49
0.15748031496
 49
-0.03937007874
 49
0.03937007874
 49
-0.03937007874
 49
0.03937007874
 49
-0.03937007874
  0
LTYPE
  2
ACANSTGL
 70
     0
  3
_ _ _ _ _
 72
    65
 73
     2
 40
0.11811023622
 49
0.07874015748
 49
-0.03937007874
  0
ENDTAB
  0
TABLE
  2
LAYER
 70
     4
  0
LAYER
  2
0
 70
     0
 62
     7
  6
CONTINUOUS
  0
LAYER
  2
AM_VIS
 70
     0
 62
     7
  6
CONTINUOUS
  0
LAYER
  2
AM_HID
 70
     0
 62
     7
  6
HIDDEN
  0
LAYER
  2
KEE10
 70
     0
 62
     7
  6
CONTINUOUS
  0
ENDTAB
  0
TABLE
  2
STYLE
 70
     6
  0
STYLE
  2
STANDARD
 70
     0
 40
0.0
 41
1.0
 50
0.0
 71
     0
 42
0.2
  3
txt
  4

  0
STYLE
  2
ADESK1
 70
     0
 40
0.0
 41
1.0
 50
0.0
 71
     0
 42
0.12
  3
romans.shx
  4

  0
STYLE
  2

 70
     1
 40
0.0
 41
1.0
 50
0.0
 71
     0
 42
0.12
  3
ltypeshp.shx
  4

  0
STYLE
  2
ACANSTS
 70
     0
 40
1.0
 41
1.0
 50
0.0
 71
     0
 42
0.12
  3
romans.shx
  4

  0
STYLE
  2
ACANSGDT
 70
     0
 40
0.0
 41
1.0
 50
0.0
 71
     0
 42
0.12
  3
amgdtans.shx
  4

  0
STYLE
  2
ACANSTSB
 70
     0
 40
1.0
 41
1.0
 50
0.0
 71
     0
 42
0.2
  3
romans.shx
  4

  0
ENDTAB
  0
TABLE
  2
VIEW
 70
     0
  0
ENDTAB
  0
TABLE
  2
UCS
 70
     0
  0
ENDTAB
  0
TABLE
  2
APPID
 70
    13
  0
APPID
  2
ACAD
 70
     0
  0
APPID
  2
GENIUS_GENDIM_13
 70
     0
  0
APPID
  2
GENIUS_GENDTOL_13
 70
     0
  0
APPID
  2
GENIUS_GE3DTOL_13
 70
     0
  0
APPID
  2
MCAD_NO_VIS
 70
     0
  0
APPID
  2
ACAD_TEMP_GRAPHIC
 70
     0
  0
APPID
  2
AD_DRAW
 70
     0
  0
APPID
  2
ACATTRIBSERVICES
 70
     0
  0
APPID
  2
ASURF_PCURVE_APPNAME
 70
     0
  0
APPID
  2
AMG_3D2D_5_0
 70
     0
  0
APPID
  2
DESIGNERASSEMBLIES
 70
     0
  0
APPID
  2
ACADM_DIM_EDIT
 70
     0
  0
APPID
  2
AMDT_DM_ADJ
 70
     0
  0
ENDTAB
  0
TABLE
  2
DIMSTYLE
 70
     7
  0
DIMSTYLE
  2
STANDARD
 70
     0
  3

  4

  5

  6

  7

 40
1.0
 41
0.18
 42
0.0625
 43
0.38
 44
0.18
 45
0.0
 46
0.0
 47
0.0
 48
0.0
140
0.18
141
0.09
142
0.0
143
25.399999999999999
144
1.0
145
0.0
146
1.0
147
0.09
 71
     0
 72
     0
 73
     1
 74
     1
 75
     0
 76
     0
 77
     0
 78
     0
170
     0
171
     2
172
     0
173
     0
174
     0
175
     0
176
     0
177
     0
178
     0
  0
DIMSTYLE
  2
AM_ANSI
 70
     0
  3

  4
mm
  5

  6

  7

 40
1.0
 41
0.1
 42
0.05
 43
0.5
 44
0.1
 45
0.0
 46
0.0
 47
0.1
 48
0.1
140
0.12
141
0.0
142
0.0
143
25.399999999999999
144
1.0
145
0.0
146
0.71
147
0.06
 71
     0
 72
     0
 73
     1
 74
     1
 75
     0
 76
     0
 77
     0
 78
     7
170
     0
171
     2
172
     0
173
     0
174
     0
175
     0
176
   256
177
   256
178
     2
  0
DIMSTYLE
  2
AM_ANSI$3
 70
     0
  3

  4
mm
  5

  6

  7

 40
1.0
 41
0.1
 42
0.05
 43
0.5
 44
0.1
 45
0.0
 46
0.0
 47
0.1
 48
0.1
140
0.12
141
0.0
142
0.0
143
25.399999999999999
144
1.0
145
0.0
146
0.71
147
0.06
 71
     0
 72
     0
 73
     1
 74
     1
 75
     0
 76
     0
 77
     0
 78
     7
170
     0
171
     2
172
     0
173
     0
174
     0
175
     0
176
   256
177
   256
178
     2
  0
DIMSTYLE
  2
AM_ANSI$4
 70
     0
  3

  4
mm
  5

  6

  7

 40
1.0
 41
0.1
 42
0.05
 43
0.5
 44
0.1
 45
0.0
 46
0.0
 47
0.1
 48
0.1
140
0.12
141
0.0
142
0.0
143
25.399999999999999
144
1.0
145
0.0
146
0.71
147
0.06
 71
     0
 72
     0
 73
     1
 74
     1
 75
     0
 76
     0
 77
     0
 78
     7
170
     0
171
     2
172
     0
173
     0
174
     0
175
     0
176
   256
177
   256
178
     2
  0
DIMSTYLE
  2
AM_ANSI$7
 70
     0
  3

  4
mm
  5

  6

  7

 40
1.0
 41
0.1
 42
0.05
 43
0.5
 44
0.1
 45
0.0
 46
0.0
 47
0.1
 48
0.1
140
0.24
141
0.0
142
0.0
143
25.399999999999999
144
1.0
145
0.0
146
0.71
147
0.06
 71
     0
 72
     0
 73
     1
 74
     1
 75
     0
 76
     0
 77
     0
 78
     7
170
     0
171
     2
172
     0
173
     0
174
     0
175
     0
176
   256
177
   256
178
     2
  0
DIMSTYLE
  2
AM_ANSI$SF
 70
     0
  3

  4
mm
  5

  6

  7

 40
1.0
 41
0.1
 42
0.05
 43
0.5
 44
0.1
 45
0.0
 46
0.0
 47
0.1
 48
0.1
140
0.12
141
0.0
142
0.0
143
25.399999999999999
144
1.0
145
0.0
146
0.71
147
0.06
 71
     0
 72
     0
 73
     1
 74
     1
 75
     1
 76
     1
 77
     0
 78
     7
170
     0
171
     2
172
     0
173
     0
174
     0
175
     0
176
   256
177
   256
178
     2
  0
DIMSTYLE
  2
AM_ANSI$SH
 70
     0
  3

  4
mm
  5

  6
GENAXEH
  7

 40
1.0
 41
0.1
 42
0.05
 43
0.5
 44
0.1
 45
0.0
 46
0.0
 47
0.1
 48
0.1
140
0.12
141
0.0
142
0.0
143
25.399999999999999
144
1.0
145
0.0
146
0.71
147
0.06
 71
     0
 72
     0
 73
     1
 74
     1
 75
     1
 76
     1
 77
     0
 78
     7
170
     0
171
     2
172
     0
173
     1
174
     0
175
     0
176
   256
177
   256
178
     2
  0
ENDTAB
  0
ENDSEC
  0
SECTION
  2
BLOCKS
  0
BLOCK
  8
0
  2
$MODEL_SPACE
 70
     0
 10
0.0
 20
0.0
 30
0.0
  3
$MODEL_SPACE
  1

  0
ENDBLK
  5
A
  8
0
  0
BLOCK
 67
     1
  8
0
  2
$PAPER_SPACE
 70
     0
 10
0.0
 20
0.0
 30
0.0
  3
$PAPER_SPACE
  1

  0
ENDBLK
  5
F
 67
     1
  8
0
  0
BLOCK
  8
0
  2
*U0
 70
     1
 10
0.0
 20
0.0
 30
0.0
  3
*U0
  1

  0
ENDBLK
  5
10E
  8
0
  0
BLOCK
  8
0
  2
GENAXEH
 70
     0
 10
0.0
 20
0.0
 30
0.0
  3
GENAXEH
  1

  0
LINE
  5
14B
  8
0
 10
-1.0
 20
0.0
 30
0.0
 11
1.0
 21
0.0
 31
0.0
  0
ENDBLK
  5
14D
  8
0
  0
BLOCK
  8
0
  2
_DOT
 70
     0
 10
0.0
 20
0.0
 30
0.0
  3
_DOT
  1

  0
POLYLINE
  5
154
  8
0
  6
BYBLOCK
 62
     0
 66
     1
 10
0.0
 20
0.0
 30
0.0
 70
     1
 40
0.5
 41
0.5
  0
VERTEX
  5
155
  8
0
  6
BYBLOCK
 62
     0
 10
-0.25
 20
0.0
 30
0.0
 42
1.0
  0
VERTEX
  5
156
  8
0
  6
BYBLOCK
 62
     0
 10
0.25
 20
0.0
 30
0.0
 42
1.0
  0
SEQEND
  5
157
  8
0
  6
BYBLOCK
 62
     0
  0
LINE
  5
158
  8
0
  6
BYBLOCK
 62
     0
 10
-0.5
 20
0.0
 30
0.0
 11
-1.0
 21
0.0
 31
0.0
  0
ENDBLK
  5
15A
  8
0
  0
BLOCK
  8
0
  2
2D
 70
     0
 10
0.0
 20
0.0
 30
0.0
  3
2D
  1

  0
INSERT
  5
15E
  8
0
  2
*U4
 10
0.0
 20
0.0
 30
0.0
  0
INSERT
  5
15F
  8
0
  2
*U5
 10
0.0
 20
0.0
 30
0.0
  0
INSERT
  5
160
  8
0
  2
*U6
 10
0.0
 20
0.0
 30
0.0
  0
ENDBLK
  5
162
  8
0
  0
BLOCK
  8
0
  2
*U4
 70
     1
 10
0.0
 20
0.0
 30
0.0
  3
*U4
  1

  0
TEXT
  5
192
  8
KEE10
 10
-0.167740653382606
 20
0.7944046258072062
 30
0.0
 40
0.140625
  1
KEE
  0
ENDBLK
  5
194
  8
0
  0
BLOCK
  8
0
  2
*U5
 70
     1
 10
0.0
 20
0.0
 30
0.0
  3
*U5
  1

  0
TEXT
  5
196
  8
KEE10
 10
-0.308365653382606
 20
0.4858688129746218
 30
0.0
 40
0.140625
  1
KLAMP
  0
ENDBLK
  5
198
  8
0
  0
BLOCK
  8
0
  2
*U6
 70
     1
 10
0.0
 20
0.0
 30
0.0
  3
*U6
  1

  0
TEXT
  5
19A
  8
KEE10
 10
-0.202896903382606
 20
0.2018753139112972
 30
0.0
 40
0.140625
  1
10-8
  0
ENDBLK
  5
19C
  8
0
  0
BLOCK
  8
0
  2
*U7
 70
     1
 10
0.0
 20
0.0
 30
0.0
  3
*U7
  1

  0
TEXT
  5
19E
  8
KEE10
 10
3.379359365027867
 20
4.543698826837157
 30
0.0
 40
0.140625
  1
KEE
  0
ENDBLK
  5
1A0
  8
0
  0
BLOCK
  8
0
  2
*U8
 70
     1
 10
0.0
 20
0.0
 30
0.0
  3
*U8
  1

  0
TEXT
  5
1A2
  8
KEE10
 10
3.238734365027867
 20
4.2351630140045726
 30
0.0
 40
0.140625
  1
KLAMP
  0
ENDBLK
  5
1A4
  8
0
  0
BLOCK
  8
0
  2
*U9
 70
     1
 10
0.0
 20
0.0
 30
0.0
  3
*U9
  1

  0
TEXT
  5
1A6
  8
0
 10
7.2473214896957678
 20
3.8956298424139901
 30
0.0
 40
0.09375
  1
5-3/8"
 50
90.0
  7
ADESK1
  0
ENDBLK
  5
1A8
  8
0
  0
ENDSEC
  0
SECTION
  2
ENTITIES
  0
POINT
  5
26
  8
0
 10
0.0
 20
0.0
 30
0.0
  0
ARC
  5
27
  8
AM_HID
 10
-0.2319691810681239
 20
3.038984315575826
 30
0.0
 40
2.8513883244112002
 50
351.13570111101961
 51
8.6047229937898884
  0
LINE
  5
2A
  8
AM_VIS
 10
2.4430985276386399
 20
6.3576834138425591
 30
0.0
 11
2.4430985276386399
 21
6.4826834138425591
 31
0.0
  0
LINE
  5
2C
  8
AM_VIS
 10
2.3428062292604981
 20
4.6076834138425582
 30
0.0
 11
2.3428062292604981
 21
6.3576834138425591
 31
0.0
  0
LINE
  5
2D
  8
AM_VIS
 10
2.4430985276386399
 20
4.4826834138425582
 30
0.0
 11
2.4430985276386399
 21
4.6076834138425582
 31
0.0
  0
POLYLINE
  8
AM_VIS
  5
1A9
  66
     1
 10
0.000000
 20
0.000000
 30
0.000000
  70
     8
  0
VERTEX
  8
AM_VIS
  5
1AA
 10
2.37537
 20
1.98268
 30
0.000000
  70
    32
  0
VERTEX
  8
AM_VIS
  5
1AB
 10
2.37586
 20
1.98603
 30
0.000000
  70
    32
  0
VERTEX
  8
AM_VIS
  5
1AC
 10
2.37634
 20
1.98938
 30
0.000000
  70
    32
  0
VERTEX
  8
AM_VIS
  5
1AD
 10
2.37682
 20
1.99275
 30
0.000000
  70
    32
  0
VERTEX
  8
AM_VIS
  5
1AE
 10
2.37730
 20
1.99612
 30
0.000000
  70
    32
  0
VERTEX
  8
AM_VIS
  5
1AF
 10
2.37779
 20
1.99951
 30
0.000000
  70
    32
  0
VERTEX
  8
AM_VIS
  5
1B0
 10
2.37827
 20
2.00291
 30
0.000000
  70
    32
  0
VERTEX
  8
AM_VIS
  5
1B1
 10
2.37875
 20
2.00632
 30
0.000000
  70
    32
  0
VERTEX
  8
AM_VIS
  5
1B2
 10
2.37924
 20
2.00973
 30
0.000000
  70
    32
  0
VERTEX
  8
AM_VIS
  5
1B3
 10
2.37972
 20
2.01316
 30
0.000000
  70
    32
  0
VERTEX
  8
AM_VIS
  5
1B4
 10
2.38021
 20
2.01660
 30
0.000000
  70
    32
  0
VERTEX
  8
AM_VIS
  5
1B5
 10
2.38069
 20
2.02005
 30
0.000000
  70
    32
  0
VERTEX
  8
AM_VIS
  5
1B6
 10
2.38117
 20
2.02351
 30
0.000000
  70
    32
  0
VERTEX
  8
AM_VIS
  5
1B7
 10
2.38166
 20
2.02698
 30
0.000000
  70
    32
  0
VERTEX
  8
AM_VIS
  5
1B8
 10
2.38214
 20
2.03046
 30
0.000000
  70
    32
  0
VERTEX
  8
AM_VIS
  5
1B9
 10
2.38263
 20
2.03395
 30
0.000000
  70
    32
  0
VERTEX
  8
AM_VIS
  5
1BA
 10
2.38311
 20
2.03745
 30
0.000000
  70
    32
  0
VERTEX
  8
AM_VIS
  5
1BB
 10
2.38360
 20
2.04096
 30
0.000000
  70
    32
  0
VERTEX
  8
AM_VIS
  5
1BC
 10
2.38408
 20
2.04448
 30
0.000000
  70
    32
  0
VERTEX
  8
AM_VIS
  5
1BD
 10
2.38457
 20
2.04801
 30
0.000000
  70
    32
  0
VERTEX
  8
AM_VIS
  5
1BE
 10
2.38505
 20
2.05155
 30
0.000000
  70
    32
  0
VERTEX
  8
AM_VIS
  5
1BF
 10
2.38553
 20
2.05510
 30
0.000000
  70
    32
  0
VERTEX
  8
AM_VIS
  5
1C0
 10
2.38602
 20
2.05865
 30
0.000000
  70
    32
  0
VERTEX
  8
AM_VIS
  5
1C1
 10
2.38650
 20
2.06222
 30
0.000000
  70
    32
  0
VERTEX
  8
AM_VIS
  5
1C2
 10
2.38699
 20
2.06579
 30
0.000000
  70
    32
  0
VERTEX
  8
AM_VIS
  5
1C3
 10
2.38747
 20
2.06938
 30
0.000000
  70
    32
  0
VERTEX
  8
AM_VIS
  5
1C4
 10
2.38795
 20
2.07297
 30
0.000000
  70
    32
  0
VERTEX
  8
AM_VIS
  5
1C5
 10
2.38843
 20
2.07657
 30
0.000000
  70
    32
  0
VERTEX
  8
AM_VIS
  5
1C6
 10
2.38892
 20
2.08018
 30
0.000000
  70
    32
  0
VERTEX
  8
AM_VIS
  5
1C7
 10
2.38940
 20
2.08380
 30
0.000000
  70
    32
  0
VERTEX
  8
AM_VIS
  5
1C8
 10
2.38988
 20
2.08743
 30
0.000000
  70
    32
  0
VERTEX
  8
AM_VIS
  5
1C9
 10
2.39036
 20
2.09107
 30
0.000000
  70
    32
  0
VERTEX
  8
AM_VIS
  5
1CA
 10
2.39084
 20
2.09471
 30
0.000000
  70
    32
  0
VERTEX
  8
AM_VIS
  5
1CB
 10
2.39132
 20
2.09837
 30
0.000000
  70
    32
  0
VERTEX
  8
AM_VIS
  5
1CC
 10
2.39180
 20
2.10203
 30
0.000000
  70
    32
  0
VERTEX
  8
AM_VIS
  5
1CD
 10
2.39228
 20
2.10570
 30
0.000000
  70
    32
  0
VERTEX
  8
AM_VIS
  5
1CE
 10
2.39276
 20
2.10937
 30
0.000000
  70
    32
  0
VERTEX
  8
AM_VIS
  5
1CF
 10
2.39324
 20
2.11306
 30
0.000000
  70
    32
  0
VERTEX
  8
AM_VIS
  5
1D0
 10
2.39371
 20
2.11675
 30
0.000000
  70
    32
  0
VERTEX
  8
AM_VIS
  5
1D1
 10
2.39419
 20
2.12046
 30
0.000000
  70
    32
  0
VERTEX
  8
AM_VIS
  5
1D2
 10
2.39467
 20
2.12417
 30
0.000000
  70
    32
  0
VERTEX
  8
AM_VIS
  5
1D3
 10
2.39514
 20
2.12788
 30
0.000000
  70
    32
  0
VERTEX
  8
AM_VIS
  5
1D4
 10
2.39562
 20
2.13161
 30
0.000000
  70
    32
  0
VERTEX
  8
AM_VIS
  5
1D5
 10
2.39609
 20
2.13534
 30
0.000000
  70
    32
  0
VERTEX
  8
AM_VIS
  5
1D6
 10
2.39656
 20
2.13908
 30
0.000000
  70
    32
  0
VERTEX
  8
AM_VIS
  5
1D7
 10
2.39704
 20
2.14283
 30
0.000000
  70
    32
  0
VERTEX
  8
AM_VIS
  5
1D8
 10
2.39751
 20
2.14658
 30
0.000000
  70
    32
  0
VERTEX
  8
AM_VIS
  5
1D9
 10
2.39798
 20
2.15034
 30
0.000000
  70
    32
  0
VERTEX
  8
AM_VIS
  5
1DA
 10
2.39845
 20
2.15411
 30
0.000000
  70
    32
  0
VERTEX
  8
AM_VIS
  5
1DB
 10
2.39891
 20
2.15789
 30
0.000000
  70
    32
  0
VERTEX
  8
AM_VIS
  5
1DC
 10
2.39938
 20
2.16167
 30
0.000000
  70
    32
  0
VERTEX
  8
AM_VIS
  5
1DD
 10
2.39985
 20
2.16546
 30
0.000000
  70
    32
  0
VERTEX
  8
AM_VIS
  5
1DE
 10
2.40031
 20
2.16925
 30
0.000000
  70
    32
  0
VERTEX
  8
AM_VIS
  5
1DF
 10
2.40078
 20
2.17305
 30
0.000000
  70
    32
  0
VERTEX
  8
AM_VIS
  5
1E0
 10
2.40124
 20
2.17686
 30
0.000000
  70
    32
  0
VERTEX
  8
AM_VIS
  5
1E1
 10
2.40170
 20
2.18068
 30
0.000000
  70
    32
  0
VERTEX
  8
AM_VIS
  5
1E2
 10
2.40216
 20
2.18450
 30
0.000000
  70
    32
  0
VERTEX
  8
AM_VIS
  5
1E3
 10
2.40262
 20
2.18833
 30
0.000000
  70
    32
  0
VERTEX
  8
AM_VIS
  5
1E4
 10
2.40308
 20
2.19216
 30
0.000000
  70
    32
  0
VERTEX
  8
AM_VIS
  5
1E5
 10
2.40354
 20
2.19600
 30
0.000000
  70
    32
  0
VERTEX
  8
AM_VIS
  5
1E6
 10
2.40400
 20
2.19985
 30
0.000000
  70
    32
  0
VERTEX
  8
AM_VIS
  5
1E7
 10
2.40445
 20
2.20370
 30
0.000000
  70
    32
  0
VERTEX
  8
AM_VIS
  5
1E8
 10
2.40490
 20
2.20756
 30
0.000000
  70
    32
  0
VERTEX
  8
AM_VIS
  5
1E9
 10
2.40536
 20
2.21143
 30
0.000000
  70
    32
  0
VERTEX
  8
AM_VIS
  5
1EA
 10
2.40581
 20
2.21530
 30
0.000000
  70
    32
  0
VERTEX
  8
AM_VIS
  5
1EB
 10
2.40626
 20
2.21917
 30
0.000000
  70
    32
  0
VERTEX
  8
AM_VIS
  5
1EC
 10
2.40670
 20
2.22305
 30
0.000000
  70
    32
  0
VERTEX
  8
AM_VIS
  5
1ED
 10
2.40715
 20
2.22694
 30
0.000000
  70
    32
  0
VERTEX
  8
AM_VIS
  5
1EE
 10
2.40760
 20
2.23083
 30
0.000000
  70
    32
  0
VERTEX
  8
AM_VIS
  5
1EF
 10
2.40804
 20
2.23473
 30
0.000000
  70
    32
  0
VERTEX
  8
AM_VIS
  5
1F0
 10
2.40848
 20
2.23863
 30
0.000000
  70
    32
  0
VERTEX
  8
AM_VIS
  5
1F1
 10
2.40892
 20
2.24254
 30
0.000000
  70
    32
  0
VERTEX
  8
AM_VIS
  5
1F2
 10
2.40936
 20
2.24645
 30
0.000000
  70
    32
  0
VERTEX
  8
AM_VIS
  5
1F3
 10
2.40980
 20
2.25037
 30
0.000000
  70
    32
  0
VERTEX
  8
AM_VIS
  5
1F4
 10
2.41023
 20
2.25429
 30
0.000000
  70
    32
  0
VERTEX
  8
AM_VIS
  5
1F5
 10
2.41067
 20
2.25822
 30
0.000000
  70
    32
  0
VERTEX
  8
AM_VIS
  5
1F6
 10
2.41110
 20
2.26215
 30
0.000000
  70
    32
  0
VERTEX
  8
AM_VIS
  5
1F7
 10
2.41153
 20
2.26608
 30
0.000000
  70
    32
  0
VERTEX
  8
AM_VIS
  5
1F8
 10
2.41196
 20
2.27002
 30
0.000000
  70
    32
  0
VERTEX
  8
AM_VIS
  5
1F9
 10
2.41238
 20
2.27397
 30
0.000000
  70
    32
  0
VERTEX
  8
AM_VIS
  5
1FA
 10
2.41281
 20
2.27792
 30
0.000000
  70
    32
  0
VERTEX
  8
AM_VIS
  5
1FB
 10
2.41323
 20
2.28187
 30
0.000000
  70
    32
  0
VERTEX
  8
AM_VIS
  5
1FC
 10
2.41365
 20
2.28583
 30
0.000000
  70
    32
  0
VERTEX
  8
AM_VIS
  5
1FD
 10
2.41407
 20
2.28979
 30
0.000000
  70
    32
  0
VERTEX
  8
AM_VIS
  5
1FE
 10
2.41449
 20
2.29376
 30
0.000000
  70
    32
  0
VERTEX
  8
AM_VIS
  5
1FF
 10
2.41490
 20
2.29773
 30
0.000000
  70
    32
  0
VERTEX
  8
AM_VIS
  5
200
 10
2.41532
 20
2.30170
 30
0.000000
  70
    32
  0
VERTEX
  8
AM_VIS
  5
201
 10
2.41573
 20
2.30568
 30
0.000000
  70
    32
  0
VERTEX
  8
AM_VIS
  5
202
 10
2.41614
 20
2.30966
 30
0.000000
  70
    32
  0
VERTEX
  8
AM_VIS
  5
203
 10
2.41654
 20
2.31364
 30
0.000000
  70
    32
  0
VERTEX
  8
AM_VIS
  5
204
 10
2.41695
 20
2.31763
 30
0.000000
  70
    32
  0
VERTEX
  8
AM_VIS
  5
205
 10
2.41735
 20
2.32162
 30
0.000000
  70
    32
  0
VERTEX
  8
AM_VIS
  5
206
 10
2.41775
 20
2.32562
 30
0.000000
  70
    32
  0
VERTEX
  8
AM_VIS
  5
207
 10
2.41815
 20
2.32961
 30
0.000000
  70
    32
  0
VERTEX
  8
AM_VIS
  5
208
 10
2.41855
 20
2.33361
 30
0.000000
  70
    32
  0
VERTEX
  8
AM_VIS
  5
209
 10
2.41894
 20
2.33762
 30
0.000000
  70
    32
  0
VERTEX
  8
AM_VIS
  5
20A
 10
2.41933
 20
2.34163
 30
0.000000
  70
    32
  0
VERTEX
  8
AM_VIS
  5
20B
 10
2.41972
 20
2.34564
 30
0.000000
  70
    32
  0
VERTEX
  8
AM_VIS
  5
20C
 10
2.42011
 20
2.34965
 30
0.000000
  70
    32
  0
VERTEX
  8
AM_VIS
  5
20D
 10
2.42049
 20
2.35366
 30
0.000000
  70
    32
  0
VERTEX
  8
AM_VIS
  5
20E
 10
2.42088
 20
2.35768
 30
0.000000
  70
    32
  0
VERTEX
  8
AM_VIS
  5
20F
 10
2.42126
 20
2.36170
 30
0.000000
  70
    32
  0
VERTEX
  8
AM_VIS
  5
210
 10
2.42163
 20
2.36572
 30
0.000000
  70
    32
  0
VERTEX
  8
AM_VIS
  5
211
 10
2.42201
 20
2.36975
 30
0.000000
  70
    32
  0
VERTEX
  8
AM_VIS
  5
212
 10
2.42238
 20
2.37378
 30
0.000000
  70
    32
  0
VERTEX
  8
AM_VIS
  5
213
 10
2.42275
 20
2.37781
 30
0.000000
  70
    32
  0
VERTEX
  8
AM_VIS
  5
214
 10
2.42312
 20
2.38184
 30
0.000000
  70
    32
  0
VERTEX
  8
AM_VIS
  5
215
 10
2.42348
 20
2.38587
 30
0.000000
  70
    32
  0
VERTEX
  8
AM_VIS
  5
216
 10
2.42384
 20
2.38991
 30
0.000000
  70
    32
  0
VERTEX
  8
AM_VIS
  5
217
 10
2.42420
 20
2.39395
 30
0.000000
  70
    32
  0
VERTEX
  8
AM_VIS
  5
218
 10
2.42456
 20
2.39799
 30
0.000000
  70
    32
  0
VERTEX
  8
AM_VIS
  5
219
 10
2.42491
 20
2.40203
 30
0.000000
  70
    32
  0
VERTEX
  8
AM_VIS
  5
21A
 10
2.42526
 20
2.40607
 30
0.000000
  70
    32
  0
VERTEX
  8
AM_VIS
  5
21B
 10
2.42561
 20
2.41012
 30
0.000000
  70
    32
  0
VERTEX
  8
AM_VIS
  5
21C
 10
2.42595
 20
2.41416
 30
0.000000
  70
    32
  0
VERTEX
  8
AM_VIS
  5
21D
 10
2.42630
 20
2.41821
 30
0.000000
  70
    32
  0
VERTEX
  8
AM_VIS
  5
21E
 10
2.42664
 20
2.42226
 30
0.000000
  70
    32
  0
VERTEX
  8
AM_VIS
  5
21F
 10
2.42697
 20
2.42631
 30
0.000000
  70
    32
  0
VERTEX
  8
AM_VIS
  5
220
 10
2.42731
 20
2.43037
 30
0.000000
  70
    32
  0
VERTEX
  8
AM_VIS
  5
221
 10
2.42764
 20
2.43442
 30
0.000000
  70
    32
  0
VERTEX
  8
AM_VIS
  5
222
 10
2.42796
 20
2.43847
 30
0.000000
  70
    32
  0
VERTEX
  8
AM_VIS
  5
223
 10
2.42829
 20
2.44253
 30
0.000000
  70
    32
  0
VERTEX
  8
AM_VIS
  5
224
 10
2.42861
 20
2.44658
 30
0.000000
  70
    32
  0
VERTEX
  8
AM_VIS
  5
225
 10
2.42893
 20
2.45064
 30
0.000000
  70
    32
  0
VERTEX
  8
AM_VIS
  5
226
 10
2.42924
 20
2.45470
 30
0.000000
  70
    32
  0
VERTEX
  8
AM_VIS
  5
227
 10
2.42956
 20
2.45876
 30
0.000000
  70
    32
  0
VERTEX
  8
AM_VIS
  5
228
 10
2.42987
 20
2.46282
 30
0.000000
  70
    32
  0
VERTEX
  8
AM_VIS
  5
229
 10
2.43017
 20
2.46688
 30
0.000000
  70
    32
  0
VERTEX
  8
AM_VIS
  5
22A
 10
2.43048
 20
2.47094
 30
0.000000
  70
    32
  0
VERTEX
  8
AM_VIS
  5
22B
 10
2.43078
 20
2.47500
 30
0.000000
  70
    32
  0
VERTEX
  8
AM_VIS
  5
22C
 10
2.43107
 20
2.47906
 30
0.000000
  70
    32
  0
VERTEX
  8
AM_VIS
  5
22D
 10
2.43137
 20
2.48312
 30
0.000000
  70
    32
  0
VERTEX
  8
AM_VIS
  5
22E
 10
2.43166
 20
2.48718
 30
0.000000
  70
    32
  0
VERTEX
  8
AM_VIS
  5
22F
 10
2.43195
 20
2.49124
 30
0.000000
  70
    32
  0
VERTEX
  8
AM_VIS
  5
230
 10
2.43223
 20
2.49530
 30
0.000000
  70
    32
  0
VERTEX
  8
AM_VIS
  5
231
 10
2.43251
 20
2.49936
 30
0.000000
  70
    32
  0
VERTEX
  8
AM_VIS
  5
232
 10
2.43279
 20
2.50342
 30
0.000000
  70
    32
  0
VERTEX
  8
AM_VIS
  5
233
 10
2.43307
 20
2.50748
 30
0.000000
  70
    32
  0
VERTEX
  8
AM_VIS
  5
234
 10
2.43334
 20
2.51154
 30
0.000000
  70
    32
  0
VERTEX
  8
AM_VIS
  5
235
 10
2.43361
 20
2.51560
 30
0.000000
  70
    32
  0
VERTEX
  8
AM_VIS
  5
236
 10
2.43387
 20
2.51966
 30
0.000000
  70
    32
  0
VERTEX
  8
AM_VIS
  5
237
 10
2.43413
 20
2.52372
 30
0.000000
  70
    32
  0
VERTEX
  8
AM_VIS
  5
238
 10
2.43439
 20
2.52777
 30
0.000000
  70
    32
  0
VERTEX
  8
AM_VIS
  5
239
 10
2.43465
 20
2.53183
 30
0.000000
  70
    32
  0
VERTEX
  8
AM_VIS
  5
23A
 10
2.43490
 20
2.53589
 30
0.000000
  70
    32
  0
VERTEX
  8
AM_VIS
  5
23B
 10
2.43515
 20
2.53994
 30
0.000000
  70
    32
  0
VERTEX
  8
AM_VIS
  5
23C
 10
2.43539
 20
2.54400
 30
0.000000
  70
    32
  0
VERTEX
  8
AM_VIS
  5
23D
 10
2.43563
 20
2.54805
 30
0.000000
  70
    32
  0
VERTEX
  8
AM_VIS
  5
23E
 10
2.43587
 20
2.55210
 30
0.000000
  70
    32
  0
VERTEX
  8
AM_VIS
  5
23F
 10
2.43611
 20
2.55615
 30
0.000000
  70
    32
  0
VERTEX
  8
AM_VIS
  5
240
 10
2.43634
 20
2.56020
 30
0.000000
  70
    32
  0
VERTEX
  8
AM_VIS
  5
241
 10
2.43656
 20
2.56425
 30
0.000000
  70
    32
  0
VERTEX
  8
AM_VIS
  5
242
 10
2.43679
 20
2.56829
 30
0.000000
  70
    32
  0
VERTEX
  8
AM_VIS
  5
243
 10
2.43701
 20
2.57234
 30
0.000000
  70
    32
  0
VERTEX
  8
AM_VIS
  5
244
 10
2.43723
 20
2.57638
 30
0.000000
  70
    32
  0
VERTEX
  8
AM_VIS
  5
245
 10
2.43744
 20
2.58042
 30
0.000000
  70
    32
  0
VERTEX
  8
AM_VIS
  5
246
 10
2.43765
 20
2.58446
 30
0.000000
  70
    32
  0
VERTEX
  8
AM_VIS
  5
247
 10
2.43785
 20
2.58850
 30
0.000000
  70
    32
  0
VERTEX
  8
AM_VIS
  5
248
 10
2.43806
 20
2.59253
 30
0.000000
  70
    32
  0
VERTEX
  8
AM_VIS
  5
249
 10
2.43825
 20
2.59656
 30
0.000000
  70
    32
  0
VERTEX
  8
AM_VIS
  5
24A
 10
2.43845
 20
2.60060
 30
0.000000
  70
    32
  0
VERTEX
  8
AM_VIS
  5
24B
 10
2.43864
 20
2.60462
 30
0.000000
  70
    32
  0
VERTEX
  8
AM_VIS
  5
24C
 10
2.43883
 20
2.60865
 30
0.000000
  70
    32
  0
VERTEX
  8
AM_VIS
  5
24D
 10
2.43901
 20
2.61268
 30
0.000000
  70
    32
  0
VERTEX
  8
AM_VIS
  5
24E
 10
2.43919
 20
2.61670
 30
0.000000
  70
    32
  0
VERTEX
  8
AM_VIS
  5
24F
 10
2.43937
 20
2.62072
 30
0.000000
  70
    32
  0
VERTEX
  8
AM_VIS
  5
250
 10
2.43954
 20
2.62473
 30
0.000000
  70
    32
  0
VERTEX
  8
AM_VIS
  5
251
 10
2.43971
 20
2.62875
 30
0.000000
  70
    32
  0
VERTEX
  8
AM_VIS
  5
252
 10
2.43987
 20
2.63276
 30
0.000000
  70
    32
  0
VERTEX
  8
AM_VIS
  5
253
 10
2.44003
 20
2.63676
 30
0.000000
  70
    32
  0
VERTEX
  8
AM_VIS
  5
254
 10
2.44019
 20
2.64077
 30
0.000000
  70
    32
  0
VERTEX
  8
AM_VIS
  5
255
 10
2.44034
 20
2.64477
 30
0.000000
  70
    32
  0
VERTEX
  8
AM_VIS
  5
256
 10
2.44049
 20
2.64877
 30
0.000000
  70
    32
  0
VERTEX
  8
AM_VIS
  5
257
 10
2.44064
 20
2.65277
 30
0.000000
  70
    32
  0
VERTEX
  8
AM_VIS
  5
258
 10
2.44078
 20
2.65676
 30
0.000000
  70
    32
  0
VERTEX
  8
AM_VIS
  5
259
 10
2.44092
 20
2.66075
 30
0.000000
  70
    32
  0
VERTEX
  8
AM_VIS
  5
25A
 10
2.44105
 20
2.66473
 30
0.000000
  70
    32
  0
VERTEX
  8
AM_VIS
  5
25B
 10
2.44118
 20
2.66872
 30
0.000000
  70
    32
  0
VERTEX
  8
AM_VIS
  5
25C
 10
2.44131
 20
2.67269
 30
0.000000
  70
    32
  0
VERTEX
  8
AM_VIS
  5
25D
 10
2.44143
 20
2.67667
 30
0.000000
  70
    32
  0
VERTEX
  8
AM_VIS
  5
25E
 10
2.44154
 20
2.68064
 30
0.000000
  70
    32
  0
VERTEX
  8
AM_VIS
  5
25F
 10
2.44166
 20
2.68461
 30
0.000000
  70
    32
  0
VERTEX
  8
AM_VIS
  5
260
 10
2.44177
 20
2.68857
 30
0.000000
  70
    32
  0
VERTEX
  8
AM_VIS
  5
261
 10
2.44187
 20
2.69253
 30
0.000000
  70
    32
  0
VERTEX
  8
AM_VIS
  5
262
 10
2.44197
 20
2.69648
 30
0.000000
  70
    32
  0
VERTEX
  8
AM_VIS
  5
263
 10
2.44207
 20
2.70044
 30
0.000000
  70
    32
  0
VERTEX
  8
AM_VIS
  5
264
 10
2.44216
 20
2.70438
 30
0.000000
  70
    32
  0
VERTEX
  8
AM_VIS
  5
265
 10
2.44225
 20
2.70832
 30
0.000000
  70
    32
  0
VERTEX
  8
AM_VIS
  5
266
 10
2.44233
 20
2.71226
 30
0.000000
  70
    32
  0
VERTEX
  8
AM_VIS
  5
267
 10
2.44241
 20
2.71620
 30
0.000000
  70
    32
  0
VERTEX
  8
AM_VIS
  5
268
 10
2.44249
 20
2.72013
 30
0.000000
  70
    32
  0
VERTEX
  8
AM_VIS
  5
269
 10
2.44256
 20
2.72405
 30
0.000000
  70
    32
  0
VERTEX
  8
AM_VIS
  5
26A
 10
2.44263
 20
2.72797
 30
0.000000
  70
    32
  0
VERTEX
  8
AM_VIS
  5
26B
 10
2.44269
 20
2.73188
 30
0.000000
  70
    32
  0
VERTEX
  8
AM_VIS
  5
26C
 10
2.44275
 20
2.73579
 30
0.000000
  70
    32
  0
VERTEX
  8
AM_VIS
  5
26D
 10
2.44280
 20
2.73970
 30
0.000000
  70
    32
  0
VERTEX
  8
AM_VIS
  5
26E
 10
2.44285
 20
2.74360
 30
0.000000
  70
    32
  0
VERTEX
  8
AM_VIS
  5
26F
 10
2.44289
 20
2.74749
 30
0.000000
  70
    32
  0
VERTEX
  8
AM_VIS
  5
270
 10
2.44293
 20
2.75138
 30
0.000000
  70
    32
  0
VERTEX
  8
AM_VIS
  5
271
 10
2.44297
 20
2.75527
 30
0.000000
  70
    32
  0
VERTEX
  8
AM_VIS
  5
272
 10
2.44300
 20
2.75915
 30
0.000000
  70
    32
  0
VERTEX
  8
AM_VIS
  5
273
 10
2.44303
 20
2.76302
 30
0.000000
  70
    32
  0
VERTEX
  8
AM_VIS
  5
274
 10
2.44305
 20
2.76689
 30
0.000000
  70
    32
  0
VERTEX
  8
AM_VIS
  5
275
 10
2.44307
 20
2.77075
 30
0.000000
  70
    32
  0
VERTEX
  8
AM_VIS
  5
276
 10
2.44308
 20
2.77461
 30
0.000000
  70
    32
  0
VERTEX
  8
AM_VIS
  5
277
 10
2.44309
 20
2.77846
 30
0.000000
  70
    32
  0
VERTEX
  8
AM_VIS
  5
278
 10
2.44310
 20
2.78230
 30
0.000000
  70
    32
  0
VERTEX
  8
AM_VIS
  5
279
 10
2.44310
 20
2.78614
 30
0.000000
  70
    32
  0
VERTEX
  8
AM_VIS
  5
27A
 10
2.44309
 20
2.78999
 30
0.000000
  70
    32
  0
VERTEX
  8
AM_VIS
  5
27B
 10
2.44308
 20
2.79385
 30
0.000000
  70
    32
  0
VERTEX
  8
AM_VIS
  5
27C
 10
2.44307
 20
2.79772
 30
0.000000
  70
    32
  0
VERTEX
  8
AM_VIS
  5
27D
 10
2.44305
 20
2.80159
 30
0.000000
  70
    32
  0
VERTEX
  8
AM_VIS
  5
27E
 10
2.44302
 20
2.80548
 30
0.000000
  70
    32
  0
VERTEX
  8
AM_VIS
  5
27F
 10
2.44300
 20
2.80937
 30
0.000000
  70
    32
  0
VERTEX
  8
AM_VIS
  5
280
 10
2.44296
 20
2.81327
 30
0.000000
  70
    32
  0
VERTEX
  8
AM_VIS
  5
281
 10
2.44292
 20
2.81718
 30
0.000000
  70
    32
  0
VERTEX
  8
AM_VIS
  5
282
 10
2.44288
 20
2.82109
 30
0.000000
  70
    32
  0
VERTEX
  8
AM_VIS
  5
283
 10
2.44283
 20
2.82502
 30
0.000000
  70
    32
  0
VERTEX
  8
AM_VIS
  5
284
 10
2.44277
 20
2.82895
 30
0.000000
  70
    32
  0
VERTEX
  8
AM_VIS
  5
285
 10
2.44271
 20
2.83289
 30
0.000000
  70
    32
  0
VERTEX
  8
AM_VIS
  5
286
 10
2.44265
 20
2.83683
 30
0.000000
  70
    32
  0
VERTEX
  8
AM_VIS
  5
287
 10
2.44258
 20
2.84078
 30
0.000000
  70
    32
  0
VERTEX
  8
AM_VIS
  5
288
 10
2.44250
 20
2.84474
 30
0.000000
  70
    32
  0
VERTEX
  8
AM_VIS
  5
289
 10
2.44242
 20
2.84870
 30
0.000000
  70
    32
  0
VERTEX
  8
AM_VIS
  5
28A
 10
2.44234
 20
2.85267
 30
0.000000
  70
    32
  0
VERTEX
  8
AM_VIS
  5
28B
 10
2.44224
 20
2.85664
 30
0.000000
  70
    32
  0
VERTEX
  8
AM_VIS
  5
28C
 10
2.44215
 20
2.86062
 30
0.000000
  70
    32
  0
VERTEX
  8
AM_VIS
  5
28D
 10
2.44204
 20
2.86460
 30
0.000000
  70
    32
  0
VERTEX
  8
AM_VIS
  5
28E
 10
2.44194
 20
2.86859
 30
0.000000
  70
    32
  0
VERTEX
  8
AM_VIS
  5
28F
 10
2.44182
 20
2.87258
 30
0.000000
  70
    32
  0
VERTEX
  8
AM_VIS
  5
290
 10
2.44171
 20
2.87658
 30
0.000000
  70
    32
  0
VERTEX
  8
AM_VIS
  5
291
 10
2.44158
 20
2.88058
 30
0.000000
  70
    32
  0
VERTEX
  8
AM_VIS
  5
292
 10
2.44145
 20
2.88458
 30
0.000000
  70
    32
  0
VERTEX
  8
AM_VIS
  5
293
 10
2.44132
 20
2.88859
 30
0.000000
  70
    32
  0
VERTEX
  8
AM_VIS
  5
294
 10
2.44118
 20
2.89260
 30
0.000000
  70
    32
  0
VERTEX
  8
AM_VIS
  5
295
 10
2.44103
 20
2.89662
 30
0.000000
  70
    32
  0
VERTEX
  8
AM_VIS
  5
296
 10
2.44088
 20
2.90063
 30
0.000000
  70
    32
  0
VERTEX
  8
AM_VIS
  5
297
 10
2.44072
 20
2.90465
 30
0.000000
  70
    32
  0
VERTEX
  8
AM_VIS
  5
298
 10
2.44056
 20
2.90867
 30
0.000000
  70
    32
  0
VERTEX
  8
AM_VIS
  5
299
 10
2.44039
 20
2.91270
 30
0.000000
  70
    32
  0
VERTEX
  8
AM_VIS
  5
29A
 10
2.44021
 20
2.91672
 30
0.000000
  70
    32
  0
VERTEX
  8
AM_VIS
  5
29B
 10
2.44003
 20
2.92075
 30
0.000000
  70
    32
  0
VERTEX
  8
AM_VIS
  5
29C
 10
2.43984
 20
2.92478
 30
0.000000
  70
    32
  0
VERTEX
  8
AM_VIS
  5
29D
 10
2.43965
 20
2.92881
 30
0.000000
  70
    32
  0
VERTEX
  8
AM_VIS
  5
29E
 10
2.43945
 20
2.93284
 30
0.000000
  70
    32
  0
VERTEX
  8
AM_VIS
  5
29F
 10
2.43925
 20
2.93687
 30
0.000000
  70
    32
  0
VERTEX
  8
AM_VIS
  5
2A0
 10
2.43904
 20
2.94090
 30
0.000000
  70
    32
  0
VERTEX
  8
AM_VIS
  5
2A1
 10
2.43882
 20
2.94493
 30
0.000000
  70
    32
  0
VERTEX
  8
AM_VIS
  5
2A2
 10
2.43860
 20
2.94896
 30
0.000000
  70
    32
  0
VERTEX
  8
AM_VIS
  5
2A3
 10
2.43837
 20
2.95299
 30
0.000000
  70
    32
  0
VERTEX
  8
AM_VIS
  5
2A4
 10
2.43814
 20
2.95702
 30
0.000000
  70
    32
  0
VERTEX
  8
AM_VIS
  5
2A5
 10
2.43789
 20
2.96105
 30
0.000000
  70
    32
  0
VERTEX
  8
AM_VIS
  5
2A6
 10
2.43765
 20
2.96508
 30
0.000000
  70
    32
  0
VERTEX
  8
AM_VIS
  5
2A7
 10
2.43739
 20
2.96911
 30
0.000000
  70
    32
  0
VERTEX
  8
AM_VIS
  5
2A8
 10
2.43713
 20
2.97313
 30
0.000000
  70
    32
  0
VERTEX
  8
AM_VIS
  5
2A9
 10
2.43687
 20
2.97716
 30
0.000000
  70
    32
  0
VERTEX
  8
AM_VIS
  5
2AA
 10
2.43660
 20
2.98118
 30
0.000000
  70
    32
  0
VERTEX
  8
AM_VIS
  5
2AB
 10
2.43632
 20
2.98520
 30
0.000000
  70
    32
  0
VERTEX
  8
AM_VIS
  5
2AC
 10
2.43603
 20
2.98921
 30
0.000000
  70
    32
  0
VERTEX
  8
AM_VIS
  5
2AD
 10
2.43574
 20
2.99323
 30
0.000000
  70
    32
  0
VERTEX
  8
AM_VIS
  5
2AE
 10
2.43545
 20
2.99724
 30
0.000000
  70
    32
  0
VERTEX
  8
AM_VIS
  5
2AF
 10
2.43514
 20
3.00124
 30
0.000000
  70
    32
  0
VERTEX
  8
AM_VIS
  5
2B0
 10
2.43483
 20
3.00525
 30
0.000000
  70
    32
  0
VERTEX
  8
AM_VIS
  5
2B1
 10
2.43452
 20
3.00925
 30
0.000000
  70
    32
  0
VERTEX
  8
AM_VIS
  5
2B2
 10
2.43419
 20
3.01324
 30
0.000000
  70
    32
  0
VERTEX
  8
AM_VIS
  5
2B3
 10
2.43386
 20
3.01723
 30
0.000000
  70
    32
  0
VERTEX
  8
AM_VIS
  5
2B4
 10
2.43353
 20
3.02122
 30
0.000000
  70
    32
  0
VERTEX
  8
AM_VIS
  5
2B5
 10
2.43318
 20
3.02520
 30
0.000000
  70
    32
  0
VERTEX
  8
AM_VIS
  5
2B6
 10
2.43283
 20
3.02918
 30
0.000000
  70
    32
  0
VERTEX
  8
AM_VIS
  5
2B7
 10
2.43248
 20
3.03315
 30
0.000000
  70
    32
  0
VERTEX
  8
AM_VIS
  5
2B8
 10
2.43212
 20
3.03712
 30
0.000000
  70
    32
  0
VERTEX
  8
AM_VIS
  5
2B9
 10
2.43175
 20
3.04108
 30
0.000000
  70
    32
  0
VERTEX
  8
AM_VIS
  5
2BA
 10
2.43137
 20
3.04504
 30
0.000000
  70
    32
  0
VERTEX
  8
AM_VIS
  5
2BB
 10
2.43099
 20
3.04899
 30
0.000000
  70
    32
  0
VERTEX
  8
AM_VIS
  5
2BC
 10
2.43060
 20
3.05293
 30
0.000000
  70
    32
  0
VERTEX
  8
AM_VIS
  5
2BD
 10
2.43020
 20
3.05686
 30
0.000000
  70
    32
  0
VERTEX
  8
AM_VIS
  5
2BE
 10
2.42980
 20
3.06079
 30
0.000000
  70
    32
  0
VERTEX
  8
AM_VIS
  5
2BF
 10
2.42939
 20
3.06471
 30
0.000000
  70
    32
  0
VERTEX
  8
AM_VIS
  5
2C0
 10
2.42897
 20
3.06863
 30
0.000000
  70
    32
  0
VERTEX
  8
AM_VIS
  5
2C1
 10
2.42854
 20
3.07254
 30
0.000000
  70
    32
  0
VERTEX
  8
AM_VIS
  5
2C2
 10
2.42811
 20
3.07643
 30
0.000000
  70
    32
  0
VERTEX
  8
AM_VIS
  5
2C3
 10
2.42767
 20
3.08033
 30
0.000000
  70
    32
  0
VERTEX
  8
AM_VIS
  5
2C4
 10
2.42723
 20
3.08421
 30
0.000000
  70
    32
  0
VERTEX
  8
AM_VIS
  5
2C5
 10
2.42677
 20
3.08808
 30
0.000000
  70
    32
  0
VERTEX
  8
AM_VIS
  5
2C6
 10
2.42631
 20
3.09195
 30
0.000000
  70
    32
  0
VERTEX
  8
AM_VIS
  5
2C7
 10
2.42585
 20
3.09580
 30
0.000000
  70
    32
  0
VERTEX
  8
AM_VIS
  5
2C8
 10
2.42537
 20
3.09965
 30
0.000000
  70
    32
  0
VERTEX
  8
AM_VIS
  5
2C9
 10
2.42489
 20
3.10348
 30
0.000000
  70
    32
  0
VERTEX
  8
AM_VIS
  5
2CA
 10
2.42440
 20
3.10731
 30
0.000000
  70
    32
  0
VERTEX
  8
AM_VIS
  5
2CB
 10
2.42391
 20
3.11113
 30
0.000000
  70
    32
  0
VERTEX
  8
AM_VIS
  5
2CC
 10
2.42341
 20
3.11493
 30
0.000000
  70
    32
  0
VERTEX
  8
AM_VIS
  5
2CD
 10
2.42290
 20
3.11873
 30
0.000000
  70
    32
  0
VERTEX
  8
AM_VIS
  5
2CE
 10
2.42239
 20
3.12251
 30
0.000000
  70
    32
  0
VERTEX
  8
AM_VIS
  5
2CF
 10
2.42186
 20
3.12629
 30
0.000000
  70
    32
  0
VERTEX
  8
AM_VIS
  5
2D0
 10
2.42134
 20
3.13005
 30
0.000000
  70
    32
  0
VERTEX
  8
AM_VIS
  5
2D1
 10
2.42081
 20
3.13380
 30
0.000000
  70
    32
  0
VERTEX
  8
AM_VIS
  5
2D2
 10
2.42027
 20
3.13755
 30
0.000000
  70
    32
  0
VERTEX
  8
AM_VIS
  5
2D3
 10
2.41972
 20
3.14128
 30
0.000000
  70
    32
  0
VERTEX
  8
AM_VIS
  5
2D4
 10
2.41917
 20
3.14499
 30
0.000000
  70
    32
  0
VERTEX
  8
AM_VIS
  5
2D5
 10
2.41862
 20
3.14870
 30
0.000000
  70
    32
  0
VERTEX
  8
AM_VIS
  5
2D6
 10
2.41805
 20
3.15239
 30
0.000000
  70
    32
  0
VERTEX
  8
AM_VIS
  5
2D7
 10
2.41749
 20
3.15607
 30
0.000000
  70
    32
  0
VERTEX
  8
AM_VIS
  5
2D8
 10
2.41691
 20
3.15974
 30
0.000000
  70
    32
  0
VERTEX
  8
AM_VIS
  5
2D9
 10
2.41633
 20
3.16340
 30
0.000000
  70
    32
  0
VERTEX
  8
AM_VIS
  5
2DA
 10
2.41575
 20
3.16704
 30
0.000000
  70
    32
  0
VERTEX
  8
AM_VIS
  5
2DB
 10
2.41516
 20
3.17067
 30
0.000000
  70
    32
  0
VERTEX
  8
AM_VIS
  5
2DC
 10
2.41457
 20
3.17428
 30
0.000000
  70
    32
  0
VERTEX
  8
AM_VIS
  5
2DD
 10
2.41397
 20
3.17788
 30
0.000000
  70
    32
  0
VERTEX
  8
AM_VIS
  5
2DE
 10
2.41336
 20
3.18147
 30
0.000000
  70
    32
  0
VERTEX
  8
AM_VIS
  5
2DF
 10
2.41276
 20
3.18505
 30
0.000000
  70
    32
  0
VERTEX
  8
AM_VIS
  5
2E0
 10
2.41214
 20
3.18861
 30
0.000000
  70
    32
  0
VERTEX
  8
AM_VIS
  5
2E1
 10
2.41152
 20
3.19215
 30
0.000000
  70
    32
  0
VERTEX
  8
AM_VIS
  5
2E2
 10
2.41090
 20
3.19568
 30
0.000000
  70
    32
  0
VERTEX
  8
AM_VIS
  5
2E3
 10
2.41027
 20
3.19920
 30
0.000000
  70
    32
  0
VERTEX
  8
AM_VIS
  5
2E4
 10
2.40964
 20
3.20270
 30
0.000000
  70
    32
  0
VERTEX
  8
AM_VIS
  5
2E5
 10
2.40901
 20
3.20618
 30
0.000000
  70
    32
  0
VERTEX
  8
AM_VIS
  5
2E6
 10
2.40837
 20
3.20965
 30
0.000000
  70
    32
  0
VERTEX
  8
AM_VIS
  5
2E7
 10
2.40772
 20
3.21311
 30
0.000000
  70
    32
  0
VERTEX
  8
AM_VIS
  5
2E8
 10
2.40707
 20
3.21654
 30
0.000000
  70
    32
  0
VERTEX
  8
AM_VIS
  5
2E9
 10
2.40642
 20
3.21997
 30
0.000000
  70
    32
  0
VERTEX
  8
AM_VIS
  5
2EA
 10
2.40577
 20
3.22337
 30
0.000000
  70
    32
  0
VERTEX
  8
AM_VIS
  5
2EB
 10
2.40511
 20
3.22676
 30
0.000000
  70
    32
  0
VERTEX
  8
AM_VIS
  5
2EC
 10
2.40444
 20
3.23013
 30
0.000000
  70
    32
  0
VERTEX
  8
AM_VIS
  5
2ED
 10
2.40378
 20
3.23349
 30
0.000000
  70
    32
  0
VERTEX
  8
AM_VIS
  5
2EE
 10
2.40310
 20
3.23683
 30
0.000000
  70
    32
  0
VERTEX
  8
AM_VIS
  5
2EF
 10
2.40243
 20
3.24015
 30
0.000000
  70
    32
  0
VERTEX
  8
AM_VIS
  5
2F0
 10
2.40175
 20
3.24345
 30
0.000000
  70
    32
  0
VERTEX
  8
AM_VIS
  5
2F1
 10
2.40107
 20
3.24674
 30
0.000000
  70
    32
  0
VERTEX
  8
AM_VIS
  5
2F2
 10
2.40039
 20
3.25000
 30
0.000000
  70
    32
  0
VERTEX
  8
AM_VIS
  5
2F3
 10
2.39970
 20
3.25325
 30
0.000000
  70
    32
  0
VERTEX
  8
AM_VIS
  5
2F4
 10
2.39901
 20
3.25648
 30
0.000000
  70
    32
  0
VERTEX
  8
AM_VIS
  5
2F5
 10
2.39832
 20
3.25969
 30
0.000000
  70
    32
  0
VERTEX
  8
AM_VIS
  5
2F6
 10
2.39763
 20
3.26289
 30
0.000000
  70
    32
  0
VERTEX
  8
AM_VIS
  5
2F7
 10
2.39693
 20
3.26606
 30
0.000000
  70
    32
  0
VERTEX
  8
AM_VIS
  5
2F8
 10
2.39623
 20
3.26922
 30
0.000000
  70
    32
  0
VERTEX
  8
AM_VIS
  5
2F9
 10
2.39553
 20
3.27235
 30
0.000000
  70
    32
  0
VERTEX
  8
AM_VIS
  5
2FA
 10
2.39482
 20
3.27547
 30
0.000000
  70
    32
  0
VERTEX
  8
AM_VIS
  5
2FB
 10
2.39412
 20
3.27857
 30
0.000000
  70
    32
  0
VERTEX
  8
AM_VIS
  5
2FC
 10
2.39341
 20
3.28164
 30
0.000000
  70
    32
  0
VERTEX
  8
AM_VIS
  5
2FD
 10
2.39270
 20
3.28470
 30
0.000000
  70
    32
  0
VERTEX
  8
AM_VIS
  5
2FE
 10
2.39198
 20
3.28773
 30
0.000000
  70
    32
  0
VERTEX
  8
AM_VIS
  5
2FF
 10
2.39127
 20
3.29075
 30
0.000000
  70
    32
  0
VERTEX
  8
AM_VIS
  5
300
 10
2.39055
 20
3.29374
 30
0.000000
  70
    32
  0
VERTEX
  8
AM_VIS
  5
301
 10
2.38983
 20
3.29672
 30
0.000000
  70
    32
  0
VERTEX
  8
AM_VIS
  5
302
 10
2.38911
 20
3.29967
 30
0.000000
  70
    32
  0
VERTEX
  8
AM_VIS
  5
303
 10
2.38839
 20
3.30260
 30
0.000000
  70
    32
  0
VERTEX
  8
AM_VIS
  5
304
 10
2.38767
 20
3.30551
 30
0.000000
  70
    32
  0
VERTEX
  8
AM_VIS
  5
305
 10
2.38694
 20
3.30839
 30
0.000000
  70
    32
  0
VERTEX
  8
AM_VIS
  5
306
 10
2.38621
 20
3.31126
 30
0.000000
  70
    32
  0
VERTEX
  8
AM_VIS
  5
307
 10
2.38549
 20
3.31410
 30
0.000000
  70
    32
  0
VERTEX
  8
AM_VIS
  5
308
 10
2.38476
 20
3.31692
 30
0.000000
  70
    32
  0
VERTEX
  8
AM_VIS
  5
309
 10
2.38403
 20
3.31972
 30
0.000000
  70
    32
  0
VERTEX
  8
AM_VIS
  5
30A
 10
2.38330
 20
3.32249
 30
0.000000
  70
    32
  0
VERTEX
  8
AM_VIS
  5
30B
 10
2.38257
 20
3.32524
 30
0.000000
  70
    32
  0
VERTEX
  8
AM_VIS
  5
30C
 10
2.38184
 20
3.32797
 30
0.000000
  70
    32
  0
VERTEX
  8
AM_VIS
  5
30D
 10
2.38110
 20
3.33068
 30
0.000000
  70
    32
  0
VERTEX
  8
AM_VIS
  5
30E
 10
2.38037
 20
3.33338
 30
0.000000
  70
    32
  0
VERTEX
  8
AM_VIS
  5
30F
 10
2.37963
 20
3.33606
 30
0.000000
  70
    32
  0
VERTEX
  8
AM_VIS
  5
310
 10
2.37889
 20
3.33872
 30
0.000000
  70
    32
  0
VERTEX
  8
AM_VIS
  5
311
 10
2.37815
 20
3.34136
 30
0.000000
  70
    32
  0
VERTEX
  8
AM_VIS
  5
312
 10
2.37741
 20
3.34399
 30
0.000000
  70
    32
  0
VERTEX
  8
AM_VIS
  5
313
 10
2.37667
 20
3.34660
 30
0.000000
  70
    32
  0
VERTEX
  8
AM_VIS
  5
314
 10
2.37593
 20
3.34919
 30
0.000000
  70
    32
  0
VERTEX
  8
AM_VIS
  5
315
 10
2.37519
 20
3.35175
 30
0.000000
  70
    32
  0
VERTEX
  8
AM_VIS
  5
316
 10
2.37444
 20
3.35430
 30
0.000000
  70
    32
  0
VERTEX
  8
AM_VIS
  5
317
 10
2.37370
 20
3.35683
 30
0.000000
  70
    32
  0
VERTEX
  8
AM_VIS
  5
318
 10
2.37296
 20
3.35934
 30
0.000000
  70
    32
  0
VERTEX
  8
AM_VIS
  5
319
 10
2.37222
 20
3.36183
 30
0.000000
  70
    32
  0
VERTEX
  8
AM_VIS
  5
31A
 10
2.37149
 20
3.36430
 30
0.000000
  70
    32
  0
VERTEX
  8
AM_VIS
  5
31B
 10
2.37075
 20
3.36674
 30
0.000000
  70
    32
  0
VERTEX
  8
AM_VIS
  5
31C
 10
2.37001
 20
3.36916
 30
0.000000
  70
    32
  0
VERTEX
  8
AM_VIS
  5
31D
 10
2.36928
 20
3.37156
 30
0.000000
  70
    32
  0
VERTEX
  8
AM_VIS
  5
31E
 10
2.36855
 20
3.37394
 30
0.000000
  70
    32
  0
VERTEX
  8
AM_VIS
  5
31F
 10
2.36782
 20
3.37629
 30
0.000000
  70
    32
  0
VERTEX
  8
AM_VIS
  5
320
 10
2.36710
 20
3.37862
 30
0.000000
  70
    32
  0
VERTEX
  8
AM_VIS
  5
321
 10
2.36637
 20
3.38093
 30
0.000000
  70
    32
  0
VERTEX
  8
AM_VIS
  5
322
 10
2.36565
 20
3.38321
 30
0.000000
  70
    32
  0
VERTEX
  8
AM_VIS
  5
323
 10
2.36494
 20
3.38547
 30
0.000000
  70
    32
  0
VERTEX
  8
AM_VIS
  5
324
 10
2.36423
 20
3.38770
 30
0.000000
  70
    32
  0
VERTEX
  8
AM_VIS
  5
325
 10
2.36352
 20
3.38990
 30
0.000000
  70
    32
  0
VERTEX
  8
AM_VIS
  5
326
 10
2.36281
 20
3.39208
 30
0.000000
  70
    32
  0
VERTEX
  8
AM_VIS
  5
327
 10
2.36212
 20
3.39423
 30
0.000000
  70
    32
  0
VERTEX
  8
AM_VIS
  5
328
 10
2.36142
 20
3.39636
 30
0.000000
  70
    32
  0
VERTEX
  8
AM_VIS
  5
329
 10
2.36073
 20
3.39845
 30
0.000000
  70
    32
  0
VERTEX
  8
AM_VIS
  5
32A
 10
2.36005
 20
3.40052
 30
0.000000
  70
    32
  0
VERTEX
  8
AM_VIS
  5
32B
 10
2.35937
 20
3.40256
 30
0.000000
  70
    32
  0
VERTEX
  8
AM_VIS
  5
32C
 10
2.35870
 20
3.40457
 30
0.000000
  70
    32
  0
VERTEX
  8
AM_VIS
  5
32D
 10
2.35803
 20
3.40656
 30
0.000000
  70
    32
  0
VERTEX
  8
AM_VIS
  5
32E
 10
2.35737
 20
3.40851
 30
0.000000
  70
    32
  0
VERTEX
  8
AM_VIS
  5
32F
 10
2.35672
 20
3.41043
 30
0.000000
  70
    32
  0
VERTEX
  8
AM_VIS
  5
330
 10
2.35607
 20
3.41233
 30
0.000000
  70
    32
  0
VERTEX
  8
AM_VIS
  5
331
 10
2.35543
 20
3.41419
 30
0.000000
  70
    32
  0
VERTEX
  8
AM_VIS
  5
332
 10
2.35480
 20
3.41602
 30
0.000000
  70
    32
  0
VERTEX
  8
AM_VIS
  5
333
 10
2.35418
 20
3.41782
 30
0.000000
  70
    32
  0
VERTEX
  8
AM_VIS
  5
334
 10
2.35356
 20
3.41959
 30
0.000000
  70
    32
  0
VERTEX
  8
AM_VIS
  5
335
 10
2.35295
 20
3.42132
 30
0.000000
  70
    32
  0
VERTEX
  8
AM_VIS
  5
336
 10
2.35235
 20
3.42302
 30
0.000000
  70
    32
  0
VERTEX
  8
AM_VIS
  5
337
 10
2.35176
 20
3.42469
 30
0.000000
  70
    32
  0
VERTEX
  8
AM_VIS
  5
338
 10
2.35118
 20
3.42633
 30
0.000000
  70
    32
  0
VERTEX
  8
AM_VIS
  5
339
 10
2.35061
 20
3.42793
 30
0.000000
  70
    32
  0
VERTEX
  8
AM_VIS
  5
33A
 10
2.35004
 20
3.42950
 30
0.000000
  70
    32
  0
VERTEX
  8
AM_VIS
  5
33B
 10
2.34949
 20
3.43103
 30
0.000000
  70
    32
  0
VERTEX
  8
AM_VIS
  5
33C
 10
2.34895
 20
3.43253
 30
0.000000
  70
    32
  0
VERTEX
  8
AM_VIS
  5
33D
 10
2.34842
 20
3.43399
 30
0.000000
  70
    32
  0
VERTEX
  8
AM_VIS
  5
33E
 10
2.34790
 20
3.43542
 30
0.000000
  70
    32
  0
VERTEX
  8
AM_VIS
  5
33F
 10
2.34738
 20
3.43682
 30
0.000000
  70
    32
  0
VERTEX
  8
AM_VIS
  5
340
 10
2.34688
 20
3.43818
 30
0.000000
  70
    32
  0
VERTEX
  8
AM_VIS
  5
341
 10
2.34640
 20
3.43951
 30
0.000000
  70
    32
  0
VERTEX
  8
AM_VIS
  5
342
 10
2.34592
 20
3.44080
 30
0.000000
  70
    32
  0
VERTEX
  8
AM_VIS
  5
343
 10
2.34545
 20
3.44206
 30
0.000000
  70
    32
  0
VERTEX
  8
AM_VIS
  5
344
 10
2.34499
 20
3.44329
 30
0.000000
  70
    32
  0
VERTEX
  8
AM_VIS
  5
345
 10
2.34455
 20
3.44448
 30
0.000000
  70
    32
  0
VERTEX
  8
AM_VIS
  5
346
 10
2.34412
 20
3.44564
 30
0.000000
  70
    32
  0
VERTEX
  8
AM_VIS
  5
347
 10
2.34369
 20
3.44677
 30
0.000000
  70
    32
  0
VERTEX
  8
AM_VIS
  5
348
 10
2.34328
 20
3.44786
 30
0.000000
  70
    32
  0
VERTEX
  8
AM_VIS
  5
349
 10
2.34288
 20
3.44892
 30
0.000000
  70
    32
  0
VERTEX
  8
AM_VIS
  5
34A
 10
2.34249
 20
3.44995
 30
0.000000
  70
    32
  0
VERTEX
  8
AM_VIS
  5
34B
 10
2.34212
 20
3.45094
 30
0.000000
  70
    32
  0
VERTEX
  8
AM_VIS
  5
34C
 10
2.34175
 20
3.45190
 30
0.000000
  70
    32
  0
VERTEX
  8
AM_VIS
  5
34D
 10
2.34140
 20
3.45282
 30
0.000000
  70
    32
  0
VERTEX
  8
AM_VIS
  5
34E
 10
2.34105
 20
3.45372
 30
0.000000
  70
    32
  0
VERTEX
  8
AM_VIS
  5
34F
 10
2.34072
 20
3.45458
 30
0.000000
  70
    32
  0
VERTEX
  8
AM_VIS
  5
350
 10
2.34040
 20
3.45540
 30
0.000000
  70
    32
  0
VERTEX
  8
AM_VIS
  5
351
 10
2.34010
 20
3.45620
 30
0.000000
  70
    32
  0
VERTEX
  8
AM_VIS
  5
352
 10
2.33980
 20
3.45696
 30
0.000000
  70
    32
  0
VERTEX
  8
AM_VIS
  5
353
 10
2.33952
 20
3.45768
 30
0.000000
  70
    32
  0
VERTEX
  8
AM_VIS
  5
354
 10
2.33925
 20
3.45838
 30
0.000000
  70
    32
  0
VERTEX
  8
AM_VIS
  5
355
 10
2.33899
 20
3.45904
 30
0.000000
  70
    32
  0
VERTEX
  8
AM_VIS
  5
356
 10
2.33874
 20
3.45967
 30
0.000000
  70
    32
  0
VERTEX
  8
AM_VIS
  5
357
 10
2.33850
 20
3.46027
 30
0.000000
  70
    32
  0
VERTEX
  8
AM_VIS
  5
358
 10
2.33828
 20
3.46083
 30
0.000000
  70
    32
  0
VERTEX
  8
AM_VIS
  5
359
 10
2.33807
 20
3.46136
 30
0.000000
  70
    32
  0
VERTEX
  8
AM_VIS
  5
35A
 10
2.33787
 20
3.46186
 30
0.000000
  70
    32
  0
VERTEX
  8
AM_VIS
  5
35B
 10
2.33768
 20
3.46233
 30
0.000000
  70
    32
  0
VERTEX
  8
AM_VIS
  5
35C
 10
2.33751
 20
3.46276
 30
0.000000
  70
    32
  0
VERTEX
  8
AM_VIS
  5
35D
 10
2.33735
 20
3.46316
 30
0.000000
  70
    32
  0
VERTEX
  8
AM_VIS
  5
35E
 10
2.33720
 20
3.46353
 30
0.000000
  70
    32
  0
VERTEX
  8
AM_VIS
  5
35F
 10
2.33707
 20
3.46387
 30
0.000000
  70
    32
  0
VERTEX
  8
AM_VIS
  5
360
 10
2.33694
 20
3.46417
 30
0.000000
  70
    32
  0
VERTEX
  8
AM_VIS
  5
361
 10
2.33683
 20
3.46444
 30
0.000000
  70
    32
  0
VERTEX
  8
AM_VIS
  5
362
 10
2.33673
 20
3.46468
 30
0.000000
  70
    32
  0
VERTEX
  8
AM_VIS
  5
363
 10
2.33665
 20
3.46489
 30
0.000000
  70
    32
  0
VERTEX
  8
AM_VIS
  5
364
 10
2.33658
 20
3.46506
 30
0.000000
  70
    32
  0
VERTEX
  8
AM_VIS
  5
365
 10
2.33652
 20
3.46521
 30
0.000000
  70
    32
  0
VERTEX
  8
AM_VIS
  5
366
 10
2.33647
 20
3.46532
 30
0.000000
  70
    32
  0
VERTEX
  8
AM_VIS
  5
367
 10
2.33644
 20
3.46540
 30
0.000000
  70
    32
  0
VERTEX
  8
AM_VIS
  5
368
 10
2.33642
 20
3.46545
 30
0.000000
  70
    32
  0
VERTEX
  8
AM_VIS
  5
369
 10
2.33641
 20
3.46546
 30
0.000000
  70
    32
  0
SEQEND
  8
AM_VIS
  5
36A
  0
LINE
  5
2F
  8
AM_VIS
 10
2.3364119899558919
 20
6.8576834138425591
 30
0.0
 11
3.561411989955892
 21
6.8576834138425591
 31
0.0
  0
LINE
  5
30
  8
AM_VIS
 10
3.561411989955892
 20
6.8576834138425591
 30
0.0
 11
4.7864119899558917
 21
6.8576834138425591
 31
0.0
  0
LINE
  5
31
  8
AM_VIS
 10
4.6797254522731437
 20
4.4826834138425582
 30
0.0
 11
4.6797254522731437
 21
4.6076834138425582
 31
0.0
  0
LINE
  5
32
  8
AM_VIS
 10
4.780017750651286
 20
4.6076834138425582
 30
0.0
 11
4.780017750651286
 21
6.3576834138425591
 31
0.0
  0
LINE
  5
33
  8
AM_VIS
 10
4.6797254522731437
 20
6.3576834138425591
 30
0.0
 11
4.6797254522731437
 21
6.4826834138425591
 31
0.0
  0
LINE
  5
34
  8
AM_VIS
 10
5.3263991861854354
 20
6.3576834138425591
 30
0.0
 11
5.3263991861854354
 21
4.6076834138425591
 31
0.0
  0
LINE
  5
35
  8
AM_VIS
 10
5.3263991861854354
 20
4.6076834138425582
 30
0.0
 11
4.6797254522731437
 21
4.6076834138425582
 31
0.0
  0
LINE
  5
36
  8
AM_VIS
 10
5.3263991861854354
 20
4.4826834138425582
 30
0.0
 11
4.6797254522731437
 21
4.4826834138425582
 31
0.0
  0
LINE
  5
37
  8
AM_VIS
 10
5.3263991861854354
 20
4.6076834138425582
 30
0.0
 11
5.3263991861854354
 21
4.4826834138425582
 31
0.0
  0
LINE
  5
38
  8
AM_VIS
 10
5.3263991861854354
 20
6.4826834138425591
 30
0.0
 11
4.6797254522731437
 21
6.4826834138425591
 31
0.0
  0
LINE
  5
39
  8
AM_VIS
 10
5.3263991861854354
 20
6.3576834138425591
 30
0.0
 11
4.6797254522731437
 21
6.3576834138425591
 31
0.0
  0
LINE
  5
3A
  8
AM_VIS
 10
5.3263991861854354
 20
6.4826834138425591
 30
0.0
 11
5.3263991861854354
 21
6.3576834138425591
 31
0.0
  0
LINE
  5
3B
  8
AM_VIS
 10
0.8114119899558929
 20
1.98268341384256
 30
0.0
 11
3.5614119899558929
 21
1.98268341384256
 31
0.0
  0
LINE
  5
3C
  8
AM_VIS
 10
3.5614119899558929
 20
1.98268341384256
 30
0.0
 11
6.311411989955892
 21
1.98268341384256
 31
0.0
  0
LINE
  5
3D
  8
AM_VIS
 10
6.311411989955892
 20
1.48268341384256
 30
0.0
 11
3.561411989955892
 21
1.48268341384256
 31
0.0
  0
LINE
  5
3E
  8
AM_VIS
 10
3.561411989955892
 20
1.48268341384256
 30
0.0
 11
0.8114119899558929
 21
1.48268341384256
 31
0.0
  0
LINE
  5
3F
  8
AM_VIS
 10
1.7964247937263489
 20
6.3576834138425591
 30
0.0
 11
2.4430985276386399
 21
6.3576834138425591
 31
0.0
  0
LINE
  5
40
  8
AM_VIS
 10
1.7964247937263489
 20
6.4826834138425591
 30
0.0
 11
2.4430985276386399
 21
6.4826834138425591
 31
0.0
  0
LINE
  5
41
  8
AM_VIS
 10
1.7964247937263489
 20
6.4826834138425591
 30
0.0
 11
1.7964247937263489
 21
6.3576834138425591
 31
0.0
  0
LINE
  5
42
  8
AM_VIS
 10
1.7964247937263489
 20
6.3576834138425591
 30
0.0
 11
1.79642479372635
 21
4.6076834138425591
 31
0.0
  0
LINE
  5
43
  8
AM_VIS
 10
1.79642479372635
 20
4.6076834138425582
 30
0.0
 11
2.4430985276386399
 21
4.6076834138425582
 31
0.0
  0
LINE
  5
44
  8
AM_VIS
 10
1.79642479372635
 20
4.6076834138425582
 30
0.0
 11
1.79642479372635
 21
4.4826834138425582
 31
0.0
  0
LINE
  5
45
  8
AM_VIS
 10
1.79642479372635
 20
4.4826834138425582
 30
0.0
 11
2.4430985276386399
 21
4.4826834138425582
 31
0.0
  0
LINE
  5
46
  8
AM_HID
 10
1.441654219918306
 20
1.48268341384256
 30
0.0
 11
2.5864119899558928
 21
3.4654620339069102
 31
0.0
  0
LINE
  5
47
  8
AM_HID
 10
1.941654219918306
 20
1.48268341384256
 30
0.0
 11
2.5864119899558919
 21
2.5994366301224701
 31
0.0
  0
LINE
  5
48
  8
AM_VIS
 10
2.3364119899558919
 20
3.4654620339069102
 30
0.0
 11
2.3364119899558919
 21
4.4826834138425582
 31
0.0
  0
LINE
  5
49
  8
AM_VIS
 10
2.3364119899558919
 20
6.4826834138425591
 30
0.0
 11
2.3364119899558919
 21
6.85768341384256
 31
0.0
  0
LINE
  5
4A
  8
AM_VIS
 10
4.7864119899558917
 20
1.98268341384256
 30
0.0
 11
4.7864119899558917
 21
4.4826834138425582
 31
0.0
  0
LINE
  5
4B
  8
AM_VIS
 10
4.7864119899558917
 20
6.4826834138425591
 30
0.0
 11
4.7864119899558917
 21
6.85768341384256
 31
0.0
  0
LINE
  5
4C
  8
AM_HID
 10
2.5864119899558919
 20
1.48268341384256
 30
0.0
 11
2.5864119899558919
 21
2.5994366301224701
 31
0.0
  0
LINE
  5
4D
  8
AM_HID
 10
2.5864119899558919
 20
3.4654620339069102
 30
0.0
 11
2.5864119899558919
 21
6.8576834138425591
 31
0.0
  0
LINE
  5
4E
  8
AM_HID
 10
4.5364119899558917
 20
1.48268341384256
 30
0.0
 11
4.5364119899558917
 21
6.8576834138425591
 31
0.0
  0
LINE
  5
4F
  8
AM_VIS
 10
0.8114119899558929
 20
1.48268341384256
 30
0.0
 11
0.8114119899558929
 21
1.98268341384256
 31
0.0
  0
LINE
  5
50
  8
AM_VIS
 10
6.311411989955892
 20
1.48268341384256
 30
0.0
 11
6.311411989955892
 21
1.98268341384256
 31
0.0
  0
LINE
  5
51
  8
AM_VIS
 10
1.4803293545131191
 20
1.98268341384256
 30
0.0
 11
2.3364119899558928
 21
3.4654620339069089
 31
0.0
  0
INSERT
  5
16A
  8
0
  2
*U7
 10
0.0
 20
0.0
 30
0.0
  0
INSERT
  5
16B
  8
0
  2
*U8
 10
0.0
 20
0.0
 30
0.0
  0
LINE
  5
16D
  8
0
 10
6.373911989955892
 20
1.48268341384256
 30
0.0
 11
7.3960714896957684
 21
1.48268341384256
 31
0.0
  0
LINE
  5
16E
  8
0
 10
4.8489119899558917
 20
6.8576834138425591
 30
0.0
 11
7.3960714896957711
 21
6.8576834138425591
 31
0.0
  0
LINE
  5
16F
  8
0
 10
7.2160714896957678
 20
1.60768341384256
 30
0.0
 11
7.2160714896957687
 21
3.8190226995568448
 31
0.0
  0
LINE
  5
170
  8
0
 10
7.2160714896957696
 20
6.7326834138425591
 30
0.0
 11
7.2160714896957687
 21
4.5213441281282742
 31
0.0
  0
SOLID
  5
171
  8
0
 10
7.1952381563624348
 20
1.60768341384256
 30
0.0
 11
7.2369048230291009
 21
1.60768341384256
 31
0.0
 12
7.2160714896957678
 22
1.48268341384256
 32
0.0
 13
7.2160714896957678
 23
1.48268341384256
 33
0.0
  0
SOLID
  5
172
  8
0
 10
7.1952381563624366
 20
6.7326834138425591
 30
0.0
 11
7.2369048230291027
 21
6.7326834138425591
 31
0.0
 12
7.2160714896957696
 22
6.8576834138425591
 32
0.0
 13
7.2160714896957696
 23
6.8576834138425591
 33
0.0
  0
INSERT
  5
173
  8
0
  2
*U9
 10
0.0
 20
0.0
 30
0.0
  0
ENDSEC
  0
EOF
