  0
SECTION
  2
HEADER
  9
$ACADVER
  1
AC1009
  9
$INSBASE
 10
0.0
 20
0.0
 30
0.0
  9
$EXTMIN
 10
11.71485155137986
 20
1.9430058561914569
 30
0.0
  9
$EXTMAX
 10
15.56032362706836
 20
6.6117858816552371
 30
0.0
  9
$LIMMIN
 10
0.0
 20
0.0
  9
$LIMMAX
 10
12.0
 20
9.0
  9
$ORTHOMODE
 70
     1
  9
$REGENMODE
 70
     0
  9
$FILLMODE
 70
     1
  9
$QTEXTMODE
 70
     0
  9
$MIRRTEXT
 70
     0
  9
$DRAGMODE
 70
     2
  9
$LTSCALE
 40
1.0
  9
$OSMODE
 70
    55
  9
$ATTMODE
 70
     1
  9
$TEXTSIZE
 40
0.2
  9
$TRACEWID
 40
0.05
  9
$TEXTSTYLE
  7
STANDARD
  9
$CLAYER
  8
0
  9
$CELTYPE
  6
BYLAYER
  9
$CECOLOR
 62
   256
  9
$DIMSCALE
 40
1.0
  9
$DIMASZ
 40
0.125
  9
$DIMEXO
 40
0.0625
  9
$DIMDLI
 40
0.38
  9
$DIMRND
 40
0.0
  9
$DIMDLE
 40
0.0
  9
$DIMEXE
 40
0.18
  9
$DIMTP
 40
0.0
  9
$DIMTM
 40
0.0
  9
$DIMTXT
 40
0.09375
  9
$DIMCEN
 40
-0.125
  9
$DIMTSZ
 40
0.0
  9
$DIMTOL
 70
     0
  9
$DIMLIM
 70
     0
  9
$DIMTIH
 70
     0
  9
$DIMTOH
 70
     0
  9
$DIMSE1
 70
     0
  9
$DIMSE2
 70
     0
  9
$DIMTAD
 70
     0
  9
$DIMZIN
 70
     3
  9
$DIMBLK
  1

  9
$DIMASO
 70
     0
  9
$DIMSHO
 70
     1
  9
$DIMPOST
  1

  9
$DIMAPOST
  1

  9
$DIMALT
 70
     0
  9
$DIMALTD
 70
     2
  9
$DIMALTF
 40
25.399999999999999
  9
$DIMLFAC
 40
1.0
  9
$DIMTOFL
 70
     1
  9
$DIMTVP
 40
0.0
  9
$DIMTIX
 70
     0
  9
$DIMSOXD
 70
     0
  9
$DIMSAH
 70
     0
  9
$DIMBLK1
  1

  9
$DIMBLK2
  1

  9
$DIMSTYLE
  2
STANDARD
  9
$DIMCLRD
 70
     0
  9
$DIMCLRE
 70
     0
  9
$DIMCLRT
 70
     0
  9
$DIMTFAC
 40
1.0
  9
$DIMGAP
 40
0.09
  9
$LUNITS
 70
     4
  9
$LUPREC
 70
     4
  9
$SKETCHINC
 40
0.1
  9
$FILLETRAD
 40
0.025
  9
$AUNITS
 70
     0
  9
$AUPREC
 70
     4
  9
$MENU
  1
.
  9
$ELEVATION
 40
0.0
  9
$PELEVATION
 40
0.0
  9
$THICKNESS
 40
0.0
  9
$LIMCHECK
 70
     0
  9
$BLIPMODE
 70
     0
  9
$CHAMFERA
 40
0.125
  9
$CHAMFERB
 40
0.5
  9
$SKPOLY
 70
     0
  9
$TDCREATE
 40
2451086.9109346061
  9
$TDUPDATE
 40
2453913.573653935
  9
$TDINDWG
 40
0.0556212269
  9
$TDUSRTIMER
 40
0.0556212269
  9
$USRTIMER
 70
     1
  9
$ANGBASE
 50
0.0
  9
$ANGDIR
 70
     0
  9
$PDMODE
 70
    34
  9
$PDSIZE
 40
3.0
  9
$PLINEWID
 40
0.0
  9
$COORDS
 70
     1
  9
$SPLFRAME
 70
     0
  9
$SPLINETYPE
 70
     6
  9
$SPLINESEGS
 70
     8
  9
$ATTDIA
 70
     0
  9
$ATTREQ
 70
     1
  9
$HANDLING
 70
     1
  9
$HANDSEED
  5
17F
  9
$SURFTAB1
 70
     6
  9
$SURFTAB2
 70
     6
  9
$SURFTYPE
 70
     6
  9
$SURFU
 70
     6
  9
$SURFV
 70
     6
  9
$UCSNAME
  2

  9
$UCSORG
 10
0.0
 20
0.0
 30
0.0
  9
$UCSXDIR
 10
1.0
 20
0.0
 30
0.0
  9
$UCSYDIR
 10
0.0
 20
1.0
 30
0.0
  9
$PUCSNAME
  2

  9
$PUCSORG
 10
0.0
 20
0.0
 30
0.0
  9
$PUCSXDIR
 10
1.0
 20
0.0
 30
0.0
  9
$PUCSYDIR
 10
0.0
 20
1.0
 30
0.0
  9
$USERI1
 70
     0
  9
$USERI2
 70
     0
  9
$USERI3
 70
     0
  9
$USERI4
 70
     0
  9
$USERI5
 70
     0
  9
$USERR1
 40
0.0
  9
$USERR2
 40
0.0
  9
$USERR3
 40
0.0
  9
$USERR4
 40
0.0
  9
$USERR5
 40
0.0
  9
$WORLDVIEW
 70
     1
  9
$SHADEDGE
 70
     3
  9
$SHADEDIF
 70
    70
  9
$TILEMODE
 70
     1
  9
$MAXACTVP
 70
    48
  9
$PLIMCHECK
 70
     0
  9
$PEXTMIN
 10
11.29773871985671
 20
1.549549432038521
 30
0.0
  9
$PEXTMAX
 10
15.953780051221299
 20
6.2055907634031051
 30
0.0
  9
$PLIMMIN
 10
-0.1579164520023376
 20
-0.2812499887361301
  9
$PLIMMAX
 10
10.84208330770177
 20
8.2187497709679782
  9
$UNITMODE
 70
     0
  9
$VISRETAIN
 70
     1
  9
$PLINEGEN
 70
     0
  9
$PSLTSCALE
 70
     1
  0
ENDSEC
  0
SECTION
  2
TABLES
  0
TABLE
  2
VPORT
 70
     2
  0
VPORT
  2
*ACTIVE
 70
     0
 10
0.0
 20
0.0
 11
1.0
 21
1.0
 12
0.97791624221479
 22
1.049418545947217
 13
0.0
 23
0.0
 14
0.5
 24
0.5
 15
0.5
 25
0.5
 16
0.0
 26
0.0
 36
1.0
 17
15.128248112946061
 27
3.8657418940357058
 37
0.0
 40
3.845472075688499
 41
2.6243523316062172
 42
50.0
 43
0.0
 44
0.0
 50
0.0
 51
0.0
 71
     0
 72
   100
 73
     1
 74
     1
 75
     0
 76
     0
 77
     0
 78
     0
  0
ENDTAB
  0
TABLE
  2
LTYPE
 70
    18
  0
LTYPE
  2
CONTINUOUS
 70
     0
  3
Solid line
 72
    65
 73
     0
 40
0.0
  0
LTYPE
  2
HIDDEN
 70
     0
  3
__ __ __ __ __ __ __ __ __ __ __ __ __ __ __ __
 72
    65
 73
     2
 40
0.375
 49
0.25
 49
-0.125
  0
LTYPE
  2
PHANTOM2
 70
     0
  3
Phantom (.5x) ___ _ _ ___ _ _ ___ _ _ ___ _ _
 72
    65
 73
     6
 40
1.25
 49
0.625
 49
-0.125
 49
0.125
 49
-0.125
 49
0.125
 49
-0.125
  0
LTYPE
  2
CENTER
 70
     0
  3
Center ____ _ ____ _ ____ _ ____ _ ____ _ ____
 72
    65
 73
     4
 40
2.0
 49
1.25
 49
-0.25
 49
0.25
 49
-0.25
  0
LTYPE
  2
ASULTYPE
 70
     0
  3
Solid line
 72
    65
 73
     2
 40
3.0
 49
2.5
 49
0.5
  0
LTYPE
  2
ASVLTYPE
 70
     0
  3
__ __ __ __ __ __ __ __ __ __ __ __ __ __ __ __ __ __ __ __ __
 72
    65
 73
     2
 40
0.75
 49
0.5
 49
-0.25
  0
LTYPE
  2
AM_ISO02W050
 70
     0
  3
__ __ __ __ __ __ __ __ __ __ __ __ __ __ __
 72
    65
 73
     2
 40
7.5
 49
6.0
 49
-1.5
  0
LTYPE
  2
AM_ISO08W050
 70
     0
  3
____ . ____ . ____ . ____ . ____ . ____ . ____
 72
    65
 73
     4
 40
18.0
 49
12.0
 49
-1.5
 49
3.0
 49
-1.5
  0
LTYPE
  2
AM_ISO09W050
 70
     0
  3
_____ . . _____ . . _____ . . ____ .. ____
 72
    65
 73
     6
 40
22.5
 49
12.0
 49
-1.5
 49
3.0
 49
-1.5
 49
3.0
 49
-1.5
  0
LTYPE
  2
AMCONSTR
 70
     0
  3
_______________________
 72
    65
 73
     2
 40
9999.0
 49
9999.0
 49
0.0
  0
LTYPE
  2
AM_ISO08W050X2
 70
     0
  3
__ . __ . __ . __ . __ . __
 72
    65
 73
     4
 40
9.0
 49
6.0
 49
-0.75
 49
1.5
 49
-0.75
  0
LTYPE
  2
AM_ISO02W050X2
 70
     0
  3
 _ _ _ _ _ _ _ _ _ _ _ _
 72
    65
 73
     2
 40
3.75
 49
3.0
 49
-0.75
  0
LTYPE
  2
AMZIGZAG
 70
     0
  3
/\/-/\/-/\/-/\/-/\/-/\/
 72
    65
 73
     2
 40
11.0001
 49
0.0001
 49
-11.0
  0
LTYPE
  2
CENTER2
 70
     0
  3
Center (.5x) ___ _ ___ _ ___ _ ___ _ ___ _ ___
 72
    65
 73
     4
 40
1.125
 49
0.75
 49
-0.125
 49
0.125
 49
-0.125
  0
LTYPE
  2
HIDDEN2
 70
     0
  3
Hidden (.5x) _ _ _ _ _ _ _ _ _ _ _ _ _ _ _ _ _
 72
    65
 73
     2
 40
0.1875
 49
0.125
 49
-0.0625
  0
LTYPE
  2
AMZIGZAG2
 70
     0
  3
/\/-/\/-/\/-/\/-/\/-/\/
 72
    65
 73
     2
 40
0.4401
 49
0.0001
 49
-0.4400000000000001
  0
LTYPE
  2
ACANSTGB
 70
     0
  3
__ . . __ . .
 72
    65
 73
     6
 40
0.35433070866
 49
0.15748031496
 49
-0.03937007874
 49
0.03937007874
 49
-0.03937007874
 49
0.03937007874
 49
-0.03937007874
  0
LTYPE
  2
ACANSTGL
 70
     0
  3
_ _ _ _ _
 72
    65
 73
     2
 40
0.11811023622
 49
0.07874015748
 49
-0.03937007874
  0
ENDTAB
  0
TABLE
  2
LAYER
 70
     3
  0
LAYER
  2
0
 70
     0
 62
     7
  6
CONTINUOUS
  0
LAYER
  2
AM_VIS
 70
     0
 62
     7
  6
CONTINUOUS
  0
LAYER
  2
AM_HID
 70
     0
 62
     7
  6
HIDDEN
  0
ENDTAB
  0
TABLE
  2
STYLE
 70
     4
  0
STYLE
  2
STANDARD
 70
     0
 40
0.0
 41
1.0
 50
0.0
 71
     0
 42
0.2
  3
txt
  4

  0
STYLE
  2

 70
     1
 40
0.0
 41
1.0
 50
0.0
 71
     0
 42
0.2
  3
ltypeshp.shx
  4

  0
STYLE
  2
ACANSTS
 70
     0
 40
1.0
 41
1.0
 50
0.0
 71
     0
 42
0.2
  3
romans.shx
  4

  0
STYLE
  2
ACANSGDT
 70
     0
 40
0.0
 41
1.0
 50
0.0
 71
     0
 42
0.2
  3
amgdtans.shx
  4

  0
ENDTAB
  0
TABLE
  2
VIEW
 70
     0
  0
ENDTAB
  0
TABLE
  2
UCS
 70
     0
  0
ENDTAB
  0
TABLE
  2
APPID
 70
    13
  0
APPID
  2
ACAD
 70
     0
  0
APPID
  2
GENIUS_GENDIM_13
 70
     0
  0
APPID
  2
GENIUS_GENDTOL_13
 70
     0
  0
APPID
  2
GENIUS_GE3DTOL_13
 70
     0
  0
APPID
  2
MCAD_NO_VIS
 70
     0
  0
APPID
  2
ACAD_TEMP_GRAPHIC
 70
     0
  0
APPID
  2
AD_DRAW
 70
     0
  0
APPID
  2
ACATTRIBSERVICES
 70
     0
  0
APPID
  2
ASURF_PCURVE_APPNAME
 70
     0
  0
APPID
  2
AMG_3D2D_5_0
 70
     0
  0
APPID
  2
DESIGNERASSEMBLIES
 70
     0
  0
APPID
  2
ACADM_DIM_EDIT
 70
     0
  0
APPID
  2
AMDT_DM_ADJ
 70
     0
  0
ENDTAB
  0
TABLE
  2
DIMSTYLE
 70
     7
  0
DIMSTYLE
  2
STANDARD
 70
     0
  3

  4

  5

  6

  7

 40
1.0
 41
0.18
 42
0.0625
 43
0.38
 44
0.18
 45
0.0
 46
0.0
 47
0.0
 48
0.0
140
0.18
141
0.09
142
0.0
143
25.399999999999999
144
1.0
145
0.0
146
1.0
147
0.09
 71
     0
 72
     0
 73
     1
 74
     1
 75
     0
 76
     0
 77
     0
 78
     0
170
     0
171
     2
172
     0
173
     0
174
     0
175
     0
176
     0
177
     0
178
     0
  0
DIMSTYLE
  2
AM_ANSI
 70
     0
  3

  4
mm
  5

  6

  7

 40
1.0
 41
0.1
 42
0.05
 43
0.5
 44
0.1
 45
0.0
 46
0.0
 47
0.1
 48
0.1
140
0.12
141
0.0
142
0.0
143
25.399999999999999
144
1.0
145
0.0
146
0.71
147
0.06
 71
     0
 72
     0
 73
     1
 74
     1
 75
     0
 76
     0
 77
     0
 78
     7
170
     0
171
     2
172
     0
173
     0
174
     0
175
     0
176
   256
177
   256
178
     2
  0
DIMSTYLE
  2
AM_ANSI$3
 70
     0
  3

  4
mm
  5

  6

  7

 40
1.0
 41
0.1
 42
0.05
 43
0.5
 44
0.1
 45
0.0
 46
0.0
 47
0.1
 48
0.1
140
0.12
141
0.0
142
0.0
143
25.399999999999999
144
1.0
145
0.0
146
0.71
147
0.06
 71
     0
 72
     0
 73
     1
 74
     1
 75
     0
 76
     0
 77
     0
 78
     7
170
     0
171
     2
172
     0
173
     0
174
     0
175
     0
176
   256
177
   256
178
     2
  0
DIMSTYLE
  2
AM_ANSI$4
 70
     0
  3

  4
mm
  5

  6

  7

 40
1.0
 41
0.1
 42
0.05
 43
0.5
 44
0.1
 45
0.0
 46
0.0
 47
0.1
 48
0.1
140
0.12
141
0.0
142
0.0
143
25.399999999999999
144
1.0
145
0.0
146
0.71
147
0.06
 71
     0
 72
     0
 73
     1
 74
     1
 75
     0
 76
     0
 77
     0
 78
     7
170
     0
171
     2
172
     0
173
     0
174
     0
175
     0
176
   256
177
   256
178
     2
  0
DIMSTYLE
  2
AM_ANSI$7
 70
     0
  3

  4
mm
  5

  6

  7

 40
1.0
 41
0.1
 42
0.05
 43
0.5
 44
0.1
 45
0.0
 46
0.0
 47
0.1
 48
0.1
140
0.24
141
0.0
142
0.0
143
25.399999999999999
144
1.0
145
0.0
146
0.71
147
0.06
 71
     0
 72
     0
 73
     1
 74
     1
 75
     0
 76
     0
 77
     0
 78
     7
170
     0
171
     2
172
     0
173
     0
174
     0
175
     0
176
   256
177
   256
178
     2
  0
DIMSTYLE
  2
AM_ANSI$SF
 70
     0
  3

  4
mm
  5

  6

  7

 40
1.0
 41
0.1
 42
0.05
 43
0.5
 44
0.1
 45
0.0
 46
0.0
 47
0.1
 48
0.1
140
0.12
141
0.0
142
0.0
143
25.399999999999999
144
1.0
145
0.0
146
0.71
147
0.06
 71
     0
 72
     0
 73
     1
 74
     1
 75
     1
 76
     1
 77
     0
 78
     7
170
     0
171
     2
172
     0
173
     0
174
     0
175
     0
176
   256
177
   256
178
     2
  0
DIMSTYLE
  2
AM_ANSI$SH
 70
     0
  3

  4
mm
  5

  6
GENAXEH
  7

 40
1.0
 41
0.1
 42
0.05
 43
0.5
 44
0.1
 45
0.0
 46
0.0
 47
0.1
 48
0.1
140
0.12
141
0.0
142
0.0
143
25.399999999999999
144
1.0
145
0.0
146
0.71
147
0.06
 71
     0
 72
     0
 73
     1
 74
     1
 75
     1
 76
     1
 77
     0
 78
     7
170
     0
171
     2
172
     0
173
     1
174
     0
175
     0
176
   256
177
   256
178
     2
  0
ENDTAB
  0
ENDSEC
  0
SECTION
  2
BLOCKS
  0
BLOCK
  8
0
  2
$MODEL_SPACE
 70
     0
 10
0.0
 20
0.0
 30
0.0
  3
$MODEL_SPACE
  1

  0
ENDBLK
  5
A
  8
0
  0
BLOCK
 67
     1
  8
0
  2
$PAPER_SPACE
 70
     0
 10
0.0
 20
0.0
 30
0.0
  3
$PAPER_SPACE
  1

  0
ENDBLK
  5
F
 67
     1
  8
0
  0
BLOCK
  8
0
  2
*U0
 70
     1
 10
0.0
 20
0.0
 30
0.0
  3
*U0
  1

  0
ENDBLK
  5
111
  8
0
  0
BLOCK
  8
0
  2
GENAXEH
 70
     0
 10
0.0
 20
0.0
 30
0.0
  3
GENAXEH
  1

  0
LINE
  5
14F
  8
0
 10
-1.0
 20
0.0
 30
0.0
 11
1.0
 21
0.0
 31
0.0
  0
ENDBLK
  5
151
  8
0
  0
BLOCK
  8
0
  2
*U2
 70
     1
 10
0.0
 20
0.0
 30
0.0
  3
*U2
  1

  0
TEXT
  5
17C
  8
0
 10
12.808813240979291
 20
6.3849108816552356
 30
0.0
 40
0.09375
  1
2-5/8"
  0
ENDBLK
  5
17E
  8
0
  0
ENDSEC
  0
SECTION
  2
ENTITIES
  0
LINE
  5
25
  8
AM_HID
 10
13.62019939618777
 20
3.8831300870720469
 30
0.0
 11
13.51413337900979
 21
3.9891961042500288
 31
0.0
  0
LINE
  5
28
  8
AM_VIS
 10
13.177306177374319
 20
4.3260233058854993
 30
0.0
 11
13.51413337900979
 21
3.9891961042500288
 31
0.0
  0
LINE
  5
2A
  8
AM_VIS
 10
15.47730617737432
 20
5.7884779318799557
 30
0.0
 11
14.47824368378312
 21
5.7884779318799557
 31
0.0
  0
LINE
  5
2B
  8
AM_VIS
 10
14.176368670965511
 20
5.7884779318799557
 30
0.0
 11
13.177306177374319
 21
5.7884779318799557
 31
0.0
  0
LINE
  5
2C
  8
AM_VIS
 10
14.176368670965511
 20
5.7884779313205481
 30
0.0
 11
14.32730617737432
 21
5.7884779313205481
 31
0.0
  0
LINE
  5
2D
  8
AM_VIS
 10
14.32730617737432
 20
5.7884779313205481
 30
0.0
 11
14.47824368378312
 21
5.7884779313205481
 31
0.0
  0
ARC
  5
2E
  8
AM_VIS
 10
14.338959944646749
 20
5.1626874850109861
 30
0.0
 40
0.4103297329045489
 50
91.628210105780283
 51
130.70568439048199
  0
ARC
  5
2F
  8
AM_VIS
 10
14.31565241010188
 20
5.1626874850109843
 30
0.0
 40
0.4103297329045511
 50
49.294315609518137
 51
88.371789894219816
  0
ARC
  5
30
  8
AM_VIS
 10
14.32730617737432
 20
5.1584779318799567
 30
0.0
 40
0.40625
 50
129.0723075591805
 51
230.9276924408197
  0
ARC
  5
31
  8
AM_VIS
 10
14.338959944646749
 20
5.1542683787489123
 30
0.0
 40
0.4103297329045348
 50
229.2943156095171
 51
268.37178989422029
  0
CIRCLE
  5
32
  8
AM_VIS
 10
14.32730617737432
 20
5.1584779318799567
 30
0.0
 40
0.3125
  0
ARC
  5
33
  8
AM_VIS
 10
14.31565241010188
 20
5.1542683787489141
 30
0.0
 40
0.4103297329045376
 50
271.62821010577971
 51
310.70568439048282
  0
ARC
  5
34
  8
AM_VIS
 10
14.32730617737432
 20
5.158477931879955
 30
0.0
 40
0.40625
 50
309.07230755918067
 51
50.927692440819548
  0
ARC
  5
35
  8
AM_VIS
 10
14.32730617737432
 20
3.1760233058854981
 30
0.0
 40
1.149999999999999
 50
180.0
 51
89.999999999999915
  0
LINE
  5
36
  8
AM_VIS
 10
11.71485155137986
 20
4.3260233058854993
 30
0.0
 11
11.71485155137986
 21
3.3269608122943009
 31
0.0
  0
LINE
  5
37
  8
AM_VIS
 10
11.71485155137986
 20
3.0250857994766949
 30
0.0
 11
11.71485155137986
 21
2.0260233058854991
 31
0.0
  0
ARC
  5
38
  8
AM_VIS
 10
14.32730617737432
 20
3.1760233058854981
 30
0.0
 40
1.149999999999999
 50
89.999999999999915
 51
180.0
  0
ARC
  5
39
  8
AM_VIS
 10
15.66579795652266
 20
2.7656091770445008
 30
0.0
 40
0.2500000000000024
 50
162.95318688338119
 51
224.9999999999996
  0
ARC
  5
3A
  8
AM_VIS
 10
14.737720306215319
 20
1.8375315267371619
 30
0.0
 40
0.2499999999999983
 50
44.999999999999872
 51
107.04681311661901
  0
LINE
  5
3B
  8
AM_VIS
 10
15.09199998954829
 20
2.049206478385452
 30
0.0
 11
14.985799367354289
 21
1.9430058561914569
 31
0.0
  0
LINE
  5
3C
  8
AM_VIS
 10
15.56032362706836
 20
2.5175301159055241
 30
0.0
 11
15.45412300487436
 21
2.411329493711527
 31
0.0
  0
LINE
  5
3D
  8
AM_VIS
 10
15.27306149721057
 20
2.2302679860478731
 30
0.0
 11
15.45412300487464
 21
2.4113294937112491
 31
0.0
  0
LINE
  5
3E
  8
AM_VIS
 10
15.091999989548571
 20
2.049206478385174
 30
0.0
 11
15.273061497211939
 21
2.230267986049248
 31
0.0
  0
CIRCLE
  5
3F
  8
AM_VIS
 10
14.32730617737432
 20
3.1760233058854981
 30
0.0
 40
1.0
  0
LINE
  5
40
  8
AM_VIS
 10
11.71485155195097
 20
3.176023305885499
 30
0.0
 11
11.71485155195097
 21
3.0250857994766949
 31
0.0
  0
LINE
  5
41
  8
AM_VIS
 10
11.71485155195097
 20
3.3269608122943009
 30
0.0
 11
11.71485155195097
 21
3.176023305885499
 31
0.0
  0
ARC
  5
42
  8
AM_VIS
 10
12.340641998248829
 20
3.187677073157936
 30
0.0
 40
0.4103297329045501
 50
181.62821010578031
 51
220.70568439048199
  0
ARC
  5
43
  8
AM_VIS
 10
12.34064199824884
 20
3.1643695386130588
 30
0.0
 40
0.4103297329045567
 50
139.29431560951829
 51
178.37178989421949
  0
ARC
  5
44
  8
AM_VIS
 10
12.344851551379859
 20
3.1760233058854999
 30
0.0
 40
0.40625
 50
219.0723075591805
 51
320.92769244081973
  0
ARC
  5
45
  8
AM_VIS
 10
12.349061104510911
 20
3.1876770731579289
 30
0.0
 40
0.4103297329045296
 50
319.29431560951679
 51
358.37178989422063
  0
CIRCLE
  5
46
  8
AM_VIS
 10
12.344851551379859
 20
3.1760233058854972
 30
0.0
 40
0.3125
  0
ARC
  5
47
  8
AM_VIS
 10
12.3490611045109
 20
3.1643695386130668
 30
0.0
 40
0.4103297329045343
 50
1.628210105779528
 51
40.705684390482929
  0
ARC
  5
48
  8
AM_VIS
 10
12.344851551379859
 20
3.1760233058854972
 30
0.0
 40
0.40625
 50
39.072307559180622
 51
140.9276924408195
  0
LINE
  5
49
  8
AM_HID
 10
14.32730617737432
 20
2.176023305885499
 30
0.0
 11
11.71485155137986
 21
2.1760233058854981
 31
0.0
  0
LINE
  5
4A
  8
AM_HID
 10
13.32730617737432
 20
4.176023305885499
 30
0.0
 11
11.71485155137986
 21
4.1760233058854981
 31
0.0
  0
LINE
  5
4B
  8
AM_VIS
 10
13.177306177374319
 20
4.3260233058854993
 30
0.0
 11
13.177306177374319
 21
5.7884779318799549
 31
0.0
  0
LINE
  5
4C
  8
AM_VIS
 10
15.47730617737432
 20
3.1760233058854981
 30
0.0
 11
15.47730617737432
 21
5.7884779318799557
 31
0.0
  0
LINE
  5
4D
  8
AM_VIS
 10
14.32730617737432
 20
2.0260233058854999
 30
0.0
 11
11.71485155137986
 21
2.0260233058854991
 31
0.0
  0
LINE
  5
4E
  8
AM_VIS
 10
13.177306177374319
 20
4.3260233058854993
 30
0.0
 11
11.71485155137986
 21
4.3260233058854993
 31
0.0
  0
LINE
  5
4F
  8
AM_HID
 10
13.32730617737432
 20
4.176023305885499
 30
0.0
 11
13.32730617737432
 21
5.7884779318799549
 31
0.0
  0
LINE
  5
50
  8
AM_HID
 10
15.32730617737432
 20
3.1760233058854981
 30
0.0
 11
15.32730617737432
 21
5.7884779318799557
 31
0.0
  0
LINE
  5
51
  8
AM_HID
 10
15.05209062809053
 20
2.009297116927693
 30
0.0
 11
14.77802859763492
 21
2.283359147383305
 31
0.0
  0
LINE
  5
52
  8
AM_HID
 10
15.494032366332121
 20
2.4512388551692852
 30
0.0
 11
15.219970335876511
 21
2.7253008856248959
 31
0.0
  0
LINE
  5
53
  8
AM_VIS
 10
15.56032362706836
 20
2.5175301159055241
 30
0.0
 11
15.48902126122602
 21
2.5888324817478638
 31
0.0
  0
LINE
  5
54
  8
AM_VIS
 10
14.91449700151195
 20
2.0143082220337969
 30
0.0
 11
14.985799367354289
 21
1.9430058561914569
 31
0.0
  0
LINE
  5
158
  8
0
 10
14.402774930578721
 20
5.8509779313205481
 30
0.0
 11
14.402774930578721
 21
6.6117858816552362
 31
0.0
  0
LINE
  5
159
  8
0
 10
11.71485155137986
 20
4.3885233058854993
 30
0.0
 11
11.71485155137986
 21
6.6117858816552371
 31
0.0
  0
LINE
  5
15A
  8
0
 10
14.277774930578721
 20
6.4317858816552356
 30
0.0
 11
13.39881324097929
 21
6.4317858816552356
 31
0.0
  0
LINE
  5
15B
  8
0
 10
11.83985155137986
 20
6.4317858816552356
 30
0.0
 11
12.718813240979291
 21
6.4317858816552356
 31
0.0
  0
SOLID
  5
15C
  8
0
 10
14.277774930578721
 20
6.4526192149885686
 30
0.0
 11
14.277774930578721
 21
6.4109525483219034
 31
0.0
 12
14.402774930578721
 22
6.4317858816552356
 32
0.0
 13
14.402774930578721
 23
6.4317858816552356
 33
0.0
  0
SOLID
  5
15D
  8
0
 10
11.83985155137986
 20
6.4526192149885686
 30
0.0
 11
11.83985155137986
 21
6.4109525483219034
 31
0.0
 12
11.71485155137986
 22
6.4317858816552356
 32
0.0
 13
11.71485155137986
 23
6.4317858816552356
 33
0.0
  0
INSERT
  5
15E
  8
0
  2
*U2
 10
0.0
 20
0.0
 30
0.0
  0
ENDSEC
  0
EOF
