  0
SECTION
  2
HEADER
  9
$ACADVER
  1
AC1009
  9
$INSBASE
 10
0.0
 20
0.0
 30
0.0
  9
$EXTMIN
 10
0.5823596262073938
 20
1.8621020765695819
 30
0.0
  9
$EXTMAX
 10
7.0332270883064218
 20
6.1753462952152862
 30
0.0
  9
$LIMMIN
 10
0.0
 20
0.0
  9
$LIMMAX
 10
12.0
 20
9.0
  9
$ORTHOMODE
 70
     1
  9
$REGENMODE
 70
     0
  9
$FILLMODE
 70
     1
  9
$QTEXTMODE
 70
     0
  9
$MIRRTEXT
 70
     0
  9
$DRAGMODE
 70
     2
  9
$LTSCALE
 40
1.0
  9
$OSMODE
 70
    55
  9
$ATTMODE
 70
     1
  9
$TEXTSIZE
 40
0.12
  9
$TRACEWID
 40
0.05
  9
$TEXTSTYLE
  7
ADESK1
  9
$CLAYER
  8
0
  9
$CELTYPE
  6
BYLAYER
  9
$CECOLOR
 62
   256
  9
$DIMSCALE
 40
1.0
  9
$DIMASZ
 40
0.125
  9
$DIMEXO
 40
0.0625
  9
$DIMDLI
 40
0.38
  9
$DIMRND
 40
0.0
  9
$DIMDLE
 40
0.0
  9
$DIMEXE
 40
0.18
  9
$DIMTP
 40
0.0
  9
$DIMTM
 40
0.0
  9
$DIMTXT
 40
0.09375
  9
$DIMCEN
 40
-0.125
  9
$DIMTSZ
 40
0.0
  9
$DIMTOL
 70
     0
  9
$DIMLIM
 70
     0
  9
$DIMTIH
 70
     0
  9
$DIMTOH
 70
     0
  9
$DIMSE1
 70
     0
  9
$DIMSE2
 70
     0
  9
$DIMTAD
 70
     0
  9
$DIMZIN
 70
     3
  9
$DIMBLK
  1

  9
$DIMASO
 70
     0
  9
$DIMSHO
 70
     1
  9
$DIMPOST
  1

  9
$DIMAPOST
  1

  9
$DIMALT
 70
     0
  9
$DIMALTD
 70
     2
  9
$DIMALTF
 40
25.399999999999999
  9
$DIMLFAC
 40
1.0
  9
$DIMTOFL
 70
     1
  9
$DIMTVP
 40
0.0
  9
$DIMTIX
 70
     0
  9
$DIMSOXD
 70
     0
  9
$DIMSAH
 70
     0
  9
$DIMBLK1
  1

  9
$DIMBLK2
  1

  9
$DIMSTYLE
  2
STANDARD
  9
$DIMCLRD
 70
     0
  9
$DIMCLRE
 70
     0
  9
$DIMCLRT
 70
     0
  9
$DIMTFAC
 40
1.0
  9
$DIMGAP
 40
0.09
  9
$LUNITS
 70
     4
  9
$LUPREC
 70
     4
  9
$SKETCHINC
 40
0.1
  9
$FILLETRAD
 40
0.0
  9
$AUNITS
 70
     0
  9
$AUPREC
 70
     4
  9
$MENU
  1
.
  9
$ELEVATION
 40
0.0
  9
$PELEVATION
 40
0.0
  9
$THICKNESS
 40
0.0
  9
$LIMCHECK
 70
     0
  9
$BLIPMODE
 70
     0
  9
$CHAMFERA
 40
0.5
  9
$CHAMFERB
 40
0.5
  9
$SKPOLY
 70
     0
  9
$TDCREATE
 40
2451065.3838062501
  9
$TDUPDATE
 40
2453913.5785736688
  9
$TDINDWG
 40
0.039293125
  9
$TDUSRTIMER
 40
0.039293125
  9
$USRTIMER
 70
     1
  9
$ANGBASE
 50
0.0
  9
$ANGDIR
 70
     0
  9
$PDMODE
 70
    34
  9
$PDSIZE
 40
3.0
  9
$PLINEWID
 40
0.0
  9
$COORDS
 70
     1
  9
$SPLFRAME
 70
     0
  9
$SPLINETYPE
 70
     6
  9
$SPLINESEGS
 70
     8
  9
$ATTDIA
 70
     0
  9
$ATTREQ
 70
     1
  9
$HANDLING
 70
     1
  9
$HANDSEED
  5
ACE
  9
$SURFTAB1
 70
     6
  9
$SURFTAB2
 70
     6
  9
$SURFTYPE
 70
     6
  9
$SURFU
 70
     6
  9
$SURFV
 70
     6
  9
$UCSNAME
  2

  9
$UCSORG
 10
0.0
 20
0.0
 30
0.0
  9
$UCSXDIR
 10
1.0
 20
0.0
 30
0.0
  9
$UCSYDIR
 10
0.0
 20
1.0
 30
0.0
  9
$PUCSNAME
  2

  9
$PUCSORG
 10
0.0
 20
0.0
 30
0.0
  9
$PUCSXDIR
 10
1.0
 20
0.0
 30
0.0
  9
$PUCSYDIR
 10
0.0
 20
1.0
 30
0.0
  9
$USERI1
 70
     0
  9
$USERI2
 70
     0
  9
$USERI3
 70
     0
  9
$USERI4
 70
     0
  9
$USERI5
 70
     0
  9
$USERR1
 40
0.0
  9
$USERR2
 40
0.0
  9
$USERR3
 40
0.0
  9
$USERR4
 40
0.0
  9
$USERR5
 40
0.0
  9
$WORLDVIEW
 70
     1
  9
$SHADEDGE
 70
     3
  9
$SHADEDIF
 70
    70
  9
$TILEMODE
 70
     1
  9
$MAXACTVP
 70
    48
  9
$PLIMCHECK
 70
     0
  9
$PEXTMIN
 10
-1.2568086155789151
 20
1.7476424931492569
 30
-0.0015258207003583
  9
$PEXTMAX
 10
7.9747585635105187
 20
7.0984037517906939
 30
0.0000000349246037
  9
$PLIMMIN
 10
-0.1579164520023376
 20
-0.2812499887361301
  9
$PLIMMAX
 10
10.84208330770177
 20
8.2187497709679782
  9
$UNITMODE
 70
     0
  9
$VISRETAIN
 70
     1
  9
$PLINEGEN
 70
     0
  9
$PSLTSCALE
 70
     1
  0
ENDSEC
  0
SECTION
  2
TABLES
  0
TABLE
  2
VPORT
 70
     2
  0
VPORT
  2
*ACTIVE
 70
     0
 10
0.0
 20
0.0
 11
1.0
 21
1.0
 12
2.576905422942656
 22
1.1635213348517011
 13
0.0
 23
0.0
 14
0.5
 24
0.5
 15
0.5
 25
0.5
 16
0.0
 26
0.0
 36
1.0
 17
4.9857001396837601
 27
3.3364786651482978
 37
0.0
 40
9.3364485981308398
 41
2.2104247104247099
 42
50.0
 43
0.0
 44
0.0
 50
0.0
 51
0.0
 71
     0
 72
   100
 73
     1
 74
     1
 75
     0
 76
     0
 77
     0
 78
     0
  0
ENDTAB
  0
TABLE
  2
LTYPE
 70
    18
  0
LTYPE
  2
CONTINUOUS
 70
     0
  3
Solid line
 72
    65
 73
     0
 40
0.0
  0
LTYPE
  2
HIDDEN
 70
     0
  3
__ __ __ __ __ __ __ __ __ __ __ __ __ __ __ __
 72
    65
 73
     2
 40
0.375
 49
0.25
 49
-0.125
  0
LTYPE
  2
PHANTOM2
 70
     0
  3
Phantom (.5x) ___ _ _ ___ _ _ ___ _ _ ___ _ _
 72
    65
 73
     6
 40
1.25
 49
0.625
 49
-0.125
 49
0.125
 49
-0.125
 49
0.125
 49
-0.125
  0
LTYPE
  2
CENTER
 70
     0
  3
Center ____ _ ____ _ ____ _ ____ _ ____ _ ____
 72
    65
 73
     4
 40
2.0
 49
1.25
 49
-0.25
 49
0.25
 49
-0.25
  0
LTYPE
  2
ASULTYPE
 70
     0
  3
Solid line
 72
    65
 73
     2
 40
3.0
 49
2.5
 49
0.5
  0
LTYPE
  2
ASVLTYPE
 70
     0
  3
__ __ __ __ __ __ __ __ __ __ __ __ __ __ __ __ __ __ __ __ __
 72
    65
 73
     2
 40
0.75
 49
0.5
 49
-0.25
  0
LTYPE
  2
AM_ISO02W050
 70
     0
  3
__ __ __ __ __ __ __ __ __ __ __ __ __ __ __
 72
    65
 73
     2
 40
7.5
 49
6.0
 49
-1.5
  0
LTYPE
  2
AM_ISO08W050
 70
     0
  3
____ . ____ . ____ . ____ . ____ . ____ . ____
 72
    65
 73
     4
 40
18.0
 49
12.0
 49
-1.5
 49
3.0
 49
-1.5
  0
LTYPE
  2
AM_ISO09W050
 70
     0
  3
_____ . . _____ . . _____ . . ____ .. ____
 72
    65
 73
     6
 40
22.5
 49
12.0
 49
-1.5
 49
3.0
 49
-1.5
 49
3.0
 49
-1.5
  0
LTYPE
  2
AMCONSTR
 70
     0
  3
_______________________
 72
    65
 73
     2
 40
9999.0
 49
9999.0
 49
0.0
  0
LTYPE
  2
AM_ISO08W050X2
 70
     0
  3
__ . __ . __ . __ . __ . __
 72
    65
 73
     4
 40
9.0
 49
6.0
 49
-0.75
 49
1.5
 49
-0.75
  0
LTYPE
  2
AM_ISO02W050X2
 70
     0
  3
 _ _ _ _ _ _ _ _ _ _ _ _
 72
    65
 73
     2
 40
3.75
 49
3.0
 49
-0.75
  0
LTYPE
  2
AMZIGZAG
 70
     0
  3
/\/-/\/-/\/-/\/-/\/-/\/
 72
    65
 73
     2
 40
11.0001
 49
0.0001
 49
-11.0
  0
LTYPE
  2
CENTER2
 70
     0
  3
Center (.5x) ___ _ ___ _ ___ _ ___ _ ___ _ ___
 72
    65
 73
     4
 40
1.125
 49
0.75
 49
-0.125
 49
0.125
 49
-0.125
  0
LTYPE
  2
HIDDEN2
 70
     0
  3
Hidden (.5x) _ _ _ _ _ _ _ _ _ _ _ _ _ _ _ _ _
 72
    65
 73
     2
 40
0.1875
 49
0.125
 49
-0.0625
  0
LTYPE
  2
AMZIGZAG2
 70
     0
  3
/\/-/\/-/\/-/\/-/\/-/\/
 72
    65
 73
     2
 40
0.4401
 49
0.0001
 49
-0.4400000000000001
  0
LTYPE
  2
ACANSTGB
 70
     0
  3
__ . . __ . .
 72
    65
 73
     6
 40
0.35433070866
 49
0.15748031496
 49
-0.03937007874
 49
0.03937007874
 49
-0.03937007874
 49
0.03937007874
 49
-0.03937007874
  0
LTYPE
  2
ACANSTGL
 70
     0
  3
_ _ _ _ _
 72
    65
 73
     2
 40
0.11811023622
 49
0.07874015748
 49
-0.03937007874
  0
ENDTAB
  0
TABLE
  2
LAYER
 70
     4
  0
LAYER
  2
0
 70
     0
 62
     7
  6
CONTINUOUS
  0
LAYER
  2
AM_VIS
 70
     0
 62
     7
  6
CONTINUOUS
  0
LAYER
  2
AM_HID
 70
     0
 62
     7
  6
HIDDEN
  0
LAYER
  2
KEE10
 70
     0
 62
     7
  6
CONTINUOUS
  0
ENDTAB
  0
TABLE
  2
STYLE
 70
     6
  0
STYLE
  2
STANDARD
 70
     0
 40
0.0
 41
1.0
 50
0.0
 71
     0
 42
0.2
  3
txt
  4

  0
STYLE
  2
ADESK1
 70
     0
 40
0.0
 41
1.0
 50
0.0
 71
     0
 42
0.12
  3
romans.shx
  4

  0
STYLE
  2

 70
     1
 40
0.0
 41
1.0
 50
0.0
 71
     0
 42
0.12
  3
ltypeshp.shx
  4

  0
STYLE
  2
ACANSTS
 70
     0
 40
1.0
 41
1.0
 50
0.0
 71
     0
 42
0.12
  3
romans.shx
  4

  0
STYLE
  2
ACANSGDT
 70
     0
 40
0.0
 41
1.0
 50
0.0
 71
     0
 42
0.12
  3
amgdtans.shx
  4

  0
STYLE
  2
ACANSTSB
 70
     0
 40
1.0
 41
1.0
 50
0.0
 71
     0
 42
0.2
  3
romans.shx
  4

  0
ENDTAB
  0
TABLE
  2
VIEW
 70
     0
  0
ENDTAB
  0
TABLE
  2
UCS
 70
     0
  0
ENDTAB
  0
TABLE
  2
APPID
 70
    13
  0
APPID
  2
ACAD
 70
     0
  0
APPID
  2
GENIUS_GENDIM_13
 70
     0
  0
APPID
  2
GENIUS_GENDTOL_13
 70
     0
  0
APPID
  2
GENIUS_GE3DTOL_13
 70
     0
  0
APPID
  2
MCAD_NO_VIS
 70
     0
  0
APPID
  2
ACAD_TEMP_GRAPHIC
 70
     0
  0
APPID
  2
AD_DRAW
 70
     0
  0
APPID
  2
ACATTRIBSERVICES
 70
     0
  0
APPID
  2
ASURF_PCURVE_APPNAME
 70
     0
  0
APPID
  2
AMG_3D2D_5_0
 70
     0
  0
APPID
  2
DESIGNERASSEMBLIES
 70
     0
  0
APPID
  2
ACADM_DIM_EDIT
 70
     0
  0
APPID
  2
AMDT_DM_ADJ
 70
     0
  0
ENDTAB
  0
TABLE
  2
DIMSTYLE
 70
     7
  0
DIMSTYLE
  2
STANDARD
 70
     0
  3

  4

  5

  6

  7

 40
1.0
 41
0.18
 42
0.0625
 43
0.38
 44
0.18
 45
0.0
 46
0.0
 47
0.0
 48
0.0
140
0.18
141
0.09
142
0.0
143
25.399999999999999
144
1.0
145
0.0
146
1.0
147
0.09
 71
     0
 72
     0
 73
     1
 74
     1
 75
     0
 76
     0
 77
     0
 78
     0
170
     0
171
     2
172
     0
173
     0
174
     0
175
     0
176
     0
177
     0
178
     0
  0
DIMSTYLE
  2
AM_ANSI
 70
     0
  3

  4
mm
  5

  6

  7

 40
1.0
 41
0.1
 42
0.05
 43
0.5
 44
0.1
 45
0.0
 46
0.0
 47
0.1
 48
0.1
140
0.12
141
0.0
142
0.0
143
25.399999999999999
144
1.0
145
0.0
146
0.71
147
0.06
 71
     0
 72
     0
 73
     1
 74
     1
 75
     0
 76
     0
 77
     0
 78
     7
170
     0
171
     2
172
     0
173
     0
174
     0
175
     0
176
   256
177
   256
178
     2
  0
DIMSTYLE
  2
AM_ANSI$3
 70
     0
  3

  4
mm
  5

  6

  7

 40
1.0
 41
0.1
 42
0.05
 43
0.5
 44
0.1
 45
0.0
 46
0.0
 47
0.1
 48
0.1
140
0.12
141
0.0
142
0.0
143
25.399999999999999
144
1.0
145
0.0
146
0.71
147
0.06
 71
     0
 72
     0
 73
     1
 74
     1
 75
     0
 76
     0
 77
     0
 78
     7
170
     0
171
     2
172
     0
173
     0
174
     0
175
     0
176
   256
177
   256
178
     2
  0
DIMSTYLE
  2
AM_ANSI$4
 70
     0
  3

  4
mm
  5

  6

  7

 40
1.0
 41
0.1
 42
0.05
 43
0.5
 44
0.1
 45
0.0
 46
0.0
 47
0.1
 48
0.1
140
0.12
141
0.0
142
0.0
143
25.399999999999999
144
1.0
145
0.0
146
0.71
147
0.06
 71
     0
 72
     0
 73
     1
 74
     1
 75
     0
 76
     0
 77
     0
 78
     7
170
     0
171
     2
172
     0
173
     0
174
     0
175
     0
176
   256
177
   256
178
     2
  0
DIMSTYLE
  2
AM_ANSI$7
 70
     0
  3

  4
mm
  5

  6

  7

 40
1.0
 41
0.1
 42
0.05
 43
0.5
 44
0.1
 45
0.0
 46
0.0
 47
0.1
 48
0.1
140
0.24
141
0.0
142
0.0
143
25.399999999999999
144
1.0
145
0.0
146
0.71
147
0.06
 71
     0
 72
     0
 73
     1
 74
     1
 75
     0
 76
     0
 77
     0
 78
     7
170
     0
171
     2
172
     0
173
     0
174
     0
175
     0
176
   256
177
   256
178
     2
  0
DIMSTYLE
  2
AM_ANSI$SF
 70
     0
  3

  4
mm
  5

  6

  7

 40
1.0
 41
0.1
 42
0.05
 43
0.5
 44
0.1
 45
0.0
 46
0.0
 47
0.1
 48
0.1
140
0.12
141
0.0
142
0.0
143
25.399999999999999
144
1.0
145
0.0
146
0.71
147
0.06
 71
     0
 72
     0
 73
     1
 74
     1
 75
     1
 76
     1
 77
     0
 78
     7
170
     0
171
     2
172
     0
173
     0
174
     0
175
     0
176
   256
177
   256
178
     2
  0
DIMSTYLE
  2
AM_ANSI$SH
 70
     0
  3

  4
mm
  5

  6
GENAXEH
  7

 40
1.0
 41
0.1
 42
0.05
 43
0.5
 44
0.1
 45
0.0
 46
0.0
 47
0.1
 48
0.1
140
0.12
141
0.0
142
0.0
143
25.399999999999999
144
1.0
145
0.0
146
0.71
147
0.06
 71
     0
 72
     0
 73
     1
 74
     1
 75
     1
 76
     1
 77
     0
 78
     7
170
     0
171
     2
172
     0
173
     1
174
     0
175
     0
176
   256
177
   256
178
     2
  0
ENDTAB
  0
ENDSEC
  0
SECTION
  2
BLOCKS
  0
BLOCK
  8
0
  2
$MODEL_SPACE
 70
     0
 10
0.0
 20
0.0
 30
0.0
  3
$MODEL_SPACE
  1

  0
ENDBLK
  5
A
  8
0
  0
BLOCK
 67
     1
  8
0
  2
$PAPER_SPACE
 70
     0
 10
0.0
 20
0.0
 30
0.0
  3
$PAPER_SPACE
  1

  0
ENDBLK
  5
F
 67
     1
  8
0
  0
BLOCK
  8
0
  2
*U0
 70
     1
 10
0.0
 20
0.0
 30
0.0
  3
*U0
  1

  0
ENDBLK
  5
11D
  8
0
  0
BLOCK
  8
0
  2
GENAXEH
 70
     0
 10
0.0
 20
0.0
 30
0.0
  3
GENAXEH
  1

  0
LINE
  5
15A
  8
0
 10
-1.0
 20
0.0
 30
0.0
 11
1.0
 21
0.0
 31
0.0
  0
ENDBLK
  5
15C
  8
0
  0
BLOCK
  8
0
  2
_DOT
 70
     0
 10
0.0
 20
0.0
 30
0.0
  3
_DOT
  1

  0
POLYLINE
  5
16D
  8
0
  6
BYBLOCK
 62
     0
 66
     1
 10
0.0
 20
0.0
 30
0.0
 70
     1
 40
0.5
 41
0.5
  0
VERTEX
  5
16E
  8
0
  6
BYBLOCK
 62
     0
 10
-0.25
 20
0.0
 30
0.0
 42
1.0
  0
VERTEX
  5
16F
  8
0
  6
BYBLOCK
 62
     0
 10
0.25
 20
0.0
 30
0.0
 42
1.0
  0
SEQEND
  5
170
  8
0
  6
BYBLOCK
 62
     0
  0
LINE
  5
171
  8
0
  6
BYBLOCK
 62
     0
 10
-0.5
 20
0.0
 30
0.0
 11
-1.0
 21
0.0
 31
0.0
  0
ENDBLK
  5
173
  8
0
  0
BLOCK
  8
0
  2
2D
 70
     0
 10
0.0
 20
0.0
 30
0.0
  3
2D
  1

  0
INSERT
  5
177
  8
0
  2
*U5
 10
0.0
 20
0.0
 30
0.0
  0
INSERT
  5
178
  8
0
  2
*U6
 10
0.0
 20
0.0
 30
0.0
  0
INSERT
  5
179
  8
0
  2
*U7
 10
0.0
 20
0.0
 30
0.0
  0
ENDBLK
  5
17B
  8
0
  0
BLOCK
  8
0
  2
*U4
 70
     1
 10
0.0
 20
0.0
 30
0.0
  3
*U4
  1

  0
TEXT
  5
1E3
  8
0
 10
5.1142129365207074
 20
1.9683859372838679
 30
0.0
 40
0.071263125
  1
3-1/2"
  7
ADESK1
  0
ENDBLK
  5
1E5
  8
0
  0
BLOCK
  8
0
  2
*U5
 70
     1
 10
0.0
 20
0.0
 30
0.0
  3
*U5
  1

  0
TEXT
  5
1E7
  8
KEE10
 10
-0.167740653382606
 20
0.7944046258072062
 30
0.0
 40
0.140625
  1
KEE
  0
ENDBLK
  5
1E9
  8
0
  0
BLOCK
  8
0
  2
*U6
 70
     1
 10
0.0
 20
0.0
 30
0.0
  3
*U6
  1

  0
TEXT
  5
1EB
  8
KEE10
 10
-0.308365653382606
 20
0.4858688129746218
 30
0.0
 40
0.140625
  1
KLAMP
  0
ENDBLK
  5
1ED
  8
0
  0
BLOCK
  8
0
  2
*U7
 70
     1
 10
0.0
 20
0.0
 30
0.0
  3
*U7
  1

  0
TEXT
  5
1EF
  8
KEE10
 10
-0.202896903382606
 20
0.2018753139112972
 30
0.0
 40
0.140625
  1
10-8
  0
ENDBLK
  5
1F1
  8
0
  0
BLOCK
  8
0
  2
*U8
 70
     1
 10
0.0
 20
0.0
 30
0.0
  3
*U8
  1

  0
TEXT
  5
1F3
  8
KEE10
 10
1.8461414782242209
 20
4.5726781464903681
 30
0.0
 40
0.1068946875
  1
KEE
 50
270.0
  0
ENDBLK
  5
1F5
  8
0
  0
BLOCK
  8
0
  2
*U9
 70
     1
 10
0.0
 20
0.0
 30
0.0
  3
*U9
  1

  0
TEXT
  5
1F7
  8
KEE10
 10
1.6116110654576601
 20
4.6795728339903677
 30
0.0
 40
0.1068946875
  1
KLAMP
 50
270.0
  0
ENDBLK
  5
1F9
  8
0
  0
ENDSEC
  0
SECTION
  2
ENTITIES
  0
POINT
  5
26
  8
0
 10
0.0
 20
0.0
 30
0.0
  0
CIRCLE
  5
27
  8
AM_VIS
 10
5.3229120883064232
 20
4.4650312952152849
 30
0.0
 40
1.7103149999999989
  0
CIRCLE
  5
29
  8
AM_VIS
 10
5.3229120883064232
 20
5.7952762952152863
 30
0.0
 40
0.190035
  0
CIRCLE
  5
2A
  8
AM_VIS
 10
5.3229120883064223
 20
3.1347862952152861
 30
0.0
 40
0.190035
  0
CIRCLE
  5
2B
  8
AM_VIS
 10
3.9926670883064208
 20
4.4650312952152849
 30
0.0
 40
0.190035
  0
CIRCLE
  5
2C
  8
AM_VIS
 10
6.6531570883064211
 20
4.4650312952152849
 30
0.0
 40
0.190035
  0
CIRCLE
  5
2D
  8
AM_VIS
 10
5.3229120883064232
 20
4.4650312952152849
 30
0.0
 40
0.9311714999999999
  0
CIRCLE
  5
2E
  8
AM_VIS
 10
5.3229120883064232
 20
4.4650312952152849
 30
0.0
 40
0.7411365
  0
LINE
  5
2F
  8
AM_HID
 10
4.5512009170833521
 20
5.0639455030526292
 30
0.0
 11
4.5837690290280442
 21
5.0313773911079389
 31
0.0
  0
LINE
  5
32
  8
AM_HID
 10
4.7239978804690752
 20
5.2367424664383551
 30
0.0
 11
4.7565659924137673
 21
5.2041743544936629
 31
0.0
  0
LINE
  5
33
  8
AM_HID
 10
4.6375993987762154
 20
5.1503439847454917
 30
0.0
 11
4.6644744062087709
 21
5.1234689773129336
 31
0.0
  0
LINE
  5
34
  8
AM_VIS
 10
4.8055681952296974
 20
5.3183127811989728
 30
0.0
 11
4.6375993987762154
 21
5.1503439847454917
 31
0.0
  0
LINE
  5
35
  8
AM_VIS
 10
4.6375993987762154
 20
5.1503439847454917
 30
0.0
 11
4.4696306023227326
 21
4.9823751882920098
 31
0.0
  0
LINE
  5
36
  8
AM_VIS
 10
4.8055681952296974
 20
5.3183127811989728
 30
0.0
 11
4.8721885797259024
 21
5.279849484276574
 31
0.0
  0
LINE
  5
37
  8
AM_VIS
 10
4.4696306023227326
 20
4.9823751882920098
 30
0.0
 11
4.5080938992451332
 21
4.9157548037958039
 31
0.0
  0
LINE
  5
38
  8
AM_VIS
 10
0.8674121262073937
 20
6.1753462952152862
 30
0.0
 11
0.8674121262073937
 21
2.7547162952152862
 31
0.0
  0
LINE
  5
39
  8
AM_VIS
 10
0.5823596262073938
 20
2.7547162952152862
 30
0.0
 11
0.5823596262073938
 21
6.1753462952152862
 31
0.0
  0
LINE
  5
3A
  8
AM_VIS
 10
2.3876921262073938
 20
5.3962027952152862
 30
0.0
 11
2.3876921262073938
 21
3.5338597952152848
 31
0.0
  0
POLYLINE
  8
AM_HID
  5
1FA
  66
     1
 10
0.000000
 20
0.000000
 30
0.000000
  70
     8
  0
VERTEX
  8
AM_HID
  5
1FB
 10
1.69906
 20
5.27985
 30
0.000000
  70
    32
  0
VERTEX
  8
AM_HID
  5
1FC
 10
1.69806
 20
5.27985
 30
0.000000
  70
    32
  0
VERTEX
  8
AM_HID
  5
1FD
 10
1.69707
 20
5.27985
 30
0.000000
  70
    32
  0
VERTEX
  8
AM_HID
  5
1FE
 10
1.69607
 20
5.27984
 30
0.000000
  70
    32
  0
VERTEX
  8
AM_HID
  5
1FF
 10
1.69507
 20
5.27983
 30
0.000000
  70
    32
  0
VERTEX
  8
AM_HID
  5
200
 10
1.69407
 20
5.27982
 30
0.000000
  70
    32
  0
VERTEX
  8
AM_HID
  5
201
 10
1.69306
 20
5.27981
 30
0.000000
  70
    32
  0
VERTEX
  8
AM_HID
  5
202
 10
1.69206
 20
5.27980
 30
0.000000
  70
    32
  0
VERTEX
  8
AM_HID
  5
203
 10
1.69106
 20
5.27978
 30
0.000000
  70
    32
  0
VERTEX
  8
AM_HID
  5
204
 10
1.69005
 20
5.27976
 30
0.000000
  70
    32
  0
VERTEX
  8
AM_HID
  5
205
 10
1.68905
 20
5.27974
 30
0.000000
  70
    32
  0
VERTEX
  8
AM_HID
  5
206
 10
1.68804
 20
5.27972
 30
0.000000
  70
    32
  0
VERTEX
  8
AM_HID
  5
207
 10
1.68703
 20
5.27969
 30
0.000000
  70
    32
  0
VERTEX
  8
AM_HID
  5
208
 10
1.68602
 20
5.27966
 30
0.000000
  70
    32
  0
VERTEX
  8
AM_HID
  5
209
 10
1.68501
 20
5.27963
 30
0.000000
  70
    32
  0
VERTEX
  8
AM_HID
  5
20A
 10
1.68400
 20
5.27960
 30
0.000000
  70
    32
  0
VERTEX
  8
AM_HID
  5
20B
 10
1.68299
 20
5.27957
 30
0.000000
  70
    32
  0
VERTEX
  8
AM_HID
  5
20C
 10
1.68198
 20
5.27953
 30
0.000000
  70
    32
  0
VERTEX
  8
AM_HID
  5
20D
 10
1.68097
 20
5.27949
 30
0.000000
  70
    32
  0
VERTEX
  8
AM_HID
  5
20E
 10
1.67996
 20
5.27945
 30
0.000000
  70
    32
  0
VERTEX
  8
AM_HID
  5
20F
 10
1.67894
 20
5.27941
 30
0.000000
  70
    32
  0
VERTEX
  8
AM_HID
  5
210
 10
1.67793
 20
5.27936
 30
0.000000
  70
    32
  0
VERTEX
  8
AM_HID
  5
211
 10
1.67692
 20
5.27932
 30
0.000000
  70
    32
  0
VERTEX
  8
AM_HID
  5
212
 10
1.67590
 20
5.27927
 30
0.000000
  70
    32
  0
VERTEX
  8
AM_HID
  5
213
 10
1.67489
 20
5.27921
 30
0.000000
  70
    32
  0
VERTEX
  8
AM_HID
  5
214
 10
1.67387
 20
5.27916
 30
0.000000
  70
    32
  0
VERTEX
  8
AM_HID
  5
215
 10
1.67286
 20
5.27910
 30
0.000000
  70
    32
  0
VERTEX
  8
AM_HID
  5
216
 10
1.67184
 20
5.27904
 30
0.000000
  70
    32
  0
VERTEX
  8
AM_HID
  5
217
 10
1.67083
 20
5.27898
 30
0.000000
  70
    32
  0
VERTEX
  8
AM_HID
  5
218
 10
1.66981
 20
5.27892
 30
0.000000
  70
    32
  0
VERTEX
  8
AM_HID
  5
219
 10
1.66879
 20
5.27885
 30
0.000000
  70
    32
  0
VERTEX
  8
AM_HID
  5
21A
 10
1.66777
 20
5.27879
 30
0.000000
  70
    32
  0
VERTEX
  8
AM_HID
  5
21B
 10
1.66676
 20
5.27872
 30
0.000000
  70
    32
  0
VERTEX
  8
AM_HID
  5
21C
 10
1.66574
 20
5.27864
 30
0.000000
  70
    32
  0
VERTEX
  8
AM_HID
  5
21D
 10
1.66472
 20
5.27857
 30
0.000000
  70
    32
  0
VERTEX
  8
AM_HID
  5
21E
 10
1.66371
 20
5.27849
 30
0.000000
  70
    32
  0
VERTEX
  8
AM_HID
  5
21F
 10
1.66269
 20
5.27841
 30
0.000000
  70
    32
  0
VERTEX
  8
AM_HID
  5
220
 10
1.66167
 20
5.27833
 30
0.000000
  70
    32
  0
VERTEX
  8
AM_HID
  5
221
 10
1.66065
 20
5.27825
 30
0.000000
  70
    32
  0
VERTEX
  8
AM_HID
  5
222
 10
1.65964
 20
5.27816
 30
0.000000
  70
    32
  0
VERTEX
  8
AM_HID
  5
223
 10
1.65862
 20
5.27807
 30
0.000000
  70
    32
  0
VERTEX
  8
AM_HID
  5
224
 10
1.65760
 20
5.27798
 30
0.000000
  70
    32
  0
VERTEX
  8
AM_HID
  5
225
 10
1.65658
 20
5.27789
 30
0.000000
  70
    32
  0
VERTEX
  8
AM_HID
  5
226
 10
1.65557
 20
5.27780
 30
0.000000
  70
    32
  0
VERTEX
  8
AM_HID
  5
227
 10
1.65455
 20
5.27770
 30
0.000000
  70
    32
  0
VERTEX
  8
AM_HID
  5
228
 10
1.65353
 20
5.27760
 30
0.000000
  70
    32
  0
VERTEX
  8
AM_HID
  5
229
 10
1.65252
 20
5.27750
 30
0.000000
  70
    32
  0
VERTEX
  8
AM_HID
  5
22A
 10
1.65150
 20
5.27739
 30
0.000000
  70
    32
  0
VERTEX
  8
AM_HID
  5
22B
 10
1.65049
 20
5.27729
 30
0.000000
  70
    32
  0
VERTEX
  8
AM_HID
  5
22C
 10
1.64947
 20
5.27718
 30
0.000000
  70
    32
  0
VERTEX
  8
AM_HID
  5
22D
 10
1.64846
 20
5.27707
 30
0.000000
  70
    32
  0
VERTEX
  8
AM_HID
  5
22E
 10
1.64744
 20
5.27695
 30
0.000000
  70
    32
  0
VERTEX
  8
AM_HID
  5
22F
 10
1.64643
 20
5.27684
 30
0.000000
  70
    32
  0
VERTEX
  8
AM_HID
  5
230
 10
1.64542
 20
5.27672
 30
0.000000
  70
    32
  0
VERTEX
  8
AM_HID
  5
231
 10
1.64440
 20
5.27660
 30
0.000000
  70
    32
  0
VERTEX
  8
AM_HID
  5
232
 10
1.64339
 20
5.27648
 30
0.000000
  70
    32
  0
VERTEX
  8
AM_HID
  5
233
 10
1.64238
 20
5.27635
 30
0.000000
  70
    32
  0
VERTEX
  8
AM_HID
  5
234
 10
1.64137
 20
5.27623
 30
0.000000
  70
    32
  0
VERTEX
  8
AM_HID
  5
235
 10
1.64036
 20
5.27610
 30
0.000000
  70
    32
  0
VERTEX
  8
AM_HID
  5
236
 10
1.63935
 20
5.27596
 30
0.000000
  70
    32
  0
VERTEX
  8
AM_HID
  5
237
 10
1.63834
 20
5.27583
 30
0.000000
  70
    32
  0
VERTEX
  8
AM_HID
  5
238
 10
1.63733
 20
5.27569
 30
0.000000
  70
    32
  0
VERTEX
  8
AM_HID
  5
239
 10
1.63633
 20
5.27556
 30
0.000000
  70
    32
  0
VERTEX
  8
AM_HID
  5
23A
 10
1.63532
 20
5.27541
 30
0.000000
  70
    32
  0
VERTEX
  8
AM_HID
  5
23B
 10
1.63432
 20
5.27527
 30
0.000000
  70
    32
  0
VERTEX
  8
AM_HID
  5
23C
 10
1.63331
 20
5.27513
 30
0.000000
  70
    32
  0
VERTEX
  8
AM_HID
  5
23D
 10
1.63231
 20
5.27498
 30
0.000000
  70
    32
  0
VERTEX
  8
AM_HID
  5
23E
 10
1.63131
 20
5.27483
 30
0.000000
  70
    32
  0
VERTEX
  8
AM_HID
  5
23F
 10
1.63030
 20
5.27468
 30
0.000000
  70
    32
  0
VERTEX
  8
AM_HID
  5
240
 10
1.62930
 20
5.27452
 30
0.000000
  70
    32
  0
VERTEX
  8
AM_HID
  5
241
 10
1.62830
 20
5.27436
 30
0.000000
  70
    32
  0
VERTEX
  8
AM_HID
  5
242
 10
1.62731
 20
5.27420
 30
0.000000
  70
    32
  0
VERTEX
  8
AM_HID
  5
243
 10
1.62631
 20
5.27404
 30
0.000000
  70
    32
  0
VERTEX
  8
AM_HID
  5
244
 10
1.62531
 20
5.27388
 30
0.000000
  70
    32
  0
VERTEX
  8
AM_HID
  5
245
 10
1.62432
 20
5.27371
 30
0.000000
  70
    32
  0
VERTEX
  8
AM_HID
  5
246
 10
1.62332
 20
5.27354
 30
0.000000
  70
    32
  0
VERTEX
  8
AM_HID
  5
247
 10
1.62233
 20
5.27337
 30
0.000000
  70
    32
  0
VERTEX
  8
AM_HID
  5
248
 10
1.62134
 20
5.27320
 30
0.000000
  70
    32
  0
VERTEX
  8
AM_HID
  5
249
 10
1.62035
 20
5.27302
 30
0.000000
  70
    32
  0
VERTEX
  8
AM_HID
  5
24A
 10
1.61936
 20
5.27284
 30
0.000000
  70
    32
  0
VERTEX
  8
AM_HID
  5
24B
 10
1.61838
 20
5.27266
 30
0.000000
  70
    32
  0
VERTEX
  8
AM_HID
  5
24C
 10
1.61739
 20
5.27248
 30
0.000000
  70
    32
  0
VERTEX
  8
AM_HID
  5
24D
 10
1.61641
 20
5.27230
 30
0.000000
  70
    32
  0
VERTEX
  8
AM_HID
  5
24E
 10
1.61542
 20
5.27211
 30
0.000000
  70
    32
  0
VERTEX
  8
AM_HID
  5
24F
 10
1.61444
 20
5.27192
 30
0.000000
  70
    32
  0
VERTEX
  8
AM_HID
  5
250
 10
1.61346
 20
5.27173
 30
0.000000
  70
    32
  0
VERTEX
  8
AM_HID
  5
251
 10
1.61249
 20
5.27153
 30
0.000000
  70
    32
  0
VERTEX
  8
AM_HID
  5
252
 10
1.61151
 20
5.27134
 30
0.000000
  70
    32
  0
VERTEX
  8
AM_HID
  5
253
 10
1.61053
 20
5.27114
 30
0.000000
  70
    32
  0
VERTEX
  8
AM_HID
  5
254
 10
1.60956
 20
5.27093
 30
0.000000
  70
    32
  0
VERTEX
  8
AM_HID
  5
255
 10
1.60859
 20
5.27073
 30
0.000000
  70
    32
  0
VERTEX
  8
AM_HID
  5
256
 10
1.60762
 20
5.27052
 30
0.000000
  70
    32
  0
VERTEX
  8
AM_HID
  5
257
 10
1.60665
 20
5.27031
 30
0.000000
  70
    32
  0
VERTEX
  8
AM_HID
  5
258
 10
1.60569
 20
5.27010
 30
0.000000
  70
    32
  0
VERTEX
  8
AM_HID
  5
259
 10
1.60472
 20
5.26989
 30
0.000000
  70
    32
  0
VERTEX
  8
AM_HID
  5
25A
 10
1.60376
 20
5.26967
 30
0.000000
  70
    32
  0
VERTEX
  8
AM_HID
  5
25B
 10
1.60280
 20
5.26946
 30
0.000000
  70
    32
  0
VERTEX
  8
AM_HID
  5
25C
 10
1.60184
 20
5.26924
 30
0.000000
  70
    32
  0
VERTEX
  8
AM_HID
  5
25D
 10
1.60089
 20
5.26901
 30
0.000000
  70
    32
  0
VERTEX
  8
AM_HID
  5
25E
 10
1.59993
 20
5.26879
 30
0.000000
  70
    32
  0
VERTEX
  8
AM_HID
  5
25F
 10
1.59898
 20
5.26856
 30
0.000000
  70
    32
  0
VERTEX
  8
AM_HID
  5
260
 10
1.59803
 20
5.26833
 30
0.000000
  70
    32
  0
VERTEX
  8
AM_HID
  5
261
 10
1.59708
 20
5.26810
 30
0.000000
  70
    32
  0
VERTEX
  8
AM_HID
  5
262
 10
1.59614
 20
5.26786
 30
0.000000
  70
    32
  0
VERTEX
  8
AM_HID
  5
263
 10
1.59519
 20
5.26762
 30
0.000000
  70
    32
  0
VERTEX
  8
AM_HID
  5
264
 10
1.59425
 20
5.26738
 30
0.000000
  70
    32
  0
VERTEX
  8
AM_HID
  5
265
 10
1.59331
 20
5.26714
 30
0.000000
  70
    32
  0
VERTEX
  8
AM_HID
  5
266
 10
1.59237
 20
5.26690
 30
0.000000
  70
    32
  0
VERTEX
  8
AM_HID
  5
267
 10
1.59144
 20
5.26665
 30
0.000000
  70
    32
  0
VERTEX
  8
AM_HID
  5
268
 10
1.59050
 20
5.26640
 30
0.000000
  70
    32
  0
VERTEX
  8
AM_HID
  5
269
 10
1.58957
 20
5.26615
 30
0.000000
  70
    32
  0
VERTEX
  8
AM_HID
  5
26A
 10
1.58864
 20
5.26590
 30
0.000000
  70
    32
  0
VERTEX
  8
AM_HID
  5
26B
 10
1.58772
 20
5.26564
 30
0.000000
  70
    32
  0
VERTEX
  8
AM_HID
  5
26C
 10
1.58679
 20
5.26538
 30
0.000000
  70
    32
  0
VERTEX
  8
AM_HID
  5
26D
 10
1.58587
 20
5.26512
 30
0.000000
  70
    32
  0
VERTEX
  8
AM_HID
  5
26E
 10
1.58495
 20
5.26486
 30
0.000000
  70
    32
  0
VERTEX
  8
AM_HID
  5
26F
 10
1.58403
 20
5.26459
 30
0.000000
  70
    32
  0
VERTEX
  8
AM_HID
  5
270
 10
1.58312
 20
5.26433
 30
0.000000
  70
    32
  0
VERTEX
  8
AM_HID
  5
271
 10
1.58220
 20
5.26406
 30
0.000000
  70
    32
  0
VERTEX
  8
AM_HID
  5
272
 10
1.58129
 20
5.26379
 30
0.000000
  70
    32
  0
VERTEX
  8
AM_HID
  5
273
 10
1.58039
 20
5.26351
 30
0.000000
  70
    32
  0
VERTEX
  8
AM_HID
  5
274
 10
1.57948
 20
5.26324
 30
0.000000
  70
    32
  0
VERTEX
  8
AM_HID
  5
275
 10
1.57858
 20
5.26296
 30
0.000000
  70
    32
  0
VERTEX
  8
AM_HID
  5
276
 10
1.57768
 20
5.26268
 30
0.000000
  70
    32
  0
VERTEX
  8
AM_HID
  5
277
 10
1.57678
 20
5.26240
 30
0.000000
  70
    32
  0
VERTEX
  8
AM_HID
  5
278
 10
1.57588
 20
5.26211
 30
0.000000
  70
    32
  0
VERTEX
  8
AM_HID
  5
279
 10
1.57499
 20
5.26182
 30
0.000000
  70
    32
  0
VERTEX
  8
AM_HID
  5
27A
 10
1.57410
 20
5.26154
 30
0.000000
  70
    32
  0
VERTEX
  8
AM_HID
  5
27B
 10
1.57321
 20
5.26124
 30
0.000000
  70
    32
  0
VERTEX
  8
AM_HID
  5
27C
 10
1.57232
 20
5.26095
 30
0.000000
  70
    32
  0
VERTEX
  8
AM_HID
  5
27D
 10
1.57144
 20
5.26066
 30
0.000000
  70
    32
  0
VERTEX
  8
AM_HID
  5
27E
 10
1.57056
 20
5.26036
 30
0.000000
  70
    32
  0
VERTEX
  8
AM_HID
  5
27F
 10
1.56968
 20
5.26006
 30
0.000000
  70
    32
  0
VERTEX
  8
AM_HID
  5
280
 10
1.56881
 20
5.25976
 30
0.000000
  70
    32
  0
VERTEX
  8
AM_HID
  5
281
 10
1.56794
 20
5.25945
 30
0.000000
  70
    32
  0
VERTEX
  8
AM_HID
  5
282
 10
1.56707
 20
5.25915
 30
0.000000
  70
    32
  0
VERTEX
  8
AM_HID
  5
283
 10
1.56620
 20
5.25884
 30
0.000000
  70
    32
  0
VERTEX
  8
AM_HID
  5
284
 10
1.56534
 20
5.25853
 30
0.000000
  70
    32
  0
VERTEX
  8
AM_HID
  5
285
 10
1.56447
 20
5.25822
 30
0.000000
  70
    32
  0
VERTEX
  8
AM_HID
  5
286
 10
1.56362
 20
5.25791
 30
0.000000
  70
    32
  0
VERTEX
  8
AM_HID
  5
287
 10
1.56276
 20
5.25759
 30
0.000000
  70
    32
  0
VERTEX
  8
AM_HID
  5
288
 10
1.56191
 20
5.25727
 30
0.000000
  70
    32
  0
VERTEX
  8
AM_HID
  5
289
 10
1.56106
 20
5.25695
 30
0.000000
  70
    32
  0
VERTEX
  8
AM_HID
  5
28A
 10
1.56021
 20
5.25663
 30
0.000000
  70
    32
  0
VERTEX
  8
AM_HID
  5
28B
 10
1.55937
 20
5.25631
 30
0.000000
  70
    32
  0
VERTEX
  8
AM_HID
  5
28C
 10
1.55853
 20
5.25598
 30
0.000000
  70
    32
  0
VERTEX
  8
AM_HID
  5
28D
 10
1.55769
 20
5.25565
 30
0.000000
  70
    32
  0
VERTEX
  8
AM_HID
  5
28E
 10
1.55685
 20
5.25533
 30
0.000000
  70
    32
  0
VERTEX
  8
AM_HID
  5
28F
 10
1.55602
 20
5.25499
 30
0.000000
  70
    32
  0
VERTEX
  8
AM_HID
  5
290
 10
1.55519
 20
5.25466
 30
0.000000
  70
    32
  0
VERTEX
  8
AM_HID
  5
291
 10
1.55436
 20
5.25433
 30
0.000000
  70
    32
  0
VERTEX
  8
AM_HID
  5
292
 10
1.55354
 20
5.25399
 30
0.000000
  70
    32
  0
VERTEX
  8
AM_HID
  5
293
 10
1.55272
 20
5.25365
 30
0.000000
  70
    32
  0
VERTEX
  8
AM_HID
  5
294
 10
1.55190
 20
5.25331
 30
0.000000
  70
    32
  0
VERTEX
  8
AM_HID
  5
295
 10
1.55109
 20
5.25297
 30
0.000000
  70
    32
  0
VERTEX
  8
AM_HID
  5
296
 10
1.55028
 20
5.25262
 30
0.000000
  70
    32
  0
VERTEX
  8
AM_HID
  5
297
 10
1.54947
 20
5.25228
 30
0.000000
  70
    32
  0
VERTEX
  8
AM_HID
  5
298
 10
1.54866
 20
5.25193
 30
0.000000
  70
    32
  0
VERTEX
  8
AM_HID
  5
299
 10
1.54786
 20
5.25158
 30
0.000000
  70
    32
  0
VERTEX
  8
AM_HID
  5
29A
 10
1.54706
 20
5.25123
 30
0.000000
  70
    32
  0
VERTEX
  8
AM_HID
  5
29B
 10
1.54627
 20
5.25087
 30
0.000000
  70
    32
  0
VERTEX
  8
AM_HID
  5
29C
 10
1.54548
 20
5.25052
 30
0.000000
  70
    32
  0
VERTEX
  8
AM_HID
  5
29D
 10
1.54469
 20
5.25016
 30
0.000000
  70
    32
  0
VERTEX
  8
AM_HID
  5
29E
 10
1.54390
 20
5.24980
 30
0.000000
  70
    32
  0
VERTEX
  8
AM_HID
  5
29F
 10
1.54312
 20
5.24944
 30
0.000000
  70
    32
  0
VERTEX
  8
AM_HID
  5
2A0
 10
1.54234
 20
5.24908
 30
0.000000
  70
    32
  0
VERTEX
  8
AM_HID
  5
2A1
 10
1.54157
 20
5.24871
 30
0.000000
  70
    32
  0
VERTEX
  8
AM_HID
  5
2A2
 10
1.54080
 20
5.24835
 30
0.000000
  70
    32
  0
VERTEX
  8
AM_HID
  5
2A3
 10
1.54003
 20
5.24798
 30
0.000000
  70
    32
  0
VERTEX
  8
AM_HID
  5
2A4
 10
1.53926
 20
5.24761
 30
0.000000
  70
    32
  0
VERTEX
  8
AM_HID
  5
2A5
 10
1.53850
 20
5.24724
 30
0.000000
  70
    32
  0
VERTEX
  8
AM_HID
  5
2A6
 10
1.53774
 20
5.24687
 30
0.000000
  70
    32
  0
VERTEX
  8
AM_HID
  5
2A7
 10
1.53699
 20
5.24649
 30
0.000000
  70
    32
  0
VERTEX
  8
AM_HID
  5
2A8
 10
1.53623
 20
5.24612
 30
0.000000
  70
    32
  0
VERTEX
  8
AM_HID
  5
2A9
 10
1.53549
 20
5.24574
 30
0.000000
  70
    32
  0
VERTEX
  8
AM_HID
  5
2AA
 10
1.53474
 20
5.24536
 30
0.000000
  70
    32
  0
VERTEX
  8
AM_HID
  5
2AB
 10
1.53400
 20
5.24498
 30
0.000000
  70
    32
  0
VERTEX
  8
AM_HID
  5
2AC
 10
1.53326
 20
5.24460
 30
0.000000
  70
    32
  0
VERTEX
  8
AM_HID
  5
2AD
 10
1.53253
 20
5.24421
 30
0.000000
  70
    32
  0
VERTEX
  8
AM_HID
  5
2AE
 10
1.53180
 20
5.24383
 30
0.000000
  70
    32
  0
VERTEX
  8
AM_HID
  5
2AF
 10
1.53107
 20
5.24344
 30
0.000000
  70
    32
  0
VERTEX
  8
AM_HID
  5
2B0
 10
1.53035
 20
5.24305
 30
0.000000
  70
    32
  0
VERTEX
  8
AM_HID
  5
2B1
 10
1.52963
 20
5.24266
 30
0.000000
  70
    32
  0
VERTEX
  8
AM_HID
  5
2B2
 10
1.52892
 20
5.24227
 30
0.000000
  70
    32
  0
VERTEX
  8
AM_HID
  5
2B3
 10
1.52820
 20
5.24187
 30
0.000000
  70
    32
  0
VERTEX
  8
AM_HID
  5
2B4
 10
1.52750
 20
5.24148
 30
0.000000
  70
    32
  0
VERTEX
  8
AM_HID
  5
2B5
 10
1.52679
 20
5.24108
 30
0.000000
  70
    32
  0
VERTEX
  8
AM_HID
  5
2B6
 10
1.52609
 20
5.24068
 30
0.000000
  70
    32
  0
VERTEX
  8
AM_HID
  5
2B7
 10
1.52539
 20
5.24028
 30
0.000000
  70
    32
  0
VERTEX
  8
AM_HID
  5
2B8
 10
1.52470
 20
5.23988
 30
0.000000
  70
    32
  0
VERTEX
  8
AM_HID
  5
2B9
 10
1.52401
 20
5.23948
 30
0.000000
  70
    32
  0
VERTEX
  8
AM_HID
  5
2BA
 10
1.52333
 20
5.23908
 30
0.000000
  70
    32
  0
VERTEX
  8
AM_HID
  5
2BB
 10
1.52264
 20
5.23867
 30
0.000000
  70
    32
  0
VERTEX
  8
AM_HID
  5
2BC
 10
1.52197
 20
5.23826
 30
0.000000
  70
    32
  0
VERTEX
  8
AM_HID
  5
2BD
 10
1.52129
 20
5.23785
 30
0.000000
  70
    32
  0
VERTEX
  8
AM_HID
  5
2BE
 10
1.52062
 20
5.23744
 30
0.000000
  70
    32
  0
VERTEX
  8
AM_HID
  5
2BF
 10
1.51995
 20
5.23703
 30
0.000000
  70
    32
  0
VERTEX
  8
AM_HID
  5
2C0
 10
1.51928
 20
5.23661
 30
0.000000
  70
    32
  0
VERTEX
  8
AM_HID
  5
2C1
 10
1.51861
 20
5.23619
 30
0.000000
  70
    32
  0
VERTEX
  8
AM_HID
  5
2C2
 10
1.51795
 20
5.23577
 30
0.000000
  70
    32
  0
VERTEX
  8
AM_HID
  5
2C3
 10
1.51729
 20
5.23534
 30
0.000000
  70
    32
  0
VERTEX
  8
AM_HID
  5
2C4
 10
1.51663
 20
5.23492
 30
0.000000
  70
    32
  0
VERTEX
  8
AM_HID
  5
2C5
 10
1.51597
 20
5.23449
 30
0.000000
  70
    32
  0
VERTEX
  8
AM_HID
  5
2C6
 10
1.51531
 20
5.23405
 30
0.000000
  70
    32
  0
VERTEX
  8
AM_HID
  5
2C7
 10
1.51466
 20
5.23362
 30
0.000000
  70
    32
  0
VERTEX
  8
AM_HID
  5
2C8
 10
1.51401
 20
5.23318
 30
0.000000
  70
    32
  0
VERTEX
  8
AM_HID
  5
2C9
 10
1.51336
 20
5.23274
 30
0.000000
  70
    32
  0
VERTEX
  8
AM_HID
  5
2CA
 10
1.51271
 20
5.23230
 30
0.000000
  70
    32
  0
VERTEX
  8
AM_HID
  5
2CB
 10
1.51207
 20
5.23186
 30
0.000000
  70
    32
  0
VERTEX
  8
AM_HID
  5
2CC
 10
1.51143
 20
5.23141
 30
0.000000
  70
    32
  0
VERTEX
  8
AM_HID
  5
2CD
 10
1.51079
 20
5.23096
 30
0.000000
  70
    32
  0
VERTEX
  8
AM_HID
  5
2CE
 10
1.51015
 20
5.23051
 30
0.000000
  70
    32
  0
VERTEX
  8
AM_HID
  5
2CF
 10
1.50951
 20
5.23005
 30
0.000000
  70
    32
  0
VERTEX
  8
AM_HID
  5
2D0
 10
1.50888
 20
5.22959
 30
0.000000
  70
    32
  0
VERTEX
  8
AM_HID
  5
2D1
 10
1.50825
 20
5.22913
 30
0.000000
  70
    32
  0
VERTEX
  8
AM_HID
  5
2D2
 10
1.50762
 20
5.22867
 30
0.000000
  70
    32
  0
VERTEX
  8
AM_HID
  5
2D3
 10
1.50700
 20
5.22821
 30
0.000000
  70
    32
  0
VERTEX
  8
AM_HID
  5
2D4
 10
1.50637
 20
5.22774
 30
0.000000
  70
    32
  0
VERTEX
  8
AM_HID
  5
2D5
 10
1.50575
 20
5.22727
 30
0.000000
  70
    32
  0
VERTEX
  8
AM_HID
  5
2D6
 10
1.50514
 20
5.22680
 30
0.000000
  70
    32
  0
VERTEX
  8
AM_HID
  5
2D7
 10
1.50452
 20
5.22632
 30
0.000000
  70
    32
  0
VERTEX
  8
AM_HID
  5
2D8
 10
1.50391
 20
5.22585
 30
0.000000
  70
    32
  0
VERTEX
  8
AM_HID
  5
2D9
 10
1.50330
 20
5.22537
 30
0.000000
  70
    32
  0
VERTEX
  8
AM_HID
  5
2DA
 10
1.50269
 20
5.22489
 30
0.000000
  70
    32
  0
VERTEX
  8
AM_HID
  5
2DB
 10
1.50208
 20
5.22440
 30
0.000000
  70
    32
  0
VERTEX
  8
AM_HID
  5
2DC
 10
1.50148
 20
5.22392
 30
0.000000
  70
    32
  0
VERTEX
  8
AM_HID
  5
2DD
 10
1.50088
 20
5.22343
 30
0.000000
  70
    32
  0
VERTEX
  8
AM_HID
  5
2DE
 10
1.50029
 20
5.22294
 30
0.000000
  70
    32
  0
VERTEX
  8
AM_HID
  5
2DF
 10
1.49969
 20
5.22244
 30
0.000000
  70
    32
  0
VERTEX
  8
AM_HID
  5
2E0
 10
1.49910
 20
5.22195
 30
0.000000
  70
    32
  0
VERTEX
  8
AM_HID
  5
2E1
 10
1.49851
 20
5.22145
 30
0.000000
  70
    32
  0
VERTEX
  8
AM_HID
  5
2E2
 10
1.49793
 20
5.22095
 30
0.000000
  70
    32
  0
VERTEX
  8
AM_HID
  5
2E3
 10
1.49734
 20
5.22045
 30
0.000000
  70
    32
  0
VERTEX
  8
AM_HID
  5
2E4
 10
1.49676
 20
5.21994
 30
0.000000
  70
    32
  0
VERTEX
  8
AM_HID
  5
2E5
 10
1.49619
 20
5.21944
 30
0.000000
  70
    32
  0
VERTEX
  8
AM_HID
  5
2E6
 10
1.49561
 20
5.21893
 30
0.000000
  70
    32
  0
VERTEX
  8
AM_HID
  5
2E7
 10
1.49504
 20
5.21841
 30
0.000000
  70
    32
  0
VERTEX
  8
AM_HID
  5
2E8
 10
1.49447
 20
5.21790
 30
0.000000
  70
    32
  0
VERTEX
  8
AM_HID
  5
2E9
 10
1.49390
 20
5.21738
 30
0.000000
  70
    32
  0
VERTEX
  8
AM_HID
  5
2EA
 10
1.49334
 20
5.21687
 30
0.000000
  70
    32
  0
VERTEX
  8
AM_HID
  5
2EB
 10
1.49278
 20
5.21634
 30
0.000000
  70
    32
  0
VERTEX
  8
AM_HID
  5
2EC
 10
1.49223
 20
5.21582
 30
0.000000
  70
    32
  0
VERTEX
  8
AM_HID
  5
2ED
 10
1.49167
 20
5.21530
 30
0.000000
  70
    32
  0
VERTEX
  8
AM_HID
  5
2EE
 10
1.49112
 20
5.21477
 30
0.000000
  70
    32
  0
VERTEX
  8
AM_HID
  5
2EF
 10
1.49057
 20
5.21424
 30
0.000000
  70
    32
  0
VERTEX
  8
AM_HID
  5
2F0
 10
1.49003
 20
5.21371
 30
0.000000
  70
    32
  0
VERTEX
  8
AM_HID
  5
2F1
 10
1.48949
 20
5.21317
 30
0.000000
  70
    32
  0
VERTEX
  8
AM_HID
  5
2F2
 10
1.48895
 20
5.21264
 30
0.000000
  70
    32
  0
VERTEX
  8
AM_HID
  5
2F3
 10
1.48842
 20
5.21210
 30
0.000000
  70
    32
  0
VERTEX
  8
AM_HID
  5
2F4
 10
1.48788
 20
5.21156
 30
0.000000
  70
    32
  0
VERTEX
  8
AM_HID
  5
2F5
 10
1.48736
 20
5.21102
 30
0.000000
  70
    32
  0
VERTEX
  8
AM_HID
  5
2F6
 10
1.48683
 20
5.21047
 30
0.000000
  70
    32
  0
VERTEX
  8
AM_HID
  5
2F7
 10
1.48631
 20
5.20992
 30
0.000000
  70
    32
  0
VERTEX
  8
AM_HID
  5
2F8
 10
1.48579
 20
5.20937
 30
0.000000
  70
    32
  0
VERTEX
  8
AM_HID
  5
2F9
 10
1.48527
 20
5.20882
 30
0.000000
  70
    32
  0
VERTEX
  8
AM_HID
  5
2FA
 10
1.48476
 20
5.20827
 30
0.000000
  70
    32
  0
VERTEX
  8
AM_HID
  5
2FB
 10
1.48425
 20
5.20771
 30
0.000000
  70
    32
  0
VERTEX
  8
AM_HID
  5
2FC
 10
1.48375
 20
5.20716
 30
0.000000
  70
    32
  0
VERTEX
  8
AM_HID
  5
2FD
 10
1.48325
 20
5.20660
 30
0.000000
  70
    32
  0
VERTEX
  8
AM_HID
  5
2FE
 10
1.48275
 20
5.20603
 30
0.000000
  70
    32
  0
VERTEX
  8
AM_HID
  5
2FF
 10
1.48225
 20
5.20547
 30
0.000000
  70
    32
  0
VERTEX
  8
AM_HID
  5
300
 10
1.48176
 20
5.20490
 30
0.000000
  70
    32
  0
VERTEX
  8
AM_HID
  5
301
 10
1.48127
 20
5.20433
 30
0.000000
  70
    32
  0
VERTEX
  8
AM_HID
  5
302
 10
1.48079
 20
5.20376
 30
0.000000
  70
    32
  0
VERTEX
  8
AM_HID
  5
303
 10
1.48031
 20
5.20319
 30
0.000000
  70
    32
  0
VERTEX
  8
AM_HID
  5
304
 10
1.47983
 20
5.20262
 30
0.000000
  70
    32
  0
VERTEX
  8
AM_HID
  5
305
 10
1.47935
 20
5.20204
 30
0.000000
  70
    32
  0
VERTEX
  8
AM_HID
  5
306
 10
1.47888
 20
5.20146
 30
0.000000
  70
    32
  0
VERTEX
  8
AM_HID
  5
307
 10
1.47842
 20
5.20088
 30
0.000000
  70
    32
  0
VERTEX
  8
AM_HID
  5
308
 10
1.47795
 20
5.20030
 30
0.000000
  70
    32
  0
VERTEX
  8
AM_HID
  5
309
 10
1.47749
 20
5.19972
 30
0.000000
  70
    32
  0
VERTEX
  8
AM_HID
  5
30A
 10
1.47704
 20
5.19913
 30
0.000000
  70
    32
  0
VERTEX
  8
AM_HID
  5
30B
 10
1.47659
 20
5.19854
 30
0.000000
  70
    32
  0
VERTEX
  8
AM_HID
  5
30C
 10
1.47614
 20
5.19795
 30
0.000000
  70
    32
  0
VERTEX
  8
AM_HID
  5
30D
 10
1.47569
 20
5.19736
 30
0.000000
  70
    32
  0
VERTEX
  8
AM_HID
  5
30E
 10
1.47525
 20
5.19676
 30
0.000000
  70
    32
  0
VERTEX
  8
AM_HID
  5
30F
 10
1.47482
 20
5.19617
 30
0.000000
  70
    32
  0
VERTEX
  8
AM_HID
  5
310
 10
1.47438
 20
5.19557
 30
0.000000
  70
    32
  0
VERTEX
  8
AM_HID
  5
311
 10
1.47395
 20
5.19497
 30
0.000000
  70
    32
  0
VERTEX
  8
AM_HID
  5
312
 10
1.47353
 20
5.19436
 30
0.000000
  70
    32
  0
VERTEX
  8
AM_HID
  5
313
 10
1.47311
 20
5.19376
 30
0.000000
  70
    32
  0
VERTEX
  8
AM_HID
  5
314
 10
1.47269
 20
5.19315
 30
0.000000
  70
    32
  0
VERTEX
  8
AM_HID
  5
315
 10
1.47227
 20
5.19255
 30
0.000000
  70
    32
  0
VERTEX
  8
AM_HID
  5
316
 10
1.47187
 20
5.19194
 30
0.000000
  70
    32
  0
VERTEX
  8
AM_HID
  5
317
 10
1.47146
 20
5.19132
 30
0.000000
  70
    32
  0
VERTEX
  8
AM_HID
  5
318
 10
1.47106
 20
5.19071
 30
0.000000
  70
    32
  0
VERTEX
  8
AM_HID
  5
319
 10
1.47066
 20
5.19010
 30
0.000000
  70
    32
  0
VERTEX
  8
AM_HID
  5
31A
 10
1.47027
 20
5.18948
 30
0.000000
  70
    32
  0
VERTEX
  8
AM_HID
  5
31B
 10
1.46988
 20
5.18886
 30
0.000000
  70
    32
  0
VERTEX
  8
AM_HID
  5
31C
 10
1.46949
 20
5.18824
 30
0.000000
  70
    32
  0
VERTEX
  8
AM_HID
  5
31D
 10
1.46911
 20
5.18761
 30
0.000000
  70
    32
  0
VERTEX
  8
AM_HID
  5
31E
 10
1.46873
 20
5.18699
 30
0.000000
  70
    32
  0
VERTEX
  8
AM_HID
  5
31F
 10
1.46836
 20
5.18636
 30
0.000000
  70
    32
  0
VERTEX
  8
AM_HID
  5
320
 10
1.46799
 20
5.18573
 30
0.000000
  70
    32
  0
VERTEX
  8
AM_HID
  5
321
 10
1.46762
 20
5.18510
 30
0.000000
  70
    32
  0
VERTEX
  8
AM_HID
  5
322
 10
1.46726
 20
5.18447
 30
0.000000
  70
    32
  0
VERTEX
  8
AM_HID
  5
323
 10
1.46690
 20
5.18384
 30
0.000000
  70
    32
  0
VERTEX
  8
AM_HID
  5
324
 10
1.46655
 20
5.18320
 30
0.000000
  70
    32
  0
VERTEX
  8
AM_HID
  5
325
 10
1.46620
 20
5.18256
 30
0.000000
  70
    32
  0
VERTEX
  8
AM_HID
  5
326
 10
1.46586
 20
5.18193
 30
0.000000
  70
    32
  0
VERTEX
  8
AM_HID
  5
327
 10
1.46552
 20
5.18128
 30
0.000000
  70
    32
  0
VERTEX
  8
AM_HID
  5
328
 10
1.46518
 20
5.18064
 30
0.000000
  70
    32
  0
VERTEX
  8
AM_HID
  5
329
 10
1.46485
 20
5.18000
 30
0.000000
  70
    32
  0
VERTEX
  8
AM_HID
  5
32A
 10
1.46452
 20
5.17935
 30
0.000000
  70
    32
  0
VERTEX
  8
AM_HID
  5
32B
 10
1.46419
 20
5.17871
 30
0.000000
  70
    32
  0
VERTEX
  8
AM_HID
  5
32C
 10
1.46387
 20
5.17806
 30
0.000000
  70
    32
  0
VERTEX
  8
AM_HID
  5
32D
 10
1.46355
 20
5.17741
 30
0.000000
  70
    32
  0
VERTEX
  8
AM_HID
  5
32E
 10
1.46324
 20
5.17676
 30
0.000000
  70
    32
  0
VERTEX
  8
AM_HID
  5
32F
 10
1.46293
 20
5.17611
 30
0.000000
  70
    32
  0
VERTEX
  8
AM_HID
  5
330
 10
1.46262
 20
5.17545
 30
0.000000
  70
    32
  0
VERTEX
  8
AM_HID
  5
331
 10
1.46232
 20
5.17480
 30
0.000000
  70
    32
  0
VERTEX
  8
AM_HID
  5
332
 10
1.46202
 20
5.17414
 30
0.000000
  70
    32
  0
VERTEX
  8
AM_HID
  5
333
 10
1.46173
 20
5.17348
 30
0.000000
  70
    32
  0
VERTEX
  8
AM_HID
  5
334
 10
1.46144
 20
5.17282
 30
0.000000
  70
    32
  0
VERTEX
  8
AM_HID
  5
335
 10
1.46115
 20
5.17216
 30
0.000000
  70
    32
  0
VERTEX
  8
AM_HID
  5
336
 10
1.46087
 20
5.17150
 30
0.000000
  70
    32
  0
VERTEX
  8
AM_HID
  5
337
 10
1.46059
 20
5.17084
 30
0.000000
  70
    32
  0
VERTEX
  8
AM_HID
  5
338
 10
1.46032
 20
5.17017
 30
0.000000
  70
    32
  0
VERTEX
  8
AM_HID
  5
339
 10
1.46004
 20
5.16951
 30
0.000000
  70
    32
  0
VERTEX
  8
AM_HID
  5
33A
 10
1.45978
 20
5.16884
 30
0.000000
  70
    32
  0
SEQEND
  8
AM_HID
  5
33B
  0
POLYLINE
  8
AM_VIS
  5
33C
  66
     1
 10
0.000000
 20
0.000000
 30
0.000000
  70
     8
  0
VERTEX
  8
AM_VIS
  5
33D
 10
1.45978
 20
5.16884
 30
0.000000
  70
    32
  0
VERTEX
  8
AM_VIS
  5
33E
 10
1.45945
 20
5.16798
 30
0.000000
  70
    32
  0
VERTEX
  8
AM_VIS
  5
33F
 10
1.45913
 20
5.16712
 30
0.000000
  70
    32
  0
VERTEX
  8
AM_VIS
  5
340
 10
1.45881
 20
5.16626
 30
0.000000
  70
    32
  0
VERTEX
  8
AM_VIS
  5
341
 10
1.45850
 20
5.16540
 30
0.000000
  70
    32
  0
VERTEX
  8
AM_VIS
  5
342
 10
1.45820
 20
5.16453
 30
0.000000
  70
    32
  0
VERTEX
  8
AM_VIS
  5
343
 10
1.45791
 20
5.16366
 30
0.000000
  70
    32
  0
VERTEX
  8
AM_VIS
  5
344
 10
1.45762
 20
5.16280
 30
0.000000
  70
    32
  0
VERTEX
  8
AM_VIS
  5
345
 10
1.45733
 20
5.16192
 30
0.000000
  70
    32
  0
VERTEX
  8
AM_VIS
  5
346
 10
1.45706
 20
5.16105
 30
0.000000
  70
    32
  0
VERTEX
  8
AM_VIS
  5
347
 10
1.45679
 20
5.16018
 30
0.000000
  70
    32
  0
VERTEX
  8
AM_VIS
  5
348
 10
1.45653
 20
5.15930
 30
0.000000
  70
    32
  0
VERTEX
  8
AM_VIS
  5
349
 10
1.45627
 20
5.15842
 30
0.000000
  70
    32
  0
VERTEX
  8
AM_VIS
  5
34A
 10
1.45602
 20
5.15755
 30
0.000000
  70
    32
  0
VERTEX
  8
AM_VIS
  5
34B
 10
1.45578
 20
5.15667
 30
0.000000
  70
    32
  0
VERTEX
  8
AM_VIS
  5
34C
 10
1.45554
 20
5.15578
 30
0.000000
  70
    32
  0
VERTEX
  8
AM_VIS
  5
34D
 10
1.45531
 20
5.15490
 30
0.000000
  70
    32
  0
VERTEX
  8
AM_VIS
  5
34E
 10
1.45508
 20
5.15402
 30
0.000000
  70
    32
  0
VERTEX
  8
AM_VIS
  5
34F
 10
1.45487
 20
5.15313
 30
0.000000
  70
    32
  0
VERTEX
  8
AM_VIS
  5
350
 10
1.45466
 20
5.15225
 30
0.000000
  70
    32
  0
VERTEX
  8
AM_VIS
  5
351
 10
1.45445
 20
5.15136
 30
0.000000
  70
    32
  0
VERTEX
  8
AM_VIS
  5
352
 10
1.45425
 20
5.15047
 30
0.000000
  70
    32
  0
VERTEX
  8
AM_VIS
  5
353
 10
1.45406
 20
5.14958
 30
0.000000
  70
    32
  0
VERTEX
  8
AM_VIS
  5
354
 10
1.45388
 20
5.14869
 30
0.000000
  70
    32
  0
VERTEX
  8
AM_VIS
  5
355
 10
1.45370
 20
5.14780
 30
0.000000
  70
    32
  0
VERTEX
  8
AM_VIS
  5
356
 10
1.45353
 20
5.14690
 30
0.000000
  70
    32
  0
VERTEX
  8
AM_VIS
  5
357
 10
1.45336
 20
5.14601
 30
0.000000
  70
    32
  0
VERTEX
  8
AM_VIS
  5
358
 10
1.45320
 20
5.14512
 30
0.000000
  70
    32
  0
VERTEX
  8
AM_VIS
  5
359
 10
1.45305
 20
5.14422
 30
0.000000
  70
    32
  0
VERTEX
  8
AM_VIS
  5
35A
 10
1.45290
 20
5.14333
 30
0.000000
  70
    32
  0
VERTEX
  8
AM_VIS
  5
35B
 10
1.45277
 20
5.14243
 30
0.000000
  70
    32
  0
VERTEX
  8
AM_VIS
  5
35C
 10
1.45263
 20
5.14153
 30
0.000000
  70
    32
  0
VERTEX
  8
AM_VIS
  5
35D
 10
1.45251
 20
5.14063
 30
0.000000
  70
    32
  0
VERTEX
  8
AM_VIS
  5
35E
 10
1.45239
 20
5.13974
 30
0.000000
  70
    32
  0
VERTEX
  8
AM_VIS
  5
35F
 10
1.45227
 20
5.13884
 30
0.000000
  70
    32
  0
VERTEX
  8
AM_VIS
  5
360
 10
1.45217
 20
5.13794
 30
0.000000
  70
    32
  0
VERTEX
  8
AM_VIS
  5
361
 10
1.45206
 20
5.13704
 30
0.000000
  70
    32
  0
VERTEX
  8
AM_VIS
  5
362
 10
1.45197
 20
5.13614
 30
0.000000
  70
    32
  0
VERTEX
  8
AM_VIS
  5
363
 10
1.45188
 20
5.13524
 30
0.000000
  70
    32
  0
VERTEX
  8
AM_VIS
  5
364
 10
1.45180
 20
5.13434
 30
0.000000
  70
    32
  0
VERTEX
  8
AM_VIS
  5
365
 10
1.45173
 20
5.13344
 30
0.000000
  70
    32
  0
VERTEX
  8
AM_VIS
  5
366
 10
1.45166
 20
5.13253
 30
0.000000
  70
    32
  0
VERTEX
  8
AM_VIS
  5
367
 10
1.45160
 20
5.13163
 30
0.000000
  70
    32
  0
VERTEX
  8
AM_VIS
  5
368
 10
1.45154
 20
5.13073
 30
0.000000
  70
    32
  0
VERTEX
  8
AM_VIS
  5
369
 10
1.45149
 20
5.12983
 30
0.000000
  70
    32
  0
VERTEX
  8
AM_VIS
  5
36A
 10
1.45145
 20
5.12893
 30
0.000000
  70
    32
  0
VERTEX
  8
AM_VIS
  5
36B
 10
1.45141
 20
5.12803
 30
0.000000
  70
    32
  0
VERTEX
  8
AM_VIS
  5
36C
 10
1.45139
 20
5.12712
 30
0.000000
  70
    32
  0
VERTEX
  8
AM_VIS
  5
36D
 10
1.45136
 20
5.12622
 30
0.000000
  70
    32
  0
VERTEX
  8
AM_VIS
  5
36E
 10
1.45135
 20
5.12532
 30
0.000000
  70
    32
  0
VERTEX
  8
AM_VIS
  5
36F
 10
1.45134
 20
5.12442
 30
0.000000
  70
    32
  0
VERTEX
  8
AM_VIS
  5
370
 10
1.45133
 20
5.12352
 30
0.000000
  70
    32
  0
VERTEX
  8
AM_VIS
  5
371
 10
1.45134
 20
5.12262
 30
0.000000
  70
    32
  0
VERTEX
  8
AM_VIS
  5
372
 10
1.45134
 20
5.12171
 30
0.000000
  70
    32
  0
VERTEX
  8
AM_VIS
  5
373
 10
1.45136
 20
5.12080
 30
0.000000
  70
    32
  0
VERTEX
  8
AM_VIS
  5
374
 10
1.45138
 20
5.11989
 30
0.000000
  70
    32
  0
VERTEX
  8
AM_VIS
  5
375
 10
1.45141
 20
5.11898
 30
0.000000
  70
    32
  0
VERTEX
  8
AM_VIS
  5
376
 10
1.45145
 20
5.11806
 30
0.000000
  70
    32
  0
VERTEX
  8
AM_VIS
  5
377
 10
1.45149
 20
5.11714
 30
0.000000
  70
    32
  0
VERTEX
  8
AM_VIS
  5
378
 10
1.45154
 20
5.11622
 30
0.000000
  70
    32
  0
VERTEX
  8
AM_VIS
  5
379
 10
1.45159
 20
5.11530
 30
0.000000
  70
    32
  0
VERTEX
  8
AM_VIS
  5
37A
 10
1.45165
 20
5.11437
 30
0.000000
  70
    32
  0
VERTEX
  8
AM_VIS
  5
37B
 10
1.45172
 20
5.11344
 30
0.000000
  70
    32
  0
VERTEX
  8
AM_VIS
  5
37C
 10
1.45179
 20
5.11251
 30
0.000000
  70
    32
  0
VERTEX
  8
AM_VIS
  5
37D
 10
1.45187
 20
5.11157
 30
0.000000
  70
    32
  0
VERTEX
  8
AM_VIS
  5
37E
 10
1.45196
 20
5.11064
 30
0.000000
  70
    32
  0
VERTEX
  8
AM_VIS
  5
37F
 10
1.45206
 20
5.10970
 30
0.000000
  70
    32
  0
VERTEX
  8
AM_VIS
  5
380
 10
1.45216
 20
5.10876
 30
0.000000
  70
    32
  0
VERTEX
  8
AM_VIS
  5
381
 10
1.45226
 20
5.10782
 30
0.000000
  70
    32
  0
VERTEX
  8
AM_VIS
  5
382
 10
1.45238
 20
5.10687
 30
0.000000
  70
    32
  0
VERTEX
  8
AM_VIS
  5
383
 10
1.45249
 20
5.10592
 30
0.000000
  70
    32
  0
VERTEX
  8
AM_VIS
  5
384
 10
1.45262
 20
5.10497
 30
0.000000
  70
    32
  0
VERTEX
  8
AM_VIS
  5
385
 10
1.45275
 20
5.10402
 30
0.000000
  70
    32
  0
VERTEX
  8
AM_VIS
  5
386
 10
1.45289
 20
5.10307
 30
0.000000
  70
    32
  0
VERTEX
  8
AM_VIS
  5
387
 10
1.45304
 20
5.10211
 30
0.000000
  70
    32
  0
VERTEX
  8
AM_VIS
  5
388
 10
1.45319
 20
5.10116
 30
0.000000
  70
    32
  0
VERTEX
  8
AM_VIS
  5
389
 10
1.45335
 20
5.10020
 30
0.000000
  70
    32
  0
VERTEX
  8
AM_VIS
  5
38A
 10
1.45352
 20
5.09924
 30
0.000000
  70
    32
  0
VERTEX
  8
AM_VIS
  5
38B
 10
1.45369
 20
5.09828
 30
0.000000
  70
    32
  0
VERTEX
  8
AM_VIS
  5
38C
 10
1.45387
 20
5.09731
 30
0.000000
  70
    32
  0
VERTEX
  8
AM_VIS
  5
38D
 10
1.45405
 20
5.09635
 30
0.000000
  70
    32
  0
VERTEX
  8
AM_VIS
  5
38E
 10
1.45424
 20
5.09538
 30
0.000000
  70
    32
  0
VERTEX
  8
AM_VIS
  5
38F
 10
1.45444
 20
5.09441
 30
0.000000
  70
    32
  0
VERTEX
  8
AM_VIS
  5
390
 10
1.45464
 20
5.09344
 30
0.000000
  70
    32
  0
VERTEX
  8
AM_VIS
  5
391
 10
1.45486
 20
5.09247
 30
0.000000
  70
    32
  0
VERTEX
  8
AM_VIS
  5
392
 10
1.45507
 20
5.09150
 30
0.000000
  70
    32
  0
VERTEX
  8
AM_VIS
  5
393
 10
1.45530
 20
5.09053
 30
0.000000
  70
    32
  0
VERTEX
  8
AM_VIS
  5
394
 10
1.45553
 20
5.08955
 30
0.000000
  70
    32
  0
VERTEX
  8
AM_VIS
  5
395
 10
1.45577
 20
5.08858
 30
0.000000
  70
    32
  0
VERTEX
  8
AM_VIS
  5
396
 10
1.45601
 20
5.08760
 30
0.000000
  70
    32
  0
VERTEX
  8
AM_VIS
  5
397
 10
1.45626
 20
5.08662
 30
0.000000
  70
    32
  0
VERTEX
  8
AM_VIS
  5
398
 10
1.45652
 20
5.08565
 30
0.000000
  70
    32
  0
VERTEX
  8
AM_VIS
  5
399
 10
1.45678
 20
5.08467
 30
0.000000
  70
    32
  0
VERTEX
  8
AM_VIS
  5
39A
 10
1.45705
 20
5.08369
 30
0.000000
  70
    32
  0
VERTEX
  8
AM_VIS
  5
39B
 10
1.45733
 20
5.08270
 30
0.000000
  70
    32
  0
VERTEX
  8
AM_VIS
  5
39C
 10
1.45761
 20
5.08172
 30
0.000000
  70
    32
  0
VERTEX
  8
AM_VIS
  5
39D
 10
1.45790
 20
5.08074
 30
0.000000
  70
    32
  0
VERTEX
  8
AM_VIS
  5
39E
 10
1.45820
 20
5.07976
 30
0.000000
  70
    32
  0
VERTEX
  8
AM_VIS
  5
39F
 10
1.45851
 20
5.07877
 30
0.000000
  70
    32
  0
VERTEX
  8
AM_VIS
  5
3A0
 10
1.45882
 20
5.07779
 30
0.000000
  70
    32
  0
VERTEX
  8
AM_VIS
  5
3A1
 10
1.45913
 20
5.07680
 30
0.000000
  70
    32
  0
VERTEX
  8
AM_VIS
  5
3A2
 10
1.45946
 20
5.07582
 30
0.000000
  70
    32
  0
VERTEX
  8
AM_VIS
  5
3A3
 10
1.45979
 20
5.07483
 30
0.000000
  70
    32
  0
VERTEX
  8
AM_VIS
  5
3A4
 10
1.46012
 20
5.07384
 30
0.000000
  70
    32
  0
VERTEX
  8
AM_VIS
  5
3A5
 10
1.46047
 20
5.07286
 30
0.000000
  70
    32
  0
VERTEX
  8
AM_VIS
  5
3A6
 10
1.46082
 20
5.07187
 30
0.000000
  70
    32
  0
VERTEX
  8
AM_VIS
  5
3A7
 10
1.46117
 20
5.07088
 30
0.000000
  70
    32
  0
VERTEX
  8
AM_VIS
  5
3A8
 10
1.46154
 20
5.06989
 30
0.000000
  70
    32
  0
VERTEX
  8
AM_VIS
  5
3A9
 10
1.46191
 20
5.06891
 30
0.000000
  70
    32
  0
VERTEX
  8
AM_VIS
  5
3AA
 10
1.46228
 20
5.06792
 30
0.000000
  70
    32
  0
VERTEX
  8
AM_VIS
  5
3AB
 10
1.46267
 20
5.06693
 30
0.000000
  70
    32
  0
VERTEX
  8
AM_VIS
  5
3AC
 10
1.46306
 20
5.06594
 30
0.000000
  70
    32
  0
VERTEX
  8
AM_VIS
  5
3AD
 10
1.46345
 20
5.06495
 30
0.000000
  70
    32
  0
VERTEX
  8
AM_VIS
  5
3AE
 10
1.46386
 20
5.06397
 30
0.000000
  70
    32
  0
VERTEX
  8
AM_VIS
  5
3AF
 10
1.46427
 20
5.06298
 30
0.000000
  70
    32
  0
VERTEX
  8
AM_VIS
  5
3B0
 10
1.46468
 20
5.06199
 30
0.000000
  70
    32
  0
VERTEX
  8
AM_VIS
  5
3B1
 10
1.46511
 20
5.06100
 30
0.000000
  70
    32
  0
VERTEX
  8
AM_VIS
  5
3B2
 10
1.46553
 20
5.06002
 30
0.000000
  70
    32
  0
VERTEX
  8
AM_VIS
  5
3B3
 10
1.46597
 20
5.05903
 30
0.000000
  70
    32
  0
VERTEX
  8
AM_VIS
  5
3B4
 10
1.46641
 20
5.05805
 30
0.000000
  70
    32
  0
VERTEX
  8
AM_VIS
  5
3B5
 10
1.46686
 20
5.05706
 30
0.000000
  70
    32
  0
VERTEX
  8
AM_VIS
  5
3B6
 10
1.46732
 20
5.05608
 30
0.000000
  70
    32
  0
VERTEX
  8
AM_VIS
  5
3B7
 10
1.46779
 20
5.05509
 30
0.000000
  70
    32
  0
VERTEX
  8
AM_VIS
  5
3B8
 10
1.46826
 20
5.05411
 30
0.000000
  70
    32
  0
VERTEX
  8
AM_VIS
  5
3B9
 10
1.46873
 20
5.05313
 30
0.000000
  70
    32
  0
VERTEX
  8
AM_VIS
  5
3BA
 10
1.46922
 20
5.05214
 30
0.000000
  70
    32
  0
VERTEX
  8
AM_VIS
  5
3BB
 10
1.46971
 20
5.05116
 30
0.000000
  70
    32
  0
VERTEX
  8
AM_VIS
  5
3BC
 10
1.47020
 20
5.05018
 30
0.000000
  70
    32
  0
VERTEX
  8
AM_VIS
  5
3BD
 10
1.47071
 20
5.04920
 30
0.000000
  70
    32
  0
VERTEX
  8
AM_VIS
  5
3BE
 10
1.47122
 20
5.04822
 30
0.000000
  70
    32
  0
VERTEX
  8
AM_VIS
  5
3BF
 10
1.47173
 20
5.04725
 30
0.000000
  70
    32
  0
VERTEX
  8
AM_VIS
  5
3C0
 10
1.47226
 20
5.04627
 30
0.000000
  70
    32
  0
VERTEX
  8
AM_VIS
  5
3C1
 10
1.47279
 20
5.04530
 30
0.000000
  70
    32
  0
VERTEX
  8
AM_VIS
  5
3C2
 10
1.47332
 20
5.04432
 30
0.000000
  70
    32
  0
VERTEX
  8
AM_VIS
  5
3C3
 10
1.47387
 20
5.04335
 30
0.000000
  70
    32
  0
VERTEX
  8
AM_VIS
  5
3C4
 10
1.47441
 20
5.04238
 30
0.000000
  70
    32
  0
VERTEX
  8
AM_VIS
  5
3C5
 10
1.47497
 20
5.04141
 30
0.000000
  70
    32
  0
VERTEX
  8
AM_VIS
  5
3C6
 10
1.47553
 20
5.04044
 30
0.000000
  70
    32
  0
VERTEX
  8
AM_VIS
  5
3C7
 10
1.47610
 20
5.03947
 30
0.000000
  70
    32
  0
VERTEX
  8
AM_VIS
  5
3C8
 10
1.47667
 20
5.03851
 30
0.000000
  70
    32
  0
VERTEX
  8
AM_VIS
  5
3C9
 10
1.47725
 20
5.03754
 30
0.000000
  70
    32
  0
VERTEX
  8
AM_VIS
  5
3CA
 10
1.47784
 20
5.03658
 30
0.000000
  70
    32
  0
VERTEX
  8
AM_VIS
  5
3CB
 10
1.47843
 20
5.03562
 30
0.000000
  70
    32
  0
VERTEX
  8
AM_VIS
  5
3CC
 10
1.47903
 20
5.03466
 30
0.000000
  70
    32
  0
VERTEX
  8
AM_VIS
  5
3CD
 10
1.47963
 20
5.03370
 30
0.000000
  70
    32
  0
VERTEX
  8
AM_VIS
  5
3CE
 10
1.48024
 20
5.03275
 30
0.000000
  70
    32
  0
VERTEX
  8
AM_VIS
  5
3CF
 10
1.48086
 20
5.03179
 30
0.000000
  70
    32
  0
VERTEX
  8
AM_VIS
  5
3D0
 10
1.48148
 20
5.03084
 30
0.000000
  70
    32
  0
VERTEX
  8
AM_VIS
  5
3D1
 10
1.48210
 20
5.02989
 30
0.000000
  70
    32
  0
VERTEX
  8
AM_VIS
  5
3D2
 10
1.48274
 20
5.02894
 30
0.000000
  70
    32
  0
VERTEX
  8
AM_VIS
  5
3D3
 10
1.48337
 20
5.02799
 30
0.000000
  70
    32
  0
VERTEX
  8
AM_VIS
  5
3D4
 10
1.48402
 20
5.02705
 30
0.000000
  70
    32
  0
VERTEX
  8
AM_VIS
  5
3D5
 10
1.48467
 20
5.02611
 30
0.000000
  70
    32
  0
VERTEX
  8
AM_VIS
  5
3D6
 10
1.48532
 20
5.02517
 30
0.000000
  70
    32
  0
VERTEX
  8
AM_VIS
  5
3D7
 10
1.48598
 20
5.02423
 30
0.000000
  70
    32
  0
VERTEX
  8
AM_VIS
  5
3D8
 10
1.48665
 20
5.02330
 30
0.000000
  70
    32
  0
VERTEX
  8
AM_VIS
  5
3D9
 10
1.48732
 20
5.02236
 30
0.000000
  70
    32
  0
VERTEX
  8
AM_VIS
  5
3DA
 10
1.48800
 20
5.02143
 30
0.000000
  70
    32
  0
VERTEX
  8
AM_VIS
  5
3DB
 10
1.48868
 20
5.02050
 30
0.000000
  70
    32
  0
VERTEX
  8
AM_VIS
  5
3DC
 10
1.48936
 20
5.01958
 30
0.000000
  70
    32
  0
VERTEX
  8
AM_VIS
  5
3DD
 10
1.49006
 20
5.01865
 30
0.000000
  70
    32
  0
VERTEX
  8
AM_VIS
  5
3DE
 10
1.49075
 20
5.01773
 30
0.000000
  70
    32
  0
VERTEX
  8
AM_VIS
  5
3DF
 10
1.49146
 20
5.01682
 30
0.000000
  70
    32
  0
VERTEX
  8
AM_VIS
  5
3E0
 10
1.49216
 20
5.01590
 30
0.000000
  70
    32
  0
VERTEX
  8
AM_VIS
  5
3E1
 10
1.49288
 20
5.01499
 30
0.000000
  70
    32
  0
VERTEX
  8
AM_VIS
  5
3E2
 10
1.49359
 20
5.01408
 30
0.000000
  70
    32
  0
VERTEX
  8
AM_VIS
  5
3E3
 10
1.49431
 20
5.01317
 30
0.000000
  70
    32
  0
VERTEX
  8
AM_VIS
  5
3E4
 10
1.49504
 20
5.01227
 30
0.000000
  70
    32
  0
VERTEX
  8
AM_VIS
  5
3E5
 10
1.49577
 20
5.01137
 30
0.000000
  70
    32
  0
VERTEX
  8
AM_VIS
  5
3E6
 10
1.49651
 20
5.01047
 30
0.000000
  70
    32
  0
VERTEX
  8
AM_VIS
  5
3E7
 10
1.49725
 20
5.00957
 30
0.000000
  70
    32
  0
VERTEX
  8
AM_VIS
  5
3E8
 10
1.49800
 20
5.00868
 30
0.000000
  70
    32
  0
VERTEX
  8
AM_VIS
  5
3E9
 10
1.49875
 20
5.00779
 30
0.000000
  70
    32
  0
VERTEX
  8
AM_VIS
  5
3EA
 10
1.49950
 20
5.00690
 30
0.000000
  70
    32
  0
VERTEX
  8
AM_VIS
  5
3EB
 10
1.50026
 20
5.00602
 30
0.000000
  70
    32
  0
VERTEX
  8
AM_VIS
  5
3EC
 10
1.50102
 20
5.00514
 30
0.000000
  70
    32
  0
VERTEX
  8
AM_VIS
  5
3ED
 10
1.50179
 20
5.00426
 30
0.000000
  70
    32
  0
VERTEX
  8
AM_VIS
  5
3EE
 10
1.50257
 20
5.00339
 30
0.000000
  70
    32
  0
VERTEX
  8
AM_VIS
  5
3EF
 10
1.50334
 20
5.00252
 30
0.000000
  70
    32
  0
VERTEX
  8
AM_VIS
  5
3F0
 10
1.50412
 20
5.00166
 30
0.000000
  70
    32
  0
VERTEX
  8
AM_VIS
  5
3F1
 10
1.50491
 20
5.00079
 30
0.000000
  70
    32
  0
VERTEX
  8
AM_VIS
  5
3F2
 10
1.50570
 20
4.99993
 30
0.000000
  70
    32
  0
VERTEX
  8
AM_VIS
  5
3F3
 10
1.50649
 20
4.99908
 30
0.000000
  70
    32
  0
VERTEX
  8
AM_VIS
  5
3F4
 10
1.50729
 20
4.99823
 30
0.000000
  70
    32
  0
VERTEX
  8
AM_VIS
  5
3F5
 10
1.50809
 20
4.99738
 30
0.000000
  70
    32
  0
VERTEX
  8
AM_VIS
  5
3F6
 10
1.50890
 20
4.99653
 30
0.000000
  70
    32
  0
VERTEX
  8
AM_VIS
  5
3F7
 10
1.50971
 20
4.99569
 30
0.000000
  70
    32
  0
VERTEX
  8
AM_VIS
  5
3F8
 10
1.51052
 20
4.99486
 30
0.000000
  70
    32
  0
VERTEX
  8
AM_VIS
  5
3F9
 10
1.51134
 20
4.99402
 30
0.000000
  70
    32
  0
VERTEX
  8
AM_VIS
  5
3FA
 10
1.51216
 20
4.99319
 30
0.000000
  70
    32
  0
VERTEX
  8
AM_VIS
  5
3FB
 10
1.51299
 20
4.99237
 30
0.000000
  70
    32
  0
VERTEX
  8
AM_VIS
  5
3FC
 10
1.51382
 20
4.99155
 30
0.000000
  70
    32
  0
VERTEX
  8
AM_VIS
  5
3FD
 10
1.51465
 20
4.99073
 30
0.000000
  70
    32
  0
VERTEX
  8
AM_VIS
  5
3FE
 10
1.51548
 20
4.98992
 30
0.000000
  70
    32
  0
VERTEX
  8
AM_VIS
  5
3FF
 10
1.51632
 20
4.98911
 30
0.000000
  70
    32
  0
VERTEX
  8
AM_VIS
  5
400
 10
1.51717
 20
4.98831
 30
0.000000
  70
    32
  0
VERTEX
  8
AM_VIS
  5
401
 10
1.51802
 20
4.98751
 30
0.000000
  70
    32
  0
VERTEX
  8
AM_VIS
  5
402
 10
1.51887
 20
4.98671
 30
0.000000
  70
    32
  0
VERTEX
  8
AM_VIS
  5
403
 10
1.51972
 20
4.98592
 30
0.000000
  70
    32
  0
VERTEX
  8
AM_VIS
  5
404
 10
1.52058
 20
4.98513
 30
0.000000
  70
    32
  0
VERTEX
  8
AM_VIS
  5
405
 10
1.52144
 20
4.98435
 30
0.000000
  70
    32
  0
VERTEX
  8
AM_VIS
  5
406
 10
1.52230
 20
4.98357
 30
0.000000
  70
    32
  0
VERTEX
  8
AM_VIS
  5
407
 10
1.52317
 20
4.98279
 30
0.000000
  70
    32
  0
VERTEX
  8
AM_VIS
  5
408
 10
1.52405
 20
4.98202
 30
0.000000
  70
    32
  0
VERTEX
  8
AM_VIS
  5
409
 10
1.52493
 20
4.98125
 30
0.000000
  70
    32
  0
VERTEX
  8
AM_VIS
  5
40A
 10
1.52582
 20
4.98048
 30
0.000000
  70
    32
  0
VERTEX
  8
AM_VIS
  5
40B
 10
1.52671
 20
4.97971
 30
0.000000
  70
    32
  0
VERTEX
  8
AM_VIS
  5
40C
 10
1.52761
 20
4.97894
 30
0.000000
  70
    32
  0
VERTEX
  8
AM_VIS
  5
40D
 10
1.52852
 20
4.97818
 30
0.000000
  70
    32
  0
VERTEX
  8
AM_VIS
  5
40E
 10
1.52943
 20
4.97742
 30
0.000000
  70
    32
  0
VERTEX
  8
AM_VIS
  5
40F
 10
1.53035
 20
4.97666
 30
0.000000
  70
    32
  0
VERTEX
  8
AM_VIS
  5
410
 10
1.53128
 20
4.97590
 30
0.000000
  70
    32
  0
VERTEX
  8
AM_VIS
  5
411
 10
1.53221
 20
4.97514
 30
0.000000
  70
    32
  0
VERTEX
  8
AM_VIS
  5
412
 10
1.53315
 20
4.97439
 30
0.000000
  70
    32
  0
VERTEX
  8
AM_VIS
  5
413
 10
1.53409
 20
4.97364
 30
0.000000
  70
    32
  0
VERTEX
  8
AM_VIS
  5
414
 10
1.53504
 20
4.97289
 30
0.000000
  70
    32
  0
VERTEX
  8
AM_VIS
  5
415
 10
1.53599
 20
4.97215
 30
0.000000
  70
    32
  0
VERTEX
  8
AM_VIS
  5
416
 10
1.53696
 20
4.97140
 30
0.000000
  70
    32
  0
VERTEX
  8
AM_VIS
  5
417
 10
1.53792
 20
4.97066
 30
0.000000
  70
    32
  0
VERTEX
  8
AM_VIS
  5
418
 10
1.53889
 20
4.96993
 30
0.000000
  70
    32
  0
VERTEX
  8
AM_VIS
  5
419
 10
1.53987
 20
4.96919
 30
0.000000
  70
    32
  0
VERTEX
  8
AM_VIS
  5
41A
 10
1.54085
 20
4.96846
 30
0.000000
  70
    32
  0
VERTEX
  8
AM_VIS
  5
41B
 10
1.54184
 20
4.96773
 30
0.000000
  70
    32
  0
VERTEX
  8
AM_VIS
  5
41C
 10
1.54284
 20
4.96700
 30
0.000000
  70
    32
  0
VERTEX
  8
AM_VIS
  5
41D
 10
1.54384
 20
4.96628
 30
0.000000
  70
    32
  0
VERTEX
  8
AM_VIS
  5
41E
 10
1.54484
 20
4.96556
 30
0.000000
  70
    32
  0
VERTEX
  8
AM_VIS
  5
41F
 10
1.54585
 20
4.96485
 30
0.000000
  70
    32
  0
VERTEX
  8
AM_VIS
  5
420
 10
1.54687
 20
4.96413
 30
0.000000
  70
    32
  0
VERTEX
  8
AM_VIS
  5
421
 10
1.54789
 20
4.96342
 30
0.000000
  70
    32
  0
VERTEX
  8
AM_VIS
  5
422
 10
1.54891
 20
4.96271
 30
0.000000
  70
    32
  0
VERTEX
  8
AM_VIS
  5
423
 10
1.54994
 20
4.96201
 30
0.000000
  70
    32
  0
VERTEX
  8
AM_VIS
  5
424
 10
1.55098
 20
4.96131
 30
0.000000
  70
    32
  0
VERTEX
  8
AM_VIS
  5
425
 10
1.55202
 20
4.96061
 30
0.000000
  70
    32
  0
VERTEX
  8
AM_VIS
  5
426
 10
1.55307
 20
4.95992
 30
0.000000
  70
    32
  0
VERTEX
  8
AM_VIS
  5
427
 10
1.55412
 20
4.95923
 30
0.000000
  70
    32
  0
VERTEX
  8
AM_VIS
  5
428
 10
1.55518
 20
4.95855
 30
0.000000
  70
    32
  0
VERTEX
  8
AM_VIS
  5
429
 10
1.55624
 20
4.95786
 30
0.000000
  70
    32
  0
VERTEX
  8
AM_VIS
  5
42A
 10
1.55730
 20
4.95718
 30
0.000000
  70
    32
  0
VERTEX
  8
AM_VIS
  5
42B
 10
1.55837
 20
4.95651
 30
0.000000
  70
    32
  0
VERTEX
  8
AM_VIS
  5
42C
 10
1.55945
 20
4.95584
 30
0.000000
  70
    32
  0
VERTEX
  8
AM_VIS
  5
42D
 10
1.56053
 20
4.95517
 30
0.000000
  70
    32
  0
VERTEX
  8
AM_VIS
  5
42E
 10
1.56162
 20
4.95451
 30
0.000000
  70
    32
  0
VERTEX
  8
AM_VIS
  5
42F
 10
1.56271
 20
4.95385
 30
0.000000
  70
    32
  0
VERTEX
  8
AM_VIS
  5
430
 10
1.56380
 20
4.95320
 30
0.000000
  70
    32
  0
VERTEX
  8
AM_VIS
  5
431
 10
1.56490
 20
4.95255
 30
0.000000
  70
    32
  0
VERTEX
  8
AM_VIS
  5
432
 10
1.56601
 20
4.95190
 30
0.000000
  70
    32
  0
VERTEX
  8
AM_VIS
  5
433
 10
1.56711
 20
4.95126
 30
0.000000
  70
    32
  0
VERTEX
  8
AM_VIS
  5
434
 10
1.56823
 20
4.95062
 30
0.000000
  70
    32
  0
VERTEX
  8
AM_VIS
  5
435
 10
1.56934
 20
4.94999
 30
0.000000
  70
    32
  0
VERTEX
  8
AM_VIS
  5
436
 10
1.57047
 20
4.94936
 30
0.000000
  70
    32
  0
VERTEX
  8
AM_VIS
  5
437
 10
1.57159
 20
4.94873
 30
0.000000
  70
    32
  0
VERTEX
  8
AM_VIS
  5
438
 10
1.57272
 20
4.94811
 30
0.000000
  70
    32
  0
VERTEX
  8
AM_VIS
  5
439
 10
1.57386
 20
4.94750
 30
0.000000
  70
    32
  0
VERTEX
  8
AM_VIS
  5
43A
 10
1.57500
 20
4.94689
 30
0.000000
  70
    32
  0
VERTEX
  8
AM_VIS
  5
43B
 10
1.57614
 20
4.94628
 30
0.000000
  70
    32
  0
VERTEX
  8
AM_VIS
  5
43C
 10
1.57729
 20
4.94568
 30
0.000000
  70
    32
  0
VERTEX
  8
AM_VIS
  5
43D
 10
1.57844
 20
4.94509
 30
0.000000
  70
    32
  0
VERTEX
  8
AM_VIS
  5
43E
 10
1.57959
 20
4.94449
 30
0.000000
  70
    32
  0
VERTEX
  8
AM_VIS
  5
43F
 10
1.58075
 20
4.94391
 30
0.000000
  70
    32
  0
VERTEX
  8
AM_VIS
  5
440
 10
1.58191
 20
4.94333
 30
0.000000
  70
    32
  0
VERTEX
  8
AM_VIS
  5
441
 10
1.58308
 20
4.94275
 30
0.000000
  70
    32
  0
VERTEX
  8
AM_VIS
  5
442
 10
1.58425
 20
4.94218
 30
0.000000
  70
    32
  0
VERTEX
  8
AM_VIS
  5
443
 10
1.58543
 20
4.94161
 30
0.000000
  70
    32
  0
VERTEX
  8
AM_VIS
  5
444
 10
1.58661
 20
4.94105
 30
0.000000
  70
    32
  0
VERTEX
  8
AM_VIS
  5
445
 10
1.58779
 20
4.94050
 30
0.000000
  70
    32
  0
VERTEX
  8
AM_VIS
  5
446
 10
1.58897
 20
4.93995
 30
0.000000
  70
    32
  0
VERTEX
  8
AM_VIS
  5
447
 10
1.59016
 20
4.93940
 30
0.000000
  70
    32
  0
VERTEX
  8
AM_VIS
  5
448
 10
1.59136
 20
4.93886
 30
0.000000
  70
    32
  0
VERTEX
  8
AM_VIS
  5
449
 10
1.59255
 20
4.93833
 30
0.000000
  70
    32
  0
VERTEX
  8
AM_VIS
  5
44A
 10
1.59375
 20
4.93780
 30
0.000000
  70
    32
  0
VERTEX
  8
AM_VIS
  5
44B
 10
1.59496
 20
4.93728
 30
0.000000
  70
    32
  0
VERTEX
  8
AM_VIS
  5
44C
 10
1.59616
 20
4.93676
 30
0.000000
  70
    32
  0
VERTEX
  8
AM_VIS
  5
44D
 10
1.59738
 20
4.93625
 30
0.000000
  70
    32
  0
VERTEX
  8
AM_VIS
  5
44E
 10
1.59859
 20
4.93575
 30
0.000000
  70
    32
  0
VERTEX
  8
AM_VIS
  5
44F
 10
1.59981
 20
4.93525
 30
0.000000
  70
    32
  0
VERTEX
  8
AM_VIS
  5
450
 10
1.60103
 20
4.93476
 30
0.000000
  70
    32
  0
VERTEX
  8
AM_VIS
  5
451
 10
1.60225
 20
4.93427
 30
0.000000
  70
    32
  0
VERTEX
  8
AM_VIS
  5
452
 10
1.60348
 20
4.93379
 30
0.000000
  70
    32
  0
VERTEX
  8
AM_VIS
  5
453
 10
1.60471
 20
4.93331
 30
0.000000
  70
    32
  0
VERTEX
  8
AM_VIS
  5
454
 10
1.60594
 20
4.93284
 30
0.000000
  70
    32
  0
VERTEX
  8
AM_VIS
  5
455
 10
1.60718
 20
4.93238
 30
0.000000
  70
    32
  0
VERTEX
  8
AM_VIS
  5
456
 10
1.60842
 20
4.93193
 30
0.000000
  70
    32
  0
VERTEX
  8
AM_VIS
  5
457
 10
1.60966
 20
4.93148
 30
0.000000
  70
    32
  0
VERTEX
  8
AM_VIS
  5
458
 10
1.61091
 20
4.93103
 30
0.000000
  70
    32
  0
VERTEX
  8
AM_VIS
  5
459
 10
1.61215
 20
4.93059
 30
0.000000
  70
    32
  0
VERTEX
  8
AM_VIS
  5
45A
 10
1.61340
 20
4.93016
 30
0.000000
  70
    32
  0
VERTEX
  8
AM_VIS
  5
45B
 10
1.61466
 20
4.92974
 30
0.000000
  70
    32
  0
VERTEX
  8
AM_VIS
  5
45C
 10
1.61591
 20
4.92932
 30
0.000000
  70
    32
  0
VERTEX
  8
AM_VIS
  5
45D
 10
1.61717
 20
4.92890
 30
0.000000
  70
    32
  0
VERTEX
  8
AM_VIS
  5
45E
 10
1.61843
 20
4.92850
 30
0.000000
  70
    32
  0
VERTEX
  8
AM_VIS
  5
45F
 10
1.61969
 20
4.92810
 30
0.000000
  70
    32
  0
VERTEX
  8
AM_VIS
  5
460
 10
1.62096
 20
4.92770
 30
0.000000
  70
    32
  0
VERTEX
  8
AM_VIS
  5
461
 10
1.62223
 20
4.92732
 30
0.000000
  70
    32
  0
VERTEX
  8
AM_VIS
  5
462
 10
1.62349
 20
4.92693
 30
0.000000
  70
    32
  0
VERTEX
  8
AM_VIS
  5
463
 10
1.62477
 20
4.92656
 30
0.000000
  70
    32
  0
VERTEX
  8
AM_VIS
  5
464
 10
1.62604
 20
4.92619
 30
0.000000
  70
    32
  0
VERTEX
  8
AM_VIS
  5
465
 10
1.62731
 20
4.92583
 30
0.000000
  70
    32
  0
VERTEX
  8
AM_VIS
  5
466
 10
1.62859
 20
4.92547
 30
0.000000
  70
    32
  0
VERTEX
  8
AM_VIS
  5
467
 10
1.62987
 20
4.92512
 30
0.000000
  70
    32
  0
VERTEX
  8
AM_VIS
  5
468
 10
1.63115
 20
4.92478
 30
0.000000
  70
    32
  0
VERTEX
  8
AM_VIS
  5
469
 10
1.63243
 20
4.92444
 30
0.000000
  70
    32
  0
VERTEX
  8
AM_VIS
  5
46A
 10
1.63372
 20
4.92411
 30
0.000000
  70
    32
  0
VERTEX
  8
AM_VIS
  5
46B
 10
1.63500
 20
4.92378
 30
0.000000
  70
    32
  0
VERTEX
  8
AM_VIS
  5
46C
 10
1.63629
 20
4.92347
 30
0.000000
  70
    32
  0
VERTEX
  8
AM_VIS
  5
46D
 10
1.63758
 20
4.92315
 30
0.000000
  70
    32
  0
VERTEX
  8
AM_VIS
  5
46E
 10
1.63887
 20
4.92285
 30
0.000000
  70
    32
  0
VERTEX
  8
AM_VIS
  5
46F
 10
1.64016
 20
4.92255
 30
0.000000
  70
    32
  0
VERTEX
  8
AM_VIS
  5
470
 10
1.64145
 20
4.92225
 30
0.000000
  70
    32
  0
VERTEX
  8
AM_VIS
  5
471
 10
1.64274
 20
4.92197
 30
0.000000
  70
    32
  0
VERTEX
  8
AM_VIS
  5
472
 10
1.64404
 20
4.92169
 30
0.000000
  70
    32
  0
VERTEX
  8
AM_VIS
  5
473
 10
1.64533
 20
4.92141
 30
0.000000
  70
    32
  0
VERTEX
  8
AM_VIS
  5
474
 10
1.64663
 20
4.92115
 30
0.000000
  70
    32
  0
VERTEX
  8
AM_VIS
  5
475
 10
1.64793
 20
4.92088
 30
0.000000
  70
    32
  0
VERTEX
  8
AM_VIS
  5
476
 10
1.64922
 20
4.92063
 30
0.000000
  70
    32
  0
VERTEX
  8
AM_VIS
  5
477
 10
1.65052
 20
4.92038
 30
0.000000
  70
    32
  0
VERTEX
  8
AM_VIS
  5
478
 10
1.65182
 20
4.92014
 30
0.000000
  70
    32
  0
VERTEX
  8
AM_VIS
  5
479
 10
1.65312
 20
4.91990
 30
0.000000
  70
    32
  0
VERTEX
  8
AM_VIS
  5
47A
 10
1.65442
 20
4.91967
 30
0.000000
  70
    32
  0
VERTEX
  8
AM_VIS
  5
47B
 10
1.65572
 20
4.91945
 30
0.000000
  70
    32
  0
VERTEX
  8
AM_VIS
  5
47C
 10
1.65702
 20
4.91924
 30
0.000000
  70
    32
  0
VERTEX
  8
AM_VIS
  5
47D
 10
1.65832
 20
4.91903
 30
0.000000
  70
    32
  0
VERTEX
  8
AM_VIS
  5
47E
 10
1.65962
 20
4.91882
 30
0.000000
  70
    32
  0
VERTEX
  8
AM_VIS
  5
47F
 10
1.66092
 20
4.91863
 30
0.000000
  70
    32
  0
VERTEX
  8
AM_VIS
  5
480
 10
1.66223
 20
4.91844
 30
0.000000
  70
    32
  0
VERTEX
  8
AM_VIS
  5
481
 10
1.66353
 20
4.91825
 30
0.000000
  70
    32
  0
VERTEX
  8
AM_VIS
  5
482
 10
1.66483
 20
4.91807
 30
0.000000
  70
    32
  0
VERTEX
  8
AM_VIS
  5
483
 10
1.66613
 20
4.91790
 30
0.000000
  70
    32
  0
VERTEX
  8
AM_VIS
  5
484
 10
1.66743
 20
4.91774
 30
0.000000
  70
    32
  0
VERTEX
  8
AM_VIS
  5
485
 10
1.66873
 20
4.91758
 30
0.000000
  70
    32
  0
VERTEX
  8
AM_VIS
  5
486
 10
1.67003
 20
4.91743
 30
0.000000
  70
    32
  0
VERTEX
  8
AM_VIS
  5
487
 10
1.67133
 20
4.91728
 30
0.000000
  70
    32
  0
VERTEX
  8
AM_VIS
  5
488
 10
1.67263
 20
4.91715
 30
0.000000
  70
    32
  0
VERTEX
  8
AM_VIS
  5
489
 10
1.67393
 20
4.91701
 30
0.000000
  70
    32
  0
VERTEX
  8
AM_VIS
  5
48A
 10
1.67523
 20
4.91689
 30
0.000000
  70
    32
  0
VERTEX
  8
AM_VIS
  5
48B
 10
1.67653
 20
4.91677
 30
0.000000
  70
    32
  0
VERTEX
  8
AM_VIS
  5
48C
 10
1.67782
 20
4.91666
 30
0.000000
  70
    32
  0
VERTEX
  8
AM_VIS
  5
48D
 10
1.67912
 20
4.91655
 30
0.000000
  70
    32
  0
VERTEX
  8
AM_VIS
  5
48E
 10
1.68042
 20
4.91645
 30
0.000000
  70
    32
  0
VERTEX
  8
AM_VIS
  5
48F
 10
1.68171
 20
4.91636
 30
0.000000
  70
    32
  0
VERTEX
  8
AM_VIS
  5
490
 10
1.68300
 20
4.91627
 30
0.000000
  70
    32
  0
VERTEX
  8
AM_VIS
  5
491
 10
1.68430
 20
4.91619
 30
0.000000
  70
    32
  0
VERTEX
  8
AM_VIS
  5
492
 10
1.68559
 20
4.91612
 30
0.000000
  70
    32
  0
VERTEX
  8
AM_VIS
  5
493
 10
1.68688
 20
4.91605
 30
0.000000
  70
    32
  0
VERTEX
  8
AM_VIS
  5
494
 10
1.68817
 20
4.91599
 30
0.000000
  70
    32
  0
VERTEX
  8
AM_VIS
  5
495
 10
1.68945
 20
4.91594
 30
0.000000
  70
    32
  0
VERTEX
  8
AM_VIS
  5
496
 10
1.69074
 20
4.91590
 30
0.000000
  70
    32
  0
VERTEX
  8
AM_VIS
  5
497
 10
1.69202
 20
4.91586
 30
0.000000
  70
    32
  0
VERTEX
  8
AM_VIS
  5
498
 10
1.69331
 20
4.91582
 30
0.000000
  70
    32
  0
VERTEX
  8
AM_VIS
  5
499
 10
1.69459
 20
4.91580
 30
0.000000
  70
    32
  0
VERTEX
  8
AM_VIS
  5
49A
 10
1.69587
 20
4.91578
 30
0.000000
  70
    32
  0
VERTEX
  8
AM_VIS
  5
49B
 10
1.69715
 20
4.91576
 30
0.000000
  70
    32
  0
VERTEX
  8
AM_VIS
  5
49C
 10
1.69842
 20
4.91576
 30
0.000000
  70
    32
  0
VERTEX
  8
AM_VIS
  5
49D
 10
1.69970
 20
4.91576
 30
0.000000
  70
    32
  0
VERTEX
  8
AM_VIS
  5
49E
 10
1.70097
 20
4.91576
 30
0.000000
  70
    32
  0
VERTEX
  8
AM_VIS
  5
49F
 10
1.70225
 20
4.91578
 30
0.000000
  70
    32
  0
VERTEX
  8
AM_VIS
  5
4A0
 10
1.70353
 20
4.91580
 30
0.000000
  70
    32
  0
VERTEX
  8
AM_VIS
  5
4A1
 10
1.70481
 20
4.91582
 30
0.000000
  70
    32
  0
VERTEX
  8
AM_VIS
  5
4A2
 10
1.70610
 20
4.91586
 30
0.000000
  70
    32
  0
VERTEX
  8
AM_VIS
  5
4A3
 10
1.70738
 20
4.91590
 30
0.000000
  70
    32
  0
VERTEX
  8
AM_VIS
  5
4A4
 10
1.70867
 20
4.91594
 30
0.000000
  70
    32
  0
VERTEX
  8
AM_VIS
  5
4A5
 10
1.70995
 20
4.91599
 30
0.000000
  70
    32
  0
VERTEX
  8
AM_VIS
  5
4A6
 10
1.71124
 20
4.91605
 30
0.000000
  70
    32
  0
VERTEX
  8
AM_VIS
  5
4A7
 10
1.71253
 20
4.91612
 30
0.000000
  70
    32
  0
VERTEX
  8
AM_VIS
  5
4A8
 10
1.71382
 20
4.91619
 30
0.000000
  70
    32
  0
VERTEX
  8
AM_VIS
  5
4A9
 10
1.71512
 20
4.91627
 30
0.000000
  70
    32
  0
VERTEX
  8
AM_VIS
  5
4AA
 10
1.71641
 20
4.91636
 30
0.000000
  70
    32
  0
VERTEX
  8
AM_VIS
  5
4AB
 10
1.71770
 20
4.91645
 30
0.000000
  70
    32
  0
VERTEX
  8
AM_VIS
  5
4AC
 10
1.71900
 20
4.91655
 30
0.000000
  70
    32
  0
VERTEX
  8
AM_VIS
  5
4AD
 10
1.72030
 20
4.91666
 30
0.000000
  70
    32
  0
VERTEX
  8
AM_VIS
  5
4AE
 10
1.72159
 20
4.91677
 30
0.000000
  70
    32
  0
VERTEX
  8
AM_VIS
  5
4AF
 10
1.72289
 20
4.91689
 30
0.000000
  70
    32
  0
VERTEX
  8
AM_VIS
  5
4B0
 10
1.72419
 20
4.91701
 30
0.000000
  70
    32
  0
VERTEX
  8
AM_VIS
  5
4B1
 10
1.72549
 20
4.91715
 30
0.000000
  70
    32
  0
VERTEX
  8
AM_VIS
  5
4B2
 10
1.72679
 20
4.91728
 30
0.000000
  70
    32
  0
VERTEX
  8
AM_VIS
  5
4B3
 10
1.72809
 20
4.91743
 30
0.000000
  70
    32
  0
VERTEX
  8
AM_VIS
  5
4B4
 10
1.72939
 20
4.91758
 30
0.000000
  70
    32
  0
VERTEX
  8
AM_VIS
  5
4B5
 10
1.73069
 20
4.91774
 30
0.000000
  70
    32
  0
VERTEX
  8
AM_VIS
  5
4B6
 10
1.73199
 20
4.91790
 30
0.000000
  70
    32
  0
VERTEX
  8
AM_VIS
  5
4B7
 10
1.73329
 20
4.91807
 30
0.000000
  70
    32
  0
VERTEX
  8
AM_VIS
  5
4B8
 10
1.73459
 20
4.91825
 30
0.000000
  70
    32
  0
VERTEX
  8
AM_VIS
  5
4B9
 10
1.73589
 20
4.91844
 30
0.000000
  70
    32
  0
VERTEX
  8
AM_VIS
  5
4BA
 10
1.73720
 20
4.91863
 30
0.000000
  70
    32
  0
VERTEX
  8
AM_VIS
  5
4BB
 10
1.73850
 20
4.91882
 30
0.000000
  70
    32
  0
VERTEX
  8
AM_VIS
  5
4BC
 10
1.73980
 20
4.91903
 30
0.000000
  70
    32
  0
VERTEX
  8
AM_VIS
  5
4BD
 10
1.74110
 20
4.91924
 30
0.000000
  70
    32
  0
VERTEX
  8
AM_VIS
  5
4BE
 10
1.74240
 20
4.91945
 30
0.000000
  70
    32
  0
VERTEX
  8
AM_VIS
  5
4BF
 10
1.74370
 20
4.91967
 30
0.000000
  70
    32
  0
VERTEX
  8
AM_VIS
  5
4C0
 10
1.74500
 20
4.91990
 30
0.000000
  70
    32
  0
VERTEX
  8
AM_VIS
  5
4C1
 10
1.74630
 20
4.92014
 30
0.000000
  70
    32
  0
VERTEX
  8
AM_VIS
  5
4C2
 10
1.74760
 20
4.92038
 30
0.000000
  70
    32
  0
VERTEX
  8
AM_VIS
  5
4C3
 10
1.74890
 20
4.92063
 30
0.000000
  70
    32
  0
VERTEX
  8
AM_VIS
  5
4C4
 10
1.75019
 20
4.92088
 30
0.000000
  70
    32
  0
VERTEX
  8
AM_VIS
  5
4C5
 10
1.75149
 20
4.92115
 30
0.000000
  70
    32
  0
VERTEX
  8
AM_VIS
  5
4C6
 10
1.75279
 20
4.92141
 30
0.000000
  70
    32
  0
VERTEX
  8
AM_VIS
  5
4C7
 10
1.75408
 20
4.92169
 30
0.000000
  70
    32
  0
VERTEX
  8
AM_VIS
  5
4C8
 10
1.75538
 20
4.92197
 30
0.000000
  70
    32
  0
VERTEX
  8
AM_VIS
  5
4C9
 10
1.75667
 20
4.92225
 30
0.000000
  70
    32
  0
VERTEX
  8
AM_VIS
  5
4CA
 10
1.75796
 20
4.92255
 30
0.000000
  70
    32
  0
VERTEX
  8
AM_VIS
  5
4CB
 10
1.75925
 20
4.92285
 30
0.000000
  70
    32
  0
VERTEX
  8
AM_VIS
  5
4CC
 10
1.76054
 20
4.92315
 30
0.000000
  70
    32
  0
VERTEX
  8
AM_VIS
  5
4CD
 10
1.76183
 20
4.92347
 30
0.000000
  70
    32
  0
VERTEX
  8
AM_VIS
  5
4CE
 10
1.76312
 20
4.92378
 30
0.000000
  70
    32
  0
VERTEX
  8
AM_VIS
  5
4CF
 10
1.76440
 20
4.92411
 30
0.000000
  70
    32
  0
VERTEX
  8
AM_VIS
  5
4D0
 10
1.76569
 20
4.92444
 30
0.000000
  70
    32
  0
VERTEX
  8
AM_VIS
  5
4D1
 10
1.76697
 20
4.92478
 30
0.000000
  70
    32
  0
VERTEX
  8
AM_VIS
  5
4D2
 10
1.76825
 20
4.92512
 30
0.000000
  70
    32
  0
VERTEX
  8
AM_VIS
  5
4D3
 10
1.76953
 20
4.92547
 30
0.000000
  70
    32
  0
VERTEX
  8
AM_VIS
  5
4D4
 10
1.77081
 20
4.92583
 30
0.000000
  70
    32
  0
VERTEX
  8
AM_VIS
  5
4D5
 10
1.77208
 20
4.92619
 30
0.000000
  70
    32
  0
VERTEX
  8
AM_VIS
  5
4D6
 10
1.77335
 20
4.92656
 30
0.000000
  70
    32
  0
VERTEX
  8
AM_VIS
  5
4D7
 10
1.77463
 20
4.92693
 30
0.000000
  70
    32
  0
VERTEX
  8
AM_VIS
  5
4D8
 10
1.77589
 20
4.92732
 30
0.000000
  70
    32
  0
VERTEX
  8
AM_VIS
  5
4D9
 10
1.77716
 20
4.92770
 30
0.000000
  70
    32
  0
VERTEX
  8
AM_VIS
  5
4DA
 10
1.77843
 20
4.92810
 30
0.000000
  70
    32
  0
VERTEX
  8
AM_VIS
  5
4DB
 10
1.77969
 20
4.92850
 30
0.000000
  70
    32
  0
VERTEX
  8
AM_VIS
  5
4DC
 10
1.78095
 20
4.92890
 30
0.000000
  70
    32
  0
VERTEX
  8
AM_VIS
  5
4DD
 10
1.78221
 20
4.92932
 30
0.000000
  70
    32
  0
VERTEX
  8
AM_VIS
  5
4DE
 10
1.78346
 20
4.92974
 30
0.000000
  70
    32
  0
VERTEX
  8
AM_VIS
  5
4DF
 10
1.78472
 20
4.93016
 30
0.000000
  70
    32
  0
VERTEX
  8
AM_VIS
  5
4E0
 10
1.78597
 20
4.93059
 30
0.000000
  70
    32
  0
VERTEX
  8
AM_VIS
  5
4E1
 10
1.78721
 20
4.93103
 30
0.000000
  70
    32
  0
VERTEX
  8
AM_VIS
  5
4E2
 10
1.78846
 20
4.93148
 30
0.000000
  70
    32
  0
VERTEX
  8
AM_VIS
  5
4E3
 10
1.78970
 20
4.93193
 30
0.000000
  70
    32
  0
VERTEX
  8
AM_VIS
  5
4E4
 10
1.79094
 20
4.93238
 30
0.000000
  70
    32
  0
VERTEX
  8
AM_VIS
  5
4E5
 10
1.79218
 20
4.93284
 30
0.000000
  70
    32
  0
VERTEX
  8
AM_VIS
  5
4E6
 10
1.79341
 20
4.93331
 30
0.000000
  70
    32
  0
VERTEX
  8
AM_VIS
  5
4E7
 10
1.79464
 20
4.93379
 30
0.000000
  70
    32
  0
VERTEX
  8
AM_VIS
  5
4E8
 10
1.79587
 20
4.93427
 30
0.000000
  70
    32
  0
VERTEX
  8
AM_VIS
  5
4E9
 10
1.79709
 20
4.93476
 30
0.000000
  70
    32
  0
VERTEX
  8
AM_VIS
  5
4EA
 10
1.79831
 20
4.93525
 30
0.000000
  70
    32
  0
VERTEX
  8
AM_VIS
  5
4EB
 10
1.79953
 20
4.93575
 30
0.000000
  70
    32
  0
VERTEX
  8
AM_VIS
  5
4EC
 10
1.80074
 20
4.93625
 30
0.000000
  70
    32
  0
VERTEX
  8
AM_VIS
  5
4ED
 10
1.80196
 20
4.93676
 30
0.000000
  70
    32
  0
VERTEX
  8
AM_VIS
  5
4EE
 10
1.80316
 20
4.93728
 30
0.000000
  70
    32
  0
VERTEX
  8
AM_VIS
  5
4EF
 10
1.80437
 20
4.93780
 30
0.000000
  70
    32
  0
VERTEX
  8
AM_VIS
  5
4F0
 10
1.80557
 20
4.93833
 30
0.000000
  70
    32
  0
VERTEX
  8
AM_VIS
  5
4F1
 10
1.80676
 20
4.93886
 30
0.000000
  70
    32
  0
VERTEX
  8
AM_VIS
  5
4F2
 10
1.80796
 20
4.93940
 30
0.000000
  70
    32
  0
VERTEX
  8
AM_VIS
  5
4F3
 10
1.80915
 20
4.93995
 30
0.000000
  70
    32
  0
VERTEX
  8
AM_VIS
  5
4F4
 10
1.81033
 20
4.94050
 30
0.000000
  70
    32
  0
VERTEX
  8
AM_VIS
  5
4F5
 10
1.81151
 20
4.94105
 30
0.000000
  70
    32
  0
VERTEX
  8
AM_VIS
  5
4F6
 10
1.81269
 20
4.94161
 30
0.000000
  70
    32
  0
VERTEX
  8
AM_VIS
  5
4F7
 10
1.81387
 20
4.94218
 30
0.000000
  70
    32
  0
VERTEX
  8
AM_VIS
  5
4F8
 10
1.81504
 20
4.94275
 30
0.000000
  70
    32
  0
VERTEX
  8
AM_VIS
  5
4F9
 10
1.81621
 20
4.94333
 30
0.000000
  70
    32
  0
VERTEX
  8
AM_VIS
  5
4FA
 10
1.81737
 20
4.94391
 30
0.000000
  70
    32
  0
VERTEX
  8
AM_VIS
  5
4FB
 10
1.81853
 20
4.94449
 30
0.000000
  70
    32
  0
VERTEX
  8
AM_VIS
  5
4FC
 10
1.81968
 20
4.94509
 30
0.000000
  70
    32
  0
VERTEX
  8
AM_VIS
  5
4FD
 10
1.82083
 20
4.94568
 30
0.000000
  70
    32
  0
VERTEX
  8
AM_VIS
  5
4FE
 10
1.82198
 20
4.94628
 30
0.000000
  70
    32
  0
VERTEX
  8
AM_VIS
  5
4FF
 10
1.82312
 20
4.94689
 30
0.000000
  70
    32
  0
VERTEX
  8
AM_VIS
  5
500
 10
1.82426
 20
4.94750
 30
0.000000
  70
    32
  0
VERTEX
  8
AM_VIS
  5
501
 10
1.82540
 20
4.94811
 30
0.000000
  70
    32
  0
VERTEX
  8
AM_VIS
  5
502
 10
1.82653
 20
4.94873
 30
0.000000
  70
    32
  0
VERTEX
  8
AM_VIS
  5
503
 10
1.82765
 20
4.94936
 30
0.000000
  70
    32
  0
VERTEX
  8
AM_VIS
  5
504
 10
1.82878
 20
4.94999
 30
0.000000
  70
    32
  0
VERTEX
  8
AM_VIS
  5
505
 10
1.82989
 20
4.95062
 30
0.000000
  70
    32
  0
VERTEX
  8
AM_VIS
  5
506
 10
1.83101
 20
4.95126
 30
0.000000
  70
    32
  0
VERTEX
  8
AM_VIS
  5
507
 10
1.83211
 20
4.95190
 30
0.000000
  70
    32
  0
VERTEX
  8
AM_VIS
  5
508
 10
1.83322
 20
4.95255
 30
0.000000
  70
    32
  0
VERTEX
  8
AM_VIS
  5
509
 10
1.83432
 20
4.95320
 30
0.000000
  70
    32
  0
VERTEX
  8
AM_VIS
  5
50A
 10
1.83541
 20
4.95385
 30
0.000000
  70
    32
  0
VERTEX
  8
AM_VIS
  5
50B
 10
1.83650
 20
4.95451
 30
0.000000
  70
    32
  0
VERTEX
  8
AM_VIS
  5
50C
 10
1.83759
 20
4.95517
 30
0.000000
  70
    32
  0
VERTEX
  8
AM_VIS
  5
50D
 10
1.83867
 20
4.95584
 30
0.000000
  70
    32
  0
VERTEX
  8
AM_VIS
  5
50E
 10
1.83975
 20
4.95651
 30
0.000000
  70
    32
  0
VERTEX
  8
AM_VIS
  5
50F
 10
1.84082
 20
4.95718
 30
0.000000
  70
    32
  0
VERTEX
  8
AM_VIS
  5
510
 10
1.84188
 20
4.95786
 30
0.000000
  70
    32
  0
VERTEX
  8
AM_VIS
  5
511
 10
1.84294
 20
4.95855
 30
0.000000
  70
    32
  0
VERTEX
  8
AM_VIS
  5
512
 10
1.84400
 20
4.95923
 30
0.000000
  70
    32
  0
VERTEX
  8
AM_VIS
  5
513
 10
1.84505
 20
4.95992
 30
0.000000
  70
    32
  0
VERTEX
  8
AM_VIS
  5
514
 10
1.84610
 20
4.96061
 30
0.000000
  70
    32
  0
VERTEX
  8
AM_VIS
  5
515
 10
1.84714
 20
4.96131
 30
0.000000
  70
    32
  0
VERTEX
  8
AM_VIS
  5
516
 10
1.84818
 20
4.96201
 30
0.000000
  70
    32
  0
VERTEX
  8
AM_VIS
  5
517
 10
1.84921
 20
4.96271
 30
0.000000
  70
    32
  0
VERTEX
  8
AM_VIS
  5
518
 10
1.85023
 20
4.96342
 30
0.000000
  70
    32
  0
VERTEX
  8
AM_VIS
  5
519
 10
1.85125
 20
4.96413
 30
0.000000
  70
    32
  0
VERTEX
  8
AM_VIS
  5
51A
 10
1.85227
 20
4.96485
 30
0.000000
  70
    32
  0
VERTEX
  8
AM_VIS
  5
51B
 10
1.85328
 20
4.96556
 30
0.000000
  70
    32
  0
VERTEX
  8
AM_VIS
  5
51C
 10
1.85428
 20
4.96628
 30
0.000000
  70
    32
  0
VERTEX
  8
AM_VIS
  5
51D
 10
1.85528
 20
4.96700
 30
0.000000
  70
    32
  0
VERTEX
  8
AM_VIS
  5
51E
 10
1.85628
 20
4.96773
 30
0.000000
  70
    32
  0
VERTEX
  8
AM_VIS
  5
51F
 10
1.85727
 20
4.96846
 30
0.000000
  70
    32
  0
VERTEX
  8
AM_VIS
  5
520
 10
1.85825
 20
4.96919
 30
0.000000
  70
    32
  0
VERTEX
  8
AM_VIS
  5
521
 10
1.85923
 20
4.96993
 30
0.000000
  70
    32
  0
VERTEX
  8
AM_VIS
  5
522
 10
1.86020
 20
4.97066
 30
0.000000
  70
    32
  0
VERTEX
  8
AM_VIS
  5
523
 10
1.86116
 20
4.97140
 30
0.000000
  70
    32
  0
VERTEX
  8
AM_VIS
  5
524
 10
1.86213
 20
4.97215
 30
0.000000
  70
    32
  0
VERTEX
  8
AM_VIS
  5
525
 10
1.86308
 20
4.97289
 30
0.000000
  70
    32
  0
VERTEX
  8
AM_VIS
  5
526
 10
1.86403
 20
4.97364
 30
0.000000
  70
    32
  0
VERTEX
  8
AM_VIS
  5
527
 10
1.86497
 20
4.97439
 30
0.000000
  70
    32
  0
VERTEX
  8
AM_VIS
  5
528
 10
1.86591
 20
4.97514
 30
0.000000
  70
    32
  0
VERTEX
  8
AM_VIS
  5
529
 10
1.86684
 20
4.97590
 30
0.000000
  70
    32
  0
VERTEX
  8
AM_VIS
  5
52A
 10
1.86777
 20
4.97666
 30
0.000000
  70
    32
  0
VERTEX
  8
AM_VIS
  5
52B
 10
1.86869
 20
4.97742
 30
0.000000
  70
    32
  0
VERTEX
  8
AM_VIS
  5
52C
 10
1.86960
 20
4.97818
 30
0.000000
  70
    32
  0
VERTEX
  8
AM_VIS
  5
52D
 10
1.87051
 20
4.97894
 30
0.000000
  70
    32
  0
VERTEX
  8
AM_VIS
  5
52E
 10
1.87141
 20
4.97971
 30
0.000000
  70
    32
  0
VERTEX
  8
AM_VIS
  5
52F
 10
1.87230
 20
4.98048
 30
0.000000
  70
    32
  0
VERTEX
  8
AM_VIS
  5
530
 10
1.87319
 20
4.98125
 30
0.000000
  70
    32
  0
VERTEX
  8
AM_VIS
  5
531
 10
1.87407
 20
4.98202
 30
0.000000
  70
    32
  0
VERTEX
  8
AM_VIS
  5
532
 10
1.87495
 20
4.98279
 30
0.000000
  70
    32
  0
VERTEX
  8
AM_VIS
  5
533
 10
1.87582
 20
4.98357
 30
0.000000
  70
    32
  0
VERTEX
  8
AM_VIS
  5
534
 10
1.87668
 20
4.98435
 30
0.000000
  70
    32
  0
VERTEX
  8
AM_VIS
  5
535
 10
1.87754
 20
4.98513
 30
0.000000
  70
    32
  0
VERTEX
  8
AM_VIS
  5
536
 10
1.87840
 20
4.98592
 30
0.000000
  70
    32
  0
VERTEX
  8
AM_VIS
  5
537
 10
1.87925
 20
4.98671
 30
0.000000
  70
    32
  0
VERTEX
  8
AM_VIS
  5
538
 10
1.88010
 20
4.98751
 30
0.000000
  70
    32
  0
VERTEX
  8
AM_VIS
  5
539
 10
1.88095
 20
4.98831
 30
0.000000
  70
    32
  0
VERTEX
  8
AM_VIS
  5
53A
 10
1.88180
 20
4.98911
 30
0.000000
  70
    32
  0
VERTEX
  8
AM_VIS
  5
53B
 10
1.88264
 20
4.98992
 30
0.000000
  70
    32
  0
VERTEX
  8
AM_VIS
  5
53C
 10
1.88347
 20
4.99073
 30
0.000000
  70
    32
  0
VERTEX
  8
AM_VIS
  5
53D
 10
1.88430
 20
4.99155
 30
0.000000
  70
    32
  0
VERTEX
  8
AM_VIS
  5
53E
 10
1.88513
 20
4.99237
 30
0.000000
  70
    32
  0
VERTEX
  8
AM_VIS
  5
53F
 10
1.88596
 20
4.99319
 30
0.000000
  70
    32
  0
VERTEX
  8
AM_VIS
  5
540
 10
1.88678
 20
4.99402
 30
0.000000
  70
    32
  0
VERTEX
  8
AM_VIS
  5
541
 10
1.88760
 20
4.99486
 30
0.000000
  70
    32
  0
VERTEX
  8
AM_VIS
  5
542
 10
1.88841
 20
4.99569
 30
0.000000
  70
    32
  0
VERTEX
  8
AM_VIS
  5
543
 10
1.88922
 20
4.99653
 30
0.000000
  70
    32
  0
VERTEX
  8
AM_VIS
  5
544
 10
1.89003
 20
4.99738
 30
0.000000
  70
    32
  0
VERTEX
  8
AM_VIS
  5
545
 10
1.89083
 20
4.99823
 30
0.000000
  70
    32
  0
VERTEX
  8
AM_VIS
  5
546
 10
1.89163
 20
4.99908
 30
0.000000
  70
    32
  0
VERTEX
  8
AM_VIS
  5
547
 10
1.89242
 20
4.99993
 30
0.000000
  70
    32
  0
VERTEX
  8
AM_VIS
  5
548
 10
1.89321
 20
5.00079
 30
0.000000
  70
    32
  0
VERTEX
  8
AM_VIS
  5
549
 10
1.89400
 20
5.00166
 30
0.000000
  70
    32
  0
VERTEX
  8
AM_VIS
  5
54A
 10
1.89478
 20
5.00252
 30
0.000000
  70
    32
  0
VERTEX
  8
AM_VIS
  5
54B
 10
1.89555
 20
5.00339
 30
0.000000
  70
    32
  0
VERTEX
  8
AM_VIS
  5
54C
 10
1.89633
 20
5.00426
 30
0.000000
  70
    32
  0
VERTEX
  8
AM_VIS
  5
54D
 10
1.89710
 20
5.00514
 30
0.000000
  70
    32
  0
VERTEX
  8
AM_VIS
  5
54E
 10
1.89786
 20
5.00602
 30
0.000000
  70
    32
  0
VERTEX
  8
AM_VIS
  5
54F
 10
1.89862
 20
5.00690
 30
0.000000
  70
    32
  0
VERTEX
  8
AM_VIS
  5
550
 10
1.89937
 20
5.00779
 30
0.000000
  70
    32
  0
VERTEX
  8
AM_VIS
  5
551
 10
1.90012
 20
5.00868
 30
0.000000
  70
    32
  0
VERTEX
  8
AM_VIS
  5
552
 10
1.90087
 20
5.00957
 30
0.000000
  70
    32
  0
VERTEX
  8
AM_VIS
  5
553
 10
1.90161
 20
5.01047
 30
0.000000
  70
    32
  0
VERTEX
  8
AM_VIS
  5
554
 10
1.90235
 20
5.01137
 30
0.000000
  70
    32
  0
VERTEX
  8
AM_VIS
  5
555
 10
1.90308
 20
5.01227
 30
0.000000
  70
    32
  0
VERTEX
  8
AM_VIS
  5
556
 10
1.90381
 20
5.01317
 30
0.000000
  70
    32
  0
VERTEX
  8
AM_VIS
  5
557
 10
1.90453
 20
5.01408
 30
0.000000
  70
    32
  0
VERTEX
  8
AM_VIS
  5
558
 10
1.90524
 20
5.01499
 30
0.000000
  70
    32
  0
VERTEX
  8
AM_VIS
  5
559
 10
1.90596
 20
5.01590
 30
0.000000
  70
    32
  0
VERTEX
  8
AM_VIS
  5
55A
 10
1.90666
 20
5.01682
 30
0.000000
  70
    32
  0
VERTEX
  8
AM_VIS
  5
55B
 10
1.90737
 20
5.01773
 30
0.000000
  70
    32
  0
VERTEX
  8
AM_VIS
  5
55C
 10
1.90806
 20
5.01865
 30
0.000000
  70
    32
  0
VERTEX
  8
AM_VIS
  5
55D
 10
1.90876
 20
5.01958
 30
0.000000
  70
    32
  0
VERTEX
  8
AM_VIS
  5
55E
 10
1.90944
 20
5.02050
 30
0.000000
  70
    32
  0
VERTEX
  8
AM_VIS
  5
55F
 10
1.91012
 20
5.02143
 30
0.000000
  70
    32
  0
VERTEX
  8
AM_VIS
  5
560
 10
1.91080
 20
5.02236
 30
0.000000
  70
    32
  0
VERTEX
  8
AM_VIS
  5
561
 10
1.91147
 20
5.02330
 30
0.000000
  70
    32
  0
VERTEX
  8
AM_VIS
  5
562
 10
1.91214
 20
5.02423
 30
0.000000
  70
    32
  0
VERTEX
  8
AM_VIS
  5
563
 10
1.91280
 20
5.02517
 30
0.000000
  70
    32
  0
VERTEX
  8
AM_VIS
  5
564
 10
1.91345
 20
5.02611
 30
0.000000
  70
    32
  0
VERTEX
  8
AM_VIS
  5
565
 10
1.91410
 20
5.02705
 30
0.000000
  70
    32
  0
VERTEX
  8
AM_VIS
  5
566
 10
1.91475
 20
5.02799
 30
0.000000
  70
    32
  0
VERTEX
  8
AM_VIS
  5
567
 10
1.91538
 20
5.02894
 30
0.000000
  70
    32
  0
VERTEX
  8
AM_VIS
  5
568
 10
1.91602
 20
5.02989
 30
0.000000
  70
    32
  0
VERTEX
  8
AM_VIS
  5
569
 10
1.91664
 20
5.03084
 30
0.000000
  70
    32
  0
VERTEX
  8
AM_VIS
  5
56A
 10
1.91726
 20
5.03179
 30
0.000000
  70
    32
  0
VERTEX
  8
AM_VIS
  5
56B
 10
1.91788
 20
5.03275
 30
0.000000
  70
    32
  0
VERTEX
  8
AM_VIS
  5
56C
 10
1.91849
 20
5.03370
 30
0.000000
  70
    32
  0
VERTEX
  8
AM_VIS
  5
56D
 10
1.91909
 20
5.03466
 30
0.000000
  70
    32
  0
VERTEX
  8
AM_VIS
  5
56E
 10
1.91969
 20
5.03562
 30
0.000000
  70
    32
  0
VERTEX
  8
AM_VIS
  5
56F
 10
1.92028
 20
5.03658
 30
0.000000
  70
    32
  0
VERTEX
  8
AM_VIS
  5
570
 10
1.92087
 20
5.03754
 30
0.000000
  70
    32
  0
VERTEX
  8
AM_VIS
  5
571
 10
1.92145
 20
5.03851
 30
0.000000
  70
    32
  0
VERTEX
  8
AM_VIS
  5
572
 10
1.92202
 20
5.03947
 30
0.000000
  70
    32
  0
VERTEX
  8
AM_VIS
  5
573
 10
1.92259
 20
5.04044
 30
0.000000
  70
    32
  0
VERTEX
  8
AM_VIS
  5
574
 10
1.92315
 20
5.04141
 30
0.000000
  70
    32
  0
VERTEX
  8
AM_VIS
  5
575
 10
1.92371
 20
5.04238
 30
0.000000
  70
    32
  0
VERTEX
  8
AM_VIS
  5
576
 10
1.92425
 20
5.04335
 30
0.000000
  70
    32
  0
VERTEX
  8
AM_VIS
  5
577
 10
1.92480
 20
5.04432
 30
0.000000
  70
    32
  0
VERTEX
  8
AM_VIS
  5
578
 10
1.92533
 20
5.04530
 30
0.000000
  70
    32
  0
VERTEX
  8
AM_VIS
  5
579
 10
1.92586
 20
5.04627
 30
0.000000
  70
    32
  0
VERTEX
  8
AM_VIS
  5
57A
 10
1.92639
 20
5.04725
 30
0.000000
  70
    32
  0
VERTEX
  8
AM_VIS
  5
57B
 10
1.92690
 20
5.04822
 30
0.000000
  70
    32
  0
VERTEX
  8
AM_VIS
  5
57C
 10
1.92741
 20
5.04920
 30
0.000000
  70
    32
  0
VERTEX
  8
AM_VIS
  5
57D
 10
1.92792
 20
5.05018
 30
0.000000
  70
    32
  0
VERTEX
  8
AM_VIS
  5
57E
 10
1.92841
 20
5.05116
 30
0.000000
  70
    32
  0
VERTEX
  8
AM_VIS
  5
57F
 10
1.92890
 20
5.05214
 30
0.000000
  70
    32
  0
VERTEX
  8
AM_VIS
  5
580
 10
1.92939
 20
5.05313
 30
0.000000
  70
    32
  0
VERTEX
  8
AM_VIS
  5
581
 10
1.92986
 20
5.05411
 30
0.000000
  70
    32
  0
VERTEX
  8
AM_VIS
  5
582
 10
1.93033
 20
5.05509
 30
0.000000
  70
    32
  0
VERTEX
  8
AM_VIS
  5
583
 10
1.93080
 20
5.05608
 30
0.000000
  70
    32
  0
VERTEX
  8
AM_VIS
  5
584
 10
1.93126
 20
5.05706
 30
0.000000
  70
    32
  0
VERTEX
  8
AM_VIS
  5
585
 10
1.93171
 20
5.05805
 30
0.000000
  70
    32
  0
VERTEX
  8
AM_VIS
  5
586
 10
1.93215
 20
5.05903
 30
0.000000
  70
    32
  0
VERTEX
  8
AM_VIS
  5
587
 10
1.93259
 20
5.06002
 30
0.000000
  70
    32
  0
VERTEX
  8
AM_VIS
  5
588
 10
1.93301
 20
5.06100
 30
0.000000
  70
    32
  0
VERTEX
  8
AM_VIS
  5
589
 10
1.93344
 20
5.06199
 30
0.000000
  70
    32
  0
VERTEX
  8
AM_VIS
  5
58A
 10
1.93385
 20
5.06298
 30
0.000000
  70
    32
  0
VERTEX
  8
AM_VIS
  5
58B
 10
1.93426
 20
5.06397
 30
0.000000
  70
    32
  0
VERTEX
  8
AM_VIS
  5
58C
 10
1.93467
 20
5.06495
 30
0.000000
  70
    32
  0
VERTEX
  8
AM_VIS
  5
58D
 10
1.93506
 20
5.06594
 30
0.000000
  70
    32
  0
VERTEX
  8
AM_VIS
  5
58E
 10
1.93545
 20
5.06693
 30
0.000000
  70
    32
  0
VERTEX
  8
AM_VIS
  5
58F
 10
1.93584
 20
5.06792
 30
0.000000
  70
    32
  0
VERTEX
  8
AM_VIS
  5
590
 10
1.93621
 20
5.06891
 30
0.000000
  70
    32
  0
VERTEX
  8
AM_VIS
  5
591
 10
1.93658
 20
5.06989
 30
0.000000
  70
    32
  0
VERTEX
  8
AM_VIS
  5
592
 10
1.93695
 20
5.07088
 30
0.000000
  70
    32
  0
VERTEX
  8
AM_VIS
  5
593
 10
1.93730
 20
5.07187
 30
0.000000
  70
    32
  0
VERTEX
  8
AM_VIS
  5
594
 10
1.93765
 20
5.07286
 30
0.000000
  70
    32
  0
VERTEX
  8
AM_VIS
  5
595
 10
1.93800
 20
5.07384
 30
0.000000
  70
    32
  0
VERTEX
  8
AM_VIS
  5
596
 10
1.93833
 20
5.07483
 30
0.000000
  70
    32
  0
VERTEX
  8
AM_VIS
  5
597
 10
1.93866
 20
5.07582
 30
0.000000
  70
    32
  0
VERTEX
  8
AM_VIS
  5
598
 10
1.93899
 20
5.07680
 30
0.000000
  70
    32
  0
VERTEX
  8
AM_VIS
  5
599
 10
1.93930
 20
5.07779
 30
0.000000
  70
    32
  0
VERTEX
  8
AM_VIS
  5
59A
 10
1.93961
 20
5.07877
 30
0.000000
  70
    32
  0
VERTEX
  8
AM_VIS
  5
59B
 10
1.93992
 20
5.07976
 30
0.000000
  70
    32
  0
VERTEX
  8
AM_VIS
  5
59C
 10
1.94022
 20
5.08074
 30
0.000000
  70
    32
  0
VERTEX
  8
AM_VIS
  5
59D
 10
1.94051
 20
5.08172
 30
0.000000
  70
    32
  0
VERTEX
  8
AM_VIS
  5
59E
 10
1.94079
 20
5.08270
 30
0.000000
  70
    32
  0
VERTEX
  8
AM_VIS
  5
59F
 10
1.94107
 20
5.08369
 30
0.000000
  70
    32
  0
VERTEX
  8
AM_VIS
  5
5A0
 10
1.94134
 20
5.08467
 30
0.000000
  70
    32
  0
VERTEX
  8
AM_VIS
  5
5A1
 10
1.94160
 20
5.08565
 30
0.000000
  70
    32
  0
VERTEX
  8
AM_VIS
  5
5A2
 10
1.94186
 20
5.08662
 30
0.000000
  70
    32
  0
VERTEX
  8
AM_VIS
  5
5A3
 10
1.94211
 20
5.08760
 30
0.000000
  70
    32
  0
VERTEX
  8
AM_VIS
  5
5A4
 10
1.94235
 20
5.08858
 30
0.000000
  70
    32
  0
VERTEX
  8
AM_VIS
  5
5A5
 10
1.94259
 20
5.08955
 30
0.000000
  70
    32
  0
VERTEX
  8
AM_VIS
  5
5A6
 10
1.94282
 20
5.09053
 30
0.000000
  70
    32
  0
VERTEX
  8
AM_VIS
  5
5A7
 10
1.94305
 20
5.09150
 30
0.000000
  70
    32
  0
VERTEX
  8
AM_VIS
  5
5A8
 10
1.94326
 20
5.09247
 30
0.000000
  70
    32
  0
VERTEX
  8
AM_VIS
  5
5A9
 10
1.94348
 20
5.09344
 30
0.000000
  70
    32
  0
VERTEX
  8
AM_VIS
  5
5AA
 10
1.94368
 20
5.09441
 30
0.000000
  70
    32
  0
VERTEX
  8
AM_VIS
  5
5AB
 10
1.94388
 20
5.09538
 30
0.000000
  70
    32
  0
VERTEX
  8
AM_VIS
  5
5AC
 10
1.94407
 20
5.09635
 30
0.000000
  70
    32
  0
VERTEX
  8
AM_VIS
  5
5AD
 10
1.94425
 20
5.09731
 30
0.000000
  70
    32
  0
VERTEX
  8
AM_VIS
  5
5AE
 10
1.94443
 20
5.09828
 30
0.000000
  70
    32
  0
VERTEX
  8
AM_VIS
  5
5AF
 10
1.94460
 20
5.09924
 30
0.000000
  70
    32
  0
VERTEX
  8
AM_VIS
  5
5B0
 10
1.94477
 20
5.10020
 30
0.000000
  70
    32
  0
VERTEX
  8
AM_VIS
  5
5B1
 10
1.94493
 20
5.10116
 30
0.000000
  70
    32
  0
VERTEX
  8
AM_VIS
  5
5B2
 10
1.94508
 20
5.10211
 30
0.000000
  70
    32
  0
VERTEX
  8
AM_VIS
  5
5B3
 10
1.94523
 20
5.10307
 30
0.000000
  70
    32
  0
VERTEX
  8
AM_VIS
  5
5B4
 10
1.94537
 20
5.10402
 30
0.000000
  70
    32
  0
VERTEX
  8
AM_VIS
  5
5B5
 10
1.94550
 20
5.10497
 30
0.000000
  70
    32
  0
VERTEX
  8
AM_VIS
  5
5B6
 10
1.94563
 20
5.10592
 30
0.000000
  70
    32
  0
VERTEX
  8
AM_VIS
  5
5B7
 10
1.94574
 20
5.10687
 30
0.000000
  70
    32
  0
VERTEX
  8
AM_VIS
  5
5B8
 10
1.94586
 20
5.10782
 30
0.000000
  70
    32
  0
VERTEX
  8
AM_VIS
  5
5B9
 10
1.94596
 20
5.10876
 30
0.000000
  70
    32
  0
VERTEX
  8
AM_VIS
  5
5BA
 10
1.94606
 20
5.10970
 30
0.000000
  70
    32
  0
VERTEX
  8
AM_VIS
  5
5BB
 10
1.94616
 20
5.11064
 30
0.000000
  70
    32
  0
VERTEX
  8
AM_VIS
  5
5BC
 10
1.94625
 20
5.11157
 30
0.000000
  70
    32
  0
VERTEX
  8
AM_VIS
  5
5BD
 10
1.94633
 20
5.11251
 30
0.000000
  70
    32
  0
VERTEX
  8
AM_VIS
  5
5BE
 10
1.94640
 20
5.11344
 30
0.000000
  70
    32
  0
VERTEX
  8
AM_VIS
  5
5BF
 10
1.94647
 20
5.11437
 30
0.000000
  70
    32
  0
VERTEX
  8
AM_VIS
  5
5C0
 10
1.94653
 20
5.11530
 30
0.000000
  70
    32
  0
VERTEX
  8
AM_VIS
  5
5C1
 10
1.94658
 20
5.11622
 30
0.000000
  70
    32
  0
VERTEX
  8
AM_VIS
  5
5C2
 10
1.94663
 20
5.11714
 30
0.000000
  70
    32
  0
VERTEX
  8
AM_VIS
  5
5C3
 10
1.94667
 20
5.11806
 30
0.000000
  70
    32
  0
VERTEX
  8
AM_VIS
  5
5C4
 10
1.94671
 20
5.11898
 30
0.000000
  70
    32
  0
VERTEX
  8
AM_VIS
  5
5C5
 10
1.94674
 20
5.11989
 30
0.000000
  70
    32
  0
VERTEX
  8
AM_VIS
  5
5C6
 10
1.94676
 20
5.12080
 30
0.000000
  70
    32
  0
VERTEX
  8
AM_VIS
  5
5C7
 10
1.94678
 20
5.12171
 30
0.000000
  70
    32
  0
VERTEX
  8
AM_VIS
  5
5C8
 10
1.94678
 20
5.12262
 30
0.000000
  70
    32
  0
VERTEX
  8
AM_VIS
  5
5C9
 10
1.94679
 20
5.12352
 30
0.000000
  70
    32
  0
VERTEX
  8
AM_VIS
  5
5CA
 10
1.94678
 20
5.12442
 30
0.000000
  70
    32
  0
VERTEX
  8
AM_VIS
  5
5CB
 10
1.94677
 20
5.12532
 30
0.000000
  70
    32
  0
VERTEX
  8
AM_VIS
  5
5CC
 10
1.94676
 20
5.12622
 30
0.000000
  70
    32
  0
VERTEX
  8
AM_VIS
  5
5CD
 10
1.94673
 20
5.12712
 30
0.000000
  70
    32
  0
VERTEX
  8
AM_VIS
  5
5CE
 10
1.94671
 20
5.12803
 30
0.000000
  70
    32
  0
VERTEX
  8
AM_VIS
  5
5CF
 10
1.94667
 20
5.12893
 30
0.000000
  70
    32
  0
VERTEX
  8
AM_VIS
  5
5D0
 10
1.94663
 20
5.12983
 30
0.000000
  70
    32
  0
VERTEX
  8
AM_VIS
  5
5D1
 10
1.94658
 20
5.13073
 30
0.000000
  70
    32
  0
VERTEX
  8
AM_VIS
  5
5D2
 10
1.94652
 20
5.13163
 30
0.000000
  70
    32
  0
VERTEX
  8
AM_VIS
  5
5D3
 10
1.94646
 20
5.13253
 30
0.000000
  70
    32
  0
VERTEX
  8
AM_VIS
  5
5D4
 10
1.94639
 20
5.13344
 30
0.000000
  70
    32
  0
VERTEX
  8
AM_VIS
  5
5D5
 10
1.94632
 20
5.13434
 30
0.000000
  70
    32
  0
VERTEX
  8
AM_VIS
  5
5D6
 10
1.94624
 20
5.13524
 30
0.000000
  70
    32
  0
VERTEX
  8
AM_VIS
  5
5D7
 10
1.94615
 20
5.13614
 30
0.000000
  70
    32
  0
VERTEX
  8
AM_VIS
  5
5D8
 10
1.94606
 20
5.13704
 30
0.000000
  70
    32
  0
VERTEX
  8
AM_VIS
  5
5D9
 10
1.94595
 20
5.13794
 30
0.000000
  70
    32
  0
VERTEX
  8
AM_VIS
  5
5DA
 10
1.94585
 20
5.13884
 30
0.000000
  70
    32
  0
VERTEX
  8
AM_VIS
  5
5DB
 10
1.94573
 20
5.13974
 30
0.000000
  70
    32
  0
VERTEX
  8
AM_VIS
  5
5DC
 10
1.94561
 20
5.14063
 30
0.000000
  70
    32
  0
VERTEX
  8
AM_VIS
  5
5DD
 10
1.94549
 20
5.14153
 30
0.000000
  70
    32
  0
VERTEX
  8
AM_VIS
  5
5DE
 10
1.94535
 20
5.14243
 30
0.000000
  70
    32
  0
VERTEX
  8
AM_VIS
  5
5DF
 10
1.94522
 20
5.14333
 30
0.000000
  70
    32
  0
VERTEX
  8
AM_VIS
  5
5E0
 10
1.94507
 20
5.14422
 30
0.000000
  70
    32
  0
VERTEX
  8
AM_VIS
  5
5E1
 10
1.94492
 20
5.14512
 30
0.000000
  70
    32
  0
VERTEX
  8
AM_VIS
  5
5E2
 10
1.94476
 20
5.14601
 30
0.000000
  70
    32
  0
VERTEX
  8
AM_VIS
  5
5E3
 10
1.94459
 20
5.14690
 30
0.000000
  70
    32
  0
VERTEX
  8
AM_VIS
  5
5E4
 10
1.94442
 20
5.14780
 30
0.000000
  70
    32
  0
VERTEX
  8
AM_VIS
  5
5E5
 10
1.94424
 20
5.14869
 30
0.000000
  70
    32
  0
VERTEX
  8
AM_VIS
  5
5E6
 10
1.94406
 20
5.14958
 30
0.000000
  70
    32
  0
VERTEX
  8
AM_VIS
  5
5E7
 10
1.94387
 20
5.15047
 30
0.000000
  70
    32
  0
VERTEX
  8
AM_VIS
  5
5E8
 10
1.94367
 20
5.15136
 30
0.000000
  70
    32
  0
VERTEX
  8
AM_VIS
  5
5E9
 10
1.94346
 20
5.15225
 30
0.000000
  70
    32
  0
VERTEX
  8
AM_VIS
  5
5EA
 10
1.94325
 20
5.15313
 30
0.000000
  70
    32
  0
VERTEX
  8
AM_VIS
  5
5EB
 10
1.94304
 20
5.15402
 30
0.000000
  70
    32
  0
VERTEX
  8
AM_VIS
  5
5EC
 10
1.94281
 20
5.15490
 30
0.000000
  70
    32
  0
VERTEX
  8
AM_VIS
  5
5ED
 10
1.94258
 20
5.15578
 30
0.000000
  70
    32
  0
VERTEX
  8
AM_VIS
  5
5EE
 10
1.94234
 20
5.15667
 30
0.000000
  70
    32
  0
VERTEX
  8
AM_VIS
  5
5EF
 10
1.94210
 20
5.15755
 30
0.000000
  70
    32
  0
VERTEX
  8
AM_VIS
  5
5F0
 10
1.94185
 20
5.15842
 30
0.000000
  70
    32
  0
VERTEX
  8
AM_VIS
  5
5F1
 10
1.94159
 20
5.15930
 30
0.000000
  70
    32
  0
VERTEX
  8
AM_VIS
  5
5F2
 10
1.94133
 20
5.16018
 30
0.000000
  70
    32
  0
VERTEX
  8
AM_VIS
  5
5F3
 10
1.94106
 20
5.16105
 30
0.000000
  70
    32
  0
VERTEX
  8
AM_VIS
  5
5F4
 10
1.94079
 20
5.16192
 30
0.000000
  70
    32
  0
VERTEX
  8
AM_VIS
  5
5F5
 10
1.94050
 20
5.16280
 30
0.000000
  70
    32
  0
VERTEX
  8
AM_VIS
  5
5F6
 10
1.94021
 20
5.16366
 30
0.000000
  70
    32
  0
VERTEX
  8
AM_VIS
  5
5F7
 10
1.93992
 20
5.16453
 30
0.000000
  70
    32
  0
VERTEX
  8
AM_VIS
  5
5F8
 10
1.93962
 20
5.16540
 30
0.000000
  70
    32
  0
VERTEX
  8
AM_VIS
  5
5F9
 10
1.93931
 20
5.16626
 30
0.000000
  70
    32
  0
VERTEX
  8
AM_VIS
  5
5FA
 10
1.93899
 20
5.16712
 30
0.000000
  70
    32
  0
VERTEX
  8
AM_VIS
  5
5FB
 10
1.93867
 20
5.16798
 30
0.000000
  70
    32
  0
VERTEX
  8
AM_VIS
  5
5FC
 10
1.93834
 20
5.16884
 30
0.000000
  70
    32
  0
SEQEND
  8
AM_VIS
  5
5FD
  0
POLYLINE
  8
AM_HID
  5
5FE
  66
     1
 10
0.000000
 20
0.000000
 30
0.000000
  70
     8
  0
VERTEX
  8
AM_HID
  5
5FF
 10
1.93834
 20
5.16884
 30
0.000000
  70
    32
  0
VERTEX
  8
AM_HID
  5
600
 10
1.93808
 20
5.16951
 30
0.000000
  70
    32
  0
VERTEX
  8
AM_HID
  5
601
 10
1.93780
 20
5.17017
 30
0.000000
  70
    32
  0
VERTEX
  8
AM_HID
  5
602
 10
1.93753
 20
5.17084
 30
0.000000
  70
    32
  0
VERTEX
  8
AM_HID
  5
603
 10
1.93725
 20
5.17150
 30
0.000000
  70
    32
  0
VERTEX
  8
AM_HID
  5
604
 10
1.93697
 20
5.17216
 30
0.000000
  70
    32
  0
VERTEX
  8
AM_HID
  5
605
 10
1.93668
 20
5.17282
 30
0.000000
  70
    32
  0
VERTEX
  8
AM_HID
  5
606
 10
1.93639
 20
5.17348
 30
0.000000
  70
    32
  0
VERTEX
  8
AM_HID
  5
607
 10
1.93610
 20
5.17414
 30
0.000000
  70
    32
  0
VERTEX
  8
AM_HID
  5
608
 10
1.93580
 20
5.17480
 30
0.000000
  70
    32
  0
VERTEX
  8
AM_HID
  5
609
 10
1.93550
 20
5.17545
 30
0.000000
  70
    32
  0
VERTEX
  8
AM_HID
  5
60A
 10
1.93519
 20
5.17611
 30
0.000000
  70
    32
  0
VERTEX
  8
AM_HID
  5
60B
 10
1.93488
 20
5.17676
 30
0.000000
  70
    32
  0
VERTEX
  8
AM_HID
  5
60C
 10
1.93457
 20
5.17741
 30
0.000000
  70
    32
  0
VERTEX
  8
AM_HID
  5
60D
 10
1.93425
 20
5.17806
 30
0.000000
  70
    32
  0
VERTEX
  8
AM_HID
  5
60E
 10
1.93393
 20
5.17871
 30
0.000000
  70
    32
  0
VERTEX
  8
AM_HID
  5
60F
 10
1.93360
 20
5.17935
 30
0.000000
  70
    32
  0
VERTEX
  8
AM_HID
  5
610
 10
1.93327
 20
5.18000
 30
0.000000
  70
    32
  0
VERTEX
  8
AM_HID
  5
611
 10
1.93294
 20
5.18064
 30
0.000000
  70
    32
  0
VERTEX
  8
AM_HID
  5
612
 10
1.93260
 20
5.18128
 30
0.000000
  70
    32
  0
VERTEX
  8
AM_HID
  5
613
 10
1.93226
 20
5.18193
 30
0.000000
  70
    32
  0
VERTEX
  8
AM_HID
  5
614
 10
1.93192
 20
5.18256
 30
0.000000
  70
    32
  0
VERTEX
  8
AM_HID
  5
615
 10
1.93157
 20
5.18320
 30
0.000000
  70
    32
  0
VERTEX
  8
AM_HID
  5
616
 10
1.93122
 20
5.18384
 30
0.000000
  70
    32
  0
VERTEX
  8
AM_HID
  5
617
 10
1.93086
 20
5.18447
 30
0.000000
  70
    32
  0
VERTEX
  8
AM_HID
  5
618
 10
1.93050
 20
5.18510
 30
0.000000
  70
    32
  0
VERTEX
  8
AM_HID
  5
619
 10
1.93013
 20
5.18573
 30
0.000000
  70
    32
  0
VERTEX
  8
AM_HID
  5
61A
 10
1.92976
 20
5.18636
 30
0.000000
  70
    32
  0
VERTEX
  8
AM_HID
  5
61B
 10
1.92939
 20
5.18699
 30
0.000000
  70
    32
  0
VERTEX
  8
AM_HID
  5
61C
 10
1.92901
 20
5.18761
 30
0.000000
  70
    32
  0
VERTEX
  8
AM_HID
  5
61D
 10
1.92863
 20
5.18824
 30
0.000000
  70
    32
  0
VERTEX
  8
AM_HID
  5
61E
 10
1.92824
 20
5.18886
 30
0.000000
  70
    32
  0
VERTEX
  8
AM_HID
  5
61F
 10
1.92785
 20
5.18948
 30
0.000000
  70
    32
  0
VERTEX
  8
AM_HID
  5
620
 10
1.92746
 20
5.19010
 30
0.000000
  70
    32
  0
VERTEX
  8
AM_HID
  5
621
 10
1.92706
 20
5.19071
 30
0.000000
  70
    32
  0
VERTEX
  8
AM_HID
  5
622
 10
1.92666
 20
5.19132
 30
0.000000
  70
    32
  0
VERTEX
  8
AM_HID
  5
623
 10
1.92625
 20
5.19194
 30
0.000000
  70
    32
  0
VERTEX
  8
AM_HID
  5
624
 10
1.92585
 20
5.19255
 30
0.000000
  70
    32
  0
VERTEX
  8
AM_HID
  5
625
 10
1.92543
 20
5.19315
 30
0.000000
  70
    32
  0
VERTEX
  8
AM_HID
  5
626
 10
1.92501
 20
5.19376
 30
0.000000
  70
    32
  0
VERTEX
  8
AM_HID
  5
627
 10
1.92459
 20
5.19436
 30
0.000000
  70
    32
  0
VERTEX
  8
AM_HID
  5
628
 10
1.92417
 20
5.19497
 30
0.000000
  70
    32
  0
VERTEX
  8
AM_HID
  5
629
 10
1.92374
 20
5.19557
 30
0.000000
  70
    32
  0
VERTEX
  8
AM_HID
  5
62A
 10
1.92330
 20
5.19617
 30
0.000000
  70
    32
  0
VERTEX
  8
AM_HID
  5
62B
 10
1.92287
 20
5.19676
 30
0.000000
  70
    32
  0
VERTEX
  8
AM_HID
  5
62C
 10
1.92243
 20
5.19736
 30
0.000000
  70
    32
  0
VERTEX
  8
AM_HID
  5
62D
 10
1.92198
 20
5.19795
 30
0.000000
  70
    32
  0
VERTEX
  8
AM_HID
  5
62E
 10
1.92153
 20
5.19854
 30
0.000000
  70
    32
  0
VERTEX
  8
AM_HID
  5
62F
 10
1.92108
 20
5.19913
 30
0.000000
  70
    32
  0
VERTEX
  8
AM_HID
  5
630
 10
1.92063
 20
5.19972
 30
0.000000
  70
    32
  0
VERTEX
  8
AM_HID
  5
631
 10
1.92017
 20
5.20030
 30
0.000000
  70
    32
  0
VERTEX
  8
AM_HID
  5
632
 10
1.91970
 20
5.20088
 30
0.000000
  70
    32
  0
VERTEX
  8
AM_HID
  5
633
 10
1.91924
 20
5.20146
 30
0.000000
  70
    32
  0
VERTEX
  8
AM_HID
  5
634
 10
1.91877
 20
5.20204
 30
0.000000
  70
    32
  0
VERTEX
  8
AM_HID
  5
635
 10
1.91829
 20
5.20262
 30
0.000000
  70
    32
  0
VERTEX
  8
AM_HID
  5
636
 10
1.91781
 20
5.20319
 30
0.000000
  70
    32
  0
VERTEX
  8
AM_HID
  5
637
 10
1.91733
 20
5.20376
 30
0.000000
  70
    32
  0
VERTEX
  8
AM_HID
  5
638
 10
1.91685
 20
5.20433
 30
0.000000
  70
    32
  0
VERTEX
  8
AM_HID
  5
639
 10
1.91636
 20
5.20490
 30
0.000000
  70
    32
  0
VERTEX
  8
AM_HID
  5
63A
 10
1.91587
 20
5.20547
 30
0.000000
  70
    32
  0
VERTEX
  8
AM_HID
  5
63B
 10
1.91537
 20
5.20603
 30
0.000000
  70
    32
  0
VERTEX
  8
AM_HID
  5
63C
 10
1.91487
 20
5.20660
 30
0.000000
  70
    32
  0
VERTEX
  8
AM_HID
  5
63D
 10
1.91437
 20
5.20716
 30
0.000000
  70
    32
  0
VERTEX
  8
AM_HID
  5
63E
 10
1.91387
 20
5.20771
 30
0.000000
  70
    32
  0
VERTEX
  8
AM_HID
  5
63F
 10
1.91336
 20
5.20827
 30
0.000000
  70
    32
  0
VERTEX
  8
AM_HID
  5
640
 10
1.91285
 20
5.20882
 30
0.000000
  70
    32
  0
VERTEX
  8
AM_HID
  5
641
 10
1.91233
 20
5.20937
 30
0.000000
  70
    32
  0
VERTEX
  8
AM_HID
  5
642
 10
1.91181
 20
5.20992
 30
0.000000
  70
    32
  0
VERTEX
  8
AM_HID
  5
643
 10
1.91129
 20
5.21047
 30
0.000000
  70
    32
  0
VERTEX
  8
AM_HID
  5
644
 10
1.91076
 20
5.21102
 30
0.000000
  70
    32
  0
VERTEX
  8
AM_HID
  5
645
 10
1.91024
 20
5.21156
 30
0.000000
  70
    32
  0
VERTEX
  8
AM_HID
  5
646
 10
1.90970
 20
5.21210
 30
0.000000
  70
    32
  0
VERTEX
  8
AM_HID
  5
647
 10
1.90917
 20
5.21264
 30
0.000000
  70
    32
  0
VERTEX
  8
AM_HID
  5
648
 10
1.90863
 20
5.21317
 30
0.000000
  70
    32
  0
VERTEX
  8
AM_HID
  5
649
 10
1.90809
 20
5.21371
 30
0.000000
  70
    32
  0
VERTEX
  8
AM_HID
  5
64A
 10
1.90755
 20
5.21424
 30
0.000000
  70
    32
  0
VERTEX
  8
AM_HID
  5
64B
 10
1.90700
 20
5.21477
 30
0.000000
  70
    32
  0
VERTEX
  8
AM_HID
  5
64C
 10
1.90645
 20
5.21530
 30
0.000000
  70
    32
  0
VERTEX
  8
AM_HID
  5
64D
 10
1.90589
 20
5.21582
 30
0.000000
  70
    32
  0
VERTEX
  8
AM_HID
  5
64E
 10
1.90534
 20
5.21634
 30
0.000000
  70
    32
  0
VERTEX
  8
AM_HID
  5
64F
 10
1.90478
 20
5.21687
 30
0.000000
  70
    32
  0
VERTEX
  8
AM_HID
  5
650
 10
1.90422
 20
5.21738
 30
0.000000
  70
    32
  0
VERTEX
  8
AM_HID
  5
651
 10
1.90365
 20
5.21790
 30
0.000000
  70
    32
  0
VERTEX
  8
AM_HID
  5
652
 10
1.90308
 20
5.21841
 30
0.000000
  70
    32
  0
VERTEX
  8
AM_HID
  5
653
 10
1.90251
 20
5.21893
 30
0.000000
  70
    32
  0
VERTEX
  8
AM_HID
  5
654
 10
1.90193
 20
5.21944
 30
0.000000
  70
    32
  0
VERTEX
  8
AM_HID
  5
655
 10
1.90136
 20
5.21994
 30
0.000000
  70
    32
  0
VERTEX
  8
AM_HID
  5
656
 10
1.90078
 20
5.22045
 30
0.000000
  70
    32
  0
VERTEX
  8
AM_HID
  5
657
 10
1.90019
 20
5.22095
 30
0.000000
  70
    32
  0
VERTEX
  8
AM_HID
  5
658
 10
1.89961
 20
5.22145
 30
0.000000
  70
    32
  0
VERTEX
  8
AM_HID
  5
659
 10
1.89902
 20
5.22195
 30
0.000000
  70
    32
  0
VERTEX
  8
AM_HID
  5
65A
 10
1.89843
 20
5.22244
 30
0.000000
  70
    32
  0
VERTEX
  8
AM_HID
  5
65B
 10
1.89783
 20
5.22294
 30
0.000000
  70
    32
  0
VERTEX
  8
AM_HID
  5
65C
 10
1.89724
 20
5.22343
 30
0.000000
  70
    32
  0
VERTEX
  8
AM_HID
  5
65D
 10
1.89664
 20
5.22392
 30
0.000000
  70
    32
  0
VERTEX
  8
AM_HID
  5
65E
 10
1.89604
 20
5.22440
 30
0.000000
  70
    32
  0
VERTEX
  8
AM_HID
  5
65F
 10
1.89543
 20
5.22489
 30
0.000000
  70
    32
  0
VERTEX
  8
AM_HID
  5
660
 10
1.89482
 20
5.22537
 30
0.000000
  70
    32
  0
VERTEX
  8
AM_HID
  5
661
 10
1.89421
 20
5.22585
 30
0.000000
  70
    32
  0
VERTEX
  8
AM_HID
  5
662
 10
1.89360
 20
5.22632
 30
0.000000
  70
    32
  0
VERTEX
  8
AM_HID
  5
663
 10
1.89298
 20
5.22680
 30
0.000000
  70
    32
  0
VERTEX
  8
AM_HID
  5
664
 10
1.89237
 20
5.22727
 30
0.000000
  70
    32
  0
VERTEX
  8
AM_HID
  5
665
 10
1.89175
 20
5.22774
 30
0.000000
  70
    32
  0
VERTEX
  8
AM_HID
  5
666
 10
1.89112
 20
5.22821
 30
0.000000
  70
    32
  0
VERTEX
  8
AM_HID
  5
667
 10
1.89050
 20
5.22867
 30
0.000000
  70
    32
  0
VERTEX
  8
AM_HID
  5
668
 10
1.88987
 20
5.22913
 30
0.000000
  70
    32
  0
VERTEX
  8
AM_HID
  5
669
 10
1.88924
 20
5.22959
 30
0.000000
  70
    32
  0
VERTEX
  8
AM_HID
  5
66A
 10
1.88861
 20
5.23005
 30
0.000000
  70
    32
  0
VERTEX
  8
AM_HID
  5
66B
 10
1.88797
 20
5.23051
 30
0.000000
  70
    32
  0
VERTEX
  8
AM_HID
  5
66C
 10
1.88733
 20
5.23096
 30
0.000000
  70
    32
  0
VERTEX
  8
AM_HID
  5
66D
 10
1.88669
 20
5.23141
 30
0.000000
  70
    32
  0
VERTEX
  8
AM_HID
  5
66E
 10
1.88605
 20
5.23186
 30
0.000000
  70
    32
  0
VERTEX
  8
AM_HID
  5
66F
 10
1.88541
 20
5.23230
 30
0.000000
  70
    32
  0
VERTEX
  8
AM_HID
  5
670
 10
1.88476
 20
5.23274
 30
0.000000
  70
    32
  0
VERTEX
  8
AM_HID
  5
671
 10
1.88411
 20
5.23318
 30
0.000000
  70
    32
  0
VERTEX
  8
AM_HID
  5
672
 10
1.88346
 20
5.23362
 30
0.000000
  70
    32
  0
VERTEX
  8
AM_HID
  5
673
 10
1.88281
 20
5.23405
 30
0.000000
  70
    32
  0
VERTEX
  8
AM_HID
  5
674
 10
1.88215
 20
5.23449
 30
0.000000
  70
    32
  0
VERTEX
  8
AM_HID
  5
675
 10
1.88149
 20
5.23492
 30
0.000000
  70
    32
  0
VERTEX
  8
AM_HID
  5
676
 10
1.88083
 20
5.23534
 30
0.000000
  70
    32
  0
VERTEX
  8
AM_HID
  5
677
 10
1.88017
 20
5.23577
 30
0.000000
  70
    32
  0
VERTEX
  8
AM_HID
  5
678
 10
1.87951
 20
5.23619
 30
0.000000
  70
    32
  0
VERTEX
  8
AM_HID
  5
679
 10
1.87884
 20
5.23661
 30
0.000000
  70
    32
  0
VERTEX
  8
AM_HID
  5
67A
 10
1.87817
 20
5.23703
 30
0.000000
  70
    32
  0
VERTEX
  8
AM_HID
  5
67B
 10
1.87750
 20
5.23744
 30
0.000000
  70
    32
  0
VERTEX
  8
AM_HID
  5
67C
 10
1.87683
 20
5.23785
 30
0.000000
  70
    32
  0
VERTEX
  8
AM_HID
  5
67D
 10
1.87615
 20
5.23826
 30
0.000000
  70
    32
  0
VERTEX
  8
AM_HID
  5
67E
 10
1.87548
 20
5.23867
 30
0.000000
  70
    32
  0
VERTEX
  8
AM_HID
  5
67F
 10
1.87479
 20
5.23908
 30
0.000000
  70
    32
  0
VERTEX
  8
AM_HID
  5
680
 10
1.87411
 20
5.23948
 30
0.000000
  70
    32
  0
VERTEX
  8
AM_HID
  5
681
 10
1.87342
 20
5.23988
 30
0.000000
  70
    32
  0
VERTEX
  8
AM_HID
  5
682
 10
1.87273
 20
5.24028
 30
0.000000
  70
    32
  0
VERTEX
  8
AM_HID
  5
683
 10
1.87203
 20
5.24068
 30
0.000000
  70
    32
  0
VERTEX
  8
AM_HID
  5
684
 10
1.87133
 20
5.24108
 30
0.000000
  70
    32
  0
VERTEX
  8
AM_HID
  5
685
 10
1.87062
 20
5.24148
 30
0.000000
  70
    32
  0
VERTEX
  8
AM_HID
  5
686
 10
1.86992
 20
5.24187
 30
0.000000
  70
    32
  0
VERTEX
  8
AM_HID
  5
687
 10
1.86920
 20
5.24227
 30
0.000000
  70
    32
  0
VERTEX
  8
AM_HID
  5
688
 10
1.86849
 20
5.24266
 30
0.000000
  70
    32
  0
VERTEX
  8
AM_HID
  5
689
 10
1.86777
 20
5.24305
 30
0.000000
  70
    32
  0
VERTEX
  8
AM_HID
  5
68A
 10
1.86705
 20
5.24344
 30
0.000000
  70
    32
  0
VERTEX
  8
AM_HID
  5
68B
 10
1.86632
 20
5.24383
 30
0.000000
  70
    32
  0
VERTEX
  8
AM_HID
  5
68C
 10
1.86559
 20
5.24421
 30
0.000000
  70
    32
  0
VERTEX
  8
AM_HID
  5
68D
 10
1.86486
 20
5.24460
 30
0.000000
  70
    32
  0
VERTEX
  8
AM_HID
  5
68E
 10
1.86412
 20
5.24498
 30
0.000000
  70
    32
  0
VERTEX
  8
AM_HID
  5
68F
 10
1.86338
 20
5.24536
 30
0.000000
  70
    32
  0
VERTEX
  8
AM_HID
  5
690
 10
1.86263
 20
5.24574
 30
0.000000
  70
    32
  0
VERTEX
  8
AM_HID
  5
691
 10
1.86189
 20
5.24612
 30
0.000000
  70
    32
  0
VERTEX
  8
AM_HID
  5
692
 10
1.86113
 20
5.24649
 30
0.000000
  70
    32
  0
VERTEX
  8
AM_HID
  5
693
 10
1.86038
 20
5.24687
 30
0.000000
  70
    32
  0
VERTEX
  8
AM_HID
  5
694
 10
1.85962
 20
5.24724
 30
0.000000
  70
    32
  0
VERTEX
  8
AM_HID
  5
695
 10
1.85886
 20
5.24761
 30
0.000000
  70
    32
  0
VERTEX
  8
AM_HID
  5
696
 10
1.85809
 20
5.24798
 30
0.000000
  70
    32
  0
VERTEX
  8
AM_HID
  5
697
 10
1.85732
 20
5.24835
 30
0.000000
  70
    32
  0
VERTEX
  8
AM_HID
  5
698
 10
1.85655
 20
5.24871
 30
0.000000
  70
    32
  0
VERTEX
  8
AM_HID
  5
699
 10
1.85578
 20
5.24908
 30
0.000000
  70
    32
  0
VERTEX
  8
AM_HID
  5
69A
 10
1.85500
 20
5.24944
 30
0.000000
  70
    32
  0
VERTEX
  8
AM_HID
  5
69B
 10
1.85422
 20
5.24980
 30
0.000000
  70
    32
  0
VERTEX
  8
AM_HID
  5
69C
 10
1.85343
 20
5.25016
 30
0.000000
  70
    32
  0
VERTEX
  8
AM_HID
  5
69D
 10
1.85264
 20
5.25052
 30
0.000000
  70
    32
  0
VERTEX
  8
AM_HID
  5
69E
 10
1.85185
 20
5.25087
 30
0.000000
  70
    32
  0
VERTEX
  8
AM_HID
  5
69F
 10
1.85106
 20
5.25123
 30
0.000000
  70
    32
  0
VERTEX
  8
AM_HID
  5
6A0
 10
1.85026
 20
5.25158
 30
0.000000
  70
    32
  0
VERTEX
  8
AM_HID
  5
6A1
 10
1.84946
 20
5.25193
 30
0.000000
  70
    32
  0
VERTEX
  8
AM_HID
  5
6A2
 10
1.84865
 20
5.25228
 30
0.000000
  70
    32
  0
VERTEX
  8
AM_HID
  5
6A3
 10
1.84784
 20
5.25262
 30
0.000000
  70
    32
  0
VERTEX
  8
AM_HID
  5
6A4
 10
1.84703
 20
5.25297
 30
0.000000
  70
    32
  0
VERTEX
  8
AM_HID
  5
6A5
 10
1.84622
 20
5.25331
 30
0.000000
  70
    32
  0
VERTEX
  8
AM_HID
  5
6A6
 10
1.84540
 20
5.25365
 30
0.000000
  70
    32
  0
VERTEX
  8
AM_HID
  5
6A7
 10
1.84458
 20
5.25399
 30
0.000000
  70
    32
  0
VERTEX
  8
AM_HID
  5
6A8
 10
1.84376
 20
5.25433
 30
0.000000
  70
    32
  0
VERTEX
  8
AM_HID
  5
6A9
 10
1.84293
 20
5.25466
 30
0.000000
  70
    32
  0
VERTEX
  8
AM_HID
  5
6AA
 10
1.84210
 20
5.25499
 30
0.000000
  70
    32
  0
VERTEX
  8
AM_HID
  5
6AB
 10
1.84127
 20
5.25533
 30
0.000000
  70
    32
  0
VERTEX
  8
AM_HID
  5
6AC
 10
1.84043
 20
5.25565
 30
0.000000
  70
    32
  0
VERTEX
  8
AM_HID
  5
6AD
 10
1.83959
 20
5.25598
 30
0.000000
  70
    32
  0
VERTEX
  8
AM_HID
  5
6AE
 10
1.83875
 20
5.25631
 30
0.000000
  70
    32
  0
VERTEX
  8
AM_HID
  5
6AF
 10
1.83791
 20
5.25663
 30
0.000000
  70
    32
  0
VERTEX
  8
AM_HID
  5
6B0
 10
1.83706
 20
5.25695
 30
0.000000
  70
    32
  0
VERTEX
  8
AM_HID
  5
6B1
 10
1.83621
 20
5.25727
 30
0.000000
  70
    32
  0
VERTEX
  8
AM_HID
  5
6B2
 10
1.83536
 20
5.25759
 30
0.000000
  70
    32
  0
VERTEX
  8
AM_HID
  5
6B3
 10
1.83450
 20
5.25791
 30
0.000000
  70
    32
  0
VERTEX
  8
AM_HID
  5
6B4
 10
1.83365
 20
5.25822
 30
0.000000
  70
    32
  0
VERTEX
  8
AM_HID
  5
6B5
 10
1.83278
 20
5.25853
 30
0.000000
  70
    32
  0
VERTEX
  8
AM_HID
  5
6B6
 10
1.83192
 20
5.25884
 30
0.000000
  70
    32
  0
VERTEX
  8
AM_HID
  5
6B7
 10
1.83105
 20
5.25915
 30
0.000000
  70
    32
  0
VERTEX
  8
AM_HID
  5
6B8
 10
1.83018
 20
5.25945
 30
0.000000
  70
    32
  0
VERTEX
  8
AM_HID
  5
6B9
 10
1.82931
 20
5.25976
 30
0.000000
  70
    32
  0
VERTEX
  8
AM_HID
  5
6BA
 10
1.82844
 20
5.26006
 30
0.000000
  70
    32
  0
VERTEX
  8
AM_HID
  5
6BB
 10
1.82756
 20
5.26036
 30
0.000000
  70
    32
  0
VERTEX
  8
AM_HID
  5
6BC
 10
1.82668
 20
5.26066
 30
0.000000
  70
    32
  0
VERTEX
  8
AM_HID
  5
6BD
 10
1.82580
 20
5.26095
 30
0.000000
  70
    32
  0
VERTEX
  8
AM_HID
  5
6BE
 10
1.82491
 20
5.26124
 30
0.000000
  70
    32
  0
VERTEX
  8
AM_HID
  5
6BF
 10
1.82402
 20
5.26154
 30
0.000000
  70
    32
  0
VERTEX
  8
AM_HID
  5
6C0
 10
1.82313
 20
5.26182
 30
0.000000
  70
    32
  0
VERTEX
  8
AM_HID
  5
6C1
 10
1.82224
 20
5.26211
 30
0.000000
  70
    32
  0
VERTEX
  8
AM_HID
  5
6C2
 10
1.82134
 20
5.26240
 30
0.000000
  70
    32
  0
VERTEX
  8
AM_HID
  5
6C3
 10
1.82044
 20
5.26268
 30
0.000000
  70
    32
  0
VERTEX
  8
AM_HID
  5
6C4
 10
1.81954
 20
5.26296
 30
0.000000
  70
    32
  0
VERTEX
  8
AM_HID
  5
6C5
 10
1.81864
 20
5.26324
 30
0.000000
  70
    32
  0
VERTEX
  8
AM_HID
  5
6C6
 10
1.81773
 20
5.26351
 30
0.000000
  70
    32
  0
VERTEX
  8
AM_HID
  5
6C7
 10
1.81683
 20
5.26379
 30
0.000000
  70
    32
  0
VERTEX
  8
AM_HID
  5
6C8
 10
1.81592
 20
5.26406
 30
0.000000
  70
    32
  0
VERTEX
  8
AM_HID
  5
6C9
 10
1.81500
 20
5.26433
 30
0.000000
  70
    32
  0
VERTEX
  8
AM_HID
  5
6CA
 10
1.81409
 20
5.26459
 30
0.000000
  70
    32
  0
VERTEX
  8
AM_HID
  5
6CB
 10
1.81317
 20
5.26486
 30
0.000000
  70
    32
  0
VERTEX
  8
AM_HID
  5
6CC
 10
1.81225
 20
5.26512
 30
0.000000
  70
    32
  0
VERTEX
  8
AM_HID
  5
6CD
 10
1.81133
 20
5.26538
 30
0.000000
  70
    32
  0
VERTEX
  8
AM_HID
  5
6CE
 10
1.81040
 20
5.26564
 30
0.000000
  70
    32
  0
VERTEX
  8
AM_HID
  5
6CF
 10
1.80948
 20
5.26590
 30
0.000000
  70
    32
  0
VERTEX
  8
AM_HID
  5
6D0
 10
1.80855
 20
5.26615
 30
0.000000
  70
    32
  0
VERTEX
  8
AM_HID
  5
6D1
 10
1.80762
 20
5.26640
 30
0.000000
  70
    32
  0
VERTEX
  8
AM_HID
  5
6D2
 10
1.80668
 20
5.26665
 30
0.000000
  70
    32
  0
VERTEX
  8
AM_HID
  5
6D3
 10
1.80575
 20
5.26690
 30
0.000000
  70
    32
  0
VERTEX
  8
AM_HID
  5
6D4
 10
1.80481
 20
5.26714
 30
0.000000
  70
    32
  0
VERTEX
  8
AM_HID
  5
6D5
 10
1.80387
 20
5.26738
 30
0.000000
  70
    32
  0
VERTEX
  8
AM_HID
  5
6D6
 10
1.80293
 20
5.26762
 30
0.000000
  70
    32
  0
VERTEX
  8
AM_HID
  5
6D7
 10
1.80198
 20
5.26786
 30
0.000000
  70
    32
  0
VERTEX
  8
AM_HID
  5
6D8
 10
1.80104
 20
5.26810
 30
0.000000
  70
    32
  0
VERTEX
  8
AM_HID
  5
6D9
 10
1.80009
 20
5.26833
 30
0.000000
  70
    32
  0
VERTEX
  8
AM_HID
  5
6DA
 10
1.79914
 20
5.26856
 30
0.000000
  70
    32
  0
VERTEX
  8
AM_HID
  5
6DB
 10
1.79819
 20
5.26879
 30
0.000000
  70
    32
  0
VERTEX
  8
AM_HID
  5
6DC
 10
1.79723
 20
5.26901
 30
0.000000
  70
    32
  0
VERTEX
  8
AM_HID
  5
6DD
 10
1.79628
 20
5.26924
 30
0.000000
  70
    32
  0
VERTEX
  8
AM_HID
  5
6DE
 10
1.79532
 20
5.26946
 30
0.000000
  70
    32
  0
VERTEX
  8
AM_HID
  5
6DF
 10
1.79436
 20
5.26967
 30
0.000000
  70
    32
  0
VERTEX
  8
AM_HID
  5
6E0
 10
1.79340
 20
5.26989
 30
0.000000
  70
    32
  0
VERTEX
  8
AM_HID
  5
6E1
 10
1.79243
 20
5.27010
 30
0.000000
  70
    32
  0
VERTEX
  8
AM_HID
  5
6E2
 10
1.79147
 20
5.27031
 30
0.000000
  70
    32
  0
VERTEX
  8
AM_HID
  5
6E3
 10
1.79050
 20
5.27052
 30
0.000000
  70
    32
  0
VERTEX
  8
AM_HID
  5
6E4
 10
1.78953
 20
5.27073
 30
0.000000
  70
    32
  0
VERTEX
  8
AM_HID
  5
6E5
 10
1.78856
 20
5.27093
 30
0.000000
  70
    32
  0
VERTEX
  8
AM_HID
  5
6E6
 10
1.78759
 20
5.27114
 30
0.000000
  70
    32
  0
VERTEX
  8
AM_HID
  5
6E7
 10
1.78661
 20
5.27134
 30
0.000000
  70
    32
  0
VERTEX
  8
AM_HID
  5
6E8
 10
1.78563
 20
5.27153
 30
0.000000
  70
    32
  0
VERTEX
  8
AM_HID
  5
6E9
 10
1.78466
 20
5.27173
 30
0.000000
  70
    32
  0
VERTEX
  8
AM_HID
  5
6EA
 10
1.78368
 20
5.27192
 30
0.000000
  70
    32
  0
VERTEX
  8
AM_HID
  5
6EB
 10
1.78270
 20
5.27211
 30
0.000000
  70
    32
  0
VERTEX
  8
AM_HID
  5
6EC
 10
1.78171
 20
5.27230
 30
0.000000
  70
    32
  0
VERTEX
  8
AM_HID
  5
6ED
 10
1.78073
 20
5.27248
 30
0.000000
  70
    32
  0
VERTEX
  8
AM_HID
  5
6EE
 10
1.77974
 20
5.27266
 30
0.000000
  70
    32
  0
VERTEX
  8
AM_HID
  5
6EF
 10
1.77876
 20
5.27284
 30
0.000000
  70
    32
  0
VERTEX
  8
AM_HID
  5
6F0
 10
1.77777
 20
5.27302
 30
0.000000
  70
    32
  0
VERTEX
  8
AM_HID
  5
6F1
 10
1.77678
 20
5.27320
 30
0.000000
  70
    32
  0
VERTEX
  8
AM_HID
  5
6F2
 10
1.77579
 20
5.27337
 30
0.000000
  70
    32
  0
VERTEX
  8
AM_HID
  5
6F3
 10
1.77480
 20
5.27354
 30
0.000000
  70
    32
  0
VERTEX
  8
AM_HID
  5
6F4
 10
1.77380
 20
5.27371
 30
0.000000
  70
    32
  0
VERTEX
  8
AM_HID
  5
6F5
 10
1.77281
 20
5.27388
 30
0.000000
  70
    32
  0
VERTEX
  8
AM_HID
  5
6F6
 10
1.77181
 20
5.27404
 30
0.000000
  70
    32
  0
VERTEX
  8
AM_HID
  5
6F7
 10
1.77081
 20
5.27420
 30
0.000000
  70
    32
  0
VERTEX
  8
AM_HID
  5
6F8
 10
1.76982
 20
5.27436
 30
0.000000
  70
    32
  0
VERTEX
  8
AM_HID
  5
6F9
 10
1.76882
 20
5.27452
 30
0.000000
  70
    32
  0
VERTEX
  8
AM_HID
  5
6FA
 10
1.76782
 20
5.27468
 30
0.000000
  70
    32
  0
VERTEX
  8
AM_HID
  5
6FB
 10
1.76681
 20
5.27483
 30
0.000000
  70
    32
  0
VERTEX
  8
AM_HID
  5
6FC
 10
1.76581
 20
5.27498
 30
0.000000
  70
    32
  0
VERTEX
  8
AM_HID
  5
6FD
 10
1.76481
 20
5.27513
 30
0.000000
  70
    32
  0
VERTEX
  8
AM_HID
  5
6FE
 10
1.76380
 20
5.27527
 30
0.000000
  70
    32
  0
VERTEX
  8
AM_HID
  5
6FF
 10
1.76280
 20
5.27541
 30
0.000000
  70
    32
  0
VERTEX
  8
AM_HID
  5
700
 10
1.76179
 20
5.27556
 30
0.000000
  70
    32
  0
VERTEX
  8
AM_HID
  5
701
 10
1.76079
 20
5.27569
 30
0.000000
  70
    32
  0
VERTEX
  8
AM_HID
  5
702
 10
1.75978
 20
5.27583
 30
0.000000
  70
    32
  0
VERTEX
  8
AM_HID
  5
703
 10
1.75877
 20
5.27596
 30
0.000000
  70
    32
  0
VERTEX
  8
AM_HID
  5
704
 10
1.75776
 20
5.27610
 30
0.000000
  70
    32
  0
VERTEX
  8
AM_HID
  5
705
 10
1.75675
 20
5.27623
 30
0.000000
  70
    32
  0
VERTEX
  8
AM_HID
  5
706
 10
1.75574
 20
5.27635
 30
0.000000
  70
    32
  0
VERTEX
  8
AM_HID
  5
707
 10
1.75473
 20
5.27648
 30
0.000000
  70
    32
  0
VERTEX
  8
AM_HID
  5
708
 10
1.75372
 20
5.27660
 30
0.000000
  70
    32
  0
VERTEX
  8
AM_HID
  5
709
 10
1.75270
 20
5.27672
 30
0.000000
  70
    32
  0
VERTEX
  8
AM_HID
  5
70A
 10
1.75169
 20
5.27684
 30
0.000000
  70
    32
  0
VERTEX
  8
AM_HID
  5
70B
 10
1.75068
 20
5.27695
 30
0.000000
  70
    32
  0
VERTEX
  8
AM_HID
  5
70C
 10
1.74966
 20
5.27707
 30
0.000000
  70
    32
  0
VERTEX
  8
AM_HID
  5
70D
 10
1.74865
 20
5.27718
 30
0.000000
  70
    32
  0
VERTEX
  8
AM_HID
  5
70E
 10
1.74763
 20
5.27729
 30
0.000000
  70
    32
  0
VERTEX
  8
AM_HID
  5
70F
 10
1.74662
 20
5.27739
 30
0.000000
  70
    32
  0
VERTEX
  8
AM_HID
  5
710
 10
1.74560
 20
5.27750
 30
0.000000
  70
    32
  0
VERTEX
  8
AM_HID
  5
711
 10
1.74459
 20
5.27760
 30
0.000000
  70
    32
  0
VERTEX
  8
AM_HID
  5
712
 10
1.74357
 20
5.27770
 30
0.000000
  70
    32
  0
VERTEX
  8
AM_HID
  5
713
 10
1.74255
 20
5.27780
 30
0.000000
  70
    32
  0
VERTEX
  8
AM_HID
  5
714
 10
1.74154
 20
5.27789
 30
0.000000
  70
    32
  0
VERTEX
  8
AM_HID
  5
715
 10
1.74052
 20
5.27798
 30
0.000000
  70
    32
  0
VERTEX
  8
AM_HID
  5
716
 10
1.73950
 20
5.27807
 30
0.000000
  70
    32
  0
VERTEX
  8
AM_HID
  5
717
 10
1.73848
 20
5.27816
 30
0.000000
  70
    32
  0
VERTEX
  8
AM_HID
  5
718
 10
1.73747
 20
5.27825
 30
0.000000
  70
    32
  0
VERTEX
  8
AM_HID
  5
719
 10
1.73645
 20
5.27833
 30
0.000000
  70
    32
  0
VERTEX
  8
AM_HID
  5
71A
 10
1.73543
 20
5.27841
 30
0.000000
  70
    32
  0
VERTEX
  8
AM_HID
  5
71B
 10
1.73441
 20
5.27849
 30
0.000000
  70
    32
  0
VERTEX
  8
AM_HID
  5
71C
 10
1.73340
 20
5.27857
 30
0.000000
  70
    32
  0
VERTEX
  8
AM_HID
  5
71D
 10
1.73238
 20
5.27864
 30
0.000000
  70
    32
  0
VERTEX
  8
AM_HID
  5
71E
 10
1.73136
 20
5.27872
 30
0.000000
  70
    32
  0
VERTEX
  8
AM_HID
  5
71F
 10
1.73035
 20
5.27879
 30
0.000000
  70
    32
  0
VERTEX
  8
AM_HID
  5
720
 10
1.72933
 20
5.27885
 30
0.000000
  70
    32
  0
VERTEX
  8
AM_HID
  5
721
 10
1.72831
 20
5.27892
 30
0.000000
  70
    32
  0
VERTEX
  8
AM_HID
  5
722
 10
1.72729
 20
5.27898
 30
0.000000
  70
    32
  0
VERTEX
  8
AM_HID
  5
723
 10
1.72628
 20
5.27904
 30
0.000000
  70
    32
  0
VERTEX
  8
AM_HID
  5
724
 10
1.72526
 20
5.27910
 30
0.000000
  70
    32
  0
VERTEX
  8
AM_HID
  5
725
 10
1.72425
 20
5.27916
 30
0.000000
  70
    32
  0
VERTEX
  8
AM_HID
  5
726
 10
1.72323
 20
5.27921
 30
0.000000
  70
    32
  0
VERTEX
  8
AM_HID
  5
727
 10
1.72222
 20
5.27927
 30
0.000000
  70
    32
  0
VERTEX
  8
AM_HID
  5
728
 10
1.72120
 20
5.27932
 30
0.000000
  70
    32
  0
VERTEX
  8
AM_HID
  5
729
 10
1.72019
 20
5.27936
 30
0.000000
  70
    32
  0
VERTEX
  8
AM_HID
  5
72A
 10
1.71918
 20
5.27941
 30
0.000000
  70
    32
  0
VERTEX
  8
AM_HID
  5
72B
 10
1.71816
 20
5.27945
 30
0.000000
  70
    32
  0
VERTEX
  8
AM_HID
  5
72C
 10
1.71715
 20
5.27949
 30
0.000000
  70
    32
  0
VERTEX
  8
AM_HID
  5
72D
 10
1.71614
 20
5.27953
 30
0.000000
  70
    32
  0
VERTEX
  8
AM_HID
  5
72E
 10
1.71513
 20
5.27957
 30
0.000000
  70
    32
  0
VERTEX
  8
AM_HID
  5
72F
 10
1.71412
 20
5.27960
 30
0.000000
  70
    32
  0
VERTEX
  8
AM_HID
  5
730
 10
1.71311
 20
5.27963
 30
0.000000
  70
    32
  0
VERTEX
  8
AM_HID
  5
731
 10
1.71210
 20
5.27966
 30
0.000000
  70
    32
  0
VERTEX
  8
AM_HID
  5
732
 10
1.71109
 20
5.27969
 30
0.000000
  70
    32
  0
VERTEX
  8
AM_HID
  5
733
 10
1.71008
 20
5.27972
 30
0.000000
  70
    32
  0
VERTEX
  8
AM_HID
  5
734
 10
1.70907
 20
5.27974
 30
0.000000
  70
    32
  0
VERTEX
  8
AM_HID
  5
735
 10
1.70807
 20
5.27976
 30
0.000000
  70
    32
  0
VERTEX
  8
AM_HID
  5
736
 10
1.70706
 20
5.27978
 30
0.000000
  70
    32
  0
VERTEX
  8
AM_HID
  5
737
 10
1.70606
 20
5.27980
 30
0.000000
  70
    32
  0
VERTEX
  8
AM_HID
  5
738
 10
1.70506
 20
5.27981
 30
0.000000
  70
    32
  0
VERTEX
  8
AM_HID
  5
739
 10
1.70405
 20
5.27982
 30
0.000000
  70
    32
  0
VERTEX
  8
AM_HID
  5
73A
 10
1.70305
 20
5.27983
 30
0.000000
  70
    32
  0
VERTEX
  8
AM_HID
  5
73B
 10
1.70205
 20
5.27984
 30
0.000000
  70
    32
  0
VERTEX
  8
AM_HID
  5
73C
 10
1.70105
 20
5.27985
 30
0.000000
  70
    32
  0
VERTEX
  8
AM_HID
  5
73D
 10
1.70006
 20
5.27985
 30
0.000000
  70
    32
  0
VERTEX
  8
AM_HID
  5
73E
 10
1.69906
 20
5.27985
 30
0.000000
  70
    32
  0
SEQEND
  8
AM_HID
  5
73F
  0
LINE
  5
3E
  8
AM_VIS
 10
1.6285159440074981
 20
5.2041743544936629
 30
0.0
 11
1.769604073806635
 21
5.2041743544936629
 31
0.0
  0
POLYLINE
  5
3F
  8
AM_HID
 10
1.5690001174937092
 20
5.1368372063412906
 30
0.0
 66
     1
 70
     8
  0
VERTEX
  8
AM_HID
  5
740
 10
1.56900
 20
5.13684
 30
0.000000
  70
    32
  0
VERTEX
  8
AM_HID
  5
741
 10
1.56891
 20
5.13673
 30
0.000000
  70
    32
  0
VERTEX
  8
AM_HID
  5
742
 10
1.56883
 20
5.13663
 30
0.000000
  70
    32
  0
VERTEX
  8
AM_HID
  5
743
 10
1.56874
 20
5.13653
 30
0.000000
  70
    32
  0
VERTEX
  8
AM_HID
  5
744
 10
1.56866
 20
5.13642
 30
0.000000
  70
    32
  0
VERTEX
  8
AM_HID
  5
745
 10
1.56857
 20
5.13632
 30
0.000000
  70
    32
  0
VERTEX
  8
AM_HID
  5
746
 10
1.56848
 20
5.13622
 30
0.000000
  70
    32
  0
VERTEX
  8
AM_HID
  5
747
 10
1.56840
 20
5.13611
 30
0.000000
  70
    32
  0
VERTEX
  8
AM_HID
  5
748
 10
1.56831
 20
5.13601
 30
0.000000
  70
    32
  0
VERTEX
  8
AM_HID
  5
749
 10
1.56822
 20
5.13591
 30
0.000000
  70
    32
  0
VERTEX
  8
AM_HID
  5
74A
 10
1.56814
 20
5.13580
 30
0.000000
  70
    32
  0
VERTEX
  8
AM_HID
  5
74B
 10
1.56805
 20
5.13570
 30
0.000000
  70
    32
  0
VERTEX
  8
AM_HID
  5
74C
 10
1.56797
 20
5.13560
 30
0.000000
  70
    32
  0
VERTEX
  8
AM_HID
  5
74D
 10
1.56788
 20
5.13549
 30
0.000000
  70
    32
  0
VERTEX
  8
AM_HID
  5
74E
 10
1.56779
 20
5.13539
 30
0.000000
  70
    32
  0
VERTEX
  8
AM_HID
  5
74F
 10
1.56771
 20
5.13529
 30
0.000000
  70
    32
  0
VERTEX
  8
AM_HID
  5
750
 10
1.56762
 20
5.13518
 30
0.000000
  70
    32
  0
VERTEX
  8
AM_HID
  5
751
 10
1.56754
 20
5.13508
 30
0.000000
  70
    32
  0
VERTEX
  8
AM_HID
  5
752
 10
1.56745
 20
5.13497
 30
0.000000
  70
    32
  0
VERTEX
  8
AM_HID
  5
753
 10
1.56736
 20
5.13487
 30
0.000000
  70
    32
  0
VERTEX
  8
AM_HID
  5
754
 10
1.56728
 20
5.13477
 30
0.000000
  70
    32
  0
VERTEX
  8
AM_HID
  5
755
 10
1.56719
 20
5.13466
 30
0.000000
  70
    32
  0
VERTEX
  8
AM_HID
  5
756
 10
1.56710
 20
5.13456
 30
0.000000
  70
    32
  0
VERTEX
  8
AM_HID
  5
757
 10
1.56702
 20
5.13446
 30
0.000000
  70
    32
  0
VERTEX
  8
AM_HID
  5
758
 10
1.56693
 20
5.13435
 30
0.000000
  70
    32
  0
VERTEX
  8
AM_HID
  5
759
 10
1.56685
 20
5.13425
 30
0.000000
  70
    32
  0
VERTEX
  8
AM_HID
  5
75A
 10
1.56676
 20
5.13414
 30
0.000000
  70
    32
  0
VERTEX
  8
AM_HID
  5
75B
 10
1.56667
 20
5.13404
 30
0.000000
  70
    32
  0
VERTEX
  8
AM_HID
  5
75C
 10
1.56659
 20
5.13394
 30
0.000000
  70
    32
  0
VERTEX
  8
AM_HID
  5
75D
 10
1.56650
 20
5.13383
 30
0.000000
  70
    32
  0
VERTEX
  8
AM_HID
  5
75E
 10
1.56642
 20
5.13373
 30
0.000000
  70
    32
  0
VERTEX
  8
AM_HID
  5
75F
 10
1.56633
 20
5.13363
 30
0.000000
  70
    32
  0
VERTEX
  8
AM_HID
  5
760
 10
1.56624
 20
5.13352
 30
0.000000
  70
    32
  0
VERTEX
  8
AM_HID
  5
761
 10
1.56616
 20
5.13342
 30
0.000000
  70
    32
  0
VERTEX
  8
AM_HID
  5
762
 10
1.56607
 20
5.13331
 30
0.000000
  70
    32
  0
VERTEX
  8
AM_HID
  5
763
 10
1.56598
 20
5.13321
 30
0.000000
  70
    32
  0
VERTEX
  8
AM_HID
  5
764
 10
1.56590
 20
5.13311
 30
0.000000
  70
    32
  0
VERTEX
  8
AM_HID
  5
765
 10
1.56581
 20
5.13300
 30
0.000000
  70
    32
  0
VERTEX
  8
AM_HID
  5
766
 10
1.56573
 20
5.13290
 30
0.000000
  70
    32
  0
VERTEX
  8
AM_HID
  5
767
 10
1.56564
 20
5.13279
 30
0.000000
  70
    32
  0
VERTEX
  8
AM_HID
  5
768
 10
1.56555
 20
5.13269
 30
0.000000
  70
    32
  0
VERTEX
  8
AM_HID
  5
769
 10
1.56547
 20
5.13259
 30
0.000000
  70
    32
  0
VERTEX
  8
AM_HID
  5
76A
 10
1.56538
 20
5.13248
 30
0.000000
  70
    32
  0
VERTEX
  8
AM_HID
  5
76B
 10
1.56530
 20
5.13238
 30
0.000000
  70
    32
  0
VERTEX
  8
AM_HID
  5
76C
 10
1.56521
 20
5.13227
 30
0.000000
  70
    32
  0
VERTEX
  8
AM_HID
  5
76D
 10
1.56512
 20
5.13217
 30
0.000000
  70
    32
  0
VERTEX
  8
AM_HID
  5
76E
 10
1.56504
 20
5.13207
 30
0.000000
  70
    32
  0
VERTEX
  8
AM_HID
  5
76F
 10
1.56495
 20
5.13196
 30
0.000000
  70
    32
  0
VERTEX
  8
AM_HID
  5
770
 10
1.56486
 20
5.13186
 30
0.000000
  70
    32
  0
VERTEX
  8
AM_HID
  5
771
 10
1.56478
 20
5.13175
 30
0.000000
  70
    32
  0
VERTEX
  8
AM_HID
  5
772
 10
1.56469
 20
5.13165
 30
0.000000
  70
    32
  0
VERTEX
  8
AM_HID
  5
773
 10
1.56461
 20
5.13154
 30
0.000000
  70
    32
  0
VERTEX
  8
AM_HID
  5
774
 10
1.56452
 20
5.13144
 30
0.000000
  70
    32
  0
VERTEX
  8
AM_HID
  5
775
 10
1.56443
 20
5.13134
 30
0.000000
  70
    32
  0
VERTEX
  8
AM_HID
  5
776
 10
1.56435
 20
5.13123
 30
0.000000
  70
    32
  0
VERTEX
  8
AM_HID
  5
777
 10
1.56426
 20
5.13113
 30
0.000000
  70
    32
  0
VERTEX
  8
AM_HID
  5
778
 10
1.56418
 20
5.13102
 30
0.000000
  70
    32
  0
VERTEX
  8
AM_HID
  5
779
 10
1.56409
 20
5.13092
 30
0.000000
  70
    32
  0
VERTEX
  8
AM_HID
  5
77A
 10
1.56400
 20
5.13081
 30
0.000000
  70
    32
  0
VERTEX
  8
AM_HID
  5
77B
 10
1.56392
 20
5.13071
 30
0.000000
  70
    32
  0
VERTEX
  8
AM_HID
  5
77C
 10
1.56383
 20
5.13061
 30
0.000000
  70
    32
  0
VERTEX
  8
AM_HID
  5
77D
 10
1.56374
 20
5.13050
 30
0.000000
  70
    32
  0
VERTEX
  8
AM_HID
  5
77E
 10
1.56366
 20
5.13040
 30
0.000000
  70
    32
  0
VERTEX
  8
AM_HID
  5
77F
 10
1.56357
 20
5.13029
 30
0.000000
  70
    32
  0
VERTEX
  8
AM_HID
  5
780
 10
1.56349
 20
5.13019
 30
0.000000
  70
    32
  0
VERTEX
  8
AM_HID
  5
781
 10
1.56340
 20
5.13008
 30
0.000000
  70
    32
  0
VERTEX
  8
AM_HID
  5
782
 10
1.56331
 20
5.12998
 30
0.000000
  70
    32
  0
VERTEX
  8
AM_HID
  5
783
 10
1.56323
 20
5.12987
 30
0.000000
  70
    32
  0
VERTEX
  8
AM_HID
  5
784
 10
1.56314
 20
5.12977
 30
0.000000
  70
    32
  0
VERTEX
  8
AM_HID
  5
785
 10
1.56306
 20
5.12967
 30
0.000000
  70
    32
  0
VERTEX
  8
AM_HID
  5
786
 10
1.56297
 20
5.12956
 30
0.000000
  70
    32
  0
VERTEX
  8
AM_HID
  5
787
 10
1.56288
 20
5.12946
 30
0.000000
  70
    32
  0
VERTEX
  8
AM_HID
  5
788
 10
1.56280
 20
5.12935
 30
0.000000
  70
    32
  0
VERTEX
  8
AM_HID
  5
789
 10
1.56271
 20
5.12925
 30
0.000000
  70
    32
  0
VERTEX
  8
AM_HID
  5
78A
 10
1.56262
 20
5.12914
 30
0.000000
  70
    32
  0
VERTEX
  8
AM_HID
  5
78B
 10
1.56254
 20
5.12904
 30
0.000000
  70
    32
  0
VERTEX
  8
AM_HID
  5
78C
 10
1.56245
 20
5.12893
 30
0.000000
  70
    32
  0
VERTEX
  8
AM_HID
  5
78D
 10
1.56237
 20
5.12883
 30
0.000000
  70
    32
  0
VERTEX
  8
AM_HID
  5
78E
 10
1.56228
 20
5.12872
 30
0.000000
  70
    32
  0
VERTEX
  8
AM_HID
  5
78F
 10
1.56219
 20
5.12862
 30
0.000000
  70
    32
  0
VERTEX
  8
AM_HID
  5
790
 10
1.56211
 20
5.12851
 30
0.000000
  70
    32
  0
VERTEX
  8
AM_HID
  5
791
 10
1.56202
 20
5.12841
 30
0.000000
  70
    32
  0
VERTEX
  8
AM_HID
  5
792
 10
1.56194
 20
5.12831
 30
0.000000
  70
    32
  0
VERTEX
  8
AM_HID
  5
793
 10
1.56185
 20
5.12820
 30
0.000000
  70
    32
  0
VERTEX
  8
AM_HID
  5
794
 10
1.56176
 20
5.12810
 30
0.000000
  70
    32
  0
VERTEX
  8
AM_HID
  5
795
 10
1.56168
 20
5.12799
 30
0.000000
  70
    32
  0
VERTEX
  8
AM_HID
  5
796
 10
1.56159
 20
5.12789
 30
0.000000
  70
    32
  0
VERTEX
  8
AM_HID
  5
797
 10
1.56150
 20
5.12778
 30
0.000000
  70
    32
  0
VERTEX
  8
AM_HID
  5
798
 10
1.56142
 20
5.12768
 30
0.000000
  70
    32
  0
VERTEX
  8
AM_HID
  5
799
 10
1.56133
 20
5.12757
 30
0.000000
  70
    32
  0
VERTEX
  8
AM_HID
  5
79A
 10
1.56125
 20
5.12747
 30
0.000000
  70
    32
  0
VERTEX
  8
AM_HID
  5
79B
 10
1.56116
 20
5.12736
 30
0.000000
  70
    32
  0
VERTEX
  8
AM_HID
  5
79C
 10
1.56107
 20
5.12726
 30
0.000000
  70
    32
  0
VERTEX
  8
AM_HID
  5
79D
 10
1.56099
 20
5.12715
 30
0.000000
  70
    32
  0
VERTEX
  8
AM_HID
  5
79E
 10
1.56090
 20
5.12705
 30
0.000000
  70
    32
  0
VERTEX
  8
AM_HID
  5
79F
 10
1.56082
 20
5.12694
 30
0.000000
  70
    32
  0
VERTEX
  8
AM_HID
  5
7A0
 10
1.56073
 20
5.12684
 30
0.000000
  70
    32
  0
VERTEX
  8
AM_HID
  5
7A1
 10
1.56064
 20
5.12673
 30
0.000000
  70
    32
  0
VERTEX
  8
AM_HID
  5
7A2
 10
1.56056
 20
5.12663
 30
0.000000
  70
    32
  0
VERTEX
  8
AM_HID
  5
7A3
 10
1.56047
 20
5.12652
 30
0.000000
  70
    32
  0
VERTEX
  8
AM_HID
  5
7A4
 10
1.56038
 20
5.12642
 30
0.000000
  70
    32
  0
VERTEX
  8
AM_HID
  5
7A5
 10
1.56030
 20
5.12631
 30
0.000000
  70
    32
  0
VERTEX
  8
AM_HID
  5
7A6
 10
1.56021
 20
5.12621
 30
0.000000
  70
    32
  0
VERTEX
  8
AM_HID
  5
7A7
 10
1.56013
 20
5.12610
 30
0.000000
  70
    32
  0
VERTEX
  8
AM_HID
  5
7A8
 10
1.56004
 20
5.12600
 30
0.000000
  70
    32
  0
VERTEX
  8
AM_HID
  5
7A9
 10
1.55995
 20
5.12589
 30
0.000000
  70
    32
  0
VERTEX
  8
AM_HID
  5
7AA
 10
1.55987
 20
5.12579
 30
0.000000
  70
    32
  0
VERTEX
  8
AM_HID
  5
7AB
 10
1.55978
 20
5.12568
 30
0.000000
  70
    32
  0
VERTEX
  8
AM_HID
  5
7AC
 10
1.55970
 20
5.12558
 30
0.000000
  70
    32
  0
VERTEX
  8
AM_HID
  5
7AD
 10
1.55961
 20
5.12547
 30
0.000000
  70
    32
  0
VERTEX
  8
AM_HID
  5
7AE
 10
1.55952
 20
5.12537
 30
0.000000
  70
    32
  0
VERTEX
  8
AM_HID
  5
7AF
 10
1.55944
 20
5.12526
 30
0.000000
  70
    32
  0
VERTEX
  8
AM_HID
  5
7B0
 10
1.55935
 20
5.12516
 30
0.000000
  70
    32
  0
VERTEX
  8
AM_HID
  5
7B1
 10
1.55926
 20
5.12505
 30
0.000000
  70
    32
  0
VERTEX
  8
AM_HID
  5
7B2
 10
1.55918
 20
5.12494
 30
0.000000
  70
    32
  0
VERTEX
  8
AM_HID
  5
7B3
 10
1.55909
 20
5.12484
 30
0.000000
  70
    32
  0
VERTEX
  8
AM_HID
  5
7B4
 10
1.55901
 20
5.12473
 30
0.000000
  70
    32
  0
VERTEX
  8
AM_HID
  5
7B5
 10
1.55892
 20
5.12463
 30
0.000000
  70
    32
  0
VERTEX
  8
AM_HID
  5
7B6
 10
1.55883
 20
5.12452
 30
0.000000
  70
    32
  0
VERTEX
  8
AM_HID
  5
7B7
 10
1.55875
 20
5.12442
 30
0.000000
  70
    32
  0
VERTEX
  8
AM_HID
  5
7B8
 10
1.55866
 20
5.12431
 30
0.000000
  70
    32
  0
VERTEX
  8
AM_HID
  5
7B9
 10
1.55858
 20
5.12421
 30
0.000000
  70
    32
  0
VERTEX
  8
AM_HID
  5
7BA
 10
1.55849
 20
5.12410
 30
0.000000
  70
    32
  0
VERTEX
  8
AM_HID
  5
7BB
 10
1.55840
 20
5.12400
 30
0.000000
  70
    32
  0
VERTEX
  8
AM_HID
  5
7BC
 10
1.55832
 20
5.12389
 30
0.000000
  70
    32
  0
VERTEX
  8
AM_HID
  5
7BD
 10
1.55823
 20
5.12379
 30
0.000000
  70
    32
  0
VERTEX
  8
AM_HID
  5
7BE
 10
1.55814
 20
5.12368
 30
0.000000
  70
    32
  0
VERTEX
  8
AM_HID
  5
7BF
 10
1.55806
 20
5.12357
 30
0.000000
  70
    32
  0
VERTEX
  8
AM_HID
  5
7C0
 10
1.55797
 20
5.12347
 30
0.000000
  70
    32
  0
SEQEND
  8
AM_HID
  5
7C1
  0
POLYLINE
  5
40
  8
AM_VIS
 10
1.6285159440072119
 20
5.2041743544933272
 30
0.0
 66
     1
 70
     8
  0
VERTEX
  8
AM_VIS
  5
7C2
 10
1.62852
 20
5.20417
 30
0.000000
  70
    32
  0
VERTEX
  8
AM_VIS
  5
7C3
 10
1.62805
 20
5.20368
 30
0.000000
  70
    32
  0
VERTEX
  8
AM_VIS
  5
7C4
 10
1.62759
 20
5.20319
 30
0.000000
  70
    32
  0
VERTEX
  8
AM_VIS
  5
7C5
 10
1.62713
 20
5.20270
 30
0.000000
  70
    32
  0
VERTEX
  8
AM_VIS
  5
7C6
 10
1.62667
 20
5.20220
 30
0.000000
  70
    32
  0
VERTEX
  8
AM_VIS
  5
7C7
 10
1.62620
 20
5.20171
 30
0.000000
  70
    32
  0
VERTEX
  8
AM_VIS
  5
7C8
 10
1.62574
 20
5.20122
 30
0.000000
  70
    32
  0
VERTEX
  8
AM_VIS
  5
7C9
 10
1.62528
 20
5.20072
 30
0.000000
  70
    32
  0
VERTEX
  8
AM_VIS
  5
7CA
 10
1.62481
 20
5.20022
 30
0.000000
  70
    32
  0
VERTEX
  8
AM_VIS
  5
7CB
 10
1.62435
 20
5.19973
 30
0.000000
  70
    32
  0
VERTEX
  8
AM_VIS
  5
7CC
 10
1.62389
 20
5.19923
 30
0.000000
  70
    32
  0
VERTEX
  8
AM_VIS
  5
7CD
 10
1.62343
 20
5.19873
 30
0.000000
  70
    32
  0
VERTEX
  8
AM_VIS
  5
7CE
 10
1.62296
 20
5.19824
 30
0.000000
  70
    32
  0
VERTEX
  8
AM_VIS
  5
7CF
 10
1.62250
 20
5.19774
 30
0.000000
  70
    32
  0
VERTEX
  8
AM_VIS
  5
7D0
 10
1.62204
 20
5.19724
 30
0.000000
  70
    32
  0
VERTEX
  8
AM_VIS
  5
7D1
 10
1.62157
 20
5.19674
 30
0.000000
  70
    32
  0
VERTEX
  8
AM_VIS
  5
7D2
 10
1.62111
 20
5.19624
 30
0.000000
  70
    32
  0
VERTEX
  8
AM_VIS
  5
7D3
 10
1.62065
 20
5.19574
 30
0.000000
  70
    32
  0
VERTEX
  8
AM_VIS
  5
7D4
 10
1.62018
 20
5.19524
 30
0.000000
  70
    32
  0
VERTEX
  8
AM_VIS
  5
7D5
 10
1.61972
 20
5.19474
 30
0.000000
  70
    32
  0
VERTEX
  8
AM_VIS
  5
7D6
 10
1.61926
 20
5.19423
 30
0.000000
  70
    32
  0
VERTEX
  8
AM_VIS
  5
7D7
 10
1.61879
 20
5.19373
 30
0.000000
  70
    32
  0
VERTEX
  8
AM_VIS
  5
7D8
 10
1.61833
 20
5.19323
 30
0.000000
  70
    32
  0
VERTEX
  8
AM_VIS
  5
7D9
 10
1.61786
 20
5.19272
 30
0.000000
  70
    32
  0
VERTEX
  8
AM_VIS
  5
7DA
 10
1.61740
 20
5.19222
 30
0.000000
  70
    32
  0
VERTEX
  8
AM_VIS
  5
7DB
 10
1.61694
 20
5.19171
 30
0.000000
  70
    32
  0
VERTEX
  8
AM_VIS
  5
7DC
 10
1.61647
 20
5.19121
 30
0.000000
  70
    32
  0
VERTEX
  8
AM_VIS
  5
7DD
 10
1.61601
 20
5.19070
 30
0.000000
  70
    32
  0
VERTEX
  8
AM_VIS
  5
7DE
 10
1.61555
 20
5.19020
 30
0.000000
  70
    32
  0
VERTEX
  8
AM_VIS
  5
7DF
 10
1.61508
 20
5.18969
 30
0.000000
  70
    32
  0
VERTEX
  8
AM_VIS
  5
7E0
 10
1.61462
 20
5.18918
 30
0.000000
  70
    32
  0
VERTEX
  8
AM_VIS
  5
7E1
 10
1.61415
 20
5.18867
 30
0.000000
  70
    32
  0
VERTEX
  8
AM_VIS
  5
7E2
 10
1.61369
 20
5.18816
 30
0.000000
  70
    32
  0
VERTEX
  8
AM_VIS
  5
7E3
 10
1.61323
 20
5.18765
 30
0.000000
  70
    32
  0
VERTEX
  8
AM_VIS
  5
7E4
 10
1.61276
 20
5.18714
 30
0.000000
  70
    32
  0
VERTEX
  8
AM_VIS
  5
7E5
 10
1.61230
 20
5.18663
 30
0.000000
  70
    32
  0
VERTEX
  8
AM_VIS
  5
7E6
 10
1.61183
 20
5.18612
 30
0.000000
  70
    32
  0
VERTEX
  8
AM_VIS
  5
7E7
 10
1.61137
 20
5.18561
 30
0.000000
  70
    32
  0
VERTEX
  8
AM_VIS
  5
7E8
 10
1.61090
 20
5.18510
 30
0.000000
  70
    32
  0
VERTEX
  8
AM_VIS
  5
7E9
 10
1.61044
 20
5.18459
 30
0.000000
  70
    32
  0
VERTEX
  8
AM_VIS
  5
7EA
 10
1.60998
 20
5.18407
 30
0.000000
  70
    32
  0
VERTEX
  8
AM_VIS
  5
7EB
 10
1.60951
 20
5.18356
 30
0.000000
  70
    32
  0
VERTEX
  8
AM_VIS
  5
7EC
 10
1.60905
 20
5.18305
 30
0.000000
  70
    32
  0
VERTEX
  8
AM_VIS
  5
7ED
 10
1.60858
 20
5.18253
 30
0.000000
  70
    32
  0
VERTEX
  8
AM_VIS
  5
7EE
 10
1.60812
 20
5.18202
 30
0.000000
  70
    32
  0
VERTEX
  8
AM_VIS
  5
7EF
 10
1.60765
 20
5.18150
 30
0.000000
  70
    32
  0
VERTEX
  8
AM_VIS
  5
7F0
 10
1.60719
 20
5.18098
 30
0.000000
  70
    32
  0
VERTEX
  8
AM_VIS
  5
7F1
 10
1.60672
 20
5.18047
 30
0.000000
  70
    32
  0
VERTEX
  8
AM_VIS
  5
7F2
 10
1.60626
 20
5.17995
 30
0.000000
  70
    32
  0
VERTEX
  8
AM_VIS
  5
7F3
 10
1.60580
 20
5.17943
 30
0.000000
  70
    32
  0
VERTEX
  8
AM_VIS
  5
7F4
 10
1.60533
 20
5.17891
 30
0.000000
  70
    32
  0
VERTEX
  8
AM_VIS
  5
7F5
 10
1.60487
 20
5.17839
 30
0.000000
  70
    32
  0
VERTEX
  8
AM_VIS
  5
7F6
 10
1.60440
 20
5.17787
 30
0.000000
  70
    32
  0
VERTEX
  8
AM_VIS
  5
7F7
 10
1.60394
 20
5.17735
 30
0.000000
  70
    32
  0
VERTEX
  8
AM_VIS
  5
7F8
 10
1.60347
 20
5.17683
 30
0.000000
  70
    32
  0
VERTEX
  8
AM_VIS
  5
7F9
 10
1.60301
 20
5.17631
 30
0.000000
  70
    32
  0
VERTEX
  8
AM_VIS
  5
7FA
 10
1.60254
 20
5.17579
 30
0.000000
  70
    32
  0
VERTEX
  8
AM_VIS
  5
7FB
 10
1.60208
 20
5.17527
 30
0.000000
  70
    32
  0
VERTEX
  8
AM_VIS
  5
7FC
 10
1.60161
 20
5.17474
 30
0.000000
  70
    32
  0
VERTEX
  8
AM_VIS
  5
7FD
 10
1.60115
 20
5.17422
 30
0.000000
  70
    32
  0
VERTEX
  8
AM_VIS
  5
7FE
 10
1.60068
 20
5.17370
 30
0.000000
  70
    32
  0
VERTEX
  8
AM_VIS
  5
7FF
 10
1.60022
 20
5.17317
 30
0.000000
  70
    32
  0
VERTEX
  8
AM_VIS
  5
800
 10
1.59975
 20
5.17265
 30
0.000000
  70
    32
  0
VERTEX
  8
AM_VIS
  5
801
 10
1.59929
 20
5.17212
 30
0.000000
  70
    32
  0
VERTEX
  8
AM_VIS
  5
802
 10
1.59882
 20
5.17160
 30
0.000000
  70
    32
  0
VERTEX
  8
AM_VIS
  5
803
 10
1.59836
 20
5.17107
 30
0.000000
  70
    32
  0
VERTEX
  8
AM_VIS
  5
804
 10
1.59789
 20
5.17054
 30
0.000000
  70
    32
  0
VERTEX
  8
AM_VIS
  5
805
 10
1.59743
 20
5.17001
 30
0.000000
  70
    32
  0
VERTEX
  8
AM_VIS
  5
806
 10
1.59696
 20
5.16949
 30
0.000000
  70
    32
  0
VERTEX
  8
AM_VIS
  5
807
 10
1.59649
 20
5.16896
 30
0.000000
  70
    32
  0
VERTEX
  8
AM_VIS
  5
808
 10
1.59603
 20
5.16843
 30
0.000000
  70
    32
  0
VERTEX
  8
AM_VIS
  5
809
 10
1.59556
 20
5.16790
 30
0.000000
  70
    32
  0
VERTEX
  8
AM_VIS
  5
80A
 10
1.59510
 20
5.16737
 30
0.000000
  70
    32
  0
VERTEX
  8
AM_VIS
  5
80B
 10
1.59463
 20
5.16684
 30
0.000000
  70
    32
  0
VERTEX
  8
AM_VIS
  5
80C
 10
1.59417
 20
5.16631
 30
0.000000
  70
    32
  0
VERTEX
  8
AM_VIS
  5
80D
 10
1.59370
 20
5.16577
 30
0.000000
  70
    32
  0
VERTEX
  8
AM_VIS
  5
80E
 10
1.59324
 20
5.16524
 30
0.000000
  70
    32
  0
VERTEX
  8
AM_VIS
  5
80F
 10
1.59277
 20
5.16471
 30
0.000000
  70
    32
  0
VERTEX
  8
AM_VIS
  5
810
 10
1.59231
 20
5.16417
 30
0.000000
  70
    32
  0
VERTEX
  8
AM_VIS
  5
811
 10
1.59184
 20
5.16364
 30
0.000000
  70
    32
  0
VERTEX
  8
AM_VIS
  5
812
 10
1.59137
 20
5.16311
 30
0.000000
  70
    32
  0
VERTEX
  8
AM_VIS
  5
813
 10
1.59091
 20
5.16257
 30
0.000000
  70
    32
  0
VERTEX
  8
AM_VIS
  5
814
 10
1.59044
 20
5.16204
 30
0.000000
  70
    32
  0
VERTEX
  8
AM_VIS
  5
815
 10
1.58998
 20
5.16150
 30
0.000000
  70
    32
  0
VERTEX
  8
AM_VIS
  5
816
 10
1.58951
 20
5.16096
 30
0.000000
  70
    32
  0
VERTEX
  8
AM_VIS
  5
817
 10
1.58905
 20
5.16043
 30
0.000000
  70
    32
  0
VERTEX
  8
AM_VIS
  5
818
 10
1.58858
 20
5.15989
 30
0.000000
  70
    32
  0
VERTEX
  8
AM_VIS
  5
819
 10
1.58811
 20
5.15935
 30
0.000000
  70
    32
  0
VERTEX
  8
AM_VIS
  5
81A
 10
1.58765
 20
5.15881
 30
0.000000
  70
    32
  0
VERTEX
  8
AM_VIS
  5
81B
 10
1.58718
 20
5.15827
 30
0.000000
  70
    32
  0
VERTEX
  8
AM_VIS
  5
81C
 10
1.58672
 20
5.15773
 30
0.000000
  70
    32
  0
VERTEX
  8
AM_VIS
  5
81D
 10
1.58625
 20
5.15719
 30
0.000000
  70
    32
  0
VERTEX
  8
AM_VIS
  5
81E
 10
1.58578
 20
5.15665
 30
0.000000
  70
    32
  0
VERTEX
  8
AM_VIS
  5
81F
 10
1.58532
 20
5.15611
 30
0.000000
  70
    32
  0
VERTEX
  8
AM_VIS
  5
820
 10
1.58485
 20
5.15557
 30
0.000000
  70
    32
  0
VERTEX
  8
AM_VIS
  5
821
 10
1.58439
 20
5.15502
 30
0.000000
  70
    32
  0
VERTEX
  8
AM_VIS
  5
822
 10
1.58392
 20
5.15448
 30
0.000000
  70
    32
  0
VERTEX
  8
AM_VIS
  5
823
 10
1.58345
 20
5.15394
 30
0.000000
  70
    32
  0
VERTEX
  8
AM_VIS
  5
824
 10
1.58299
 20
5.15339
 30
0.000000
  70
    32
  0
VERTEX
  8
AM_VIS
  5
825
 10
1.58252
 20
5.15285
 30
0.000000
  70
    32
  0
VERTEX
  8
AM_VIS
  5
826
 10
1.58206
 20
5.15231
 30
0.000000
  70
    32
  0
VERTEX
  8
AM_VIS
  5
827
 10
1.58159
 20
5.15176
 30
0.000000
  70
    32
  0
VERTEX
  8
AM_VIS
  5
828
 10
1.58112
 20
5.15121
 30
0.000000
  70
    32
  0
VERTEX
  8
AM_VIS
  5
829
 10
1.58066
 20
5.15067
 30
0.000000
  70
    32
  0
VERTEX
  8
AM_VIS
  5
82A
 10
1.58019
 20
5.15012
 30
0.000000
  70
    32
  0
VERTEX
  8
AM_VIS
  5
82B
 10
1.57973
 20
5.14957
 30
0.000000
  70
    32
  0
VERTEX
  8
AM_VIS
  5
82C
 10
1.57926
 20
5.14902
 30
0.000000
  70
    32
  0
VERTEX
  8
AM_VIS
  5
82D
 10
1.57879
 20
5.14848
 30
0.000000
  70
    32
  0
VERTEX
  8
AM_VIS
  5
82E
 10
1.57833
 20
5.14793
 30
0.000000
  70
    32
  0
VERTEX
  8
AM_VIS
  5
82F
 10
1.57786
 20
5.14738
 30
0.000000
  70
    32
  0
VERTEX
  8
AM_VIS
  5
830
 10
1.57739
 20
5.14683
 30
0.000000
  70
    32
  0
VERTEX
  8
AM_VIS
  5
831
 10
1.57693
 20
5.14628
 30
0.000000
  70
    32
  0
VERTEX
  8
AM_VIS
  5
832
 10
1.57646
 20
5.14573
 30
0.000000
  70
    32
  0
VERTEX
  8
AM_VIS
  5
833
 10
1.57600
 20
5.14517
 30
0.000000
  70
    32
  0
VERTEX
  8
AM_VIS
  5
834
 10
1.57553
 20
5.14462
 30
0.000000
  70
    32
  0
VERTEX
  8
AM_VIS
  5
835
 10
1.57506
 20
5.14407
 30
0.000000
  70
    32
  0
VERTEX
  8
AM_VIS
  5
836
 10
1.57460
 20
5.14352
 30
0.000000
  70
    32
  0
VERTEX
  8
AM_VIS
  5
837
 10
1.57413
 20
5.14296
 30
0.000000
  70
    32
  0
VERTEX
  8
AM_VIS
  5
838
 10
1.57366
 20
5.14241
 30
0.000000
  70
    32
  0
VERTEX
  8
AM_VIS
  5
839
 10
1.57320
 20
5.14185
 30
0.000000
  70
    32
  0
VERTEX
  8
AM_VIS
  5
83A
 10
1.57273
 20
5.14130
 30
0.000000
  70
    32
  0
VERTEX
  8
AM_VIS
  5
83B
 10
1.57227
 20
5.14074
 30
0.000000
  70
    32
  0
VERTEX
  8
AM_VIS
  5
83C
 10
1.57180
 20
5.14019
 30
0.000000
  70
    32
  0
VERTEX
  8
AM_VIS
  5
83D
 10
1.57133
 20
5.13963
 30
0.000000
  70
    32
  0
VERTEX
  8
AM_VIS
  5
83E
 10
1.57087
 20
5.13907
 30
0.000000
  70
    32
  0
VERTEX
  8
AM_VIS
  5
83F
 10
1.57040
 20
5.13851
 30
0.000000
  70
    32
  0
VERTEX
  8
AM_VIS
  5
840
 10
1.56993
 20
5.13796
 30
0.000000
  70
    32
  0
VERTEX
  8
AM_VIS
  5
841
 10
1.56947
 20
5.13740
 30
0.000000
  70
    32
  0
VERTEX
  8
AM_VIS
  5
842
 10
1.56900
 20
5.13684
 30
0.000000
  70
    32
  0
SEQEND
  8
AM_VIS
  5
843
  0
POLYLINE
  5
41
  8
AM_HID
 10
1.6285159440077901
 20
5.0313773911075099
 30
0.0
 66
     1
 70
     8
  0
VERTEX
  8
AM_HID
  5
844
 10
1.62852
 20
5.03138
 30
0.000000
  70
    32
  0
VERTEX
  8
AM_HID
  5
845
 10
1.62797
 20
5.03214
 30
0.000000
  70
    32
  0
VERTEX
  8
AM_HID
  5
846
 10
1.62742
 20
5.03290
 30
0.000000
  70
    32
  0
VERTEX
  8
AM_HID
  5
847
 10
1.62687
 20
5.03365
 30
0.000000
  70
    32
  0
VERTEX
  8
AM_HID
  5
848
 10
1.62632
 20
5.03441
 30
0.000000
  70
    32
  0
VERTEX
  8
AM_HID
  5
849
 10
1.62578
 20
5.03517
 30
0.000000
  70
    32
  0
VERTEX
  8
AM_HID
  5
84A
 10
1.62523
 20
5.03593
 30
0.000000
  70
    32
  0
VERTEX
  8
AM_HID
  5
84B
 10
1.62468
 20
5.03668
 30
0.000000
  70
    32
  0
VERTEX
  8
AM_HID
  5
84C
 10
1.62413
 20
5.03744
 30
0.000000
  70
    32
  0
VERTEX
  8
AM_HID
  5
84D
 10
1.62358
 20
5.03819
 30
0.000000
  70
    32
  0
VERTEX
  8
AM_HID
  5
84E
 10
1.62303
 20
5.03895
 30
0.000000
  70
    32
  0
VERTEX
  8
AM_HID
  5
84F
 10
1.62248
 20
5.03970
 30
0.000000
  70
    32
  0
VERTEX
  8
AM_HID
  5
850
 10
1.62194
 20
5.04045
 30
0.000000
  70
    32
  0
VERTEX
  8
AM_HID
  5
851
 10
1.62139
 20
5.04121
 30
0.000000
  70
    32
  0
VERTEX
  8
AM_HID
  5
852
 10
1.62084
 20
5.04196
 30
0.000000
  70
    32
  0
VERTEX
  8
AM_HID
  5
853
 10
1.62029
 20
5.04271
 30
0.000000
  70
    32
  0
VERTEX
  8
AM_HID
  5
854
 10
1.61974
 20
5.04346
 30
0.000000
  70
    32
  0
VERTEX
  8
AM_HID
  5
855
 10
1.61919
 20
5.04421
 30
0.000000
  70
    32
  0
VERTEX
  8
AM_HID
  5
856
 10
1.61864
 20
5.04496
 30
0.000000
  70
    32
  0
VERTEX
  8
AM_HID
  5
857
 10
1.61809
 20
5.04571
 30
0.000000
  70
    32
  0
VERTEX
  8
AM_HID
  5
858
 10
1.61754
 20
5.04645
 30
0.000000
  70
    32
  0
VERTEX
  8
AM_HID
  5
859
 10
1.61699
 20
5.04720
 30
0.000000
  70
    32
  0
VERTEX
  8
AM_HID
  5
85A
 10
1.61644
 20
5.04795
 30
0.000000
  70
    32
  0
VERTEX
  8
AM_HID
  5
85B
 10
1.61589
 20
5.04870
 30
0.000000
  70
    32
  0
VERTEX
  8
AM_HID
  5
85C
 10
1.61535
 20
5.04944
 30
0.000000
  70
    32
  0
VERTEX
  8
AM_HID
  5
85D
 10
1.61480
 20
5.05019
 30
0.000000
  70
    32
  0
VERTEX
  8
AM_HID
  5
85E
 10
1.61425
 20
5.05093
 30
0.000000
  70
    32
  0
VERTEX
  8
AM_HID
  5
85F
 10
1.61370
 20
5.05167
 30
0.000000
  70
    32
  0
VERTEX
  8
AM_HID
  5
860
 10
1.61315
 20
5.05242
 30
0.000000
  70
    32
  0
VERTEX
  8
AM_HID
  5
861
 10
1.61260
 20
5.05316
 30
0.000000
  70
    32
  0
VERTEX
  8
AM_HID
  5
862
 10
1.61205
 20
5.05390
 30
0.000000
  70
    32
  0
VERTEX
  8
AM_HID
  5
863
 10
1.61150
 20
5.05464
 30
0.000000
  70
    32
  0
VERTEX
  8
AM_HID
  5
864
 10
1.61095
 20
5.05538
 30
0.000000
  70
    32
  0
VERTEX
  8
AM_HID
  5
865
 10
1.61040
 20
5.05612
 30
0.000000
  70
    32
  0
VERTEX
  8
AM_HID
  5
866
 10
1.60985
 20
5.05686
 30
0.000000
  70
    32
  0
VERTEX
  8
AM_HID
  5
867
 10
1.60930
 20
5.05760
 30
0.000000
  70
    32
  0
VERTEX
  8
AM_HID
  5
868
 10
1.60875
 20
5.05834
 30
0.000000
  70
    32
  0
VERTEX
  8
AM_HID
  5
869
 10
1.60820
 20
5.05908
 30
0.000000
  70
    32
  0
VERTEX
  8
AM_HID
  5
86A
 10
1.60765
 20
5.05981
 30
0.000000
  70
    32
  0
VERTEX
  8
AM_HID
  5
86B
 10
1.60710
 20
5.06055
 30
0.000000
  70
    32
  0
VERTEX
  8
AM_HID
  5
86C
 10
1.60654
 20
5.06129
 30
0.000000
  70
    32
  0
VERTEX
  8
AM_HID
  5
86D
 10
1.60599
 20
5.06202
 30
0.000000
  70
    32
  0
VERTEX
  8
AM_HID
  5
86E
 10
1.60544
 20
5.06276
 30
0.000000
  70
    32
  0
VERTEX
  8
AM_HID
  5
86F
 10
1.60489
 20
5.06349
 30
0.000000
  70
    32
  0
VERTEX
  8
AM_HID
  5
870
 10
1.60434
 20
5.06422
 30
0.000000
  70
    32
  0
VERTEX
  8
AM_HID
  5
871
 10
1.60379
 20
5.06496
 30
0.000000
  70
    32
  0
VERTEX
  8
AM_HID
  5
872
 10
1.60324
 20
5.06569
 30
0.000000
  70
    32
  0
VERTEX
  8
AM_HID
  5
873
 10
1.60269
 20
5.06642
 30
0.000000
  70
    32
  0
VERTEX
  8
AM_HID
  5
874
 10
1.60214
 20
5.06715
 30
0.000000
  70
    32
  0
VERTEX
  8
AM_HID
  5
875
 10
1.60159
 20
5.06788
 30
0.000000
  70
    32
  0
VERTEX
  8
AM_HID
  5
876
 10
1.60104
 20
5.06861
 30
0.000000
  70
    32
  0
VERTEX
  8
AM_HID
  5
877
 10
1.60049
 20
5.06934
 30
0.000000
  70
    32
  0
VERTEX
  8
AM_HID
  5
878
 10
1.59994
 20
5.07006
 30
0.000000
  70
    32
  0
VERTEX
  8
AM_HID
  5
879
 10
1.59938
 20
5.07079
 30
0.000000
  70
    32
  0
VERTEX
  8
AM_HID
  5
87A
 10
1.59883
 20
5.07152
 30
0.000000
  70
    32
  0
VERTEX
  8
AM_HID
  5
87B
 10
1.59828
 20
5.07225
 30
0.000000
  70
    32
  0
VERTEX
  8
AM_HID
  5
87C
 10
1.59773
 20
5.07297
 30
0.000000
  70
    32
  0
VERTEX
  8
AM_HID
  5
87D
 10
1.59718
 20
5.07370
 30
0.000000
  70
    32
  0
VERTEX
  8
AM_HID
  5
87E
 10
1.59663
 20
5.07442
 30
0.000000
  70
    32
  0
VERTEX
  8
AM_HID
  5
87F
 10
1.59608
 20
5.07514
 30
0.000000
  70
    32
  0
VERTEX
  8
AM_HID
  5
880
 10
1.59553
 20
5.07587
 30
0.000000
  70
    32
  0
VERTEX
  8
AM_HID
  5
881
 10
1.59497
 20
5.07659
 30
0.000000
  70
    32
  0
VERTEX
  8
AM_HID
  5
882
 10
1.59442
 20
5.07731
 30
0.000000
  70
    32
  0
VERTEX
  8
AM_HID
  5
883
 10
1.59387
 20
5.07803
 30
0.000000
  70
    32
  0
VERTEX
  8
AM_HID
  5
884
 10
1.59332
 20
5.07875
 30
0.000000
  70
    32
  0
VERTEX
  8
AM_HID
  5
885
 10
1.59277
 20
5.07947
 30
0.000000
  70
    32
  0
VERTEX
  8
AM_HID
  5
886
 10
1.59222
 20
5.08019
 30
0.000000
  70
    32
  0
VERTEX
  8
AM_HID
  5
887
 10
1.59167
 20
5.08091
 30
0.000000
  70
    32
  0
VERTEX
  8
AM_HID
  5
888
 10
1.59111
 20
5.08163
 30
0.000000
  70
    32
  0
VERTEX
  8
AM_HID
  5
889
 10
1.59056
 20
5.08234
 30
0.000000
  70
    32
  0
VERTEX
  8
AM_HID
  5
88A
 10
1.59001
 20
5.08306
 30
0.000000
  70
    32
  0
VERTEX
  8
AM_HID
  5
88B
 10
1.58946
 20
5.08378
 30
0.000000
  70
    32
  0
VERTEX
  8
AM_HID
  5
88C
 10
1.58891
 20
5.08449
 30
0.000000
  70
    32
  0
VERTEX
  8
AM_HID
  5
88D
 10
1.58836
 20
5.08520
 30
0.000000
  70
    32
  0
VERTEX
  8
AM_HID
  5
88E
 10
1.58780
 20
5.08592
 30
0.000000
  70
    32
  0
VERTEX
  8
AM_HID
  5
88F
 10
1.58725
 20
5.08663
 30
0.000000
  70
    32
  0
VERTEX
  8
AM_HID
  5
890
 10
1.58670
 20
5.08734
 30
0.000000
  70
    32
  0
VERTEX
  8
AM_HID
  5
891
 10
1.58615
 20
5.08806
 30
0.000000
  70
    32
  0
VERTEX
  8
AM_HID
  5
892
 10
1.58560
 20
5.08877
 30
0.000000
  70
    32
  0
VERTEX
  8
AM_HID
  5
893
 10
1.58504
 20
5.08948
 30
0.000000
  70
    32
  0
VERTEX
  8
AM_HID
  5
894
 10
1.58449
 20
5.09019
 30
0.000000
  70
    32
  0
VERTEX
  8
AM_HID
  5
895
 10
1.58394
 20
5.09090
 30
0.000000
  70
    32
  0
VERTEX
  8
AM_HID
  5
896
 10
1.58339
 20
5.09161
 30
0.000000
  70
    32
  0
VERTEX
  8
AM_HID
  5
897
 10
1.58284
 20
5.09231
 30
0.000000
  70
    32
  0
VERTEX
  8
AM_HID
  5
898
 10
1.58228
 20
5.09302
 30
0.000000
  70
    32
  0
VERTEX
  8
AM_HID
  5
899
 10
1.58173
 20
5.09373
 30
0.000000
  70
    32
  0
VERTEX
  8
AM_HID
  5
89A
 10
1.58118
 20
5.09443
 30
0.000000
  70
    32
  0
VERTEX
  8
AM_HID
  5
89B
 10
1.58063
 20
5.09514
 30
0.000000
  70
    32
  0
VERTEX
  8
AM_HID
  5
89C
 10
1.58007
 20
5.09584
 30
0.000000
  70
    32
  0
VERTEX
  8
AM_HID
  5
89D
 10
1.57952
 20
5.09655
 30
0.000000
  70
    32
  0
VERTEX
  8
AM_HID
  5
89E
 10
1.57897
 20
5.09725
 30
0.000000
  70
    32
  0
VERTEX
  8
AM_HID
  5
89F
 10
1.57842
 20
5.09795
 30
0.000000
  70
    32
  0
VERTEX
  8
AM_HID
  5
8A0
 10
1.57787
 20
5.09865
 30
0.000000
  70
    32
  0
VERTEX
  8
AM_HID
  5
8A1
 10
1.57731
 20
5.09935
 30
0.000000
  70
    32
  0
VERTEX
  8
AM_HID
  5
8A2
 10
1.57676
 20
5.10006
 30
0.000000
  70
    32
  0
VERTEX
  8
AM_HID
  5
8A3
 10
1.57621
 20
5.10076
 30
0.000000
  70
    32
  0
VERTEX
  8
AM_HID
  5
8A4
 10
1.57566
 20
5.10145
 30
0.000000
  70
    32
  0
VERTEX
  8
AM_HID
  5
8A5
 10
1.57510
 20
5.10215
 30
0.000000
  70
    32
  0
VERTEX
  8
AM_HID
  5
8A6
 10
1.57455
 20
5.10285
 30
0.000000
  70
    32
  0
VERTEX
  8
AM_HID
  5
8A7
 10
1.57400
 20
5.10355
 30
0.000000
  70
    32
  0
VERTEX
  8
AM_HID
  5
8A8
 10
1.57345
 20
5.10424
 30
0.000000
  70
    32
  0
VERTEX
  8
AM_HID
  5
8A9
 10
1.57289
 20
5.10494
 30
0.000000
  70
    32
  0
VERTEX
  8
AM_HID
  5
8AA
 10
1.57234
 20
5.10564
 30
0.000000
  70
    32
  0
VERTEX
  8
AM_HID
  5
8AB
 10
1.57179
 20
5.10633
 30
0.000000
  70
    32
  0
VERTEX
  8
AM_HID
  5
8AC
 10
1.57124
 20
5.10702
 30
0.000000
  70
    32
  0
VERTEX
  8
AM_HID
  5
8AD
 10
1.57068
 20
5.10772
 30
0.000000
  70
    32
  0
VERTEX
  8
AM_HID
  5
8AE
 10
1.57013
 20
5.10841
 30
0.000000
  70
    32
  0
VERTEX
  8
AM_HID
  5
8AF
 10
1.56958
 20
5.10910
 30
0.000000
  70
    32
  0
VERTEX
  8
AM_HID
  5
8B0
 10
1.56903
 20
5.10979
 30
0.000000
  70
    32
  0
VERTEX
  8
AM_HID
  5
8B1
 10
1.56847
 20
5.11048
 30
0.000000
  70
    32
  0
VERTEX
  8
AM_HID
  5
8B2
 10
1.56792
 20
5.11117
 30
0.000000
  70
    32
  0
VERTEX
  8
AM_HID
  5
8B3
 10
1.56737
 20
5.11186
 30
0.000000
  70
    32
  0
VERTEX
  8
AM_HID
  5
8B4
 10
1.56681
 20
5.11255
 30
0.000000
  70
    32
  0
VERTEX
  8
AM_HID
  5
8B5
 10
1.56626
 20
5.11324
 30
0.000000
  70
    32
  0
VERTEX
  8
AM_HID
  5
8B6
 10
1.56571
 20
5.11392
 30
0.000000
  70
    32
  0
VERTEX
  8
AM_HID
  5
8B7
 10
1.56516
 20
5.11461
 30
0.000000
  70
    32
  0
VERTEX
  8
AM_HID
  5
8B8
 10
1.56460
 20
5.11530
 30
0.000000
  70
    32
  0
VERTEX
  8
AM_HID
  5
8B9
 10
1.56405
 20
5.11598
 30
0.000000
  70
    32
  0
VERTEX
  8
AM_HID
  5
8BA
 10
1.56350
 20
5.11666
 30
0.000000
  70
    32
  0
VERTEX
  8
AM_HID
  5
8BB
 10
1.56295
 20
5.11735
 30
0.000000
  70
    32
  0
VERTEX
  8
AM_HID
  5
8BC
 10
1.56239
 20
5.11803
 30
0.000000
  70
    32
  0
VERTEX
  8
AM_HID
  5
8BD
 10
1.56184
 20
5.11871
 30
0.000000
  70
    32
  0
VERTEX
  8
AM_HID
  5
8BE
 10
1.56129
 20
5.11939
 30
0.000000
  70
    32
  0
VERTEX
  8
AM_HID
  5
8BF
 10
1.56074
 20
5.12008
 30
0.000000
  70
    32
  0
VERTEX
  8
AM_HID
  5
8C0
 10
1.56018
 20
5.12076
 30
0.000000
  70
    32
  0
VERTEX
  8
AM_HID
  5
8C1
 10
1.55963
 20
5.12144
 30
0.000000
  70
    32
  0
VERTEX
  8
AM_HID
  5
8C2
 10
1.55908
 20
5.12211
 30
0.000000
  70
    32
  0
VERTEX
  8
AM_HID
  5
8C3
 10
1.55852
 20
5.12279
 30
0.000000
  70
    32
  0
VERTEX
  8
AM_HID
  5
8C4
 10
1.55797
 20
5.12347
 30
0.000000
  70
    32
  0
SEQEND
  8
AM_HID
  5
8C5
  0
LINE
  5
42
  8
AM_HID
 10
1.7696040738066341
 20
5.0313773911079407
 30
0.0
 11
1.6285159440074981
 21
5.0313773911079407
 31
0.0
  0
POLYLINE
  5
43
  8
AM_HID
 10
1.8401481387062029
 20
5.1234689773129354
 30
0.0
 66
     1
 70
     8
  0
VERTEX
  8
AM_HID
  5
8C6
 10
1.84015
 20
5.12347
 30
0.000000
  70
    32
  0
VERTEX
  8
AM_HID
  5
8C7
 10
1.83960
 20
5.12279
 30
0.000000
  70
    32
  0
VERTEX
  8
AM_HID
  5
8C8
 10
1.83904
 20
5.12211
 30
0.000000
  70
    32
  0
VERTEX
  8
AM_HID
  5
8C9
 10
1.83849
 20
5.12144
 30
0.000000
  70
    32
  0
VERTEX
  8
AM_HID
  5
8CA
 10
1.83794
 20
5.12076
 30
0.000000
  70
    32
  0
VERTEX
  8
AM_HID
  5
8CB
 10
1.83738
 20
5.12008
 30
0.000000
  70
    32
  0
VERTEX
  8
AM_HID
  5
8CC
 10
1.83683
 20
5.11939
 30
0.000000
  70
    32
  0
VERTEX
  8
AM_HID
  5
8CD
 10
1.83628
 20
5.11871
 30
0.000000
  70
    32
  0
VERTEX
  8
AM_HID
  5
8CE
 10
1.83573
 20
5.11803
 30
0.000000
  70
    32
  0
VERTEX
  8
AM_HID
  5
8CF
 10
1.83517
 20
5.11735
 30
0.000000
  70
    32
  0
VERTEX
  8
AM_HID
  5
8D0
 10
1.83462
 20
5.11666
 30
0.000000
  70
    32
  0
VERTEX
  8
AM_HID
  5
8D1
 10
1.83407
 20
5.11598
 30
0.000000
  70
    32
  0
VERTEX
  8
AM_HID
  5
8D2
 10
1.83352
 20
5.11530
 30
0.000000
  70
    32
  0
VERTEX
  8
AM_HID
  5
8D3
 10
1.83296
 20
5.11461
 30
0.000000
  70
    32
  0
VERTEX
  8
AM_HID
  5
8D4
 10
1.83241
 20
5.11392
 30
0.000000
  70
    32
  0
VERTEX
  8
AM_HID
  5
8D5
 10
1.83186
 20
5.11324
 30
0.000000
  70
    32
  0
VERTEX
  8
AM_HID
  5
8D6
 10
1.83131
 20
5.11255
 30
0.000000
  70
    32
  0
VERTEX
  8
AM_HID
  5
8D7
 10
1.83075
 20
5.11186
 30
0.000000
  70
    32
  0
VERTEX
  8
AM_HID
  5
8D8
 10
1.83020
 20
5.11117
 30
0.000000
  70
    32
  0
VERTEX
  8
AM_HID
  5
8D9
 10
1.82965
 20
5.11048
 30
0.000000
  70
    32
  0
VERTEX
  8
AM_HID
  5
8DA
 10
1.82909
 20
5.10979
 30
0.000000
  70
    32
  0
VERTEX
  8
AM_HID
  5
8DB
 10
1.82854
 20
5.10910
 30
0.000000
  70
    32
  0
VERTEX
  8
AM_HID
  5
8DC
 10
1.82799
 20
5.10841
 30
0.000000
  70
    32
  0
VERTEX
  8
AM_HID
  5
8DD
 10
1.82744
 20
5.10772
 30
0.000000
  70
    32
  0
VERTEX
  8
AM_HID
  5
8DE
 10
1.82688
 20
5.10702
 30
0.000000
  70
    32
  0
VERTEX
  8
AM_HID
  5
8DF
 10
1.82633
 20
5.10633
 30
0.000000
  70
    32
  0
VERTEX
  8
AM_HID
  5
8E0
 10
1.82578
 20
5.10564
 30
0.000000
  70
    32
  0
VERTEX
  8
AM_HID
  5
8E1
 10
1.82523
 20
5.10494
 30
0.000000
  70
    32
  0
VERTEX
  8
AM_HID
  5
8E2
 10
1.82467
 20
5.10424
 30
0.000000
  70
    32
  0
VERTEX
  8
AM_HID
  5
8E3
 10
1.82412
 20
5.10355
 30
0.000000
  70
    32
  0
VERTEX
  8
AM_HID
  5
8E4
 10
1.82357
 20
5.10285
 30
0.000000
  70
    32
  0
VERTEX
  8
AM_HID
  5
8E5
 10
1.82302
 20
5.10215
 30
0.000000
  70
    32
  0
VERTEX
  8
AM_HID
  5
8E6
 10
1.82246
 20
5.10145
 30
0.000000
  70
    32
  0
VERTEX
  8
AM_HID
  5
8E7
 10
1.82191
 20
5.10076
 30
0.000000
  70
    32
  0
VERTEX
  8
AM_HID
  5
8E8
 10
1.82136
 20
5.10006
 30
0.000000
  70
    32
  0
VERTEX
  8
AM_HID
  5
8E9
 10
1.82081
 20
5.09935
 30
0.000000
  70
    32
  0
VERTEX
  8
AM_HID
  5
8EA
 10
1.82025
 20
5.09865
 30
0.000000
  70
    32
  0
VERTEX
  8
AM_HID
  5
8EB
 10
1.81970
 20
5.09795
 30
0.000000
  70
    32
  0
VERTEX
  8
AM_HID
  5
8EC
 10
1.81915
 20
5.09725
 30
0.000000
  70
    32
  0
VERTEX
  8
AM_HID
  5
8ED
 10
1.81860
 20
5.09655
 30
0.000000
  70
    32
  0
VERTEX
  8
AM_HID
  5
8EE
 10
1.81805
 20
5.09584
 30
0.000000
  70
    32
  0
VERTEX
  8
AM_HID
  5
8EF
 10
1.81749
 20
5.09514
 30
0.000000
  70
    32
  0
VERTEX
  8
AM_HID
  5
8F0
 10
1.81694
 20
5.09443
 30
0.000000
  70
    32
  0
VERTEX
  8
AM_HID
  5
8F1
 10
1.81639
 20
5.09373
 30
0.000000
  70
    32
  0
VERTEX
  8
AM_HID
  5
8F2
 10
1.81584
 20
5.09302
 30
0.000000
  70
    32
  0
VERTEX
  8
AM_HID
  5
8F3
 10
1.81528
 20
5.09231
 30
0.000000
  70
    32
  0
VERTEX
  8
AM_HID
  5
8F4
 10
1.81473
 20
5.09161
 30
0.000000
  70
    32
  0
VERTEX
  8
AM_HID
  5
8F5
 10
1.81418
 20
5.09090
 30
0.000000
  70
    32
  0
VERTEX
  8
AM_HID
  5
8F6
 10
1.81363
 20
5.09019
 30
0.000000
  70
    32
  0
VERTEX
  8
AM_HID
  5
8F7
 10
1.81308
 20
5.08948
 30
0.000000
  70
    32
  0
VERTEX
  8
AM_HID
  5
8F8
 10
1.81252
 20
5.08877
 30
0.000000
  70
    32
  0
VERTEX
  8
AM_HID
  5
8F9
 10
1.81197
 20
5.08806
 30
0.000000
  70
    32
  0
VERTEX
  8
AM_HID
  5
8FA
 10
1.81142
 20
5.08734
 30
0.000000
  70
    32
  0
VERTEX
  8
AM_HID
  5
8FB
 10
1.81087
 20
5.08663
 30
0.000000
  70
    32
  0
VERTEX
  8
AM_HID
  5
8FC
 10
1.81032
 20
5.08592
 30
0.000000
  70
    32
  0
VERTEX
  8
AM_HID
  5
8FD
 10
1.80976
 20
5.08520
 30
0.000000
  70
    32
  0
VERTEX
  8
AM_HID
  5
8FE
 10
1.80921
 20
5.08449
 30
0.000000
  70
    32
  0
VERTEX
  8
AM_HID
  5
8FF
 10
1.80866
 20
5.08378
 30
0.000000
  70
    32
  0
VERTEX
  8
AM_HID
  5
900
 10
1.80811
 20
5.08306
 30
0.000000
  70
    32
  0
VERTEX
  8
AM_HID
  5
901
 10
1.80756
 20
5.08234
 30
0.000000
  70
    32
  0
VERTEX
  8
AM_HID
  5
902
 10
1.80701
 20
5.08163
 30
0.000000
  70
    32
  0
VERTEX
  8
AM_HID
  5
903
 10
1.80645
 20
5.08091
 30
0.000000
  70
    32
  0
VERTEX
  8
AM_HID
  5
904
 10
1.80590
 20
5.08019
 30
0.000000
  70
    32
  0
VERTEX
  8
AM_HID
  5
905
 10
1.80535
 20
5.07947
 30
0.000000
  70
    32
  0
VERTEX
  8
AM_HID
  5
906
 10
1.80480
 20
5.07875
 30
0.000000
  70
    32
  0
VERTEX
  8
AM_HID
  5
907
 10
1.80425
 20
5.07803
 30
0.000000
  70
    32
  0
VERTEX
  8
AM_HID
  5
908
 10
1.80370
 20
5.07731
 30
0.000000
  70
    32
  0
VERTEX
  8
AM_HID
  5
909
 10
1.80315
 20
5.07659
 30
0.000000
  70
    32
  0
VERTEX
  8
AM_HID
  5
90A
 10
1.80259
 20
5.07587
 30
0.000000
  70
    32
  0
VERTEX
  8
AM_HID
  5
90B
 10
1.80204
 20
5.07514
 30
0.000000
  70
    32
  0
VERTEX
  8
AM_HID
  5
90C
 10
1.80149
 20
5.07442
 30
0.000000
  70
    32
  0
VERTEX
  8
AM_HID
  5
90D
 10
1.80094
 20
5.07370
 30
0.000000
  70
    32
  0
VERTEX
  8
AM_HID
  5
90E
 10
1.80039
 20
5.07297
 30
0.000000
  70
    32
  0
VERTEX
  8
AM_HID
  5
90F
 10
1.79984
 20
5.07225
 30
0.000000
  70
    32
  0
VERTEX
  8
AM_HID
  5
910
 10
1.79929
 20
5.07152
 30
0.000000
  70
    32
  0
VERTEX
  8
AM_HID
  5
911
 10
1.79874
 20
5.07079
 30
0.000000
  70
    32
  0
VERTEX
  8
AM_HID
  5
912
 10
1.79818
 20
5.07006
 30
0.000000
  70
    32
  0
VERTEX
  8
AM_HID
  5
913
 10
1.79763
 20
5.06934
 30
0.000000
  70
    32
  0
VERTEX
  8
AM_HID
  5
914
 10
1.79708
 20
5.06861
 30
0.000000
  70
    32
  0
VERTEX
  8
AM_HID
  5
915
 10
1.79653
 20
5.06788
 30
0.000000
  70
    32
  0
VERTEX
  8
AM_HID
  5
916
 10
1.79598
 20
5.06715
 30
0.000000
  70
    32
  0
VERTEX
  8
AM_HID
  5
917
 10
1.79543
 20
5.06642
 30
0.000000
  70
    32
  0
VERTEX
  8
AM_HID
  5
918
 10
1.79488
 20
5.06569
 30
0.000000
  70
    32
  0
VERTEX
  8
AM_HID
  5
919
 10
1.79433
 20
5.06496
 30
0.000000
  70
    32
  0
VERTEX
  8
AM_HID
  5
91A
 10
1.79378
 20
5.06422
 30
0.000000
  70
    32
  0
VERTEX
  8
AM_HID
  5
91B
 10
1.79323
 20
5.06349
 30
0.000000
  70
    32
  0
VERTEX
  8
AM_HID
  5
91C
 10
1.79268
 20
5.06276
 30
0.000000
  70
    32
  0
VERTEX
  8
AM_HID
  5
91D
 10
1.79213
 20
5.06202
 30
0.000000
  70
    32
  0
VERTEX
  8
AM_HID
  5
91E
 10
1.79158
 20
5.06129
 30
0.000000
  70
    32
  0
VERTEX
  8
AM_HID
  5
91F
 10
1.79102
 20
5.06055
 30
0.000000
  70
    32
  0
VERTEX
  8
AM_HID
  5
920
 10
1.79047
 20
5.05981
 30
0.000000
  70
    32
  0
VERTEX
  8
AM_HID
  5
921
 10
1.78992
 20
5.05908
 30
0.000000
  70
    32
  0
VERTEX
  8
AM_HID
  5
922
 10
1.78937
 20
5.05834
 30
0.000000
  70
    32
  0
VERTEX
  8
AM_HID
  5
923
 10
1.78882
 20
5.05760
 30
0.000000
  70
    32
  0
VERTEX
  8
AM_HID
  5
924
 10
1.78827
 20
5.05686
 30
0.000000
  70
    32
  0
VERTEX
  8
AM_HID
  5
925
 10
1.78772
 20
5.05612
 30
0.000000
  70
    32
  0
VERTEX
  8
AM_HID
  5
926
 10
1.78717
 20
5.05538
 30
0.000000
  70
    32
  0
VERTEX
  8
AM_HID
  5
927
 10
1.78662
 20
5.05464
 30
0.000000
  70
    32
  0
VERTEX
  8
AM_HID
  5
928
 10
1.78607
 20
5.05390
 30
0.000000
  70
    32
  0
VERTEX
  8
AM_HID
  5
929
 10
1.78552
 20
5.05316
 30
0.000000
  70
    32
  0
VERTEX
  8
AM_HID
  5
92A
 10
1.78497
 20
5.05242
 30
0.000000
  70
    32
  0
VERTEX
  8
AM_HID
  5
92B
 10
1.78442
 20
5.05167
 30
0.000000
  70
    32
  0
VERTEX
  8
AM_HID
  5
92C
 10
1.78387
 20
5.05093
 30
0.000000
  70
    32
  0
VERTEX
  8
AM_HID
  5
92D
 10
1.78332
 20
5.05019
 30
0.000000
  70
    32
  0
VERTEX
  8
AM_HID
  5
92E
 10
1.78277
 20
5.04944
 30
0.000000
  70
    32
  0
VERTEX
  8
AM_HID
  5
92F
 10
1.78223
 20
5.04870
 30
0.000000
  70
    32
  0
VERTEX
  8
AM_HID
  5
930
 10
1.78168
 20
5.04795
 30
0.000000
  70
    32
  0
VERTEX
  8
AM_HID
  5
931
 10
1.78113
 20
5.04720
 30
0.000000
  70
    32
  0
VERTEX
  8
AM_HID
  5
932
 10
1.78058
 20
5.04645
 30
0.000000
  70
    32
  0
VERTEX
  8
AM_HID
  5
933
 10
1.78003
 20
5.04571
 30
0.000000
  70
    32
  0
VERTEX
  8
AM_HID
  5
934
 10
1.77948
 20
5.04496
 30
0.000000
  70
    32
  0
VERTEX
  8
AM_HID
  5
935
 10
1.77893
 20
5.04421
 30
0.000000
  70
    32
  0
VERTEX
  8
AM_HID
  5
936
 10
1.77838
 20
5.04346
 30
0.000000
  70
    32
  0
VERTEX
  8
AM_HID
  5
937
 10
1.77783
 20
5.04271
 30
0.000000
  70
    32
  0
VERTEX
  8
AM_HID
  5
938
 10
1.77728
 20
5.04196
 30
0.000000
  70
    32
  0
VERTEX
  8
AM_HID
  5
939
 10
1.77673
 20
5.04121
 30
0.000000
  70
    32
  0
VERTEX
  8
AM_HID
  5
93A
 10
1.77618
 20
5.04045
 30
0.000000
  70
    32
  0
VERTEX
  8
AM_HID
  5
93B
 10
1.77564
 20
5.03970
 30
0.000000
  70
    32
  0
VERTEX
  8
AM_HID
  5
93C
 10
1.77509
 20
5.03895
 30
0.000000
  70
    32
  0
VERTEX
  8
AM_HID
  5
93D
 10
1.77454
 20
5.03819
 30
0.000000
  70
    32
  0
VERTEX
  8
AM_HID
  5
93E
 10
1.77399
 20
5.03744
 30
0.000000
  70
    32
  0
VERTEX
  8
AM_HID
  5
93F
 10
1.77344
 20
5.03668
 30
0.000000
  70
    32
  0
VERTEX
  8
AM_HID
  5
940
 10
1.77289
 20
5.03593
 30
0.000000
  70
    32
  0
VERTEX
  8
AM_HID
  5
941
 10
1.77234
 20
5.03517
 30
0.000000
  70
    32
  0
VERTEX
  8
AM_HID
  5
942
 10
1.77180
 20
5.03441
 30
0.000000
  70
    32
  0
VERTEX
  8
AM_HID
  5
943
 10
1.77125
 20
5.03365
 30
0.000000
  70
    32
  0
VERTEX
  8
AM_HID
  5
944
 10
1.77070
 20
5.03290
 30
0.000000
  70
    32
  0
VERTEX
  8
AM_HID
  5
945
 10
1.77015
 20
5.03214
 30
0.000000
  70
    32
  0
VERTEX
  8
AM_HID
  5
946
 10
1.76960
 20
5.03138
 30
0.000000
  70
    32
  0
SEQEND
  8
AM_HID
  5
947
  0
POLYLINE
  5
44
  8
AM_VIS
 10
1.8291199003201331
 20
5.1368372063416681
 30
0.0
 66
     1
 70
     8
  0
VERTEX
  8
AM_VIS
  5
948
 10
1.82912
 20
5.13684
 30
0.000000
  70
    32
  0
VERTEX
  8
AM_VIS
  5
949
 10
1.82865
 20
5.13740
 30
0.000000
  70
    32
  0
VERTEX
  8
AM_VIS
  5
94A
 10
1.82819
 20
5.13796
 30
0.000000
  70
    32
  0
VERTEX
  8
AM_VIS
  5
94B
 10
1.82772
 20
5.13851
 30
0.000000
  70
    32
  0
VERTEX
  8
AM_VIS
  5
94C
 10
1.82725
 20
5.13907
 30
0.000000
  70
    32
  0
VERTEX
  8
AM_VIS
  5
94D
 10
1.82679
 20
5.13963
 30
0.000000
  70
    32
  0
VERTEX
  8
AM_VIS
  5
94E
 10
1.82632
 20
5.14019
 30
0.000000
  70
    32
  0
VERTEX
  8
AM_VIS
  5
94F
 10
1.82585
 20
5.14074
 30
0.000000
  70
    32
  0
VERTEX
  8
AM_VIS
  5
950
 10
1.82539
 20
5.14130
 30
0.000000
  70
    32
  0
VERTEX
  8
AM_VIS
  5
951
 10
1.82492
 20
5.14185
 30
0.000000
  70
    32
  0
VERTEX
  8
AM_VIS
  5
952
 10
1.82446
 20
5.14241
 30
0.000000
  70
    32
  0
VERTEX
  8
AM_VIS
  5
953
 10
1.82399
 20
5.14296
 30
0.000000
  70
    32
  0
VERTEX
  8
AM_VIS
  5
954
 10
1.82352
 20
5.14352
 30
0.000000
  70
    32
  0
VERTEX
  8
AM_VIS
  5
955
 10
1.82306
 20
5.14407
 30
0.000000
  70
    32
  0
VERTEX
  8
AM_VIS
  5
956
 10
1.82259
 20
5.14462
 30
0.000000
  70
    32
  0
VERTEX
  8
AM_VIS
  5
957
 10
1.82212
 20
5.14517
 30
0.000000
  70
    32
  0
VERTEX
  8
AM_VIS
  5
958
 10
1.82166
 20
5.14573
 30
0.000000
  70
    32
  0
VERTEX
  8
AM_VIS
  5
959
 10
1.82119
 20
5.14628
 30
0.000000
  70
    32
  0
VERTEX
  8
AM_VIS
  5
95A
 10
1.82073
 20
5.14683
 30
0.000000
  70
    32
  0
VERTEX
  8
AM_VIS
  5
95B
 10
1.82026
 20
5.14738
 30
0.000000
  70
    32
  0
VERTEX
  8
AM_VIS
  5
95C
 10
1.81979
 20
5.14793
 30
0.000000
  70
    32
  0
VERTEX
  8
AM_VIS
  5
95D
 10
1.81933
 20
5.14848
 30
0.000000
  70
    32
  0
VERTEX
  8
AM_VIS
  5
95E
 10
1.81886
 20
5.14902
 30
0.000000
  70
    32
  0
VERTEX
  8
AM_VIS
  5
95F
 10
1.81839
 20
5.14957
 30
0.000000
  70
    32
  0
VERTEX
  8
AM_VIS
  5
960
 10
1.81793
 20
5.15012
 30
0.000000
  70
    32
  0
VERTEX
  8
AM_VIS
  5
961
 10
1.81746
 20
5.15067
 30
0.000000
  70
    32
  0
VERTEX
  8
AM_VIS
  5
962
 10
1.81700
 20
5.15121
 30
0.000000
  70
    32
  0
VERTEX
  8
AM_VIS
  5
963
 10
1.81653
 20
5.15176
 30
0.000000
  70
    32
  0
VERTEX
  8
AM_VIS
  5
964
 10
1.81606
 20
5.15231
 30
0.000000
  70
    32
  0
VERTEX
  8
AM_VIS
  5
965
 10
1.81560
 20
5.15285
 30
0.000000
  70
    32
  0
VERTEX
  8
AM_VIS
  5
966
 10
1.81513
 20
5.15339
 30
0.000000
  70
    32
  0
VERTEX
  8
AM_VIS
  5
967
 10
1.81467
 20
5.15394
 30
0.000000
  70
    32
  0
VERTEX
  8
AM_VIS
  5
968
 10
1.81420
 20
5.15448
 30
0.000000
  70
    32
  0
VERTEX
  8
AM_VIS
  5
969
 10
1.81373
 20
5.15502
 30
0.000000
  70
    32
  0
VERTEX
  8
AM_VIS
  5
96A
 10
1.81327
 20
5.15557
 30
0.000000
  70
    32
  0
VERTEX
  8
AM_VIS
  5
96B
 10
1.81280
 20
5.15611
 30
0.000000
  70
    32
  0
VERTEX
  8
AM_VIS
  5
96C
 10
1.81234
 20
5.15665
 30
0.000000
  70
    32
  0
VERTEX
  8
AM_VIS
  5
96D
 10
1.81187
 20
5.15719
 30
0.000000
  70
    32
  0
VERTEX
  8
AM_VIS
  5
96E
 10
1.81140
 20
5.15773
 30
0.000000
  70
    32
  0
VERTEX
  8
AM_VIS
  5
96F
 10
1.81094
 20
5.15827
 30
0.000000
  70
    32
  0
VERTEX
  8
AM_VIS
  5
970
 10
1.81047
 20
5.15881
 30
0.000000
  70
    32
  0
VERTEX
  8
AM_VIS
  5
971
 10
1.81001
 20
5.15935
 30
0.000000
  70
    32
  0
VERTEX
  8
AM_VIS
  5
972
 10
1.80954
 20
5.15989
 30
0.000000
  70
    32
  0
VERTEX
  8
AM_VIS
  5
973
 10
1.80907
 20
5.16043
 30
0.000000
  70
    32
  0
VERTEX
  8
AM_VIS
  5
974
 10
1.80861
 20
5.16096
 30
0.000000
  70
    32
  0
VERTEX
  8
AM_VIS
  5
975
 10
1.80814
 20
5.16150
 30
0.000000
  70
    32
  0
VERTEX
  8
AM_VIS
  5
976
 10
1.80768
 20
5.16204
 30
0.000000
  70
    32
  0
VERTEX
  8
AM_VIS
  5
977
 10
1.80721
 20
5.16257
 30
0.000000
  70
    32
  0
VERTEX
  8
AM_VIS
  5
978
 10
1.80675
 20
5.16311
 30
0.000000
  70
    32
  0
VERTEX
  8
AM_VIS
  5
979
 10
1.80628
 20
5.16364
 30
0.000000
  70
    32
  0
VERTEX
  8
AM_VIS
  5
97A
 10
1.80581
 20
5.16417
 30
0.000000
  70
    32
  0
VERTEX
  8
AM_VIS
  5
97B
 10
1.80535
 20
5.16471
 30
0.000000
  70
    32
  0
VERTEX
  8
AM_VIS
  5
97C
 10
1.80488
 20
5.16524
 30
0.000000
  70
    32
  0
VERTEX
  8
AM_VIS
  5
97D
 10
1.80442
 20
5.16577
 30
0.000000
  70
    32
  0
VERTEX
  8
AM_VIS
  5
97E
 10
1.80395
 20
5.16631
 30
0.000000
  70
    32
  0
VERTEX
  8
AM_VIS
  5
97F
 10
1.80349
 20
5.16684
 30
0.000000
  70
    32
  0
VERTEX
  8
AM_VIS
  5
980
 10
1.80302
 20
5.16737
 30
0.000000
  70
    32
  0
VERTEX
  8
AM_VIS
  5
981
 10
1.80256
 20
5.16790
 30
0.000000
  70
    32
  0
VERTEX
  8
AM_VIS
  5
982
 10
1.80209
 20
5.16843
 30
0.000000
  70
    32
  0
VERTEX
  8
AM_VIS
  5
983
 10
1.80163
 20
5.16896
 30
0.000000
  70
    32
  0
VERTEX
  8
AM_VIS
  5
984
 10
1.80116
 20
5.16949
 30
0.000000
  70
    32
  0
VERTEX
  8
AM_VIS
  5
985
 10
1.80069
 20
5.17001
 30
0.000000
  70
    32
  0
VERTEX
  8
AM_VIS
  5
986
 10
1.80023
 20
5.17054
 30
0.000000
  70
    32
  0
VERTEX
  8
AM_VIS
  5
987
 10
1.79976
 20
5.17107
 30
0.000000
  70
    32
  0
VERTEX
  8
AM_VIS
  5
988
 10
1.79930
 20
5.17160
 30
0.000000
  70
    32
  0
VERTEX
  8
AM_VIS
  5
989
 10
1.79883
 20
5.17212
 30
0.000000
  70
    32
  0
VERTEX
  8
AM_VIS
  5
98A
 10
1.79837
 20
5.17265
 30
0.000000
  70
    32
  0
VERTEX
  8
AM_VIS
  5
98B
 10
1.79790
 20
5.17317
 30
0.000000
  70
    32
  0
VERTEX
  8
AM_VIS
  5
98C
 10
1.79744
 20
5.17370
 30
0.000000
  70
    32
  0
VERTEX
  8
AM_VIS
  5
98D
 10
1.79697
 20
5.17422
 30
0.000000
  70
    32
  0
VERTEX
  8
AM_VIS
  5
98E
 10
1.79651
 20
5.17474
 30
0.000000
  70
    32
  0
VERTEX
  8
AM_VIS
  5
98F
 10
1.79604
 20
5.17527
 30
0.000000
  70
    32
  0
VERTEX
  8
AM_VIS
  5
990
 10
1.79558
 20
5.17579
 30
0.000000
  70
    32
  0
VERTEX
  8
AM_VIS
  5
991
 10
1.79511
 20
5.17631
 30
0.000000
  70
    32
  0
VERTEX
  8
AM_VIS
  5
992
 10
1.79465
 20
5.17683
 30
0.000000
  70
    32
  0
VERTEX
  8
AM_VIS
  5
993
 10
1.79418
 20
5.17735
 30
0.000000
  70
    32
  0
VERTEX
  8
AM_VIS
  5
994
 10
1.79372
 20
5.17787
 30
0.000000
  70
    32
  0
VERTEX
  8
AM_VIS
  5
995
 10
1.79325
 20
5.17839
 30
0.000000
  70
    32
  0
VERTEX
  8
AM_VIS
  5
996
 10
1.79279
 20
5.17891
 30
0.000000
  70
    32
  0
VERTEX
  8
AM_VIS
  5
997
 10
1.79232
 20
5.17943
 30
0.000000
  70
    32
  0
VERTEX
  8
AM_VIS
  5
998
 10
1.79186
 20
5.17995
 30
0.000000
  70
    32
  0
VERTEX
  8
AM_VIS
  5
999
 10
1.79140
 20
5.18047
 30
0.000000
  70
    32
  0
VERTEX
  8
AM_VIS
  5
99A
 10
1.79093
 20
5.18098
 30
0.000000
  70
    32
  0
VERTEX
  8
AM_VIS
  5
99B
 10
1.79047
 20
5.18150
 30
0.000000
  70
    32
  0
VERTEX
  8
AM_VIS
  5
99C
 10
1.79000
 20
5.18202
 30
0.000000
  70
    32
  0
VERTEX
  8
AM_VIS
  5
99D
 10
1.78954
 20
5.18253
 30
0.000000
  70
    32
  0
VERTEX
  8
AM_VIS
  5
99E
 10
1.78907
 20
5.18305
 30
0.000000
  70
    32
  0
VERTEX
  8
AM_VIS
  5
99F
 10
1.78861
 20
5.18356
 30
0.000000
  70
    32
  0
VERTEX
  8
AM_VIS
  5
9A0
 10
1.78814
 20
5.18407
 30
0.000000
  70
    32
  0
VERTEX
  8
AM_VIS
  5
9A1
 10
1.78768
 20
5.18459
 30
0.000000
  70
    32
  0
VERTEX
  8
AM_VIS
  5
9A2
 10
1.78722
 20
5.18510
 30
0.000000
  70
    32
  0
VERTEX
  8
AM_VIS
  5
9A3
 10
1.78675
 20
5.18561
 30
0.000000
  70
    32
  0
VERTEX
  8
AM_VIS
  5
9A4
 10
1.78629
 20
5.18612
 30
0.000000
  70
    32
  0
VERTEX
  8
AM_VIS
  5
9A5
 10
1.78582
 20
5.18663
 30
0.000000
  70
    32
  0
VERTEX
  8
AM_VIS
  5
9A6
 10
1.78536
 20
5.18714
 30
0.000000
  70
    32
  0
VERTEX
  8
AM_VIS
  5
9A7
 10
1.78489
 20
5.18765
 30
0.000000
  70
    32
  0
VERTEX
  8
AM_VIS
  5
9A8
 10
1.78443
 20
5.18816
 30
0.000000
  70
    32
  0
VERTEX
  8
AM_VIS
  5
9A9
 10
1.78397
 20
5.18867
 30
0.000000
  70
    32
  0
VERTEX
  8
AM_VIS
  5
9AA
 10
1.78350
 20
5.18918
 30
0.000000
  70
    32
  0
VERTEX
  8
AM_VIS
  5
9AB
 10
1.78304
 20
5.18969
 30
0.000000
  70
    32
  0
VERTEX
  8
AM_VIS
  5
9AC
 10
1.78257
 20
5.19020
 30
0.000000
  70
    32
  0
VERTEX
  8
AM_VIS
  5
9AD
 10
1.78211
 20
5.19070
 30
0.000000
  70
    32
  0
VERTEX
  8
AM_VIS
  5
9AE
 10
1.78165
 20
5.19121
 30
0.000000
  70
    32
  0
VERTEX
  8
AM_VIS
  5
9AF
 10
1.78118
 20
5.19171
 30
0.000000
  70
    32
  0
VERTEX
  8
AM_VIS
  5
9B0
 10
1.78072
 20
5.19222
 30
0.000000
  70
    32
  0
VERTEX
  8
AM_VIS
  5
9B1
 10
1.78026
 20
5.19272
 30
0.000000
  70
    32
  0
VERTEX
  8
AM_VIS
  5
9B2
 10
1.77979
 20
5.19323
 30
0.000000
  70
    32
  0
VERTEX
  8
AM_VIS
  5
9B3
 10
1.77933
 20
5.19373
 30
0.000000
  70
    32
  0
VERTEX
  8
AM_VIS
  5
9B4
 10
1.77886
 20
5.19423
 30
0.000000
  70
    32
  0
VERTEX
  8
AM_VIS
  5
9B5
 10
1.77840
 20
5.19474
 30
0.000000
  70
    32
  0
VERTEX
  8
AM_VIS
  5
9B6
 10
1.77794
 20
5.19524
 30
0.000000
  70
    32
  0
VERTEX
  8
AM_VIS
  5
9B7
 10
1.77747
 20
5.19574
 30
0.000000
  70
    32
  0
VERTEX
  8
AM_VIS
  5
9B8
 10
1.77701
 20
5.19624
 30
0.000000
  70
    32
  0
VERTEX
  8
AM_VIS
  5
9B9
 10
1.77655
 20
5.19674
 30
0.000000
  70
    32
  0
VERTEX
  8
AM_VIS
  5
9BA
 10
1.77608
 20
5.19724
 30
0.000000
  70
    32
  0
VERTEX
  8
AM_VIS
  5
9BB
 10
1.77562
 20
5.19774
 30
0.000000
  70
    32
  0
VERTEX
  8
AM_VIS
  5
9BC
 10
1.77516
 20
5.19824
 30
0.000000
  70
    32
  0
VERTEX
  8
AM_VIS
  5
9BD
 10
1.77469
 20
5.19873
 30
0.000000
  70
    32
  0
VERTEX
  8
AM_VIS
  5
9BE
 10
1.77423
 20
5.19923
 30
0.000000
  70
    32
  0
VERTEX
  8
AM_VIS
  5
9BF
 10
1.77377
 20
5.19973
 30
0.000000
  70
    32
  0
VERTEX
  8
AM_VIS
  5
9C0
 10
1.77331
 20
5.20022
 30
0.000000
  70
    32
  0
VERTEX
  8
AM_VIS
  5
9C1
 10
1.77284
 20
5.20072
 30
0.000000
  70
    32
  0
VERTEX
  8
AM_VIS
  5
9C2
 10
1.77238
 20
5.20122
 30
0.000000
  70
    32
  0
VERTEX
  8
AM_VIS
  5
9C3
 10
1.77192
 20
5.20171
 30
0.000000
  70
    32
  0
VERTEX
  8
AM_VIS
  5
9C4
 10
1.77145
 20
5.20220
 30
0.000000
  70
    32
  0
VERTEX
  8
AM_VIS
  5
9C5
 10
1.77099
 20
5.20270
 30
0.000000
  70
    32
  0
VERTEX
  8
AM_VIS
  5
9C6
 10
1.77053
 20
5.20319
 30
0.000000
  70
    32
  0
VERTEX
  8
AM_VIS
  5
9C7
 10
1.77007
 20
5.20368
 30
0.000000
  70
    32
  0
VERTEX
  8
AM_VIS
  5
9C8
 10
1.76960
 20
5.20417
 30
0.000000
  70
    32
  0
SEQEND
  8
AM_VIS
  5
9C9
  0
POLYLINE
  5
45
  8
AM_HID
 10
1.8401481387062024
 20
5.1234689773129345
 30
0.0
 66
     1
 70
     8
  0
VERTEX
  8
AM_HID
  5
9CA
 10
1.84015
 20
5.12347
 30
0.000000
  70
    32
  0
VERTEX
  8
AM_HID
  5
9CB
 10
1.84006
 20
5.12357
 30
0.000000
  70
    32
  0
VERTEX
  8
AM_HID
  5
9CC
 10
1.83998
 20
5.12368
 30
0.000000
  70
    32
  0
VERTEX
  8
AM_HID
  5
9CD
 10
1.83989
 20
5.12379
 30
0.000000
  70
    32
  0
VERTEX
  8
AM_HID
  5
9CE
 10
1.83980
 20
5.12389
 30
0.000000
  70
    32
  0
VERTEX
  8
AM_HID
  5
9CF
 10
1.83972
 20
5.12400
 30
0.000000
  70
    32
  0
VERTEX
  8
AM_HID
  5
9D0
 10
1.83963
 20
5.12410
 30
0.000000
  70
    32
  0
VERTEX
  8
AM_HID
  5
9D1
 10
1.83954
 20
5.12421
 30
0.000000
  70
    32
  0
VERTEX
  8
AM_HID
  5
9D2
 10
1.83946
 20
5.12431
 30
0.000000
  70
    32
  0
VERTEX
  8
AM_HID
  5
9D3
 10
1.83937
 20
5.12442
 30
0.000000
  70
    32
  0
VERTEX
  8
AM_HID
  5
9D4
 10
1.83929
 20
5.12452
 30
0.000000
  70
    32
  0
VERTEX
  8
AM_HID
  5
9D5
 10
1.83920
 20
5.12463
 30
0.000000
  70
    32
  0
VERTEX
  8
AM_HID
  5
9D6
 10
1.83911
 20
5.12473
 30
0.000000
  70
    32
  0
VERTEX
  8
AM_HID
  5
9D7
 10
1.83903
 20
5.12484
 30
0.000000
  70
    32
  0
VERTEX
  8
AM_HID
  5
9D8
 10
1.83894
 20
5.12494
 30
0.000000
  70
    32
  0
VERTEX
  8
AM_HID
  5
9D9
 10
1.83886
 20
5.12505
 30
0.000000
  70
    32
  0
VERTEX
  8
AM_HID
  5
9DA
 10
1.83877
 20
5.12516
 30
0.000000
  70
    32
  0
VERTEX
  8
AM_HID
  5
9DB
 10
1.83868
 20
5.12526
 30
0.000000
  70
    32
  0
VERTEX
  8
AM_HID
  5
9DC
 10
1.83860
 20
5.12537
 30
0.000000
  70
    32
  0
VERTEX
  8
AM_HID
  5
9DD
 10
1.83851
 20
5.12547
 30
0.000000
  70
    32
  0
VERTEX
  8
AM_HID
  5
9DE
 10
1.83842
 20
5.12558
 30
0.000000
  70
    32
  0
VERTEX
  8
AM_HID
  5
9DF
 10
1.83834
 20
5.12568
 30
0.000000
  70
    32
  0
VERTEX
  8
AM_HID
  5
9E0
 10
1.83825
 20
5.12579
 30
0.000000
  70
    32
  0
VERTEX
  8
AM_HID
  5
9E1
 10
1.83817
 20
5.12589
 30
0.000000
  70
    32
  0
VERTEX
  8
AM_HID
  5
9E2
 10
1.83808
 20
5.12600
 30
0.000000
  70
    32
  0
VERTEX
  8
AM_HID
  5
9E3
 10
1.83799
 20
5.12610
 30
0.000000
  70
    32
  0
VERTEX
  8
AM_HID
  5
9E4
 10
1.83791
 20
5.12621
 30
0.000000
  70
    32
  0
VERTEX
  8
AM_HID
  5
9E5
 10
1.83782
 20
5.12631
 30
0.000000
  70
    32
  0
VERTEX
  8
AM_HID
  5
9E6
 10
1.83774
 20
5.12642
 30
0.000000
  70
    32
  0
VERTEX
  8
AM_HID
  5
9E7
 10
1.83765
 20
5.12652
 30
0.000000
  70
    32
  0
VERTEX
  8
AM_HID
  5
9E8
 10
1.83756
 20
5.12663
 30
0.000000
  70
    32
  0
VERTEX
  8
AM_HID
  5
9E9
 10
1.83748
 20
5.12673
 30
0.000000
  70
    32
  0
VERTEX
  8
AM_HID
  5
9EA
 10
1.83739
 20
5.12684
 30
0.000000
  70
    32
  0
VERTEX
  8
AM_HID
  5
9EB
 10
1.83730
 20
5.12694
 30
0.000000
  70
    32
  0
VERTEX
  8
AM_HID
  5
9EC
 10
1.83722
 20
5.12705
 30
0.000000
  70
    32
  0
VERTEX
  8
AM_HID
  5
9ED
 10
1.83713
 20
5.12715
 30
0.000000
  70
    32
  0
VERTEX
  8
AM_HID
  5
9EE
 10
1.83705
 20
5.12726
 30
0.000000
  70
    32
  0
VERTEX
  8
AM_HID
  5
9EF
 10
1.83696
 20
5.12736
 30
0.000000
  70
    32
  0
VERTEX
  8
AM_HID
  5
9F0
 10
1.83687
 20
5.12747
 30
0.000000
  70
    32
  0
VERTEX
  8
AM_HID
  5
9F1
 10
1.83679
 20
5.12757
 30
0.000000
  70
    32
  0
VERTEX
  8
AM_HID
  5
9F2
 10
1.83670
 20
5.12768
 30
0.000000
  70
    32
  0
VERTEX
  8
AM_HID
  5
9F3
 10
1.83662
 20
5.12778
 30
0.000000
  70
    32
  0
VERTEX
  8
AM_HID
  5
9F4
 10
1.83653
 20
5.12789
 30
0.000000
  70
    32
  0
VERTEX
  8
AM_HID
  5
9F5
 10
1.83644
 20
5.12799
 30
0.000000
  70
    32
  0
VERTEX
  8
AM_HID
  5
9F6
 10
1.83636
 20
5.12810
 30
0.000000
  70
    32
  0
VERTEX
  8
AM_HID
  5
9F7
 10
1.83627
 20
5.12820
 30
0.000000
  70
    32
  0
VERTEX
  8
AM_HID
  5
9F8
 10
1.83618
 20
5.12831
 30
0.000000
  70
    32
  0
VERTEX
  8
AM_HID
  5
9F9
 10
1.83610
 20
5.12841
 30
0.000000
  70
    32
  0
VERTEX
  8
AM_HID
  5
9FA
 10
1.83601
 20
5.12851
 30
0.000000
  70
    32
  0
VERTEX
  8
AM_HID
  5
9FB
 10
1.83593
 20
5.12862
 30
0.000000
  70
    32
  0
VERTEX
  8
AM_HID
  5
9FC
 10
1.83584
 20
5.12872
 30
0.000000
  70
    32
  0
VERTEX
  8
AM_HID
  5
9FD
 10
1.83575
 20
5.12883
 30
0.000000
  70
    32
  0
VERTEX
  8
AM_HID
  5
9FE
 10
1.83567
 20
5.12893
 30
0.000000
  70
    32
  0
VERTEX
  8
AM_HID
  5
9FF
 10
1.83558
 20
5.12904
 30
0.000000
  70
    32
  0
VERTEX
  8
AM_HID
  5
A00
 10
1.83550
 20
5.12914
 30
0.000000
  70
    32
  0
VERTEX
  8
AM_HID
  5
A01
 10
1.83541
 20
5.12925
 30
0.000000
  70
    32
  0
VERTEX
  8
AM_HID
  5
A02
 10
1.83532
 20
5.12935
 30
0.000000
  70
    32
  0
VERTEX
  8
AM_HID
  5
A03
 10
1.83524
 20
5.12946
 30
0.000000
  70
    32
  0
VERTEX
  8
AM_HID
  5
A04
 10
1.83515
 20
5.12956
 30
0.000000
  70
    32
  0
VERTEX
  8
AM_HID
  5
A05
 10
1.83506
 20
5.12967
 30
0.000000
  70
    32
  0
VERTEX
  8
AM_HID
  5
A06
 10
1.83498
 20
5.12977
 30
0.000000
  70
    32
  0
VERTEX
  8
AM_HID
  5
A07
 10
1.83489
 20
5.12987
 30
0.000000
  70
    32
  0
VERTEX
  8
AM_HID
  5
A08
 10
1.83481
 20
5.12998
 30
0.000000
  70
    32
  0
VERTEX
  8
AM_HID
  5
A09
 10
1.83472
 20
5.13008
 30
0.000000
  70
    32
  0
VERTEX
  8
AM_HID
  5
A0A
 10
1.83463
 20
5.13019
 30
0.000000
  70
    32
  0
VERTEX
  8
AM_HID
  5
A0B
 10
1.83455
 20
5.13029
 30
0.000000
  70
    32
  0
VERTEX
  8
AM_HID
  5
A0C
 10
1.83446
 20
5.13040
 30
0.000000
  70
    32
  0
VERTEX
  8
AM_HID
  5
A0D
 10
1.83438
 20
5.13050
 30
0.000000
  70
    32
  0
VERTEX
  8
AM_HID
  5
A0E
 10
1.83429
 20
5.13061
 30
0.000000
  70
    32
  0
VERTEX
  8
AM_HID
  5
A0F
 10
1.83420
 20
5.13071
 30
0.000000
  70
    32
  0
VERTEX
  8
AM_HID
  5
A10
 10
1.83412
 20
5.13081
 30
0.000000
  70
    32
  0
VERTEX
  8
AM_HID
  5
A11
 10
1.83403
 20
5.13092
 30
0.000000
  70
    32
  0
VERTEX
  8
AM_HID
  5
A12
 10
1.83394
 20
5.13102
 30
0.000000
  70
    32
  0
VERTEX
  8
AM_HID
  5
A13
 10
1.83386
 20
5.13113
 30
0.000000
  70
    32
  0
VERTEX
  8
AM_HID
  5
A14
 10
1.83377
 20
5.13123
 30
0.000000
  70
    32
  0
VERTEX
  8
AM_HID
  5
A15
 10
1.83369
 20
5.13134
 30
0.000000
  70
    32
  0
VERTEX
  8
AM_HID
  5
A16
 10
1.83360
 20
5.13144
 30
0.000000
  70
    32
  0
VERTEX
  8
AM_HID
  5
A17
 10
1.83351
 20
5.13154
 30
0.000000
  70
    32
  0
VERTEX
  8
AM_HID
  5
A18
 10
1.83343
 20
5.13165
 30
0.000000
  70
    32
  0
VERTEX
  8
AM_HID
  5
A19
 10
1.83334
 20
5.13175
 30
0.000000
  70
    32
  0
VERTEX
  8
AM_HID
  5
A1A
 10
1.83326
 20
5.13186
 30
0.000000
  70
    32
  0
VERTEX
  8
AM_HID
  5
A1B
 10
1.83317
 20
5.13196
 30
0.000000
  70
    32
  0
VERTEX
  8
AM_HID
  5
A1C
 10
1.83308
 20
5.13207
 30
0.000000
  70
    32
  0
VERTEX
  8
AM_HID
  5
A1D
 10
1.83300
 20
5.13217
 30
0.000000
  70
    32
  0
VERTEX
  8
AM_HID
  5
A1E
 10
1.83291
 20
5.13227
 30
0.000000
  70
    32
  0
VERTEX
  8
AM_HID
  5
A1F
 10
1.83282
 20
5.13238
 30
0.000000
  70
    32
  0
VERTEX
  8
AM_HID
  5
A20
 10
1.83274
 20
5.13248
 30
0.000000
  70
    32
  0
VERTEX
  8
AM_HID
  5
A21
 10
1.83265
 20
5.13259
 30
0.000000
  70
    32
  0
VERTEX
  8
AM_HID
  5
A22
 10
1.83257
 20
5.13269
 30
0.000000
  70
    32
  0
VERTEX
  8
AM_HID
  5
A23
 10
1.83248
 20
5.13279
 30
0.000000
  70
    32
  0
VERTEX
  8
AM_HID
  5
A24
 10
1.83239
 20
5.13290
 30
0.000000
  70
    32
  0
VERTEX
  8
AM_HID
  5
A25
 10
1.83231
 20
5.13300
 30
0.000000
  70
    32
  0
VERTEX
  8
AM_HID
  5
A26
 10
1.83222
 20
5.13311
 30
0.000000
  70
    32
  0
VERTEX
  8
AM_HID
  5
A27
 10
1.83214
 20
5.13321
 30
0.000000
  70
    32
  0
VERTEX
  8
AM_HID
  5
A28
 10
1.83205
 20
5.13331
 30
0.000000
  70
    32
  0
VERTEX
  8
AM_HID
  5
A29
 10
1.83196
 20
5.13342
 30
0.000000
  70
    32
  0
VERTEX
  8
AM_HID
  5
A2A
 10
1.83188
 20
5.13352
 30
0.000000
  70
    32
  0
VERTEX
  8
AM_HID
  5
A2B
 10
1.83179
 20
5.13363
 30
0.000000
  70
    32
  0
VERTEX
  8
AM_HID
  5
A2C
 10
1.83170
 20
5.13373
 30
0.000000
  70
    32
  0
VERTEX
  8
AM_HID
  5
A2D
 10
1.83162
 20
5.13383
 30
0.000000
  70
    32
  0
VERTEX
  8
AM_HID
  5
A2E
 10
1.83153
 20
5.13394
 30
0.000000
  70
    32
  0
VERTEX
  8
AM_HID
  5
A2F
 10
1.83145
 20
5.13404
 30
0.000000
  70
    32
  0
VERTEX
  8
AM_HID
  5
A30
 10
1.83136
 20
5.13414
 30
0.000000
  70
    32
  0
VERTEX
  8
AM_HID
  5
A31
 10
1.83127
 20
5.13425
 30
0.000000
  70
    32
  0
VERTEX
  8
AM_HID
  5
A32
 10
1.83119
 20
5.13435
 30
0.000000
  70
    32
  0
VERTEX
  8
AM_HID
  5
A33
 10
1.83110
 20
5.13446
 30
0.000000
  70
    32
  0
VERTEX
  8
AM_HID
  5
A34
 10
1.83102
 20
5.13456
 30
0.000000
  70
    32
  0
VERTEX
  8
AM_HID
  5
A35
 10
1.83093
 20
5.13466
 30
0.000000
  70
    32
  0
VERTEX
  8
AM_HID
  5
A36
 10
1.83084
 20
5.13477
 30
0.000000
  70
    32
  0
VERTEX
  8
AM_HID
  5
A37
 10
1.83076
 20
5.13487
 30
0.000000
  70
    32
  0
VERTEX
  8
AM_HID
  5
A38
 10
1.83067
 20
5.13497
 30
0.000000
  70
    32
  0
VERTEX
  8
AM_HID
  5
A39
 10
1.83058
 20
5.13508
 30
0.000000
  70
    32
  0
VERTEX
  8
AM_HID
  5
A3A
 10
1.83050
 20
5.13518
 30
0.000000
  70
    32
  0
VERTEX
  8
AM_HID
  5
A3B
 10
1.83041
 20
5.13529
 30
0.000000
  70
    32
  0
VERTEX
  8
AM_HID
  5
A3C
 10
1.83033
 20
5.13539
 30
0.000000
  70
    32
  0
VERTEX
  8
AM_HID
  5
A3D
 10
1.83024
 20
5.13549
 30
0.000000
  70
    32
  0
VERTEX
  8
AM_HID
  5
A3E
 10
1.83015
 20
5.13560
 30
0.000000
  70
    32
  0
VERTEX
  8
AM_HID
  5
A3F
 10
1.83007
 20
5.13570
 30
0.000000
  70
    32
  0
VERTEX
  8
AM_HID
  5
A40
 10
1.82998
 20
5.13580
 30
0.000000
  70
    32
  0
VERTEX
  8
AM_HID
  5
A41
 10
1.82990
 20
5.13591
 30
0.000000
  70
    32
  0
VERTEX
  8
AM_HID
  5
A42
 10
1.82981
 20
5.13601
 30
0.000000
  70
    32
  0
VERTEX
  8
AM_HID
  5
A43
 10
1.82972
 20
5.13611
 30
0.000000
  70
    32
  0
VERTEX
  8
AM_HID
  5
A44
 10
1.82964
 20
5.13622
 30
0.000000
  70
    32
  0
VERTEX
  8
AM_HID
  5
A45
 10
1.82955
 20
5.13632
 30
0.000000
  70
    32
  0
VERTEX
  8
AM_HID
  5
A46
 10
1.82946
 20
5.13642
 30
0.000000
  70
    32
  0
VERTEX
  8
AM_HID
  5
A47
 10
1.82938
 20
5.13653
 30
0.000000
  70
    32
  0
VERTEX
  8
AM_HID
  5
A48
 10
1.82929
 20
5.13663
 30
0.000000
  70
    32
  0
VERTEX
  8
AM_HID
  5
A49
 10
1.82921
 20
5.13673
 30
0.000000
  70
    32
  0
VERTEX
  8
AM_HID
  5
A4A
 10
1.82912
 20
5.13684
 30
0.000000
  70
    32
  0
SEQEND
  8
AM_HID
  5
A4B
  0
LINE
  5
46
  8
AM_HID
 10
1.6285159440074981
 20
5.063945503052631
 30
0.0
 11
1.6285159440074981
 21
5.0313773911079389
 31
0.0
  0
LINE
  5
47
  8
AM_VIS
 10
1.7696040738066341
 20
5.0639455030526292
 30
0.0
 11
1.6285159440074981
 21
5.0639455030526292
 31
0.0
  0
LINE
  5
48
  8
AM_HID
 10
1.7696040738066341
 20
5.0639455030526292
 30
0.0
 11
1.7696040738066341
 21
5.0313773911079389
 31
0.0
  0
LINE
  5
49
  8
AM_HID
 10
1.55797187910793
 20
5.1503439847454917
 30
0.0
 11
1.55797187910793
 21
5.1234689773129336
 31
0.0
  0
LINE
  5
4A
  8
AM_VIS
 10
1.6285159440074981
 20
5.0639455030526292
 30
0.0
 11
1.55797187910793
 21
5.1503439847454917
 31
0.0
  0
LINE
  5
4B
  8
AM_VIS
 10
1.6285159440074981
 20
5.2367424664383551
 30
0.0
 11
1.6285159440074981
 21
5.2041743544936629
 31
0.0
  0
LINE
  5
4C
  8
AM_VIS
 10
1.55797187910793
 20
5.1503439847454917
 30
0.0
 11
1.6285159440074981
 21
5.2367424664383524
 31
0.0
  0
LINE
  5
4D
  8
AM_VIS
 10
1.769604073806635
 20
5.2367424664383551
 30
0.0
 11
1.769604073806635
 21
5.2041743544936629
 31
0.0
  0
LINE
  5
4E
  8
AM_VIS
 10
1.6285159440074981
 20
5.2367424664383524
 30
0.0
 11
1.769604073806635
 21
5.2367424664383524
 31
0.0
  0
LINE
  5
4F
  8
AM_VIS
 10
1.840148138706202
 20
5.1503439847454917
 30
0.0
 11
1.7696040738066341
 21
5.0639455030526292
 31
0.0
  0
LINE
  5
50
  8
AM_HID
 10
1.840148138706202
 20
5.1503439847454917
 30
0.0
 11
1.840148138706202
 21
5.1234689773129336
 31
0.0
  0
LINE
  5
51
  8
AM_VIS
 10
1.769604073806635
 20
5.2367424664383524
 30
0.0
 11
1.8401481387062031
 21
5.1503439847454917
 31
0.0
  0
POLYLINE
  5
52
  8
AM_VIS
 10
1.6990600089070669
 20
4.9823751882920106
 30
0.0
 66
     1
 70
     8
  0
VERTEX
  8
AM_VIS
  5
A4C
 10
1.69906
 20
4.98238
 30
0.000000
  70
    32
  0
VERTEX
  8
AM_VIS
  5
A4D
 10
1.71072
 20
4.98258
 30
0.000000
  70
    32
  0
VERTEX
  8
AM_VIS
  5
A4E
 10
1.72234
 20
4.98318
 30
0.000000
  70
    32
  0
VERTEX
  8
AM_VIS
  5
A4F
 10
1.73391
 20
4.98419
 30
0.000000
  70
    32
  0
VERTEX
  8
AM_VIS
  5
A50
 10
1.74540
 20
4.98560
 30
0.000000
  70
    32
  0
VERTEX
  8
AM_VIS
  5
A51
 10
1.75678
 20
4.98741
 30
0.000000
  70
    32
  0
VERTEX
  8
AM_VIS
  5
A52
 10
1.76802
 20
4.98961
 30
0.000000
  70
    32
  0
VERTEX
  8
AM_VIS
  5
A53
 10
1.77909
 20
4.99219
 30
0.000000
  70
    32
  0
VERTEX
  8
AM_VIS
  5
A54
 10
1.78996
 20
4.99516
 30
0.000000
  70
    32
  0
VERTEX
  8
AM_VIS
  5
A55
 10
1.80062
 20
4.99850
 30
0.000000
  70
    32
  0
VERTEX
  8
AM_VIS
  5
A56
 10
1.81104
 20
5.00221
 30
0.000000
  70
    32
  0
VERTEX
  8
AM_VIS
  5
A57
 10
1.82118
 20
5.00627
 30
0.000000
  70
    32
  0
VERTEX
  8
AM_VIS
  5
A58
 10
1.83103
 20
5.01068
 30
0.000000
  70
    32
  0
VERTEX
  8
AM_VIS
  5
A59
 10
1.84056
 20
5.01543
 30
0.000000
  70
    32
  0
VERTEX
  8
AM_VIS
  5
A5A
 10
1.84976
 20
5.02050
 30
0.000000
  70
    32
  0
VERTEX
  8
AM_VIS
  5
A5B
 10
1.85858
 20
5.02589
 30
0.000000
  70
    32
  0
VERTEX
  8
AM_VIS
  5
A5C
 10
1.86703
 20
5.03157
 30
0.000000
  70
    32
  0
VERTEX
  8
AM_VIS
  5
A5D
 10
1.87507
 20
5.03754
 30
0.000000
  70
    32
  0
VERTEX
  8
AM_VIS
  5
A5E
 10
1.88268
 20
5.04379
 30
0.000000
  70
    32
  0
VERTEX
  8
AM_VIS
  5
A5F
 10
1.88986
 20
5.05029
 30
0.000000
  70
    32
  0
VERTEX
  8
AM_VIS
  5
A60
 10
1.89657
 20
5.05703
 30
0.000000
  70
    32
  0
VERTEX
  8
AM_VIS
  5
A61
 10
1.90281
 20
5.06399
 30
0.000000
  70
    32
  0
VERTEX
  8
AM_VIS
  5
A62
 10
1.90855
 20
5.07116
 30
0.000000
  70
    32
  0
VERTEX
  8
AM_VIS
  5
A63
 10
1.91380
 20
5.07853
 30
0.000000
  70
    32
  0
VERTEX
  8
AM_VIS
  5
A64
 10
1.91852
 20
5.08607
 30
0.000000
  70
    32
  0
VERTEX
  8
AM_VIS
  5
A65
 10
1.92272
 20
5.09376
 30
0.000000
  70
    32
  0
VERTEX
  8
AM_VIS
  5
A66
 10
1.92638
 20
5.10159
 30
0.000000
  70
    32
  0
VERTEX
  8
AM_VIS
  5
A67
 10
1.92948
 20
5.10953
 30
0.000000
  70
    32
  0
VERTEX
  8
AM_VIS
  5
A68
 10
1.93204
 20
5.11757
 30
0.000000
  70
    32
  0
VERTEX
  8
AM_VIS
  5
A69
 10
1.93403
 20
5.12570
 30
0.000000
  70
    32
  0
VERTEX
  8
AM_VIS
  5
A6A
 10
1.93546
 20
5.13388
 30
0.000000
  70
    32
  0
VERTEX
  8
AM_VIS
  5
A6B
 10
1.93632
 20
5.14210
 30
0.000000
  70
    32
  0
VERTEX
  8
AM_VIS
  5
A6C
 10
1.93660
 20
5.15034
 30
0.000000
  70
    32
  0
VERTEX
  8
AM_VIS
  5
A6D
 10
1.93632
 20
5.15859
 30
0.000000
  70
    32
  0
VERTEX
  8
AM_VIS
  5
A6E
 10
1.93546
 20
5.16681
 30
0.000000
  70
    32
  0
VERTEX
  8
AM_VIS
  5
A6F
 10
1.93403
 20
5.17499
 30
0.000000
  70
    32
  0
VERTEX
  8
AM_VIS
  5
A70
 10
1.93204
 20
5.18311
 30
0.000000
  70
    32
  0
VERTEX
  8
AM_VIS
  5
A71
 10
1.92948
 20
5.19116
 30
0.000000
  70
    32
  0
VERTEX
  8
AM_VIS
  5
A72
 10
1.92638
 20
5.19910
 30
0.000000
  70
    32
  0
VERTEX
  8
AM_VIS
  5
A73
 10
1.92272
 20
5.20693
 30
0.000000
  70
    32
  0
VERTEX
  8
AM_VIS
  5
A74
 10
1.91852
 20
5.21462
 30
0.000000
  70
    32
  0
VERTEX
  8
AM_VIS
  5
A75
 10
1.91380
 20
5.22216
 30
0.000000
  70
    32
  0
VERTEX
  8
AM_VIS
  5
A76
 10
1.90855
 20
5.22952
 30
0.000000
  70
    32
  0
VERTEX
  8
AM_VIS
  5
A77
 10
1.90281
 20
5.23670
 30
0.000000
  70
    32
  0
VERTEX
  8
AM_VIS
  5
A78
 10
1.89657
 20
5.24366
 30
0.000000
  70
    32
  0
VERTEX
  8
AM_VIS
  5
A79
 10
1.88986
 20
5.25040
 30
0.000000
  70
    32
  0
VERTEX
  8
AM_VIS
  5
A7A
 10
1.88268
 20
5.25690
 30
0.000000
  70
    32
  0
VERTEX
  8
AM_VIS
  5
A7B
 10
1.87507
 20
5.26314
 30
0.000000
  70
    32
  0
VERTEX
  8
AM_VIS
  5
A7C
 10
1.86703
 20
5.26912
 30
0.000000
  70
    32
  0
VERTEX
  8
AM_VIS
  5
A7D
 10
1.85858
 20
5.27480
 30
0.000000
  70
    32
  0
VERTEX
  8
AM_VIS
  5
A7E
 10
1.84976
 20
5.28019
 30
0.000000
  70
    32
  0
VERTEX
  8
AM_VIS
  5
A7F
 10
1.84056
 20
5.28526
 30
0.000000
  70
    32
  0
VERTEX
  8
AM_VIS
  5
A80
 10
1.83103
 20
5.29000
 30
0.000000
  70
    32
  0
VERTEX
  8
AM_VIS
  5
A81
 10
1.82118
 20
5.29442
 30
0.000000
  70
    32
  0
VERTEX
  8
AM_VIS
  5
A82
 10
1.81104
 20
5.29848
 30
0.000000
  70
    32
  0
VERTEX
  8
AM_VIS
  5
A83
 10
1.80062
 20
5.30219
 30
0.000000
  70
    32
  0
VERTEX
  8
AM_VIS
  5
A84
 10
1.78996
 20
5.30553
 30
0.000000
  70
    32
  0
VERTEX
  8
AM_VIS
  5
A85
 10
1.77909
 20
5.30849
 30
0.000000
  70
    32
  0
VERTEX
  8
AM_VIS
  5
A86
 10
1.76802
 20
5.31108
 30
0.000000
  70
    32
  0
VERTEX
  8
AM_VIS
  5
A87
 10
1.75678
 20
5.31328
 30
0.000000
  70
    32
  0
VERTEX
  8
AM_VIS
  5
A88
 10
1.74540
 20
5.31509
 30
0.000000
  70
    32
  0
VERTEX
  8
AM_VIS
  5
A89
 10
1.73391
 20
5.31649
 30
0.000000
  70
    32
  0
VERTEX
  8
AM_VIS
  5
A8A
 10
1.72234
 20
5.31750
 30
0.000000
  70
    32
  0
VERTEX
  8
AM_VIS
  5
A8B
 10
1.71072
 20
5.31811
 30
0.000000
  70
    32
  0
VERTEX
  8
AM_VIS
  5
A8C
 10
1.69906
 20
5.31831
 30
0.000000
  70
    32
  0
VERTEX
  8
AM_VIS
  5
A8D
 10
1.68740
 20
5.31811
 30
0.000000
  70
    32
  0
VERTEX
  8
AM_VIS
  5
A8E
 10
1.67578
 20
5.31750
 30
0.000000
  70
    32
  0
VERTEX
  8
AM_VIS
  5
A8F
 10
1.66421
 20
5.31649
 30
0.000000
  70
    32
  0
VERTEX
  8
AM_VIS
  5
A90
 10
1.65272
 20
5.31509
 30
0.000000
  70
    32
  0
VERTEX
  8
AM_VIS
  5
A91
 10
1.64134
 20
5.31328
 30
0.000000
  70
    32
  0
VERTEX
  8
AM_VIS
  5
A92
 10
1.63010
 20
5.31108
 30
0.000000
  70
    32
  0
VERTEX
  8
AM_VIS
  5
A93
 10
1.61903
 20
5.30849
 30
0.000000
  70
    32
  0
VERTEX
  8
AM_VIS
  5
A94
 10
1.60816
 20
5.30553
 30
0.000000
  70
    32
  0
VERTEX
  8
AM_VIS
  5
A95
 10
1.59750
 20
5.30219
 30
0.000000
  70
    32
  0
VERTEX
  8
AM_VIS
  5
A96
 10
1.58708
 20
5.29848
 30
0.000000
  70
    32
  0
VERTEX
  8
AM_VIS
  5
A97
 10
1.57694
 20
5.29442
 30
0.000000
  70
    32
  0
VERTEX
  8
AM_VIS
  5
A98
 10
1.56709
 20
5.29000
 30
0.000000
  70
    32
  0
VERTEX
  8
AM_VIS
  5
A99
 10
1.55756
 20
5.28526
 30
0.000000
  70
    32
  0
VERTEX
  8
AM_VIS
  5
A9A
 10
1.54836
 20
5.28019
 30
0.000000
  70
    32
  0
VERTEX
  8
AM_VIS
  5
A9B
 10
1.53954
 20
5.27480
 30
0.000000
  70
    32
  0
VERTEX
  8
AM_VIS
  5
A9C
 10
1.53109
 20
5.26912
 30
0.000000
  70
    32
  0
VERTEX
  8
AM_VIS
  5
A9D
 10
1.52305
 20
5.26314
 30
0.000000
  70
    32
  0
VERTEX
  8
AM_VIS
  5
A9E
 10
1.51544
 20
5.25690
 30
0.000000
  70
    32
  0
VERTEX
  8
AM_VIS
  5
A9F
 10
1.50826
 20
5.25040
 30
0.000000
  70
    32
  0
VERTEX
  8
AM_VIS
  5
AA0
 10
1.50155
 20
5.24366
 30
0.000000
  70
    32
  0
VERTEX
  8
AM_VIS
  5
AA1
 10
1.49531
 20
5.23670
 30
0.000000
  70
    32
  0
VERTEX
  8
AM_VIS
  5
AA2
 10
1.48957
 20
5.22952
 30
0.000000
  70
    32
  0
VERTEX
  8
AM_VIS
  5
AA3
 10
1.48432
 20
5.22216
 30
0.000000
  70
    32
  0
VERTEX
  8
AM_VIS
  5
AA4
 10
1.47960
 20
5.21462
 30
0.000000
  70
    32
  0
VERTEX
  8
AM_VIS
  5
AA5
 10
1.47540
 20
5.20693
 30
0.000000
  70
    32
  0
VERTEX
  8
AM_VIS
  5
AA6
 10
1.47174
 20
5.19910
 30
0.000000
  70
    32
  0
VERTEX
  8
AM_VIS
  5
AA7
 10
1.46864
 20
5.19116
 30
0.000000
  70
    32
  0
VERTEX
  8
AM_VIS
  5
AA8
 10
1.46608
 20
5.18311
 30
0.000000
  70
    32
  0
VERTEX
  8
AM_VIS
  5
AA9
 10
1.46409
 20
5.17499
 30
0.000000
  70
    32
  0
VERTEX
  8
AM_VIS
  5
AAA
 10
1.46266
 20
5.16681
 30
0.000000
  70
    32
  0
VERTEX
  8
AM_VIS
  5
AAB
 10
1.46180
 20
5.15859
 30
0.000000
  70
    32
  0
VERTEX
  8
AM_VIS
  5
AAC
 10
1.46152
 20
5.15034
 30
0.000000
  70
    32
  0
VERTEX
  8
AM_VIS
  5
AAD
 10
1.46180
 20
5.14210
 30
0.000000
  70
    32
  0
VERTEX
  8
AM_VIS
  5
AAE
 10
1.46266
 20
5.13388
 30
0.000000
  70
    32
  0
VERTEX
  8
AM_VIS
  5
AAF
 10
1.46409
 20
5.12570
 30
0.000000
  70
    32
  0
VERTEX
  8
AM_VIS
  5
AB0
 10
1.46608
 20
5.11757
 30
0.000000
  70
    32
  0
VERTEX
  8
AM_VIS
  5
AB1
 10
1.46864
 20
5.10953
 30
0.000000
  70
    32
  0
VERTEX
  8
AM_VIS
  5
AB2
 10
1.47174
 20
5.10159
 30
0.000000
  70
    32
  0
VERTEX
  8
AM_VIS
  5
AB3
 10
1.47540
 20
5.09376
 30
0.000000
  70
    32
  0
VERTEX
  8
AM_VIS
  5
AB4
 10
1.47960
 20
5.08607
 30
0.000000
  70
    32
  0
VERTEX
  8
AM_VIS
  5
AB5
 10
1.48432
 20
5.07853
 30
0.000000
  70
    32
  0
VERTEX
  8
AM_VIS
  5
AB6
 10
1.48957
 20
5.07116
 30
0.000000
  70
    32
  0
VERTEX
  8
AM_VIS
  5
AB7
 10
1.49531
 20
5.06399
 30
0.000000
  70
    32
  0
VERTEX
  8
AM_VIS
  5
AB8
 10
1.50155
 20
5.05703
 30
0.000000
  70
    32
  0
VERTEX
  8
AM_VIS
  5
AB9
 10
1.50826
 20
5.05029
 30
0.000000
  70
    32
  0
VERTEX
  8
AM_VIS
  5
ABA
 10
1.51544
 20
5.04379
 30
0.000000
  70
    32
  0
VERTEX
  8
AM_VIS
  5
ABB
 10
1.52305
 20
5.03754
 30
0.000000
  70
    32
  0
VERTEX
  8
AM_VIS
  5
ABC
 10
1.53109
 20
5.03157
 30
0.000000
  70
    32
  0
VERTEX
  8
AM_VIS
  5
ABD
 10
1.53954
 20
5.02589
 30
0.000000
  70
    32
  0
VERTEX
  8
AM_VIS
  5
ABE
 10
1.54836
 20
5.02050
 30
0.000000
  70
    32
  0
VERTEX
  8
AM_VIS
  5
ABF
 10
1.55756
 20
5.01543
 30
0.000000
  70
    32
  0
VERTEX
  8
AM_VIS
  5
AC0
 10
1.56709
 20
5.01068
 30
0.000000
  70
    32
  0
VERTEX
  8
AM_VIS
  5
AC1
 10
1.57694
 20
5.00627
 30
0.000000
  70
    32
  0
VERTEX
  8
AM_VIS
  5
AC2
 10
1.58708
 20
5.00221
 30
0.000000
  70
    32
  0
VERTEX
  8
AM_VIS
  5
AC3
 10
1.59750
 20
4.99850
 30
0.000000
  70
    32
  0
VERTEX
  8
AM_VIS
  5
AC4
 10
1.60816
 20
4.99516
 30
0.000000
  70
    32
  0
VERTEX
  8
AM_VIS
  5
AC5
 10
1.61903
 20
4.99219
 30
0.000000
  70
    32
  0
VERTEX
  8
AM_VIS
  5
AC6
 10
1.63010
 20
4.98961
 30
0.000000
  70
    32
  0
VERTEX
  8
AM_VIS
  5
AC7
 10
1.64134
 20
4.98741
 30
0.000000
  70
    32
  0
VERTEX
  8
AM_VIS
  5
AC8
 10
1.65272
 20
4.98560
 30
0.000000
  70
    32
  0
VERTEX
  8
AM_VIS
  5
AC9
 10
1.66421
 20
4.98419
 30
0.000000
  70
    32
  0
VERTEX
  8
AM_VIS
  5
ACA
 10
1.67578
 20
4.98318
 30
0.000000
  70
    32
  0
VERTEX
  8
AM_VIS
  5
ACB
 10
1.68740
 20
4.98258
 30
0.000000
  70
    32
  0
VERTEX
  8
AM_VIS
  5
ACC
 10
1.69906
 20
4.98238
 30
0.000000
  70
    32
  0
SEQEND
  8
AM_VIS
  5
ACD
  0
LINE
  5
53
  8
AM_HID
 10
0.5823596262073938
 20
4.6550662952152857
 30
0.0
 11
0.8674121262073937
 21
4.6550662952152857
 31
0.0
  0
LINE
  5
54
  8
AM_HID
 10
0.5823596262073938
 20
4.2749962952152849
 30
0.0
 11
0.8674121262073937
 21
4.2749962952152849
 31
0.0
  0
LINE
  5
55
  8
AM_HID
 10
0.5823596262073938
 20
3.324821295215286
 30
0.0
 11
0.8674121262073937
 21
3.324821295215286
 31
0.0
  0
LINE
  5
56
  8
AM_HID
 10
0.5823596262073938
 20
2.9447512952152861
 30
0.0
 11
0.8674121262073937
 21
2.9447512952152861
 31
0.0
  0
LINE
  5
57
  8
AM_HID
 10
0.5823596262073938
 20
5.9853112952152863
 30
0.0
 11
0.8674121262073937
 21
5.9853112952152863
 31
0.0
  0
LINE
  5
58
  8
AM_HID
 10
0.5823596262073938
 20
5.6052412952152864
 30
0.0
 11
0.8674121262073937
 21
5.6052412952152864
 31
0.0
  0
LINE
  5
59
  8
AM_VIS
 10
0.5823596262073938
 20
6.1753462952152862
 30
0.0
 11
0.8674121262073937
 21
6.1753462952152862
 31
0.0
  0
LINE
  5
5A
  8
AM_VIS
 10
0.5823596262073938
 20
2.7547162952152862
 30
0.0
 11
0.8674121262073937
 21
2.7547162952152862
 31
0.0
  0
LINE
  5
5B
  8
AM_VIS
 10
0.8674121262073937
 20
5.3962027952152862
 30
0.0
 11
2.3876921262073938
 21
5.3962027952152862
 31
0.0
  0
LINE
  5
5C
  8
AM_VIS
 10
0.8674121262073937
 20
3.5338597952152848
 30
0.0
 11
2.3876921262073938
 21
3.5338597952152848
 31
0.0
  0
LINE
  5
5D
  8
AM_HID
 10
2.3876921262073938
 20
3.7238947952152861
 30
0.0
 11
0.8674121262073937
 21
3.7238947952152861
 31
0.0
  0
LINE
  5
5E
  8
AM_HID
 10
2.3876921262073938
 20
5.2061677952152863
 30
0.0
 11
0.8674121262073937
 21
5.2061677952152863
 31
0.0
  0
LINE
  5
5F
  8
AM_VIS
 10
1.927917507053285
 20
5.1953510881088301
 30
0.0
 11
1.938343748985643
 21
5.1688427875807559
 31
0.0
  0
LINE
  5
60
  8
AM_VIS
 10
1.470202510760849
 20
5.1953510881088301
 30
0.0
 11
1.4597762688284901
 21
5.1688427875807559
 31
0.0
  0
LINE
  5
163
  8
0
 10
3.6125970883064209
 20
4.4175225452152862
 30
0.0
 11
3.6125970883064209
 21
1.8621020765695819
 31
0.0
  0
LINE
  5
164
  8
0
 10
7.033227088306421
 20
4.4175225452152862
 30
0.0
 11
7.033227088306421
 21
1.8621020765695819
 31
0.0
  0
LINE
  5
165
  8
0
 10
3.7076145883064209
 20
1.9989272765695829
 30
0.0
 11
5.0559807829492778
 21
1.9989272765695829
 31
0.0
  0
LINE
  5
166
  8
0
 10
6.938209588306421
 20
1.9989272765695829
 30
0.0
 11
5.5898433936635641
 21
1.9989272765695829
 31
0.0
  0
SOLID
  5
167
  8
0
 10
3.7076145883064209
 20
2.014763526569582
 30
0.0
 11
3.7076145883064209
 21
1.983091026569582
 31
0.0
 12
3.6125970883064209
 22
1.9989272765695829
 32
0.0
 13
3.6125970883064209
 23
1.9989272765695829
 33
0.0
  0
SOLID
  5
168
  8
0
 10
6.938209588306421
 20
2.014763526569582
 30
0.0
 11
6.938209588306421
 21
1.983091026569582
 31
0.0
 12
7.033227088306421
 22
1.9989272765695829
 32
0.0
 13
7.033227088306421
 23
1.9989272765695829
 33
0.0
  0
INSERT
  5
169
  8
0
  2
*U4
 10
0.0
 20
0.0
 30
0.0
  0
INSERT
  5
180
  8
0
  2
*U8
 10
0.0
 20
0.0
 30
0.0
  0
INSERT
  5
181
  8
0
  2
*U9
 10
0.0
 20
0.0
 30
0.0
  0
ENDSEC
  0
EOF
