  0
SECTION
  2
HEADER
  9
$ACADVER
  1
AC1009
  9
$INSBASE
 10
0.0
 20
0.0
 30
0.0
  9
$EXTMIN
 10
8.1631673329942771
 20
1.2354295839910641
 30
0.0
  9
$EXTMAX
 10
11.845672444756181
 20
5.7381416597297061
 30
0.0
  9
$LIMMIN
 10
0.0
 20
0.0
  9
$LIMMAX
 10
12.0
 20
9.0
  9
$ORTHOMODE
 70
     1
  9
$REGENMODE
 70
     0
  9
$FILLMODE
 70
     1
  9
$QTEXTMODE
 70
     0
  9
$MIRRTEXT
 70
     0
  9
$DRAGMODE
 70
     2
  9
$LTSCALE
 40
1.0
  9
$OSMODE
 70
    55
  9
$ATTMODE
 70
     1
  9
$TEXTSIZE
 40
0.2
  9
$TRACEWID
 40
0.05
  9
$TEXTSTYLE
  7
STANDARD
  9
$CLAYER
  8
0
  9
$CELTYPE
  6
BYLAYER
  9
$CECOLOR
 62
   256
  9
$DIMSCALE
 40
1.0
  9
$DIMASZ
 40
0.125
  9
$DIMEXO
 40
0.0625
  9
$DIMDLI
 40
0.38
  9
$DIMRND
 40
0.0
  9
$DIMDLE
 40
0.0
  9
$DIMEXE
 40
0.18
  9
$DIMTP
 40
0.0
  9
$DIMTM
 40
0.0
  9
$DIMTXT
 40
0.09375
  9
$DIMCEN
 40
-0.125
  9
$DIMTSZ
 40
0.0
  9
$DIMTOL
 70
     0
  9
$DIMLIM
 70
     0
  9
$DIMTIH
 70
     0
  9
$DIMTOH
 70
     0
  9
$DIMSE1
 70
     0
  9
$DIMSE2
 70
     0
  9
$DIMTAD
 70
     0
  9
$DIMZIN
 70
     3
  9
$DIMBLK
  1

  9
$DIMASO
 70
     0
  9
$DIMSHO
 70
     1
  9
$DIMPOST
  1

  9
$DIMAPOST
  1

  9
$DIMALT
 70
     0
  9
$DIMALTD
 70
     2
  9
$DIMALTF
 40
25.399999999999999
  9
$DIMLFAC
 40
1.0
  9
$DIMTOFL
 70
     1
  9
$DIMTVP
 40
0.0
  9
$DIMTIX
 70
     0
  9
$DIMSOXD
 70
     0
  9
$DIMSAH
 70
     0
  9
$DIMBLK1
  1

  9
$DIMBLK2
  1

  9
$DIMSTYLE
  2
STANDARD
  9
$DIMCLRD
 70
     0
  9
$DIMCLRE
 70
     0
  9
$DIMCLRT
 70
     0
  9
$DIMTFAC
 40
1.0
  9
$DIMGAP
 40
0.09
  9
$LUNITS
 70
     4
  9
$LUPREC
 70
     4
  9
$SKETCHINC
 40
0.1
  9
$FILLETRAD
 40
1.3125
  9
$AUNITS
 70
     0
  9
$AUPREC
 70
     4
  9
$MENU
  1
.
  9
$ELEVATION
 40
0.0
  9
$PELEVATION
 40
0.0
  9
$THICKNESS
 40
0.0
  9
$LIMCHECK
 70
     0
  9
$BLIPMODE
 70
     0
  9
$CHAMFERA
 40
0.125
  9
$CHAMFERB
 40
0.5
  9
$SKPOLY
 70
     0
  9
$TDCREATE
 40
2451086.9109346061
  9
$TDUPDATE
 40
2453913.574025753
  9
$TDINDWG
 40
0.0849357755
  9
$TDUSRTIMER
 40
0.0849357755
  9
$USRTIMER
 70
     1
  9
$ANGBASE
 50
0.0
  9
$ANGDIR
 70
     0
  9
$PDMODE
 70
    34
  9
$PDSIZE
 40
3.0
  9
$PLINEWID
 40
0.0
  9
$COORDS
 70
     1
  9
$SPLFRAME
 70
     0
  9
$SPLINETYPE
 70
     6
  9
$SPLINESEGS
 70
     8
  9
$ATTDIA
 70
     0
  9
$ATTREQ
 70
     1
  9
$HANDLING
 70
     1
  9
$HANDSEED
  5
36B
  9
$SURFTAB1
 70
     6
  9
$SURFTAB2
 70
     6
  9
$SURFTYPE
 70
     6
  9
$SURFU
 70
     6
  9
$SURFV
 70
     6
  9
$UCSNAME
  2

  9
$UCSORG
 10
0.0
 20
0.0
 30
0.0
  9
$UCSXDIR
 10
1.0
 20
0.0
 30
0.0
  9
$UCSYDIR
 10
0.0
 20
1.0
 30
0.0
  9
$PUCSNAME
  2

  9
$PUCSORG
 10
0.0
 20
0.0
 30
0.0
  9
$PUCSXDIR
 10
1.0
 20
0.0
 30
0.0
  9
$PUCSYDIR
 10
0.0
 20
1.0
 30
0.0
  9
$USERI1
 70
     0
  9
$USERI2
 70
     0
  9
$USERI3
 70
     0
  9
$USERI4
 70
     0
  9
$USERI5
 70
     0
  9
$USERR1
 40
0.0
  9
$USERR2
 40
0.0
  9
$USERR3
 40
0.0
  9
$USERR4
 40
0.0
  9
$USERR5
 40
0.0
  9
$WORLDVIEW
 70
     1
  9
$SHADEDGE
 70
     3
  9
$SHADEDIF
 70
    70
  9
$TILEMODE
 70
     1
  9
$MAXACTVP
 70
    48
  9
$PLIMCHECK
 70
     0
  9
$PEXTMIN
 10
7.8109463460747603
 20
0.9085787737632333
 30
0.0
  9
$PEXTMAX
 10
18.766850725076011
 20
10.631333352877689
 30
0.0
  9
$PLIMMIN
 10
-0.1579164520023376
 20
-0.2812499887361301
  9
$PLIMMAX
 10
10.84208330770177
 20
8.2187497709679782
  9
$UNITMODE
 70
     0
  9
$VISRETAIN
 70
     1
  9
$PLINEGEN
 70
     0
  9
$PSLTSCALE
 70
     1
  0
ENDSEC
  0
SECTION
  2
TABLES
  0
TABLE
  2
VPORT
 70
     2
  0
VPORT
  2
*ACTIVE
 70
     0
 10
0.0
 20
0.0
 11
1.0
 21
1.0
 12
5.3526144742385418
 22
0.1469979093009668
 13
0.0
 23
0.0
 14
0.5
 24
0.5
 15
0.5
 25
0.5
 16
0.0
 26
0.0
 36
1.0
 17
6.0132939572922579
 27
3.3872352037912088
 37
0.0
 40
5.0597007918326939
 41
2.3227848101265818
 42
50.0
 43
0.0
 44
0.0
 50
0.0
 51
0.0
 71
     0
 72
   100
 73
     1
 74
     1
 75
     0
 76
     0
 77
     0
 78
     0
  0
ENDTAB
  0
TABLE
  2
LTYPE
 70
    12
  0
LTYPE
  2
CONTINUOUS
 70
     0
  3
Solid line
 72
    65
 73
     0
 40
0.0
  0
LTYPE
  2
HIDDEN
 70
     0
  3
__ __ __ __ __ __ __ __ __ __ __ __ __ __ __ __
 72
    65
 73
     2
 40
0.375
 49
0.25
 49
-0.125
  0
LTYPE
  2
PHANTOM2
 70
     0
  3
Phantom (.5x) ___ _ _ ___ _ _ ___ _ _ ___ _ _
 72
    65
 73
     6
 40
1.25
 49
0.625
 49
-0.125
 49
0.125
 49
-0.125
 49
0.125
 49
-0.125
  0
LTYPE
  2
CENTER
 70
     0
  3
Center ____ _ ____ _ ____ _ ____ _ ____ _ ____
 72
    65
 73
     4
 40
2.0
 49
1.25
 49
-0.25
 49
0.25
 49
-0.25
  0
LTYPE
  2
AMCONSTR
 70
     0
  3
_______________________
 72
    65
 73
     2
 40
9999.0
 49
9999.0
 49
0.0
  0
LTYPE
  2
CENTER2
 70
     0
  3
Center (.5x) ___ _ ___ _ ___ _ ___ _ ___ _ ___
 72
    65
 73
     4
 40
1.125
 49
0.75
 49
-0.125
 49
0.125
 49
-0.125
  0
LTYPE
  2
HIDDEN2
 70
     0
  3
Hidden (.5x) _ _ _ _ _ _ _ _ _ _ _ _ _ _ _ _ _
 72
    65
 73
     2
 40
0.1875
 49
0.125
 49
-0.0625
  0
LTYPE
  2
AMZIGZAG2
 70
     0
  3
/\/-/\/-/\/-/\/-/\/-/\/
 72
    65
 73
     2
 40
0.4401
 49
0.0001
 49
-0.4400000000000001
  0
LTYPE
  2
ACANSTGB
 70
     0
  3
__ . . __ . .
 72
    65
 73
     6
 40
0.35433070866
 49
0.15748031496
 49
-0.03937007874
 49
0.03937007874
 49
-0.03937007874
 49
0.03937007874
 49
-0.03937007874
  0
LTYPE
  2
ACANSTGL
 70
     0
  3
_ _ _ _ _
 72
    65
 73
     2
 40
0.11811023622
 49
0.07874015748
 49
-0.03937007874
  0
LTYPE
  2
ASULTYPE
 70
     0
  3
Solid line
 72
    65
 73
     2
 40
3.0
 49
2.5
 49
0.5
  0
LTYPE
  2
ASVLTYPE
 70
     0
  3
__ __ __ __ __ __ __ __ __ __ __ __ __ __ __ __ __ __ __ __ __
 72
    65
 73
     2
 40
0.75
 49
0.5
 49
-0.25
  0
ENDTAB
  0
TABLE
  2
LAYER
 70
     4
  0
LAYER
  2
0
 70
     0
 62
     7
  6
CONTINUOUS
  0
LAYER
  2
AM_VIS
 70
     0
 62
     7
  6
CONTINUOUS
  0
LAYER
  2
AM_HID
 70
     0
 62
     7
  6
HIDDEN
  0
LAYER
  2
KEE10
 70
     0
 62
     7
  6
CONTINUOUS
  0
ENDTAB
  0
TABLE
  2
STYLE
 70
     5
  0
STYLE
  2
STANDARD
 70
     0
 40
0.0
 41
1.0
 50
0.0
 71
     0
 42
0.2
  3
txt
  4

  0
STYLE
  2

 70
     1
 40
0.0
 41
1.0
 50
0.0
 71
     0
 42
0.2
  3
ltypeshp.shx
  4

  0
STYLE
  2
ACANSTS
 70
     0
 40
1.0
 41
1.0
 50
0.0
 71
     0
 42
0.2
  3
romans.shx
  4

  0
STYLE
  2
ACANSGDT
 70
     0
 40
0.0
 41
1.0
 50
0.0
 71
     0
 42
0.2
  3
amgdtans.shx
  4

  0
STYLE
  2
ACANSTSB
 70
     0
 40
1.0
 41
1.0
 50
0.0
 71
     0
 42
0.2
  3
romans.shx
  4

  0
ENDTAB
  0
TABLE
  2
VIEW
 70
     0
  0
ENDTAB
  0
TABLE
  2
UCS
 70
     0
  0
ENDTAB
  0
TABLE
  2
APPID
 70
    13
  0
APPID
  2
ACAD
 70
     0
  0
APPID
  2
GENIUS_GENDIM_13
 70
     0
  0
APPID
  2
GENIUS_GENDTOL_13
 70
     0
  0
APPID
  2
GENIUS_GE3DTOL_13
 70
     0
  0
APPID
  2
MCAD_NO_VIS
 70
     0
  0
APPID
  2
ACAD_TEMP_GRAPHIC
 70
     0
  0
APPID
  2
AD_DRAW
 70
     0
  0
APPID
  2
ACATTRIBSERVICES
 70
     0
  0
APPID
  2
ASURF_PCURVE_APPNAME
 70
     0
  0
APPID
  2
AMG_3D2D_5_0
 70
     0
  0
APPID
  2
DESIGNERASSEMBLIES
 70
     0
  0
APPID
  2
ACADM_DIM_EDIT
 70
     0
  0
APPID
  2
AMDT_DM_ADJ
 70
     0
  0
ENDTAB
  0
TABLE
  2
DIMSTYLE
 70
     7
  0
DIMSTYLE
  2
STANDARD
 70
     0
  3

  4

  5

  6

  7

 40
1.0
 41
0.18
 42
0.0625
 43
0.38
 44
0.18
 45
0.0
 46
0.0
 47
0.0
 48
0.0
140
0.18
141
0.09
142
0.0
143
25.399999999999999
144
1.0
145
0.0
146
1.0
147
0.09
 71
     0
 72
     0
 73
     1
 74
     1
 75
     0
 76
     0
 77
     0
 78
     0
170
     0
171
     2
172
     0
173
     0
174
     0
175
     0
176
     0
177
     0
178
     0
  0
DIMSTYLE
  2
AM_ANSI
 70
     0
  3

  4
mm
  5

  6

  7

 40
1.0
 41
0.1
 42
0.05
 43
0.5
 44
0.1
 45
0.0
 46
0.0
 47
0.1
 48
0.1
140
0.12
141
0.0
142
0.0
143
25.399999999999999
144
1.0
145
0.0
146
0.71
147
0.06
 71
     0
 72
     0
 73
     1
 74
     1
 75
     0
 76
     0
 77
     0
 78
     7
170
     0
171
     2
172
     0
173
     0
174
     0
175
     0
176
   256
177
   256
178
     2
  0
DIMSTYLE
  2
AM_ANSI$3
 70
     0
  3

  4
mm
  5

  6

  7

 40
1.0
 41
0.1
 42
0.05
 43
0.5
 44
0.1
 45
0.0
 46
0.0
 47
0.1
 48
0.1
140
0.12
141
0.0
142
0.0
143
25.399999999999999
144
1.0
145
0.0
146
0.71
147
0.06
 71
     0
 72
     0
 73
     1
 74
     1
 75
     0
 76
     0
 77
     0
 78
     7
170
     0
171
     2
172
     0
173
     0
174
     0
175
     0
176
   256
177
   256
178
     2
  0
DIMSTYLE
  2
AM_ANSI$4
 70
     0
  3

  4
mm
  5

  6

  7

 40
1.0
 41
0.1
 42
0.05
 43
0.5
 44
0.1
 45
0.0
 46
0.0
 47
0.1
 48
0.1
140
0.12
141
0.0
142
0.0
143
25.399999999999999
144
1.0
145
0.0
146
0.71
147
0.06
 71
     0
 72
     0
 73
     1
 74
     1
 75
     0
 76
     0
 77
     0
 78
     7
170
     0
171
     2
172
     0
173
     0
174
     0
175
     0
176
   256
177
   256
178
     2
  0
DIMSTYLE
  2
AM_ANSI$7
 70
     0
  3

  4
mm
  5

  6

  7

 40
1.0
 41
0.1
 42
0.05
 43
0.5
 44
0.1
 45
0.0
 46
0.0
 47
0.1
 48
0.1
140
0.24
141
0.0
142
0.0
143
25.399999999999999
144
1.0
145
0.0
146
0.71
147
0.06
 71
     0
 72
     0
 73
     1
 74
     1
 75
     0
 76
     0
 77
     0
 78
     7
170
     0
171
     2
172
     0
173
     0
174
     0
175
     0
176
   256
177
   256
178
     2
  0
DIMSTYLE
  2
AM_ANSI$SF
 70
     0
  3

  4
mm
  5

  6

  7

 40
1.0
 41
0.1
 42
0.05
 43
0.5
 44
0.1
 45
0.0
 46
0.0
 47
0.1
 48
0.1
140
0.12
141
0.0
142
0.0
143
25.399999999999999
144
1.0
145
0.0
146
0.71
147
0.06
 71
     0
 72
     0
 73
     1
 74
     1
 75
     1
 76
     1
 77
     0
 78
     7
170
     0
171
     2
172
     0
173
     0
174
     0
175
     0
176
   256
177
   256
178
     2
  0
DIMSTYLE
  2
AM_ANSI$SH
 70
     0
  3

  4
mm
  5

  6
GENAXEH
  7

 40
1.0
 41
0.1
 42
0.05
 43
0.5
 44
0.1
 45
0.0
 46
0.0
 47
0.1
 48
0.1
140
0.12
141
0.0
142
0.0
143
25.399999999999999
144
1.0
145
0.0
146
0.71
147
0.06
 71
     0
 72
     0
 73
     1
 74
     1
 75
     1
 76
     1
 77
     0
 78
     7
170
     0
171
     2
172
     0
173
     1
174
     0
175
     0
176
   256
177
   256
178
     2
  0
ENDTAB
  0
ENDSEC
  0
SECTION
  2
BLOCKS
  0
BLOCK
  8
0
  2
$MODEL_SPACE
 70
     0
 10
0.0
 20
0.0
 30
0.0
  3
$MODEL_SPACE
  1

  0
ENDBLK
  5
A
  8
0
  0
BLOCK
 67
     1
  8
0
  2
$PAPER_SPACE
 70
     0
 10
0.0
 20
0.0
 30
0.0
  3
$PAPER_SPACE
  1

  0
ENDBLK
  5
F
 67
     1
  8
0
  0
BLOCK
  8
0
  2
*U0
 70
     1
 10
0.0
 20
0.0
 30
0.0
  3
*U0
  1

  0
ENDBLK
  5
147
  8
0
  0
BLOCK
  8
0
  2
GENAXEH
 70
     0
 10
0.0
 20
0.0
 30
0.0
  3
GENAXEH
  1

  0
LINE
  5
185
  8
0
 10
-1.0
 20
0.0
 30
0.0
 11
1.0
 21
0.0
 31
0.0
  0
ENDBLK
  5
187
  8
0
  0
BLOCK
  8
0
  2
_DOT
 70
     0
 10
0.0
 20
0.0
 30
0.0
  3
_DOT
  1

  0
POLYLINE
  5
1C2
  8
0
  6
BYBLOCK
 62
     0
 66
     1
 10
0.0
 20
0.0
 30
0.0
 70
     1
 40
0.5
 41
0.5
  0
VERTEX
  5
1C3
  8
0
  6
BYBLOCK
 62
     0
 10
-0.25
 20
0.0
 30
0.0
 42
1.0
  0
VERTEX
  5
1C4
  8
0
  6
BYBLOCK
 62
     0
 10
0.25
 20
0.0
 30
0.0
 42
1.0
  0
SEQEND
  5
1C5
  8
0
  6
BYBLOCK
 62
     0
  0
LINE
  5
1C6
  8
0
  6
BYBLOCK
 62
     0
 10
-0.5
 20
0.0
 30
0.0
 11
-1.0
 21
0.0
 31
0.0
  0
ENDBLK
  5
1C8
  8
0
  0
BLOCK
  8
0
  2
2D
 70
     0
 10
0.0
 20
0.0
 30
0.0
  3
2D
  1

  0
INSERT
  5
1CC
  8
0
  2
*U5
 10
0.0
 20
0.0
 30
0.0
  0
INSERT
  5
1CD
  8
0
  2
*U6
 10
0.0
 20
0.0
 30
0.0
  0
INSERT
  5
1CE
  8
0
  2
*U7
 10
0.0
 20
0.0
 30
0.0
  0
ENDBLK
  5
1D0
  8
0
  0
BLOCK
  8
0
  2
*U4
 70
     1
 10
0.0
 20
0.0
 30
0.0
  3
*U4
  1

  0
TEXT
  5
210
  8
0
 10
10.41392824948359
 20
5.5339541597297046
 30
0.0
 40
0.084375
  1
2-3/8"
  0
ENDBLK
  5
212
  8
0
  0
BLOCK
  8
0
  2
*U5
 70
     1
 10
0.0
 20
0.0
 30
0.0
  3
*U5
  1

  0
TEXT
  5
214
  8
KEE10
 10
-0.167740653382606
 20
0.7944046258072062
 30
0.0
 40
0.140625
  1
KEE
  0
ENDBLK
  5
216
  8
0
  0
BLOCK
  8
0
  2
*U6
 70
     1
 10
0.0
 20
0.0
 30
0.0
  3
*U6
  1

  0
TEXT
  5
218
  8
KEE10
 10
-0.308365653382606
 20
0.4858688129746218
 30
0.0
 40
0.140625
  1
KLAMP
  0
ENDBLK
  5
21A
  8
0
  0
BLOCK
  8
0
  2
*U7
 70
     1
 10
0.0
 20
0.0
 30
0.0
  3
*U7
  1

  0
TEXT
  5
21C
  8
KEE10
 10
-0.202896903382606
 20
0.2018753139112972
 30
0.0
 40
0.140625
  1
10-8
  0
ENDBLK
  5
21E
  8
0
  0
BLOCK
  8
0
  2
*U8
 70
     1
 10
0.0
 20
0.0
 30
0.0
  3
*U8
  1

  0
TEXT
  5
220
  8
KEE10
 10
9.2571996447763265
 20
2.7549304997119362
 30
0.0
 40
0.1265625
  1
KEE
  0
ENDBLK
  5
222
  8
0
  0
BLOCK
  8
0
  2
*U9
 70
     1
 10
0.0
 20
0.0
 30
0.0
  3
*U9
  1

  0
TEXT
  5
224
  8
KEE10
 10
9.1306371447763262
 20
2.4772482681626098
 30
0.0
 40
0.1265625
  1
KLAMP
  0
ENDBLK
  5
226
  8
0
  0
ENDSEC
  0
SECTION
  2
ENTITIES
  0
POINT
  5
25
  8
0
 10
0.0
 20
0.0
 30
0.0
  0
POINT
  5
26
  8
0
 10
0.0
 20
0.0
 30
0.0
  0
LINE
  5
29
  8
AM_VIS
 10
11.845672444756181
 20
1.47993469575297
 30
0.0
 11
11.845672444756181
 21
3.5499346957529698
 31
0.0
  0
ARC
  5
2A
  8
AM_HID
 10
11.341672444756179
 20
2.514934695752963
 30
0.0
 40
0.2812499999999922
 50
179.99999999999821
 51
270.00000000000119
  0
ARC
  5
2D
  8
AM_HID
 10
11.341672444756179
 20
2.5149346957529781
 30
0.0
 40
0.281249999999992
 50
89.999999999998764
 51
180.00000000000179
  0
ARC
  5
2E
  8
AM_HID
 10
11.34167244475619
 20
2.514934695752979
 30
0.0
 40
0.2812499999999914
 50
359.99999999999818
 51
90.000000000001336
  0
ARC
  5
2F
  8
AM_HID
 10
11.34167244475619
 20
2.514934695752963
 30
0.0
 40
0.2812499999999926
 50
269.99999999999892
 51
0.0000000000017586
  0
ARC
  5
30
  8
AM_HID
 10
11.341672444756179
 20
2.5149346957529719
 30
0.0
 40
0.3656249999999998
 50
270.00000000000023
 51
320.92769244081973
  0
ARC
  5
31
  8
AM_HID
 10
11.34546104257411
 20
2.5254230862981641
 30
0.0
 40
0.3692967596140948
 50
319.29431560951798
 51
358.37178989421977
  0
ARC
  5
32
  8
AM_HID
 10
11.34546104257411
 20
2.5044463052077779
 30
0.0
 40
0.3692967596140929
 50
1.6282101057800871
 51
40.705684390482119
  0
ARC
  5
33
  8
AM_HID
 10
11.341672444756179
 20
2.514934695752967
 30
0.0
 40
0.3656250000000013
 50
39.072307559180622
 51
89.999999999999915
  0
ARC
  5
34
  8
AM_HID
 10
11.341672444756179
 20
2.5149346957529688
 30
0.0
 40
0.3656249999999987
 50
90.000000000000028
 51
140.92769244081961
  0
ARC
  5
35
  8
AM_HID
 10
11.337883846938251
 20
2.504446305207777
 30
0.0
 40
0.3692967596140932
 50
139.29431560951789
 51
178.37178989421989
  0
ARC
  5
36
  8
AM_HID
 10
11.337883846938251
 20
2.5254230862981619
 30
0.0
 40
0.3692967596140913
 50
181.62821010578
 51
220.70568439048211
  0
ARC
  5
37
  8
AM_HID
 10
11.341672444756179
 20
2.514934695752971
 30
0.0
 40
0.365624999999999
 50
219.0723075591803
 51
270.0
  0
LINE
  5
45
  8
AM_VIS
 10
10.47767244475618
 20
4.9179346957529733
 30
0.0
 11
8.4076724447561837
 21
4.9179346957529733
 31
0.0
  0
ARC
  5
46
  8
AM_HID
 10
9.4426724447561892
 20
4.4139346957529684
 30
0.0
 40
0.2812499999999924
 50
270.0
 51
0.0000000000028777
  0
ARC
  5
47
  8
AM_HID
 10
9.4426724447561732
 20
4.4139346957529684
 30
0.0
 40
0.2812499999999926
 50
179.99999999999719
 51
270.0
  0
ARC
  5
48
  8
AM_HID
 10
9.4426724447561732
 20
4.4139346957529799
 30
0.0
 40
0.2812499999999918
 50
90.0
 51
180.00000000000301
  0
ARC
  5
49
  8
AM_HID
 10
9.4426724447561892
 20
4.413934695752979
 30
0.0
 40
0.2812499999999928
 50
359.99999999999733
 51
90.0
  0
ARC
  5
4B
  8
AM_HID
 10
9.4426724447561821
 20
4.4139346957529719
 30
0.0
 40
0.365624999999999
 50
0.0000000000000799
 51
50.927692440819783
  0
ARC
  5
4C
  8
AM_HID
 10
9.4321840542109907
 20
4.4177232935709032
 30
0.0
 40
0.3692967596140917
 50
49.294315609517831
 51
88.371789894220001
  0
ARC
  5
4D
  8
AM_HID
 10
9.4531608353013752
 20
4.4177232935709014
 30
0.0
 40
0.3692967596140929
 50
91.62821010578007
 51
130.70568439048199
  0
ARC
  5
4E
  8
AM_HID
 10
9.4426724447561856
 20
4.4139346957529719
 30
0.0
 40
0.3656250000000001
 50
129.0723075591805
 51
179.99999999999989
  0
ARC
  5
4F
  8
AM_HID
 10
9.4426724447561838
 20
4.4139346957529737
 30
0.0
 40
0.3656249999999999
 50
180.00000000000011
 51
230.92769244081961
  0
ARC
  5
50
  8
AM_HID
 10
9.4531608353013752
 20
4.4101460979350442
 30
0.0
 40
0.3692967596140925
 50
229.29431560951789
 51
268.37178989422
  0
ARC
  5
51
  8
AM_HID
 10
9.4321840542109907
 20
4.4101460979350442
 30
0.0
 40
0.3692967596140919
 50
271.62821010578
 51
310.70568439048208
  0
ARC
  5
52
  8
AM_HID
 10
9.4426724447561821
 20
4.4139346957529728
 30
0.0
 40
0.365624999999999
 50
309.07230755918039
 51
0.0
  0
LINE
  5
56
  8
AM_HID
 10
10.17452796339394
 20
3.2467902141713698
 30
0.0
 11
10.2482189388011
 21
3.3204811898921491
 31
0.0
  0
ARC
  5
57
  8
AM_HID
 10
9.4426724447561821
 20
2.514934695752971
 30
0.0
 40
1.034999999999999
 50
44.999999999999972
 51
179.99999999999989
  0
ARC
  5
58
  8
AM_VIS
 10
9.4426724447561821
 20
2.514934695752971
 30
0.0
 40
1.034999999999999
 50
179.99999999999989
 51
225.0
  0
LINE
  5
5B
  8
AM_VIS
 10
10.62392244475612
 20
3.5499346957524889
 30
0.0
 11
10.626329186115351
 21
3.5499346957524889
 31
0.0
  0
ARC
  5
5D
  8
AM_VIS
 10
9.4426724447561821
 20
2.514934695752971
 30
0.0
 40
1.034999999999999
 50
225.0
 51
269.99999999999989
  0
ARC
  5
5E
  8
AM_HID
 10
9.4426724447561821
 20
2.514934695752971
 30
0.0
 40
1.034999999999999
 50
269.99999999999989
 51
44.999999999999972
  0
LINE
  5
5F
  8
AM_VIS
 10
10.623922444755079
 20
1.6149346957535251
 30
0.0
 11
10.62632918611534
 21
1.6149346957535251
 31
0.0
  0
LINE
  5
60
  8
AM_VIS
 10
10.623922444756101
 20
3.4149346957524171
 30
0.0
 11
10.626329186115351
 21
3.4149346957524171
 31
0.0
  0
LINE
  5
65
  8
AM_HID
 10
10.07906854789139
 20
3.1513307987535502
 30
0.0
 11
10.10716392338855
 21
3.1794261744545471
 31
0.0
  0
ARC
  5
66
  8
AM_HID
 10
9.4426724447561821
 20
2.514934695752971
 30
0.0
 40
0.9
 50
225.0
 51
44.999999999999972
  0
ARC
  5
6A
  8
AM_HID
 10
9.4426724447561821
 20
2.514934695752971
 30
0.0
 40
0.9
 50
45.0
 51
225.0
  0
POLYLINE
  8
AM_HID
  5
227
  66
     1
 10
0.000000
 20
0.000000
 30
0.000000
  70
     8
  0
VERTEX
  8
AM_HID
  5
228
 10
10.1868
 20
3.25905
 30
0.000000
  70
    32
  0
VERTEX
  8
AM_HID
  5
229
 10
10.1858
 20
3.26001
 30
0.000000
  70
    32
  0
VERTEX
  8
AM_HID
  5
22A
 10
10.1849
 20
3.26097
 30
0.000000
  70
    32
  0
VERTEX
  8
AM_HID
  5
22B
 10
10.1839
 20
3.26192
 30
0.000000
  70
    32
  0
VERTEX
  8
AM_HID
  5
22C
 10
10.1829
 20
3.26286
 30
0.000000
  70
    32
  0
VERTEX
  8
AM_HID
  5
22D
 10
10.1820
 20
3.26380
 30
0.000000
  70
    32
  0
VERTEX
  8
AM_HID
  5
22E
 10
10.1810
 20
3.26474
 30
0.000000
  70
    32
  0
VERTEX
  8
AM_HID
  5
22F
 10
10.1800
 20
3.26567
 30
0.000000
  70
    32
  0
VERTEX
  8
AM_HID
  5
230
 10
10.1791
 20
3.26660
 30
0.000000
  70
    32
  0
VERTEX
  8
AM_HID
  5
231
 10
10.1781
 20
3.26753
 30
0.000000
  70
    32
  0
VERTEX
  8
AM_HID
  5
232
 10
10.1771
 20
3.26845
 30
0.000000
  70
    32
  0
VERTEX
  8
AM_HID
  5
233
 10
10.1761
 20
3.26937
 30
0.000000
  70
    32
  0
VERTEX
  8
AM_HID
  5
234
 10
10.1752
 20
3.27028
 30
0.000000
  70
    32
  0
VERTEX
  8
AM_HID
  5
235
 10
10.1742
 20
3.27119
 30
0.000000
  70
    32
  0
VERTEX
  8
AM_HID
  5
236
 10
10.1732
 20
3.27210
 30
0.000000
  70
    32
  0
VERTEX
  8
AM_HID
  5
237
 10
10.1722
 20
3.27300
 30
0.000000
  70
    32
  0
VERTEX
  8
AM_HID
  5
238
 10
10.1712
 20
3.27390
 30
0.000000
  70
    32
  0
VERTEX
  8
AM_HID
  5
239
 10
10.1702
 20
3.27480
 30
0.000000
  70
    32
  0
VERTEX
  8
AM_HID
  5
23A
 10
10.1693
 20
3.27569
 30
0.000000
  70
    32
  0
VERTEX
  8
AM_HID
  5
23B
 10
10.1683
 20
3.27658
 30
0.000000
  70
    32
  0
VERTEX
  8
AM_HID
  5
23C
 10
10.1673
 20
3.27746
 30
0.000000
  70
    32
  0
VERTEX
  8
AM_HID
  5
23D
 10
10.1663
 20
3.27834
 30
0.000000
  70
    32
  0
VERTEX
  8
AM_HID
  5
23E
 10
10.1653
 20
3.27922
 30
0.000000
  70
    32
  0
VERTEX
  8
AM_HID
  5
23F
 10
10.1643
 20
3.28010
 30
0.000000
  70
    32
  0
VERTEX
  8
AM_HID
  5
240
 10
10.1633
 20
3.28097
 30
0.000000
  70
    32
  0
VERTEX
  8
AM_HID
  5
241
 10
10.1623
 20
3.28184
 30
0.000000
  70
    32
  0
VERTEX
  8
AM_HID
  5
242
 10
10.1613
 20
3.28270
 30
0.000000
  70
    32
  0
VERTEX
  8
AM_HID
  5
243
 10
10.1603
 20
3.28356
 30
0.000000
  70
    32
  0
VERTEX
  8
AM_HID
  5
244
 10
10.1593
 20
3.28442
 30
0.000000
  70
    32
  0
VERTEX
  8
AM_HID
  5
245
 10
10.1583
 20
3.28527
 30
0.000000
  70
    32
  0
VERTEX
  8
AM_HID
  5
246
 10
10.1573
 20
3.28613
 30
0.000000
  70
    32
  0
VERTEX
  8
AM_HID
  5
247
 10
10.1563
 20
3.28697
 30
0.000000
  70
    32
  0
VERTEX
  8
AM_HID
  5
248
 10
10.1553
 20
3.28782
 30
0.000000
  70
    32
  0
VERTEX
  8
AM_HID
  5
249
 10
10.1542
 20
3.28866
 30
0.000000
  70
    32
  0
VERTEX
  8
AM_HID
  5
24A
 10
10.1532
 20
3.28950
 30
0.000000
  70
    32
  0
VERTEX
  8
AM_HID
  5
24B
 10
10.1522
 20
3.29034
 30
0.000000
  70
    32
  0
VERTEX
  8
AM_HID
  5
24C
 10
10.1512
 20
3.29117
 30
0.000000
  70
    32
  0
VERTEX
  8
AM_HID
  5
24D
 10
10.1502
 20
3.29200
 30
0.000000
  70
    32
  0
VERTEX
  8
AM_HID
  5
24E
 10
10.1492
 20
3.29283
 30
0.000000
  70
    32
  0
VERTEX
  8
AM_HID
  5
24F
 10
10.1481
 20
3.29365
 30
0.000000
  70
    32
  0
VERTEX
  8
AM_HID
  5
250
 10
10.1471
 20
3.29448
 30
0.000000
  70
    32
  0
VERTEX
  8
AM_HID
  5
251
 10
10.1461
 20
3.29530
 30
0.000000
  70
    32
  0
VERTEX
  8
AM_HID
  5
252
 10
10.1450
 20
3.29611
 30
0.000000
  70
    32
  0
VERTEX
  8
AM_HID
  5
253
 10
10.1440
 20
3.29693
 30
0.000000
  70
    32
  0
VERTEX
  8
AM_HID
  5
254
 10
10.1430
 20
3.29774
 30
0.000000
  70
    32
  0
VERTEX
  8
AM_HID
  5
255
 10
10.1419
 20
3.29855
 30
0.000000
  70
    32
  0
VERTEX
  8
AM_HID
  5
256
 10
10.1409
 20
3.29935
 30
0.000000
  70
    32
  0
VERTEX
  8
AM_HID
  5
257
 10
10.1399
 20
3.30016
 30
0.000000
  70
    32
  0
VERTEX
  8
AM_HID
  5
258
 10
10.1388
 20
3.30096
 30
0.000000
  70
    32
  0
VERTEX
  8
AM_HID
  5
259
 10
10.1378
 20
3.30176
 30
0.000000
  70
    32
  0
VERTEX
  8
AM_HID
  5
25A
 10
10.1367
 20
3.30255
 30
0.000000
  70
    32
  0
VERTEX
  8
AM_HID
  5
25B
 10
10.1357
 20
3.30335
 30
0.000000
  70
    32
  0
VERTEX
  8
AM_HID
  5
25C
 10
10.1346
 20
3.30414
 30
0.000000
  70
    32
  0
VERTEX
  8
AM_HID
  5
25D
 10
10.1336
 20
3.30493
 30
0.000000
  70
    32
  0
VERTEX
  8
AM_HID
  5
25E
 10
10.1325
 20
3.30572
 30
0.000000
  70
    32
  0
VERTEX
  8
AM_HID
  5
25F
 10
10.1315
 20
3.30650
 30
0.000000
  70
    32
  0
VERTEX
  8
AM_HID
  5
260
 10
10.1304
 20
3.30729
 30
0.000000
  70
    32
  0
VERTEX
  8
AM_HID
  5
261
 10
10.1293
 20
3.30807
 30
0.000000
  70
    32
  0
VERTEX
  8
AM_HID
  5
262
 10
10.1283
 20
3.30884
 30
0.000000
  70
    32
  0
VERTEX
  8
AM_HID
  5
263
 10
10.1272
 20
3.30962
 30
0.000000
  70
    32
  0
VERTEX
  8
AM_HID
  5
264
 10
10.1261
 20
3.31040
 30
0.000000
  70
    32
  0
VERTEX
  8
AM_HID
  5
265
 10
10.1251
 20
3.31117
 30
0.000000
  70
    32
  0
VERTEX
  8
AM_HID
  5
266
 10
10.1240
 20
3.31194
 30
0.000000
  70
    32
  0
VERTEX
  8
AM_HID
  5
267
 10
10.1229
 20
3.31271
 30
0.000000
  70
    32
  0
VERTEX
  8
AM_HID
  5
268
 10
10.1218
 20
3.31348
 30
0.000000
  70
    32
  0
VERTEX
  8
AM_HID
  5
269
 10
10.1208
 20
3.31424
 30
0.000000
  70
    32
  0
VERTEX
  8
AM_HID
  5
26A
 10
10.1197
 20
3.31500
 30
0.000000
  70
    32
  0
VERTEX
  8
AM_HID
  5
26B
 10
10.1186
 20
3.31576
 30
0.000000
  70
    32
  0
VERTEX
  8
AM_HID
  5
26C
 10
10.1175
 20
3.31652
 30
0.000000
  70
    32
  0
VERTEX
  8
AM_HID
  5
26D
 10
10.1164
 20
3.31728
 30
0.000000
  70
    32
  0
VERTEX
  8
AM_HID
  5
26E
 10
10.1153
 20
3.31804
 30
0.000000
  70
    32
  0
VERTEX
  8
AM_HID
  5
26F
 10
10.1142
 20
3.31879
 30
0.000000
  70
    32
  0
VERTEX
  8
AM_HID
  5
270
 10
10.1132
 20
3.31955
 30
0.000000
  70
    32
  0
VERTEX
  8
AM_HID
  5
271
 10
10.1121
 20
3.32030
 30
0.000000
  70
    32
  0
VERTEX
  8
AM_HID
  5
272
 10
10.1110
 20
3.32105
 30
0.000000
  70
    32
  0
VERTEX
  8
AM_HID
  5
273
 10
10.1099
 20
3.32180
 30
0.000000
  70
    32
  0
VERTEX
  8
AM_HID
  5
274
 10
10.1087
 20
3.32255
 30
0.000000
  70
    32
  0
VERTEX
  8
AM_HID
  5
275
 10
10.1076
 20
3.32329
 30
0.000000
  70
    32
  0
VERTEX
  8
AM_HID
  5
276
 10
10.1065
 20
3.32404
 30
0.000000
  70
    32
  0
VERTEX
  8
AM_HID
  5
277
 10
10.1054
 20
3.32478
 30
0.000000
  70
    32
  0
VERTEX
  8
AM_HID
  5
278
 10
10.1043
 20
3.32552
 30
0.000000
  70
    32
  0
VERTEX
  8
AM_HID
  5
279
 10
10.1032
 20
3.32626
 30
0.000000
  70
    32
  0
VERTEX
  8
AM_HID
  5
27A
 10
10.1021
 20
3.32700
 30
0.000000
  70
    32
  0
VERTEX
  8
AM_HID
  5
27B
 10
10.1009
 20
3.32774
 30
0.000000
  70
    32
  0
VERTEX
  8
AM_HID
  5
27C
 10
10.0998
 20
3.32848
 30
0.000000
  70
    32
  0
VERTEX
  8
AM_HID
  5
27D
 10
10.0987
 20
3.32922
 30
0.000000
  70
    32
  0
VERTEX
  8
AM_HID
  5
27E
 10
10.0976
 20
3.32995
 30
0.000000
  70
    32
  0
VERTEX
  8
AM_HID
  5
27F
 10
10.0964
 20
3.33068
 30
0.000000
  70
    32
  0
VERTEX
  8
AM_HID
  5
280
 10
10.0953
 20
3.33142
 30
0.000000
  70
    32
  0
VERTEX
  8
AM_HID
  5
281
 10
10.0942
 20
3.33215
 30
0.000000
  70
    32
  0
VERTEX
  8
AM_HID
  5
282
 10
10.0930
 20
3.33288
 30
0.000000
  70
    32
  0
VERTEX
  8
AM_HID
  5
283
 10
10.0919
 20
3.33361
 30
0.000000
  70
    32
  0
VERTEX
  8
AM_HID
  5
284
 10
10.0907
 20
3.33434
 30
0.000000
  70
    32
  0
VERTEX
  8
AM_HID
  5
285
 10
10.0896
 20
3.33507
 30
0.000000
  70
    32
  0
VERTEX
  8
AM_HID
  5
286
 10
10.0884
 20
3.33580
 30
0.000000
  70
    32
  0
VERTEX
  8
AM_HID
  5
287
 10
10.0873
 20
3.33653
 30
0.000000
  70
    32
  0
VERTEX
  8
AM_HID
  5
288
 10
10.0861
 20
3.33725
 30
0.000000
  70
    32
  0
VERTEX
  8
AM_HID
  5
289
 10
10.0850
 20
3.33798
 30
0.000000
  70
    32
  0
VERTEX
  8
AM_HID
  5
28A
 10
10.0838
 20
3.33870
 30
0.000000
  70
    32
  0
VERTEX
  8
AM_HID
  5
28B
 10
10.0827
 20
3.33942
 30
0.000000
  70
    32
  0
VERTEX
  8
AM_HID
  5
28C
 10
10.0815
 20
3.34014
 30
0.000000
  70
    32
  0
VERTEX
  8
AM_HID
  5
28D
 10
10.0804
 20
3.34085
 30
0.000000
  70
    32
  0
VERTEX
  8
AM_HID
  5
28E
 10
10.0792
 20
3.34157
 30
0.000000
  70
    32
  0
VERTEX
  8
AM_HID
  5
28F
 10
10.0780
 20
3.34229
 30
0.000000
  70
    32
  0
VERTEX
  8
AM_HID
  5
290
 10
10.0769
 20
3.34300
 30
0.000000
  70
    32
  0
VERTEX
  8
AM_HID
  5
291
 10
10.0757
 20
3.34371
 30
0.000000
  70
    32
  0
VERTEX
  8
AM_HID
  5
292
 10
10.0746
 20
3.34442
 30
0.000000
  70
    32
  0
VERTEX
  8
AM_HID
  5
293
 10
10.0734
 20
3.34513
 30
0.000000
  70
    32
  0
VERTEX
  8
AM_HID
  5
294
 10
10.0722
 20
3.34584
 30
0.000000
  70
    32
  0
VERTEX
  8
AM_HID
  5
295
 10
10.0711
 20
3.34655
 30
0.000000
  70
    32
  0
VERTEX
  8
AM_HID
  5
296
 10
10.0699
 20
3.34726
 30
0.000000
  70
    32
  0
VERTEX
  8
AM_HID
  5
297
 10
10.0687
 20
3.34796
 30
0.000000
  70
    32
  0
VERTEX
  8
AM_HID
  5
298
 10
10.0676
 20
3.34867
 30
0.000000
  70
    32
  0
VERTEX
  8
AM_HID
  5
299
 10
10.0664
 20
3.34937
 30
0.000000
  70
    32
  0
VERTEX
  8
AM_HID
  5
29A
 10
10.0652
 20
3.35007
 30
0.000000
  70
    32
  0
VERTEX
  8
AM_HID
  5
29B
 10
10.0640
 20
3.35077
 30
0.000000
  70
    32
  0
VERTEX
  8
AM_HID
  5
29C
 10
10.0629
 20
3.35147
 30
0.000000
  70
    32
  0
VERTEX
  8
AM_HID
  5
29D
 10
10.0617
 20
3.35217
 30
0.000000
  70
    32
  0
VERTEX
  8
AM_HID
  5
29E
 10
10.0605
 20
3.35287
 30
0.000000
  70
    32
  0
VERTEX
  8
AM_HID
  5
29F
 10
10.0593
 20
3.35357
 30
0.000000
  70
    32
  0
VERTEX
  8
AM_HID
  5
2A0
 10
10.0582
 20
3.35427
 30
0.000000
  70
    32
  0
VERTEX
  8
AM_HID
  5
2A1
 10
10.0570
 20
3.35496
 30
0.000000
  70
    32
  0
VERTEX
  8
AM_HID
  5
2A2
 10
10.0558
 20
3.35566
 30
0.000000
  70
    32
  0
VERTEX
  8
AM_HID
  5
2A3
 10
10.0546
 20
3.35635
 30
0.000000
  70
    32
  0
VERTEX
  8
AM_HID
  5
2A4
 10
10.0535
 20
3.35704
 30
0.000000
  70
    32
  0
VERTEX
  8
AM_HID
  5
2A5
 10
10.0523
 20
3.35774
 30
0.000000
  70
    32
  0
VERTEX
  8
AM_HID
  5
2A6
 10
10.0511
 20
3.35843
 30
0.000000
  70
    32
  0
VERTEX
  8
AM_HID
  5
2A7
 10
10.0499
 20
3.35912
 30
0.000000
  70
    32
  0
VERTEX
  8
AM_HID
  5
2A8
 10
10.0487
 20
3.35981
 30
0.000000
  70
    32
  0
VERTEX
  8
AM_HID
  5
2A9
 10
10.0475
 20
3.36050
 30
0.000000
  70
    32
  0
VERTEX
  8
AM_HID
  5
2AA
 10
10.0464
 20
3.36119
 30
0.000000
  70
    32
  0
VERTEX
  8
AM_HID
  5
2AB
 10
10.0452
 20
3.36188
 30
0.000000
  70
    32
  0
VERTEX
  8
AM_HID
  5
2AC
 10
10.0440
 20
3.36257
 30
0.000000
  70
    32
  0
VERTEX
  8
AM_HID
  5
2AD
 10
10.0428
 20
3.36326
 30
0.000000
  70
    32
  0
VERTEX
  8
AM_HID
  5
2AE
 10
10.0416
 20
3.36395
 30
0.000000
  70
    32
  0
VERTEX
  8
AM_HID
  5
2AF
 10
10.0404
 20
3.36464
 30
0.000000
  70
    32
  0
VERTEX
  8
AM_HID
  5
2B0
 10
10.0392
 20
3.36532
 30
0.000000
  70
    32
  0
VERTEX
  8
AM_HID
  5
2B1
 10
10.0381
 20
3.36601
 30
0.000000
  70
    32
  0
VERTEX
  8
AM_HID
  5
2B2
 10
10.0369
 20
3.36670
 30
0.000000
  70
    32
  0
VERTEX
  8
AM_HID
  5
2B3
 10
10.0357
 20
3.36738
 30
0.000000
  70
    32
  0
VERTEX
  8
AM_HID
  5
2B4
 10
10.0345
 20
3.36807
 30
0.000000
  70
    32
  0
VERTEX
  8
AM_HID
  5
2B5
 10
10.0333
 20
3.36876
 30
0.000000
  70
    32
  0
VERTEX
  8
AM_HID
  5
2B6
 10
10.0321
 20
3.36944
 30
0.000000
  70
    32
  0
VERTEX
  8
AM_HID
  5
2B7
 10
10.0309
 20
3.37013
 30
0.000000
  70
    32
  0
VERTEX
  8
AM_HID
  5
2B8
 10
10.0297
 20
3.37081
 30
0.000000
  70
    32
  0
VERTEX
  8
AM_HID
  5
2B9
 10
10.0285
 20
3.37150
 30
0.000000
  70
    32
  0
VERTEX
  8
AM_HID
  5
2BA
 10
10.0273
 20
3.37219
 30
0.000000
  70
    32
  0
VERTEX
  8
AM_HID
  5
2BB
 10
10.0261
 20
3.37287
 30
0.000000
  70
    32
  0
VERTEX
  8
AM_HID
  5
2BC
 10
10.0250
 20
3.37356
 30
0.000000
  70
    32
  0
VERTEX
  8
AM_HID
  5
2BD
 10
10.0238
 20
3.37424
 30
0.000000
  70
    32
  0
VERTEX
  8
AM_HID
  5
2BE
 10
10.0226
 20
3.37493
 30
0.000000
  70
    32
  0
VERTEX
  8
AM_HID
  5
2BF
 10
10.0214
 20
3.37561
 30
0.000000
  70
    32
  0
VERTEX
  8
AM_HID
  5
2C0
 10
10.0202
 20
3.37630
 30
0.000000
  70
    32
  0
VERTEX
  8
AM_HID
  5
2C1
 10
10.0190
 20
3.37698
 30
0.000000
  70
    32
  0
VERTEX
  8
AM_HID
  5
2C2
 10
10.0178
 20
3.37767
 30
0.000000
  70
    32
  0
VERTEX
  8
AM_HID
  5
2C3
 10
10.0166
 20
3.37836
 30
0.000000
  70
    32
  0
VERTEX
  8
AM_HID
  5
2C4
 10
10.0154
 20
3.37904
 30
0.000000
  70
    32
  0
VERTEX
  8
AM_HID
  5
2C5
 10
10.0142
 20
3.37973
 30
0.000000
  70
    32
  0
VERTEX
  8
AM_HID
  5
2C6
 10
10.0130
 20
3.38042
 30
0.000000
  70
    32
  0
VERTEX
  8
AM_HID
  5
2C7
 10
10.0118
 20
3.38111
 30
0.000000
  70
    32
  0
VERTEX
  8
AM_HID
  5
2C8
 10
10.0106
 20
3.38179
 30
0.000000
  70
    32
  0
VERTEX
  8
AM_HID
  5
2C9
 10
10.0094
 20
3.38248
 30
0.000000
  70
    32
  0
VERTEX
  8
AM_HID
  5
2CA
 10
10.0082
 20
3.38317
 30
0.000000
  70
    32
  0
VERTEX
  8
AM_HID
  5
2CB
 10
10.0070
 20
3.38386
 30
0.000000
  70
    32
  0
VERTEX
  8
AM_HID
  5
2CC
 10
10.0058
 20
3.38455
 30
0.000000
  70
    32
  0
VERTEX
  8
AM_HID
  5
2CD
 10
10.0046
 20
3.38524
 30
0.000000
  70
    32
  0
VERTEX
  8
AM_HID
  5
2CE
 10
10.0034
 20
3.38593
 30
0.000000
  70
    32
  0
VERTEX
  8
AM_HID
  5
2CF
 10
10.0022
 20
3.38662
 30
0.000000
  70
    32
  0
VERTEX
  8
AM_HID
  5
2D0
 10
10.0010
 20
3.38731
 30
0.000000
  70
    32
  0
VERTEX
  8
AM_HID
  5
2D1
 10
9.99983
 20
3.38800
 30
0.000000
  70
    32
  0
VERTEX
  8
AM_HID
  5
2D2
 10
9.99863
 20
3.38870
 30
0.000000
  70
    32
  0
VERTEX
  8
AM_HID
  5
2D3
 10
9.99743
 20
3.38939
 30
0.000000
  70
    32
  0
VERTEX
  8
AM_HID
  5
2D4
 10
9.99623
 20
3.39009
 30
0.000000
  70
    32
  0
VERTEX
  8
AM_HID
  5
2D5
 10
9.99503
 20
3.39078
 30
0.000000
  70
    32
  0
VERTEX
  8
AM_HID
  5
2D6
 10
9.99384
 20
3.39148
 30
0.000000
  70
    32
  0
VERTEX
  8
AM_HID
  5
2D7
 10
9.99264
 20
3.39217
 30
0.000000
  70
    32
  0
VERTEX
  8
AM_HID
  5
2D8
 10
9.99144
 20
3.39287
 30
0.000000
  70
    32
  0
VERTEX
  8
AM_HID
  5
2D9
 10
9.99024
 20
3.39357
 30
0.000000
  70
    32
  0
VERTEX
  8
AM_HID
  5
2DA
 10
9.98904
 20
3.39427
 30
0.000000
  70
    32
  0
VERTEX
  8
AM_HID
  5
2DB
 10
9.98784
 20
3.39497
 30
0.000000
  70
    32
  0
VERTEX
  8
AM_HID
  5
2DC
 10
9.98665
 20
3.39567
 30
0.000000
  70
    32
  0
VERTEX
  8
AM_HID
  5
2DD
 10
9.98545
 20
3.39637
 30
0.000000
  70
    32
  0
VERTEX
  8
AM_HID
  5
2DE
 10
9.98425
 20
3.39708
 30
0.000000
  70
    32
  0
VERTEX
  8
AM_HID
  5
2DF
 10
9.98305
 20
3.39778
 30
0.000000
  70
    32
  0
VERTEX
  8
AM_HID
  5
2E0
 10
9.98185
 20
3.39849
 30
0.000000
  70
    32
  0
VERTEX
  8
AM_HID
  5
2E1
 10
9.98066
 20
3.39919
 30
0.000000
  70
    32
  0
VERTEX
  8
AM_HID
  5
2E2
 10
9.97946
 20
3.39990
 30
0.000000
  70
    32
  0
VERTEX
  8
AM_HID
  5
2E3
 10
9.97826
 20
3.40061
 30
0.000000
  70
    32
  0
VERTEX
  8
AM_HID
  5
2E4
 10
9.97707
 20
3.40132
 30
0.000000
  70
    32
  0
VERTEX
  8
AM_HID
  5
2E5
 10
9.97587
 20
3.40203
 30
0.000000
  70
    32
  0
VERTEX
  8
AM_HID
  5
2E6
 10
9.97467
 20
3.40274
 30
0.000000
  70
    32
  0
VERTEX
  8
AM_HID
  5
2E7
 10
9.97348
 20
3.40346
 30
0.000000
  70
    32
  0
SEQEND
  8
AM_HID
  5
2E8
  0
POLYLINE
  8
AM_HID
  5
2E9
  66
     1
 10
0.000000
 20
0.000000
 30
0.000000
  70
     8
  0
VERTEX
  8
AM_HID
  5
2EA
 10
10.3312
 20
3.04574
 30
0.000000
  70
    32
  0
VERTEX
  8
AM_HID
  5
2EB
 10
10.3301
 20
3.04751
 30
0.000000
  70
    32
  0
VERTEX
  8
AM_HID
  5
2EC
 10
10.3291
 20
3.04929
 30
0.000000
  70
    32
  0
VERTEX
  8
AM_HID
  5
2ED
 10
10.3280
 20
3.05106
 30
0.000000
  70
    32
  0
VERTEX
  8
AM_HID
  5
2EE
 10
10.3270
 20
3.05283
 30
0.000000
  70
    32
  0
VERTEX
  8
AM_HID
  5
2EF
 10
10.3259
 20
3.05460
 30
0.000000
  70
    32
  0
VERTEX
  8
AM_HID
  5
2F0
 10
10.3249
 20
3.05637
 30
0.000000
  70
    32
  0
VERTEX
  8
AM_HID
  5
2F1
 10
10.3239
 20
3.05815
 30
0.000000
  70
    32
  0
VERTEX
  8
AM_HID
  5
2F2
 10
10.3228
 20
3.05991
 30
0.000000
  70
    32
  0
VERTEX
  8
AM_HID
  5
2F3
 10
10.3218
 20
3.06168
 30
0.000000
  70
    32
  0
VERTEX
  8
AM_HID
  5
2F4
 10
10.3208
 20
3.06345
 30
0.000000
  70
    32
  0
VERTEX
  8
AM_HID
  5
2F5
 10
10.3197
 20
3.06522
 30
0.000000
  70
    32
  0
VERTEX
  8
AM_HID
  5
2F6
 10
10.3187
 20
3.06698
 30
0.000000
  70
    32
  0
VERTEX
  8
AM_HID
  5
2F7
 10
10.3177
 20
3.06875
 30
0.000000
  70
    32
  0
VERTEX
  8
AM_HID
  5
2F8
 10
10.3167
 20
3.07051
 30
0.000000
  70
    32
  0
VERTEX
  8
AM_HID
  5
2F9
 10
10.3156
 20
3.07228
 30
0.000000
  70
    32
  0
VERTEX
  8
AM_HID
  5
2FA
 10
10.3146
 20
3.07404
 30
0.000000
  70
    32
  0
VERTEX
  8
AM_HID
  5
2FB
 10
10.3136
 20
3.07580
 30
0.000000
  70
    32
  0
VERTEX
  8
AM_HID
  5
2FC
 10
10.3126
 20
3.07756
 30
0.000000
  70
    32
  0
VERTEX
  8
AM_HID
  5
2FD
 10
10.3116
 20
3.07932
 30
0.000000
  70
    32
  0
VERTEX
  8
AM_HID
  5
2FE
 10
10.3106
 20
3.08108
 30
0.000000
  70
    32
  0
VERTEX
  8
AM_HID
  5
2FF
 10
10.3096
 20
3.08284
 30
0.000000
  70
    32
  0
VERTEX
  8
AM_HID
  5
300
 10
10.3086
 20
3.08460
 30
0.000000
  70
    32
  0
VERTEX
  8
AM_HID
  5
301
 10
10.3076
 20
3.08635
 30
0.000000
  70
    32
  0
VERTEX
  8
AM_HID
  5
302
 10
10.3066
 20
3.08811
 30
0.000000
  70
    32
  0
VERTEX
  8
AM_HID
  5
303
 10
10.3056
 20
3.08986
 30
0.000000
  70
    32
  0
VERTEX
  8
AM_HID
  5
304
 10
10.3046
 20
3.09161
 30
0.000000
  70
    32
  0
VERTEX
  8
AM_HID
  5
305
 10
10.3035
 20
3.09336
 30
0.000000
  70
    32
  0
VERTEX
  8
AM_HID
  5
306
 10
10.3025
 20
3.09511
 30
0.000000
  70
    32
  0
VERTEX
  8
AM_HID
  5
307
 10
10.3015
 20
3.09686
 30
0.000000
  70
    32
  0
VERTEX
  8
AM_HID
  5
308
 10
10.3005
 20
3.09861
 30
0.000000
  70
    32
  0
VERTEX
  8
AM_HID
  5
309
 10
10.2995
 20
3.10036
 30
0.000000
  70
    32
  0
VERTEX
  8
AM_HID
  5
30A
 10
10.2985
 20
3.10210
 30
0.000000
  70
    32
  0
VERTEX
  8
AM_HID
  5
30B
 10
10.2975
 20
3.10385
 30
0.000000
  70
    32
  0
VERTEX
  8
AM_HID
  5
30C
 10
10.2965
 20
3.10559
 30
0.000000
  70
    32
  0
VERTEX
  8
AM_HID
  5
30D
 10
10.2955
 20
3.10733
 30
0.000000
  70
    32
  0
VERTEX
  8
AM_HID
  5
30E
 10
10.2945
 20
3.10907
 30
0.000000
  70
    32
  0
VERTEX
  8
AM_HID
  5
30F
 10
10.2935
 20
3.11081
 30
0.000000
  70
    32
  0
VERTEX
  8
AM_HID
  5
310
 10
10.2925
 20
3.11255
 30
0.000000
  70
    32
  0
VERTEX
  8
AM_HID
  5
311
 10
10.2915
 20
3.11428
 30
0.000000
  70
    32
  0
VERTEX
  8
AM_HID
  5
312
 10
10.2905
 20
3.11602
 30
0.000000
  70
    32
  0
VERTEX
  8
AM_HID
  5
313
 10
10.2895
 20
3.11775
 30
0.000000
  70
    32
  0
VERTEX
  8
AM_HID
  5
314
 10
10.2885
 20
3.11948
 30
0.000000
  70
    32
  0
VERTEX
  8
AM_HID
  5
315
 10
10.2875
 20
3.12121
 30
0.000000
  70
    32
  0
VERTEX
  8
AM_HID
  5
316
 10
10.2865
 20
3.12294
 30
0.000000
  70
    32
  0
VERTEX
  8
AM_HID
  5
317
 10
10.2855
 20
3.12467
 30
0.000000
  70
    32
  0
VERTEX
  8
AM_HID
  5
318
 10
10.2845
 20
3.12639
 30
0.000000
  70
    32
  0
VERTEX
  8
AM_HID
  5
319
 10
10.2835
 20
3.12812
 30
0.000000
  70
    32
  0
VERTEX
  8
AM_HID
  5
31A
 10
10.2825
 20
3.12984
 30
0.000000
  70
    32
  0
VERTEX
  8
AM_HID
  5
31B
 10
10.2814
 20
3.13156
 30
0.000000
  70
    32
  0
VERTEX
  8
AM_HID
  5
31C
 10
10.2804
 20
3.13328
 30
0.000000
  70
    32
  0
VERTEX
  8
AM_HID
  5
31D
 10
10.2794
 20
3.13500
 30
0.000000
  70
    32
  0
VERTEX
  8
AM_HID
  5
31E
 10
10.2784
 20
3.13671
 30
0.000000
  70
    32
  0
VERTEX
  8
AM_HID
  5
31F
 10
10.2773
 20
3.13843
 30
0.000000
  70
    32
  0
VERTEX
  8
AM_HID
  5
320
 10
10.2763
 20
3.14014
 30
0.000000
  70
    32
  0
VERTEX
  8
AM_HID
  5
321
 10
10.2753
 20
3.14185
 30
0.000000
  70
    32
  0
VERTEX
  8
AM_HID
  5
322
 10
10.2743
 20
3.14356
 30
0.000000
  70
    32
  0
VERTEX
  8
AM_HID
  5
323
 10
10.2732
 20
3.14527
 30
0.000000
  70
    32
  0
VERTEX
  8
AM_HID
  5
324
 10
10.2722
 20
3.14697
 30
0.000000
  70
    32
  0
VERTEX
  8
AM_HID
  5
325
 10
10.2711
 20
3.14867
 30
0.000000
  70
    32
  0
VERTEX
  8
AM_HID
  5
326
 10
10.2701
 20
3.15038
 30
0.000000
  70
    32
  0
VERTEX
  8
AM_HID
  5
327
 10
10.2690
 20
3.15208
 30
0.000000
  70
    32
  0
VERTEX
  8
AM_HID
  5
328
 10
10.2680
 20
3.15377
 30
0.000000
  70
    32
  0
VERTEX
  8
AM_HID
  5
329
 10
10.2669
 20
3.15547
 30
0.000000
  70
    32
  0
VERTEX
  8
AM_HID
  5
32A
 10
10.2659
 20
3.15716
 30
0.000000
  70
    32
  0
VERTEX
  8
AM_HID
  5
32B
 10
10.2648
 20
3.15886
 30
0.000000
  70
    32
  0
VERTEX
  8
AM_HID
  5
32C
 10
10.2638
 20
3.16055
 30
0.000000
  70
    32
  0
VERTEX
  8
AM_HID
  5
32D
 10
10.2627
 20
3.16223
 30
0.000000
  70
    32
  0
VERTEX
  8
AM_HID
  5
32E
 10
10.2616
 20
3.16392
 30
0.000000
  70
    32
  0
VERTEX
  8
AM_HID
  5
32F
 10
10.2605
 20
3.16560
 30
0.000000
  70
    32
  0
VERTEX
  8
AM_HID
  5
330
 10
10.2594
 20
3.16729
 30
0.000000
  70
    32
  0
VERTEX
  8
AM_HID
  5
331
 10
10.2584
 20
3.16897
 30
0.000000
  70
    32
  0
VERTEX
  8
AM_HID
  5
332
 10
10.2573
 20
3.17064
 30
0.000000
  70
    32
  0
VERTEX
  8
AM_HID
  5
333
 10
10.2562
 20
3.17232
 30
0.000000
  70
    32
  0
VERTEX
  8
AM_HID
  5
334
 10
10.2551
 20
3.17399
 30
0.000000
  70
    32
  0
VERTEX
  8
AM_HID
  5
335
 10
10.2540
 20
3.17566
 30
0.000000
  70
    32
  0
VERTEX
  8
AM_HID
  5
336
 10
10.2529
 20
3.17733
 30
0.000000
  70
    32
  0
VERTEX
  8
AM_HID
  5
337
 10
10.2517
 20
3.17900
 30
0.000000
  70
    32
  0
VERTEX
  8
AM_HID
  5
338
 10
10.2506
 20
3.18066
 30
0.000000
  70
    32
  0
VERTEX
  8
AM_HID
  5
339
 10
10.2495
 20
3.18233
 30
0.000000
  70
    32
  0
VERTEX
  8
AM_HID
  5
33A
 10
10.2484
 20
3.18399
 30
0.000000
  70
    32
  0
VERTEX
  8
AM_HID
  5
33B
 10
10.2472
 20
3.18565
 30
0.000000
  70
    32
  0
VERTEX
  8
AM_HID
  5
33C
 10
10.2461
 20
3.18730
 30
0.000000
  70
    32
  0
VERTEX
  8
AM_HID
  5
33D
 10
10.2449
 20
3.18895
 30
0.000000
  70
    32
  0
VERTEX
  8
AM_HID
  5
33E
 10
10.2438
 20
3.19060
 30
0.000000
  70
    32
  0
VERTEX
  8
AM_HID
  5
33F
 10
10.2426
 20
3.19225
 30
0.000000
  70
    32
  0
VERTEX
  8
AM_HID
  5
340
 10
10.2414
 20
3.19390
 30
0.000000
  70
    32
  0
VERTEX
  8
AM_HID
  5
341
 10
10.2403
 20
3.19554
 30
0.000000
  70
    32
  0
VERTEX
  8
AM_HID
  5
342
 10
10.2391
 20
3.19718
 30
0.000000
  70
    32
  0
VERTEX
  8
AM_HID
  5
343
 10
10.2379
 20
3.19882
 30
0.000000
  70
    32
  0
VERTEX
  8
AM_HID
  5
344
 10
10.2367
 20
3.20046
 30
0.000000
  70
    32
  0
VERTEX
  8
AM_HID
  5
345
 10
10.2355
 20
3.20209
 30
0.000000
  70
    32
  0
VERTEX
  8
AM_HID
  5
346
 10
10.2343
 20
3.20372
 30
0.000000
  70
    32
  0
VERTEX
  8
AM_HID
  5
347
 10
10.2331
 20
3.20535
 30
0.000000
  70
    32
  0
VERTEX
  8
AM_HID
  5
348
 10
10.2319
 20
3.20698
 30
0.000000
  70
    32
  0
VERTEX
  8
AM_HID
  5
349
 10
10.2306
 20
3.20860
 30
0.000000
  70
    32
  0
VERTEX
  8
AM_HID
  5
34A
 10
10.2294
 20
3.21022
 30
0.000000
  70
    32
  0
VERTEX
  8
AM_HID
  5
34B
 10
10.2282
 20
3.21184
 30
0.000000
  70
    32
  0
VERTEX
  8
AM_HID
  5
34C
 10
10.2269
 20
3.21346
 30
0.000000
  70
    32
  0
VERTEX
  8
AM_HID
  5
34D
 10
10.2256
 20
3.21507
 30
0.000000
  70
    32
  0
VERTEX
  8
AM_HID
  5
34E
 10
10.2244
 20
3.21668
 30
0.000000
  70
    32
  0
VERTEX
  8
AM_HID
  5
34F
 10
10.2231
 20
3.21829
 30
0.000000
  70
    32
  0
VERTEX
  8
AM_HID
  5
350
 10
10.2218
 20
3.21989
 30
0.000000
  70
    32
  0
VERTEX
  8
AM_HID
  5
351
 10
10.2205
 20
3.22149
 30
0.000000
  70
    32
  0
VERTEX
  8
AM_HID
  5
352
 10
10.2192
 20
3.22309
 30
0.000000
  70
    32
  0
VERTEX
  8
AM_HID
  5
353
 10
10.2179
 20
3.22469
 30
0.000000
  70
    32
  0
VERTEX
  8
AM_HID
  5
354
 10
10.2166
 20
3.22628
 30
0.000000
  70
    32
  0
VERTEX
  8
AM_HID
  5
355
 10
10.2153
 20
3.22787
 30
0.000000
  70
    32
  0
VERTEX
  8
AM_HID
  5
356
 10
10.2139
 20
3.22946
 30
0.000000
  70
    32
  0
VERTEX
  8
AM_HID
  5
357
 10
10.2126
 20
3.23105
 30
0.000000
  70
    32
  0
VERTEX
  8
AM_HID
  5
358
 10
10.2113
 20
3.23263
 30
0.000000
  70
    32
  0
VERTEX
  8
AM_HID
  5
359
 10
10.2099
 20
3.23421
 30
0.000000
  70
    32
  0
VERTEX
  8
AM_HID
  5
35A
 10
10.2085
 20
3.23578
 30
0.000000
  70
    32
  0
VERTEX
  8
AM_HID
  5
35B
 10
10.2071
 20
3.23736
 30
0.000000
  70
    32
  0
VERTEX
  8
AM_HID
  5
35C
 10
10.2058
 20
3.23893
 30
0.000000
  70
    32
  0
VERTEX
  8
AM_HID
  5
35D
 10
10.2044
 20
3.24049
 30
0.000000
  70
    32
  0
VERTEX
  8
AM_HID
  5
35E
 10
10.2029
 20
3.24206
 30
0.000000
  70
    32
  0
VERTEX
  8
AM_HID
  5
35F
 10
10.2015
 20
3.24362
 30
0.000000
  70
    32
  0
VERTEX
  8
AM_HID
  5
360
 10
10.2001
 20
3.24518
 30
0.000000
  70
    32
  0
VERTEX
  8
AM_HID
  5
361
 10
10.1987
 20
3.24673
 30
0.000000
  70
    32
  0
VERTEX
  8
AM_HID
  5
362
 10
10.1972
 20
3.24828
 30
0.000000
  70
    32
  0
VERTEX
  8
AM_HID
  5
363
 10
10.1958
 20
3.24983
 30
0.000000
  70
    32
  0
VERTEX
  8
AM_HID
  5
364
 10
10.1943
 20
3.25138
 30
0.000000
  70
    32
  0
VERTEX
  8
AM_HID
  5
365
 10
10.1928
 20
3.25292
 30
0.000000
  70
    32
  0
VERTEX
  8
AM_HID
  5
366
 10
10.1913
 20
3.25446
 30
0.000000
  70
    32
  0
VERTEX
  8
AM_HID
  5
367
 10
10.1898
 20
3.25599
 30
0.000000
  70
    32
  0
VERTEX
  8
AM_HID
  5
368
 10
10.1883
 20
3.25753
 30
0.000000
  70
    32
  0
VERTEX
  8
AM_HID
  5
369
 10
10.1868
 20
3.25905
 30
0.000000
  70
    32
  0
SEQEND
  8
AM_HID
  5
36A
  0
ARC
  5
6D
  8
AM_HID
 10
10.64731504598968
 20
2.884307411709869
 30
0.0
 40
0.2249999999999988
 50
135.00000000000011
 51
197.04681311661921
  0
ARC
  5
6E
  8
AM_HID
 10
9.8120451607130796
 20
3.7195772969864769
 30
0.0
 40
0.2250000000000016
 50
252.95318688338131
 51
314.99999999999972
  0
LINE
  5
6F
  8
AM_HID
 10
10.035316315738161
 20
3.6246504004776088
 30
0.0
 11
10.13089687571275
 21
3.5290698405030119
 31
0.0
  0
LINE
  5
70
  8
AM_HID
 10
10.130896875713001
 20
3.5290698405032619
 30
0.0
 11
10.293852232610041
 21
3.3661144836055961
 31
0.0
  0
LINE
  5
71
  8
AM_HID
 10
10.293852232608799
 20
3.3661144836068329
 30
0.0
 11
10.45680758950647
 21
3.203159126709795
 31
0.0
  0
LINE
  5
72
  8
AM_HID
 10
10.456807589506219
 20
3.2031591267095441
 30
0.0
 11
10.552388149480819
 21
3.107578566734948
 31
0.0
  0
LINE
  5
73
  8
AM_VIS
 10
11.845672444756181
 20
1.4799346957529711
 30
0.0
 11
10.626329186115351
 21
1.4799346957529711
 31
0.0
  0
LINE
  5
74
  8
AM_VIS
 10
11.845672444756181
 20
3.5499346957529712
 30
0.0
 11
10.626329186115351
 21
3.5499346957529712
 31
0.0
  0
LINE
  5
75
  8
AM_HID
 10
11.845672444756181
 20
1.61493469575297
 30
0.0
 11
9.9537741958782053
 21
1.6149346957529711
 31
0.0
  0
LINE
  5
76
  8
AM_HID
 10
11.845672444756181
 20
3.41493469575297
 30
0.0
 11
10.626329186115351
 21
3.41493469575297
 31
0.0
  0
ARC
  5
7A
  8
AM_VIS
 10
10.623922444756181
 20
3.6985914371121398
 30
0.0
 40
0.1462500000000001
 50
179.99999999999989
 51
269.99999999999989
  0
LINE
  5
7B
  8
AM_VIS
 10
10.47767244475618
 20
4.9179346957529733
 30
0.0
 11
10.47767244475618
 21
3.6985914371121398
 31
0.0
  0
LINE
  5
7C
  8
AM_VIS
 10
8.4076724447561801
 20
4.9179346957529733
 30
0.0
 11
8.4076724447561801
 21
3.6985914371121398
 31
0.0
  0
LINE
  5
7D
  8
AM_HID
 10
10.342672444756181
 20
4.9179346957529733
 30
0.0
 11
10.342672444756181
 21
3.6985914371121398
 31
0.0
  0
LINE
  5
7E
  8
AM_HID
 10
8.5426724447561817
 20
4.9179346957529733
 30
0.0
 11
8.5426724447561817
 21
3.0260364468749952
 31
0.0
  0
LINE
  5
7F
  8
AM_HID
 10
8.5426724447561817
 20
3.0095838530109509
 30
0.0
 11
8.5426724447561817
 21
2.7363257977922069
 31
0.0
  0
LINE
  5
80
  8
AM_VIS
 10
8.4076724447561801
 20
3.6985914371121398
 30
0.0
 11
8.4076724447561801
 21
2.514934695752971
 31
0.0
  0
LINE
  5
81
  8
AM_VIS
 10
9.4426724447561803
 20
1.4799346957529711
 30
0.0
 11
10.626329186115351
 21
1.4799346957529711
 31
0.0
  0
LINE
  5
82
  8
AM_HID
 10
10.626329186115351
 20
3.5499346957529712
 30
0.0
 11
10.623922444756181
 21
3.5499346957529712
 31
0.0
  0
LINE
  5
83
  8
AM_HID
 10
10.623922444756181
 20
1.6149346957529711
 30
0.0
 11
10.62632918611534
 21
1.6149346957529711
 31
0.0
  0
LINE
  5
84
  8
AM_HID
 10
10.626329186115351
 20
3.41493469575297
 30
0.0
 11
10.623922444756181
 21
3.41493469575297
 31
0.0
  0
LINE
  5
85
  8
AM_HID
 10
10.342672444756181
 20
2.5149346957529701
 30
0.0
 11
10.342672444756181
 21
2.5243488306230608
 31
0.0
  0
LINE
  5
86
  8
AM_HID
 10
10.035316315738161
 20
3.6246504004776088
 30
0.0
 11
9.9711441864800534
 21
3.5604782712195031
 31
0.0
  0
LINE
  5
87
  8
AM_HID
 10
10.48821602022271
 20
3.043406437476841
 30
0.0
 11
10.552388149480819
 21
3.107578566734948
 31
0.0
  0
LINE
  5
88
  8
AM_HID
 10
10.492726014818199
 20
3.1672407013975601
 30
0.0
 11
10.246070187408151
 21
2.9205848739875102
 31
0.0
  0
LINE
  5
89
  8
AM_HID
 10
10.09497845040077
 20
3.5649882658149932
 30
0.0
 11
9.8483226229907217
 21
3.3183324384049442
 31
0.0
  0
LINE
  5
8A
  8
AM_HID
 10
9.6640635467954183
 20
1.6149346957529711
 30
0.0
 11
9.9405954961108964
 21
1.6149346957529711
 31
0.0
  0
LINE
  5
8B
  8
AM_HID
 10
9.4520810814574752
 20
3.4149346957529709
 30
0.0
 11
9.4426724447561821
 21
3.4149346957529709
 31
0.0
  0
LINE
  5
1B8
  8
0
 10
9.4321840542109907
 20
4.4739732935709027
 30
0.0
 11
9.4321840542109907
 21
5.7381416597297061
 31
0.0
  0
LINE
  5
1B9
  8
0
 10
11.845672444756181
 20
3.6061846957529711
 30
0.0
 11
11.845672444756181
 21
5.7381416597297061
 31
0.0
  0
LINE
  5
1BA
  8
0
 10
9.5446840542109914
 20
5.5761416597297053
 30
0.0
 11
10.332928249483579
 21
5.5761416597297053
 31
0.0
  0
LINE
  5
1BB
  8
0
 10
11.73317244475618
 20
5.5761416597297053
 30
0.0
 11
10.94492824948358
 21
5.5761416597297053
 31
0.0
  0
SOLID
  5
1BC
  8
0
 10
9.5446840542109914
 20
5.594891659729706
 30
0.0
 11
9.5446840542109914
 21
5.5573916597297064
 31
0.0
 12
9.4321840542109907
 22
5.5761416597297053
 32
0.0
 13
9.4321840542109907
 23
5.5761416597297053
 33
0.0
  0
SOLID
  5
1BD
  8
0
 10
11.73317244475618
 20
5.594891659729706
 30
0.0
 11
11.73317244475618
 21
5.5573916597297064
 31
0.0
 12
11.845672444756181
 22
5.5761416597297053
 32
0.0
 13
11.845672444756181
 23
5.5761416597297053
 33
0.0
  0
INSERT
  5
1BE
  8
0
  2
*U4
 10
0.0
 20
0.0
 30
0.0
  0
INSERT
  5
1D4
  8
0
  2
*U8
 10
0.0
 20
0.0
 30
0.0
  0
INSERT
  5
1D5
  8
0
  2
*U9
 10
0.0
 20
0.0
 30
0.0
  0
ENDSEC
  0
EOF
