  0
SECTION
  2
HEADER
  9
$ACADVER
  1
AC1009
  9
$INSBASE
 10
0.0
 20
0.0
 30
0.0
  9
$EXTMIN
 10
11.75814461762257
 20
0.7577822203493057
 30
0.0
  9
$EXTMAX
 10
17.439394617622579
 20
9.3221613403297177
 30
0.0
  9
$LIMMIN
 10
0.0
 20
0.0
  9
$LIMMAX
 10
12.0
 20
9.0
  9
$ORTHOMODE
 70
     1
  9
$REGENMODE
 70
     0
  9
$FILLMODE
 70
     1
  9
$QTEXTMODE
 70
     0
  9
$MIRRTEXT
 70
     0
  9
$DRAGMODE
 70
     2
  9
$LTSCALE
 40
1.0
  9
$OSMODE
 70
    55
  9
$ATTMODE
 70
     1
  9
$TEXTSIZE
 40
0.2
  9
$TRACEWID
 40
0.05
  9
$TEXTSTYLE
  7
STANDARD
  9
$CLAYER
  8
0
  9
$CELTYPE
  6
BYLAYER
  9
$CECOLOR
 62
   256
  9
$DIMSCALE
 40
1.0
  9
$DIMASZ
 40
0.125
  9
$DIMEXO
 40
0.0625
  9
$DIMDLI
 40
0.38
  9
$DIMRND
 40
0.0
  9
$DIMDLE
 40
0.0
  9
$DIMEXE
 40
0.18
  9
$DIMTP
 40
0.0
  9
$DIMTM
 40
0.0
  9
$DIMTXT
 40
0.09375
  9
$DIMCEN
 40
-0.125
  9
$DIMTSZ
 40
0.0
  9
$DIMTOL
 70
     0
  9
$DIMLIM
 70
     0
  9
$DIMTIH
 70
     0
  9
$DIMTOH
 70
     0
  9
$DIMSE1
 70
     0
  9
$DIMSE2
 70
     0
  9
$DIMTAD
 70
     0
  9
$DIMZIN
 70
     3
  9
$DIMBLK
  1

  9
$DIMASO
 70
     0
  9
$DIMSHO
 70
     1
  9
$DIMPOST
  1

  9
$DIMAPOST
  1

  9
$DIMALT
 70
     0
  9
$DIMALTD
 70
     2
  9
$DIMALTF
 40
25.399999999999999
  9
$DIMLFAC
 40
1.0
  9
$DIMTOFL
 70
     1
  9
$DIMTVP
 40
0.0
  9
$DIMTIX
 70
     0
  9
$DIMSOXD
 70
     0
  9
$DIMSAH
 70
     0
  9
$DIMBLK1
  1

  9
$DIMBLK2
  1

  9
$DIMSTYLE
  2
STANDARD
  9
$DIMCLRD
 70
     0
  9
$DIMCLRE
 70
     0
  9
$DIMCLRT
 70
     0
  9
$DIMTFAC
 40
1.0
  9
$DIMGAP
 40
0.09
  9
$LUNITS
 70
     4
  9
$LUPREC
 70
     4
  9
$SKETCHINC
 40
0.1
  9
$FILLETRAD
 40
0.0
  9
$AUNITS
 70
     0
  9
$AUPREC
 70
     4
  9
$MENU
  1
.
  9
$ELEVATION
 40
0.0
  9
$PELEVATION
 40
0.0
  9
$THICKNESS
 40
0.0
  9
$LIMCHECK
 70
     0
  9
$BLIPMODE
 70
     0
  9
$CHAMFERA
 40
0.125
  9
$CHAMFERB
 40
0.5
  9
$SKPOLY
 70
     0
  9
$TDCREATE
 40
2451086.9109346061
  9
$TDUPDATE
 40
2453913.577569514
  9
$TDINDWG
 40
0.1252366667
  9
$TDUSRTIMER
 40
0.1252366667
  9
$USRTIMER
 70
     1
  9
$ANGBASE
 50
0.0
  9
$ANGDIR
 70
     0
  9
$PDMODE
 70
    34
  9
$PDSIZE
 40
3.0
  9
$PLINEWID
 40
0.0
  9
$COORDS
 70
     1
  9
$SPLFRAME
 70
     0
  9
$SPLINETYPE
 70
     6
  9
$SPLINESEGS
 70
     8
  9
$ATTDIA
 70
     0
  9
$ATTREQ
 70
     1
  9
$HANDLING
 70
     1
  9
$HANDSEED
  5
DD0
  9
$SURFTAB1
 70
     6
  9
$SURFTAB2
 70
     6
  9
$SURFTYPE
 70
     6
  9
$SURFU
 70
     6
  9
$SURFV
 70
     6
  9
$UCSNAME
  2

  9
$UCSORG
 10
0.0
 20
0.0
 30
0.0
  9
$UCSXDIR
 10
1.0
 20
0.0
 30
0.0
  9
$UCSYDIR
 10
0.0
 20
1.0
 30
0.0
  9
$PUCSNAME
  2

  9
$PUCSORG
 10
0.0
 20
0.0
 30
0.0
  9
$PUCSXDIR
 10
1.0
 20
0.0
 30
0.0
  9
$PUCSYDIR
 10
0.0
 20
1.0
 30
0.0
  9
$USERI1
 70
     0
  9
$USERI2
 70
     0
  9
$USERI3
 70
     0
  9
$USERI4
 70
     0
  9
$USERI5
 70
     0
  9
$USERR1
 40
0.0
  9
$USERR2
 40
0.0
  9
$USERR3
 40
0.0
  9
$USERR4
 40
0.0
  9
$USERR5
 40
0.0
  9
$WORLDVIEW
 70
     1
  9
$SHADEDGE
 70
     3
  9
$SHADEDIF
 70
    70
  9
$TILEMODE
 70
     1
  9
$MAXACTVP
 70
    48
  9
$PLIMCHECK
 70
     0
  9
$PEXTMIN
 10
11.014563257427559
 20
-0.064252334823145
 30
0.0
  9
$PEXTMAX
 10
18.358313257427572
 20
7.98761682036577
 30
0.0
  9
$PLIMMIN
 10
-0.1579164520023376
 20
-0.2812499887361301
  9
$PLIMMAX
 10
10.84208330770177
 20
8.2187497709679782
  9
$UNITMODE
 70
     0
  9
$VISRETAIN
 70
     1
  9
$PLINEGEN
 70
     0
  9
$PSLTSCALE
 70
     1
  0
ENDSEC
  0
SECTION
  2
TABLES
  0
TABLE
  2
VPORT
 70
     2
  0
VPORT
  2
*ACTIVE
 70
     0
 10
0.0
 20
0.0
 11
1.0
 21
1.0
 12
8.4139947191602271
 22
0.0
 13
0.0
 23
0.0
 14
0.5
 24
0.5
 15
0.5
 25
0.5
 16
0.0
 26
0.0
 36
1.0
 17
8.9213441287137876
 27
5.0253140978197921
 37
0.0
 40
10.050628195639581
 41
2.4581395348837201
 42
50.0
 43
0.0
 44
0.0
 50
0.0
 51
0.0
 71
     0
 72
   100
 73
     1
 74
     1
 75
     0
 76
     0
 77
     0
 78
     0
  0
ENDTAB
  0
TABLE
  2
LTYPE
 70
    18
  0
LTYPE
  2
CONTINUOUS
 70
     0
  3
Solid line
 72
    65
 73
     0
 40
0.0
  0
LTYPE
  2
HIDDEN
 70
     0
  3
__ __ __ __ __ __ __ __ __ __ __ __ __ __ __ __
 72
    65
 73
     2
 40
0.375
 49
0.25
 49
-0.125
  0
LTYPE
  2
PHANTOM2
 70
     0
  3
Phantom (.5x) ___ _ _ ___ _ _ ___ _ _ ___ _ _
 72
    65
 73
     6
 40
1.25
 49
0.625
 49
-0.125
 49
0.125
 49
-0.125
 49
0.125
 49
-0.125
  0
LTYPE
  2
CENTER
 70
     0
  3
Center ____ _ ____ _ ____ _ ____ _ ____ _ ____
 72
    65
 73
     4
 40
2.0
 49
1.25
 49
-0.25
 49
0.25
 49
-0.25
  0
LTYPE
  2
ASULTYPE
 70
     0
  3
Solid line
 72
    65
 73
     2
 40
3.0
 49
2.5
 49
0.5
  0
LTYPE
  2
ASVLTYPE
 70
     0
  3
__ __ __ __ __ __ __ __ __ __ __ __ __ __ __ __ __ __ __ __ __
 72
    65
 73
     2
 40
0.75
 49
0.5
 49
-0.25
  0
LTYPE
  2
AM_ISO02W050
 70
     0
  3
__ __ __ __ __ __ __ __ __ __ __ __ __ __ __
 72
    65
 73
     2
 40
7.5
 49
6.0
 49
-1.5
  0
LTYPE
  2
AM_ISO08W050
 70
     0
  3
____ . ____ . ____ . ____ . ____ . ____ . ____
 72
    65
 73
     4
 40
18.0
 49
12.0
 49
-1.5
 49
3.0
 49
-1.5
  0
LTYPE
  2
AM_ISO09W050
 70
     0
  3
_____ . . _____ . . _____ . . ____ .. ____
 72
    65
 73
     6
 40
22.5
 49
12.0
 49
-1.5
 49
3.0
 49
-1.5
 49
3.0
 49
-1.5
  0
LTYPE
  2
AMCONSTR
 70
     0
  3
_______________________
 72
    65
 73
     2
 40
9999.0
 49
9999.0
 49
0.0
  0
LTYPE
  2
AM_ISO08W050X2
 70
     0
  3
__ . __ . __ . __ . __ . __
 72
    65
 73
     4
 40
9.0
 49
6.0
 49
-0.75
 49
1.5
 49
-0.75
  0
LTYPE
  2
AM_ISO02W050X2
 70
     0
  3
 _ _ _ _ _ _ _ _ _ _ _ _
 72
    65
 73
     2
 40
3.75
 49
3.0
 49
-0.75
  0
LTYPE
  2
AMZIGZAG
 70
     0
  3
/\/-/\/-/\/-/\/-/\/-/\/
 72
    65
 73
     2
 40
11.0001
 49
0.0001
 49
-11.0
  0
LTYPE
  2
CENTER2
 70
     0
  3
Center (.5x) ___ _ ___ _ ___ _ ___ _ ___ _ ___
 72
    65
 73
     4
 40
1.125
 49
0.75
 49
-0.125
 49
0.125
 49
-0.125
  0
LTYPE
  2
HIDDEN2
 70
     0
  3
Hidden (.5x) _ _ _ _ _ _ _ _ _ _ _ _ _ _ _ _ _
 72
    65
 73
     2
 40
0.1875
 49
0.125
 49
-0.0625
  0
LTYPE
  2
AMZIGZAG2
 70
     0
  3
/\/-/\/-/\/-/\/-/\/-/\/
 72
    65
 73
     2
 40
0.4401
 49
0.0001
 49
-0.4400000000000001
  0
LTYPE
  2
ACANSTGB
 70
     0
  3
__ . . __ . .
 72
    65
 73
     6
 40
0.35433070866
 49
0.15748031496
 49
-0.03937007874
 49
0.03937007874
 49
-0.03937007874
 49
0.03937007874
 49
-0.03937007874
  0
LTYPE
  2
ACANSTGL
 70
     0
  3
_ _ _ _ _
 72
    65
 73
     2
 40
0.11811023622
 49
0.07874015748
 49
-0.03937007874
  0
ENDTAB
  0
TABLE
  2
LAYER
 70
     3
  0
LAYER
  2
0
 70
     0
 62
     7
  6
CONTINUOUS
  0
LAYER
  2
AM_VIS
 70
     0
 62
     7
  6
CONTINUOUS
  0
LAYER
  2
AM_HID
 70
     0
 62
     7
  6
HIDDEN
  0
ENDTAB
  0
TABLE
  2
STYLE
 70
     4
  0
STYLE
  2
STANDARD
 70
     0
 40
0.0
 41
1.0
 50
0.0
 71
     0
 42
0.2
  3
txt
  4

  0
STYLE
  2

 70
     1
 40
0.0
 41
1.0
 50
0.0
 71
     0
 42
0.2
  3
ltypeshp.shx
  4

  0
STYLE
  2
ACANSTS
 70
     0
 40
1.0
 41
1.0
 50
0.0
 71
     0
 42
0.2
  3
romans.shx
  4

  0
STYLE
  2
ACANSGDT
 70
     0
 40
0.0
 41
1.0
 50
0.0
 71
     0
 42
0.2
  3
amgdtans.shx
  4

  0
ENDTAB
  0
TABLE
  2
VIEW
 70
     0
  0
ENDTAB
  0
TABLE
  2
UCS
 70
     0
  0
ENDTAB
  0
TABLE
  2
APPID
 70
    13
  0
APPID
  2
ACAD
 70
     0
  0
APPID
  2
GENIUS_GENDIM_13
 70
     0
  0
APPID
  2
GENIUS_GENDTOL_13
 70
     0
  0
APPID
  2
GENIUS_GE3DTOL_13
 70
     0
  0
APPID
  2
MCAD_NO_VIS
 70
     0
  0
APPID
  2
ACAD_TEMP_GRAPHIC
 70
     0
  0
APPID
  2
AD_DRAW
 70
     0
  0
APPID
  2
ACATTRIBSERVICES
 70
     0
  0
APPID
  2
ASURF_PCURVE_APPNAME
 70
     0
  0
APPID
  2
AMG_3D2D_5_0
 70
     0
  0
APPID
  2
DESIGNERASSEMBLIES
 70
     0
  0
APPID
  2
ACADM_DIM_EDIT
 70
     0
  0
APPID
  2
AMDT_DM_ADJ
 70
     0
  0
ENDTAB
  0
TABLE
  2
DIMSTYLE
 70
     7
  0
DIMSTYLE
  2
STANDARD
 70
     0
  3

  4

  5

  6

  7

 40
1.0
 41
0.18
 42
0.0625
 43
0.38
 44
0.18
 45
0.0
 46
0.0
 47
0.0
 48
0.0
140
0.18
141
0.09
142
0.0
143
25.399999999999999
144
1.0
145
0.0
146
1.0
147
0.09
 71
     0
 72
     0
 73
     1
 74
     1
 75
     0
 76
     0
 77
     0
 78
     0
170
     0
171
     2
172
     0
173
     0
174
     0
175
     0
176
     0
177
     0
178
     0
  0
DIMSTYLE
  2
AM_ANSI
 70
     0
  3

  4
mm
  5

  6

  7

 40
1.0
 41
0.1
 42
0.05
 43
0.5
 44
0.1
 45
0.0
 46
0.0
 47
0.1
 48
0.1
140
0.12
141
0.0
142
0.0
143
25.399999999999999
144
1.0
145
0.0
146
0.71
147
0.06
 71
     0
 72
     0
 73
     1
 74
     1
 75
     0
 76
     0
 77
     0
 78
     7
170
     0
171
     2
172
     0
173
     0
174
     0
175
     0
176
   256
177
   256
178
     2
  0
DIMSTYLE
  2
AM_ANSI$3
 70
     0
  3

  4
mm
  5

  6

  7

 40
1.0
 41
0.1
 42
0.05
 43
0.5
 44
0.1
 45
0.0
 46
0.0
 47
0.1
 48
0.1
140
0.12
141
0.0
142
0.0
143
25.399999999999999
144
1.0
145
0.0
146
0.71
147
0.06
 71
     0
 72
     0
 73
     1
 74
     1
 75
     0
 76
     0
 77
     0
 78
     7
170
     0
171
     2
172
     0
173
     0
174
     0
175
     0
176
   256
177
   256
178
     2
  0
DIMSTYLE
  2
AM_ANSI$4
 70
     0
  3

  4
mm
  5

  6

  7

 40
1.0
 41
0.1
 42
0.05
 43
0.5
 44
0.1
 45
0.0
 46
0.0
 47
0.1
 48
0.1
140
0.12
141
0.0
142
0.0
143
25.399999999999999
144
1.0
145
0.0
146
0.71
147
0.06
 71
     0
 72
     0
 73
     1
 74
     1
 75
     0
 76
     0
 77
     0
 78
     7
170
     0
171
     2
172
     0
173
     0
174
     0
175
     0
176
   256
177
   256
178
     2
  0
DIMSTYLE
  2
AM_ANSI$7
 70
     0
  3

  4
mm
  5

  6

  7

 40
1.0
 41
0.1
 42
0.05
 43
0.5
 44
0.1
 45
0.0
 46
0.0
 47
0.1
 48
0.1
140
0.24
141
0.0
142
0.0
143
25.399999999999999
144
1.0
145
0.0
146
0.71
147
0.06
 71
     0
 72
     0
 73
     1
 74
     1
 75
     0
 76
     0
 77
     0
 78
     7
170
     0
171
     2
172
     0
173
     0
174
     0
175
     0
176
   256
177
   256
178
     2
  0
DIMSTYLE
  2
AM_ANSI$SF
 70
     0
  3

  4
mm
  5

  6

  7

 40
1.0
 41
0.1
 42
0.05
 43
0.5
 44
0.1
 45
0.0
 46
0.0
 47
0.1
 48
0.1
140
0.12
141
0.0
142
0.0
143
25.399999999999999
144
1.0
145
0.0
146
0.71
147
0.06
 71
     0
 72
     0
 73
     1
 74
     1
 75
     1
 76
     1
 77
     0
 78
     7
170
     0
171
     2
172
     0
173
     0
174
     0
175
     0
176
   256
177
   256
178
     2
  0
DIMSTYLE
  2
AM_ANSI$SH
 70
     0
  3

  4
mm
  5

  6
GENAXEH
  7

 40
1.0
 41
0.1
 42
0.05
 43
0.5
 44
0.1
 45
0.0
 46
0.0
 47
0.1
 48
0.1
140
0.12
141
0.0
142
0.0
143
25.399999999999999
144
1.0
145
0.0
146
0.71
147
0.06
 71
     0
 72
     0
 73
     1
 74
     1
 75
     1
 76
     1
 77
     0
 78
     7
170
     0
171
     2
172
     0
173
     1
174
     0
175
     0
176
   256
177
   256
178
     2
  0
ENDTAB
  0
ENDSEC
  0
SECTION
  2
BLOCKS
  0
BLOCK
  8
0
  2
$MODEL_SPACE
 70
     0
 10
0.0
 20
0.0
 30
0.0
  3
$MODEL_SPACE
  1

  0
ENDBLK
  5
A
  8
0
  0
BLOCK
 67
     1
  8
0
  2
$PAPER_SPACE
 70
     0
 10
0.0
 20
0.0
 30
0.0
  3
$PAPER_SPACE
  1

  0
ENDBLK
  5
F
 67
     1
  8
0
  0
BLOCK
  8
0
  2
*U0
 70
     1
 10
0.0
 20
0.0
 30
0.0
  3
*U0
  1

  0
ENDBLK
  5
131
  8
0
  0
BLOCK
  8
0
  2
GENAXEH
 70
     0
 10
0.0
 20
0.0
 30
0.0
  3
GENAXEH
  1

  0
LINE
  5
16F
  8
0
 10
-1.0
 20
0.0
 30
0.0
 11
1.0
 21
0.0
 31
0.0
  0
ENDBLK
  5
171
  8
0
  0
BLOCK
  8
0
  2
*U2
 70
     1
 10
0.0
 20
0.0
 30
0.0
  3
*U2
  1

  0
TEXT
  5
1BD
  8
0
 10
14.373769617622569
 20
9.1179738403297161
 30
0.0
 40
0.084375
  1
5-3/4"
  0
ENDBLK
  5
1BF
  8
0
  0
ENDSEC
  0
SECTION
  2
ENTITIES
  0
POINT
  5
25
  8
0
 10
0.0
 20
0.0
 30
0.0
  0
LINE
  5
26
  8
AM_VIS
 10
12.278457117622571
 20
3.120282220349305
 30
0.0
 11
12.95345711762257
 21
3.120282220349305
 31
0.0
  0
ARC
  5
28
  8
AM_VIS
 10
12.278457117622571
 20
2.9515322203493048
 30
0.0
 40
0.16875
 50
90.0
 51
270.0
  0
LINE
  5
29
  8
AM_VIS
 10
12.95345711762257
 20
2.7827822203493051
 30
0.0
 11
12.278457117622571
 21
2.7827822203493051
 31
0.0
  0
ARC
  5
2A
  8
AM_VIS
 10
12.95345711762257
 20
2.9515322203493048
 30
0.0
 40
0.16875
 50
270.0
 51
90.0
  0
LINE
  5
2B
  8
AM_VIS
 10
16.244082117622568
 20
3.120282220349305
 30
0.0
 11
16.919082117622569
 21
3.120282220349305
 31
0.0
  0
ARC
  5
2C
  8
AM_VIS
 10
16.919082117622569
 20
2.9515322203493048
 30
0.0
 40
0.16875
 50
270.0
 51
90.0
  0
LINE
  5
2D
  8
AM_VIS
 10
16.919082117622569
 20
2.7827822203493051
 30
0.0
 11
16.244082117622568
 21
2.7827822203493051
 31
0.0
  0
ARC
  5
2E
  8
AM_VIS
 10
16.244082117622568
 20
2.9515322203493048
 30
0.0
 40
0.16875
 50
90.0
 51
270.0
  0
POLYLINE
  8
AM_VIS
  5
1C0
  66
     1
 10
0.000000
 20
0.000000
 30
0.000000
  70
     8
  0
VERTEX
  8
AM_VIS
  5
1C1
 10
15.0134
 20
3.34078
 30
0.000000
  70
    32
  0
VERTEX
  8
AM_VIS
  5
1C2
 10
15.0134
 20
3.34273
 30
0.000000
  70
    32
  0
VERTEX
  8
AM_VIS
  5
1C3
 10
15.0134
 20
3.34468
 30
0.000000
  70
    32
  0
VERTEX
  8
AM_VIS
  5
1C4
 10
15.0134
 20
3.34663
 30
0.000000
  70
    32
  0
VERTEX
  8
AM_VIS
  5
1C5
 10
15.0133
 20
3.34858
 30
0.000000
  70
    32
  0
VERTEX
  8
AM_VIS
  5
1C6
 10
15.0133
 20
3.35052
 30
0.000000
  70
    32
  0
VERTEX
  8
AM_VIS
  5
1C7
 10
15.0133
 20
3.35247
 30
0.000000
  70
    32
  0
VERTEX
  8
AM_VIS
  5
1C8
 10
15.0132
 20
3.35442
 30
0.000000
  70
    32
  0
VERTEX
  8
AM_VIS
  5
1C9
 10
15.0132
 20
3.35636
 30
0.000000
  70
    32
  0
VERTEX
  8
AM_VIS
  5
1CA
 10
15.0131
 20
3.35831
 30
0.000000
  70
    32
  0
VERTEX
  8
AM_VIS
  5
1CB
 10
15.0131
 20
3.36025
 30
0.000000
  70
    32
  0
VERTEX
  8
AM_VIS
  5
1CC
 10
15.0130
 20
3.36219
 30
0.000000
  70
    32
  0
VERTEX
  8
AM_VIS
  5
1CD
 10
15.0129
 20
3.36414
 30
0.000000
  70
    32
  0
VERTEX
  8
AM_VIS
  5
1CE
 10
15.0128
 20
3.36608
 30
0.000000
  70
    32
  0
VERTEX
  8
AM_VIS
  5
1CF
 10
15.0127
 20
3.36802
 30
0.000000
  70
    32
  0
VERTEX
  8
AM_VIS
  5
1D0
 10
15.0126
 20
3.36996
 30
0.000000
  70
    32
  0
VERTEX
  8
AM_VIS
  5
1D1
 10
15.0125
 20
3.37190
 30
0.000000
  70
    32
  0
VERTEX
  8
AM_VIS
  5
1D2
 10
15.0124
 20
3.37384
 30
0.000000
  70
    32
  0
VERTEX
  8
AM_VIS
  5
1D3
 10
15.0123
 20
3.37578
 30
0.000000
  70
    32
  0
VERTEX
  8
AM_VIS
  5
1D4
 10
15.0122
 20
3.37772
 30
0.000000
  70
    32
  0
VERTEX
  8
AM_VIS
  5
1D5
 10
15.0120
 20
3.37965
 30
0.000000
  70
    32
  0
VERTEX
  8
AM_VIS
  5
1D6
 10
15.0119
 20
3.38159
 30
0.000000
  70
    32
  0
VERTEX
  8
AM_VIS
  5
1D7
 10
15.0118
 20
3.38352
 30
0.000000
  70
    32
  0
VERTEX
  8
AM_VIS
  5
1D8
 10
15.0116
 20
3.38546
 30
0.000000
  70
    32
  0
VERTEX
  8
AM_VIS
  5
1D9
 10
15.0114
 20
3.38739
 30
0.000000
  70
    32
  0
VERTEX
  8
AM_VIS
  5
1DA
 10
15.0113
 20
3.38932
 30
0.000000
  70
    32
  0
VERTEX
  8
AM_VIS
  5
1DB
 10
15.0111
 20
3.39125
 30
0.000000
  70
    32
  0
VERTEX
  8
AM_VIS
  5
1DC
 10
15.0109
 20
3.39318
 30
0.000000
  70
    32
  0
VERTEX
  8
AM_VIS
  5
1DD
 10
15.0107
 20
3.39511
 30
0.000000
  70
    32
  0
VERTEX
  8
AM_VIS
  5
1DE
 10
15.0106
 20
3.39704
 30
0.000000
  70
    32
  0
VERTEX
  8
AM_VIS
  5
1DF
 10
15.0104
 20
3.39897
 30
0.000000
  70
    32
  0
VERTEX
  8
AM_VIS
  5
1E0
 10
15.0102
 20
3.40090
 30
0.000000
  70
    32
  0
VERTEX
  8
AM_VIS
  5
1E1
 10
15.0099
 20
3.40282
 30
0.000000
  70
    32
  0
VERTEX
  8
AM_VIS
  5
1E2
 10
15.0097
 20
3.40475
 30
0.000000
  70
    32
  0
VERTEX
  8
AM_VIS
  5
1E3
 10
15.0095
 20
3.40667
 30
0.000000
  70
    32
  0
VERTEX
  8
AM_VIS
  5
1E4
 10
15.0093
 20
3.40859
 30
0.000000
  70
    32
  0
VERTEX
  8
AM_VIS
  5
1E5
 10
15.0090
 20
3.41051
 30
0.000000
  70
    32
  0
VERTEX
  8
AM_VIS
  5
1E6
 10
15.0088
 20
3.41243
 30
0.000000
  70
    32
  0
VERTEX
  8
AM_VIS
  5
1E7
 10
15.0085
 20
3.41435
 30
0.000000
  70
    32
  0
VERTEX
  8
AM_VIS
  5
1E8
 10
15.0083
 20
3.41627
 30
0.000000
  70
    32
  0
VERTEX
  8
AM_VIS
  5
1E9
 10
15.0080
 20
3.41818
 30
0.000000
  70
    32
  0
VERTEX
  8
AM_VIS
  5
1EA
 10
15.0077
 20
3.42010
 30
0.000000
  70
    32
  0
VERTEX
  8
AM_VIS
  5
1EB
 10
15.0075
 20
3.42201
 30
0.000000
  70
    32
  0
VERTEX
  8
AM_VIS
  5
1EC
 10
15.0072
 20
3.42393
 30
0.000000
  70
    32
  0
VERTEX
  8
AM_VIS
  5
1ED
 10
15.0069
 20
3.42584
 30
0.000000
  70
    32
  0
VERTEX
  8
AM_VIS
  5
1EE
 10
15.0066
 20
3.42775
 30
0.000000
  70
    32
  0
VERTEX
  8
AM_VIS
  5
1EF
 10
15.0063
 20
3.42966
 30
0.000000
  70
    32
  0
VERTEX
  8
AM_VIS
  5
1F0
 10
15.0060
 20
3.43156
 30
0.000000
  70
    32
  0
VERTEX
  8
AM_VIS
  5
1F1
 10
15.0057
 20
3.43347
 30
0.000000
  70
    32
  0
VERTEX
  8
AM_VIS
  5
1F2
 10
15.0053
 20
3.43537
 30
0.000000
  70
    32
  0
VERTEX
  8
AM_VIS
  5
1F3
 10
15.0050
 20
3.43728
 30
0.000000
  70
    32
  0
VERTEX
  8
AM_VIS
  5
1F4
 10
15.0047
 20
3.43918
 30
0.000000
  70
    32
  0
VERTEX
  8
AM_VIS
  5
1F5
 10
15.0043
 20
3.44108
 30
0.000000
  70
    32
  0
VERTEX
  8
AM_VIS
  5
1F6
 10
15.0040
 20
3.44298
 30
0.000000
  70
    32
  0
VERTEX
  8
AM_VIS
  5
1F7
 10
15.0036
 20
3.44487
 30
0.000000
  70
    32
  0
VERTEX
  8
AM_VIS
  5
1F8
 10
15.0033
 20
3.44677
 30
0.000000
  70
    32
  0
VERTEX
  8
AM_VIS
  5
1F9
 10
15.0029
 20
3.44867
 30
0.000000
  70
    32
  0
VERTEX
  8
AM_VIS
  5
1FA
 10
15.0025
 20
3.45056
 30
0.000000
  70
    32
  0
VERTEX
  8
AM_VIS
  5
1FB
 10
15.0021
 20
3.45245
 30
0.000000
  70
    32
  0
VERTEX
  8
AM_VIS
  5
1FC
 10
15.0017
 20
3.45434
 30
0.000000
  70
    32
  0
VERTEX
  8
AM_VIS
  5
1FD
 10
15.0013
 20
3.45623
 30
0.000000
  70
    32
  0
VERTEX
  8
AM_VIS
  5
1FE
 10
15.0009
 20
3.45811
 30
0.000000
  70
    32
  0
VERTEX
  8
AM_VIS
  5
1FF
 10
15.0005
 20
3.46000
 30
0.000000
  70
    32
  0
VERTEX
  8
AM_VIS
  5
200
 10
15.0001
 20
3.46188
 30
0.000000
  70
    32
  0
VERTEX
  8
AM_VIS
  5
201
 10
14.9997
 20
3.46376
 30
0.000000
  70
    32
  0
VERTEX
  8
AM_VIS
  5
202
 10
14.9993
 20
3.46564
 30
0.000000
  70
    32
  0
VERTEX
  8
AM_VIS
  5
203
 10
14.9988
 20
3.46752
 30
0.000000
  70
    32
  0
VERTEX
  8
AM_VIS
  5
204
 10
14.9984
 20
3.46940
 30
0.000000
  70
    32
  0
VERTEX
  8
AM_VIS
  5
205
 10
14.9979
 20
3.47128
 30
0.000000
  70
    32
  0
VERTEX
  8
AM_VIS
  5
206
 10
14.9975
 20
3.47315
 30
0.000000
  70
    32
  0
VERTEX
  8
AM_VIS
  5
207
 10
14.9970
 20
3.47502
 30
0.000000
  70
    32
  0
VERTEX
  8
AM_VIS
  5
208
 10
14.9966
 20
3.47689
 30
0.000000
  70
    32
  0
VERTEX
  8
AM_VIS
  5
209
 10
14.9961
 20
3.47876
 30
0.000000
  70
    32
  0
VERTEX
  8
AM_VIS
  5
20A
 10
14.9956
 20
3.48062
 30
0.000000
  70
    32
  0
VERTEX
  8
AM_VIS
  5
20B
 10
14.9951
 20
3.48249
 30
0.000000
  70
    32
  0
VERTEX
  8
AM_VIS
  5
20C
 10
14.9946
 20
3.48435
 30
0.000000
  70
    32
  0
VERTEX
  8
AM_VIS
  5
20D
 10
14.9941
 20
3.48621
 30
0.000000
  70
    32
  0
VERTEX
  8
AM_VIS
  5
20E
 10
14.9936
 20
3.48807
 30
0.000000
  70
    32
  0
VERTEX
  8
AM_VIS
  5
20F
 10
14.9931
 20
3.48993
 30
0.000000
  70
    32
  0
VERTEX
  8
AM_VIS
  5
210
 10
14.9926
 20
3.49178
 30
0.000000
  70
    32
  0
VERTEX
  8
AM_VIS
  5
211
 10
14.9921
 20
3.49363
 30
0.000000
  70
    32
  0
VERTEX
  8
AM_VIS
  5
212
 10
14.9915
 20
3.49548
 30
0.000000
  70
    32
  0
VERTEX
  8
AM_VIS
  5
213
 10
14.9910
 20
3.49733
 30
0.000000
  70
    32
  0
VERTEX
  8
AM_VIS
  5
214
 10
14.9904
 20
3.49918
 30
0.000000
  70
    32
  0
VERTEX
  8
AM_VIS
  5
215
 10
14.9899
 20
3.50103
 30
0.000000
  70
    32
  0
VERTEX
  8
AM_VIS
  5
216
 10
14.9893
 20
3.50287
 30
0.000000
  70
    32
  0
VERTEX
  8
AM_VIS
  5
217
 10
14.9888
 20
3.50471
 30
0.000000
  70
    32
  0
VERTEX
  8
AM_VIS
  5
218
 10
14.9882
 20
3.50655
 30
0.000000
  70
    32
  0
VERTEX
  8
AM_VIS
  5
219
 10
14.9876
 20
3.50838
 30
0.000000
  70
    32
  0
VERTEX
  8
AM_VIS
  5
21A
 10
14.9870
 20
3.51022
 30
0.000000
  70
    32
  0
VERTEX
  8
AM_VIS
  5
21B
 10
14.9865
 20
3.51205
 30
0.000000
  70
    32
  0
VERTEX
  8
AM_VIS
  5
21C
 10
14.9859
 20
3.51388
 30
0.000000
  70
    32
  0
VERTEX
  8
AM_VIS
  5
21D
 10
14.9853
 20
3.51571
 30
0.000000
  70
    32
  0
VERTEX
  8
AM_VIS
  5
21E
 10
14.9846
 20
3.51754
 30
0.000000
  70
    32
  0
VERTEX
  8
AM_VIS
  5
21F
 10
14.9840
 20
3.51936
 30
0.000000
  70
    32
  0
VERTEX
  8
AM_VIS
  5
220
 10
14.9834
 20
3.52118
 30
0.000000
  70
    32
  0
VERTEX
  8
AM_VIS
  5
221
 10
14.9828
 20
3.52300
 30
0.000000
  70
    32
  0
VERTEX
  8
AM_VIS
  5
222
 10
14.9821
 20
3.52482
 30
0.000000
  70
    32
  0
VERTEX
  8
AM_VIS
  5
223
 10
14.9815
 20
3.52663
 30
0.000000
  70
    32
  0
VERTEX
  8
AM_VIS
  5
224
 10
14.9809
 20
3.52844
 30
0.000000
  70
    32
  0
VERTEX
  8
AM_VIS
  5
225
 10
14.9802
 20
3.53025
 30
0.000000
  70
    32
  0
VERTEX
  8
AM_VIS
  5
226
 10
14.9795
 20
3.53206
 30
0.000000
  70
    32
  0
VERTEX
  8
AM_VIS
  5
227
 10
14.9789
 20
3.53387
 30
0.000000
  70
    32
  0
VERTEX
  8
AM_VIS
  5
228
 10
14.9782
 20
3.53567
 30
0.000000
  70
    32
  0
VERTEX
  8
AM_VIS
  5
229
 10
14.9775
 20
3.53747
 30
0.000000
  70
    32
  0
VERTEX
  8
AM_VIS
  5
22A
 10
14.9768
 20
3.53927
 30
0.000000
  70
    32
  0
VERTEX
  8
AM_VIS
  5
22B
 10
14.9762
 20
3.54106
 30
0.000000
  70
    32
  0
VERTEX
  8
AM_VIS
  5
22C
 10
14.9755
 20
3.54286
 30
0.000000
  70
    32
  0
VERTEX
  8
AM_VIS
  5
22D
 10
14.9748
 20
3.54465
 30
0.000000
  70
    32
  0
VERTEX
  8
AM_VIS
  5
22E
 10
14.9740
 20
3.54643
 30
0.000000
  70
    32
  0
VERTEX
  8
AM_VIS
  5
22F
 10
14.9733
 20
3.54821
 30
0.000000
  70
    32
  0
VERTEX
  8
AM_VIS
  5
230
 10
14.9726
 20
3.54999
 30
0.000000
  70
    32
  0
VERTEX
  8
AM_VIS
  5
231
 10
14.9719
 20
3.55177
 30
0.000000
  70
    32
  0
VERTEX
  8
AM_VIS
  5
232
 10
14.9711
 20
3.55354
 30
0.000000
  70
    32
  0
VERTEX
  8
AM_VIS
  5
233
 10
14.9704
 20
3.55530
 30
0.000000
  70
    32
  0
VERTEX
  8
AM_VIS
  5
234
 10
14.9697
 20
3.55707
 30
0.000000
  70
    32
  0
VERTEX
  8
AM_VIS
  5
235
 10
14.9689
 20
3.55883
 30
0.000000
  70
    32
  0
VERTEX
  8
AM_VIS
  5
236
 10
14.9682
 20
3.56058
 30
0.000000
  70
    32
  0
VERTEX
  8
AM_VIS
  5
237
 10
14.9674
 20
3.56234
 30
0.000000
  70
    32
  0
VERTEX
  8
AM_VIS
  5
238
 10
14.9666
 20
3.56408
 30
0.000000
  70
    32
  0
VERTEX
  8
AM_VIS
  5
239
 10
14.9659
 20
3.56583
 30
0.000000
  70
    32
  0
VERTEX
  8
AM_VIS
  5
23A
 10
14.9651
 20
3.56757
 30
0.000000
  70
    32
  0
VERTEX
  8
AM_VIS
  5
23B
 10
14.9643
 20
3.56931
 30
0.000000
  70
    32
  0
VERTEX
  8
AM_VIS
  5
23C
 10
14.9635
 20
3.57104
 30
0.000000
  70
    32
  0
VERTEX
  8
AM_VIS
  5
23D
 10
14.9627
 20
3.57277
 30
0.000000
  70
    32
  0
VERTEX
  8
AM_VIS
  5
23E
 10
14.9619
 20
3.57449
 30
0.000000
  70
    32
  0
VERTEX
  8
AM_VIS
  5
23F
 10
14.9611
 20
3.57622
 30
0.000000
  70
    32
  0
VERTEX
  8
AM_VIS
  5
240
 10
14.9603
 20
3.57793
 30
0.000000
  70
    32
  0
VERTEX
  8
AM_VIS
  5
241
 10
14.9595
 20
3.57965
 30
0.000000
  70
    32
  0
VERTEX
  8
AM_VIS
  5
242
 10
14.9586
 20
3.58136
 30
0.000000
  70
    32
  0
VERTEX
  8
AM_VIS
  5
243
 10
14.9578
 20
3.58306
 30
0.000000
  70
    32
  0
VERTEX
  8
AM_VIS
  5
244
 10
14.9570
 20
3.58476
 30
0.000000
  70
    32
  0
VERTEX
  8
AM_VIS
  5
245
 10
14.9561
 20
3.58646
 30
0.000000
  70
    32
  0
VERTEX
  8
AM_VIS
  5
246
 10
14.9553
 20
3.58815
 30
0.000000
  70
    32
  0
VERTEX
  8
AM_VIS
  5
247
 10
14.9544
 20
3.58984
 30
0.000000
  70
    32
  0
VERTEX
  8
AM_VIS
  5
248
 10
14.9536
 20
3.59153
 30
0.000000
  70
    32
  0
VERTEX
  8
AM_VIS
  5
249
 10
14.9527
 20
3.59321
 30
0.000000
  70
    32
  0
VERTEX
  8
AM_VIS
  5
24A
 10
14.9518
 20
3.59489
 30
0.000000
  70
    32
  0
VERTEX
  8
AM_VIS
  5
24B
 10
14.9510
 20
3.59656
 30
0.000000
  70
    32
  0
VERTEX
  8
AM_VIS
  5
24C
 10
14.9501
 20
3.59823
 30
0.000000
  70
    32
  0
VERTEX
  8
AM_VIS
  5
24D
 10
14.9492
 20
3.59989
 30
0.000000
  70
    32
  0
VERTEX
  8
AM_VIS
  5
24E
 10
14.9483
 20
3.60155
 30
0.000000
  70
    32
  0
VERTEX
  8
AM_VIS
  5
24F
 10
14.9474
 20
3.60321
 30
0.000000
  70
    32
  0
VERTEX
  8
AM_VIS
  5
250
 10
14.9465
 20
3.60486
 30
0.000000
  70
    32
  0
VERTEX
  8
AM_VIS
  5
251
 10
14.9456
 20
3.60651
 30
0.000000
  70
    32
  0
VERTEX
  8
AM_VIS
  5
252
 10
14.9447
 20
3.60815
 30
0.000000
  70
    32
  0
VERTEX
  8
AM_VIS
  5
253
 10
14.9438
 20
3.60979
 30
0.000000
  70
    32
  0
VERTEX
  8
AM_VIS
  5
254
 10
14.9429
 20
3.61143
 30
0.000000
  70
    32
  0
VERTEX
  8
AM_VIS
  5
255
 10
14.9419
 20
3.61306
 30
0.000000
  70
    32
  0
VERTEX
  8
AM_VIS
  5
256
 10
14.9410
 20
3.61468
 30
0.000000
  70
    32
  0
VERTEX
  8
AM_VIS
  5
257
 10
14.9401
 20
3.61631
 30
0.000000
  70
    32
  0
VERTEX
  8
AM_VIS
  5
258
 10
14.9391
 20
3.61792
 30
0.000000
  70
    32
  0
VERTEX
  8
AM_VIS
  5
259
 10
14.9382
 20
3.61954
 30
0.000000
  70
    32
  0
VERTEX
  8
AM_VIS
  5
25A
 10
14.9372
 20
3.62114
 30
0.000000
  70
    32
  0
VERTEX
  8
AM_VIS
  5
25B
 10
14.9363
 20
3.62275
 30
0.000000
  70
    32
  0
VERTEX
  8
AM_VIS
  5
25C
 10
14.9353
 20
3.62435
 30
0.000000
  70
    32
  0
VERTEX
  8
AM_VIS
  5
25D
 10
14.9343
 20
3.62594
 30
0.000000
  70
    32
  0
VERTEX
  8
AM_VIS
  5
25E
 10
14.9333
 20
3.62753
 30
0.000000
  70
    32
  0
VERTEX
  8
AM_VIS
  5
25F
 10
14.9324
 20
3.62912
 30
0.000000
  70
    32
  0
VERTEX
  8
AM_VIS
  5
260
 10
14.9314
 20
3.63070
 30
0.000000
  70
    32
  0
VERTEX
  8
AM_VIS
  5
261
 10
14.9304
 20
3.63228
 30
0.000000
  70
    32
  0
VERTEX
  8
AM_VIS
  5
262
 10
14.9294
 20
3.63385
 30
0.000000
  70
    32
  0
VERTEX
  8
AM_VIS
  5
263
 10
14.9284
 20
3.63542
 30
0.000000
  70
    32
  0
VERTEX
  8
AM_VIS
  5
264
 10
14.9274
 20
3.63698
 30
0.000000
  70
    32
  0
VERTEX
  8
AM_VIS
  5
265
 10
14.9264
 20
3.63854
 30
0.000000
  70
    32
  0
VERTEX
  8
AM_VIS
  5
266
 10
14.9254
 20
3.64009
 30
0.000000
  70
    32
  0
VERTEX
  8
AM_VIS
  5
267
 10
14.9243
 20
3.64164
 30
0.000000
  70
    32
  0
VERTEX
  8
AM_VIS
  5
268
 10
14.9233
 20
3.64319
 30
0.000000
  70
    32
  0
VERTEX
  8
AM_VIS
  5
269
 10
14.9223
 20
3.64473
 30
0.000000
  70
    32
  0
VERTEX
  8
AM_VIS
  5
26A
 10
14.9212
 20
3.64626
 30
0.000000
  70
    32
  0
VERTEX
  8
AM_VIS
  5
26B
 10
14.9202
 20
3.64779
 30
0.000000
  70
    32
  0
VERTEX
  8
AM_VIS
  5
26C
 10
14.9192
 20
3.64932
 30
0.000000
  70
    32
  0
VERTEX
  8
AM_VIS
  5
26D
 10
14.9181
 20
3.65084
 30
0.000000
  70
    32
  0
VERTEX
  8
AM_VIS
  5
26E
 10
14.9171
 20
3.65235
 30
0.000000
  70
    32
  0
VERTEX
  8
AM_VIS
  5
26F
 10
14.9160
 20
3.65387
 30
0.000000
  70
    32
  0
VERTEX
  8
AM_VIS
  5
270
 10
14.9149
 20
3.65537
 30
0.000000
  70
    32
  0
VERTEX
  8
AM_VIS
  5
271
 10
14.9139
 20
3.65687
 30
0.000000
  70
    32
  0
VERTEX
  8
AM_VIS
  5
272
 10
14.9128
 20
3.65837
 30
0.000000
  70
    32
  0
VERTEX
  8
AM_VIS
  5
273
 10
14.9117
 20
3.65986
 30
0.000000
  70
    32
  0
VERTEX
  8
AM_VIS
  5
274
 10
14.9106
 20
3.66135
 30
0.000000
  70
    32
  0
VERTEX
  8
AM_VIS
  5
275
 10
14.9095
 20
3.66283
 30
0.000000
  70
    32
  0
VERTEX
  8
AM_VIS
  5
276
 10
14.9084
 20
3.66431
 30
0.000000
  70
    32
  0
VERTEX
  8
AM_VIS
  5
277
 10
14.9073
 20
3.66578
 30
0.000000
  70
    32
  0
VERTEX
  8
AM_VIS
  5
278
 10
14.9062
 20
3.66724
 30
0.000000
  70
    32
  0
VERTEX
  8
AM_VIS
  5
279
 10
14.9051
 20
3.66871
 30
0.000000
  70
    32
  0
VERTEX
  8
AM_VIS
  5
27A
 10
14.9040
 20
3.67016
 30
0.000000
  70
    32
  0
VERTEX
  8
AM_VIS
  5
27B
 10
14.9029
 20
3.67161
 30
0.000000
  70
    32
  0
VERTEX
  8
AM_VIS
  5
27C
 10
14.9018
 20
3.67306
 30
0.000000
  70
    32
  0
VERTEX
  8
AM_VIS
  5
27D
 10
14.9006
 20
3.67450
 30
0.000000
  70
    32
  0
VERTEX
  8
AM_VIS
  5
27E
 10
14.8995
 20
3.67594
 30
0.000000
  70
    32
  0
VERTEX
  8
AM_VIS
  5
27F
 10
14.8984
 20
3.67737
 30
0.000000
  70
    32
  0
VERTEX
  8
AM_VIS
  5
280
 10
14.8972
 20
3.67880
 30
0.000000
  70
    32
  0
VERTEX
  8
AM_VIS
  5
281
 10
14.8961
 20
3.68022
 30
0.000000
  70
    32
  0
VERTEX
  8
AM_VIS
  5
282
 10
14.8949
 20
3.68163
 30
0.000000
  70
    32
  0
VERTEX
  8
AM_VIS
  5
283
 10
14.8938
 20
3.68304
 30
0.000000
  70
    32
  0
VERTEX
  8
AM_VIS
  5
284
 10
14.8926
 20
3.68445
 30
0.000000
  70
    32
  0
VERTEX
  8
AM_VIS
  5
285
 10
14.8914
 20
3.68585
 30
0.000000
  70
    32
  0
VERTEX
  8
AM_VIS
  5
286
 10
14.8903
 20
3.68724
 30
0.000000
  70
    32
  0
VERTEX
  8
AM_VIS
  5
287
 10
14.8891
 20
3.68863
 30
0.000000
  70
    32
  0
VERTEX
  8
AM_VIS
  5
288
 10
14.8879
 20
3.69001
 30
0.000000
  70
    32
  0
VERTEX
  8
AM_VIS
  5
289
 10
14.8867
 20
3.69139
 30
0.000000
  70
    32
  0
VERTEX
  8
AM_VIS
  5
28A
 10
14.8855
 20
3.69277
 30
0.000000
  70
    32
  0
VERTEX
  8
AM_VIS
  5
28B
 10
14.8843
 20
3.69413
 30
0.000000
  70
    32
  0
VERTEX
  8
AM_VIS
  5
28C
 10
14.8832
 20
3.69550
 30
0.000000
  70
    32
  0
VERTEX
  8
AM_VIS
  5
28D
 10
14.8820
 20
3.69685
 30
0.000000
  70
    32
  0
VERTEX
  8
AM_VIS
  5
28E
 10
14.8807
 20
3.69821
 30
0.000000
  70
    32
  0
VERTEX
  8
AM_VIS
  5
28F
 10
14.8795
 20
3.69955
 30
0.000000
  70
    32
  0
VERTEX
  8
AM_VIS
  5
290
 10
14.8783
 20
3.70089
 30
0.000000
  70
    32
  0
VERTEX
  8
AM_VIS
  5
291
 10
14.8771
 20
3.70223
 30
0.000000
  70
    32
  0
VERTEX
  8
AM_VIS
  5
292
 10
14.8759
 20
3.70356
 30
0.000000
  70
    32
  0
VERTEX
  8
AM_VIS
  5
293
 10
14.8746
 20
3.70488
 30
0.000000
  70
    32
  0
VERTEX
  8
AM_VIS
  5
294
 10
14.8734
 20
3.70620
 30
0.000000
  70
    32
  0
VERTEX
  8
AM_VIS
  5
295
 10
14.8722
 20
3.70752
 30
0.000000
  70
    32
  0
VERTEX
  8
AM_VIS
  5
296
 10
14.8709
 20
3.70882
 30
0.000000
  70
    32
  0
VERTEX
  8
AM_VIS
  5
297
 10
14.8697
 20
3.71013
 30
0.000000
  70
    32
  0
VERTEX
  8
AM_VIS
  5
298
 10
14.8684
 20
3.71142
 30
0.000000
  70
    32
  0
VERTEX
  8
AM_VIS
  5
299
 10
14.8672
 20
3.71271
 30
0.000000
  70
    32
  0
VERTEX
  8
AM_VIS
  5
29A
 10
14.8659
 20
3.71400
 30
0.000000
  70
    32
  0
VERTEX
  8
AM_VIS
  5
29B
 10
14.8647
 20
3.71528
 30
0.000000
  70
    32
  0
VERTEX
  8
AM_VIS
  5
29C
 10
14.8634
 20
3.71656
 30
0.000000
  70
    32
  0
VERTEX
  8
AM_VIS
  5
29D
 10
14.8621
 20
3.71783
 30
0.000000
  70
    32
  0
VERTEX
  8
AM_VIS
  5
29E
 10
14.8608
 20
3.71910
 30
0.000000
  70
    32
  0
VERTEX
  8
AM_VIS
  5
29F
 10
14.8595
 20
3.72036
 30
0.000000
  70
    32
  0
VERTEX
  8
AM_VIS
  5
2A0
 10
14.8583
 20
3.72162
 30
0.000000
  70
    32
  0
VERTEX
  8
AM_VIS
  5
2A1
 10
14.8570
 20
3.72287
 30
0.000000
  70
    32
  0
VERTEX
  8
AM_VIS
  5
2A2
 10
14.8557
 20
3.72411
 30
0.000000
  70
    32
  0
VERTEX
  8
AM_VIS
  5
2A3
 10
14.8544
 20
3.72536
 30
0.000000
  70
    32
  0
VERTEX
  8
AM_VIS
  5
2A4
 10
14.8530
 20
3.72659
 30
0.000000
  70
    32
  0
VERTEX
  8
AM_VIS
  5
2A5
 10
14.8517
 20
3.72782
 30
0.000000
  70
    32
  0
VERTEX
  8
AM_VIS
  5
2A6
 10
14.8504
 20
3.72905
 30
0.000000
  70
    32
  0
VERTEX
  8
AM_VIS
  5
2A7
 10
14.8491
 20
3.73027
 30
0.000000
  70
    32
  0
VERTEX
  8
AM_VIS
  5
2A8
 10
14.8478
 20
3.73148
 30
0.000000
  70
    32
  0
VERTEX
  8
AM_VIS
  5
2A9
 10
14.8464
 20
3.73269
 30
0.000000
  70
    32
  0
VERTEX
  8
AM_VIS
  5
2AA
 10
14.8451
 20
3.73390
 30
0.000000
  70
    32
  0
VERTEX
  8
AM_VIS
  5
2AB
 10
14.8437
 20
3.73510
 30
0.000000
  70
    32
  0
VERTEX
  8
AM_VIS
  5
2AC
 10
14.8424
 20
3.73629
 30
0.000000
  70
    32
  0
VERTEX
  8
AM_VIS
  5
2AD
 10
14.8410
 20
3.73748
 30
0.000000
  70
    32
  0
VERTEX
  8
AM_VIS
  5
2AE
 10
14.8397
 20
3.73866
 30
0.000000
  70
    32
  0
VERTEX
  8
AM_VIS
  5
2AF
 10
14.8383
 20
3.73984
 30
0.000000
  70
    32
  0
VERTEX
  8
AM_VIS
  5
2B0
 10
14.8369
 20
3.74101
 30
0.000000
  70
    32
  0
VERTEX
  8
AM_VIS
  5
2B1
 10
14.8356
 20
3.74217
 30
0.000000
  70
    32
  0
VERTEX
  8
AM_VIS
  5
2B2
 10
14.8342
 20
3.74333
 30
0.000000
  70
    32
  0
VERTEX
  8
AM_VIS
  5
2B3
 10
14.8328
 20
3.74449
 30
0.000000
  70
    32
  0
VERTEX
  8
AM_VIS
  5
2B4
 10
14.8314
 20
3.74564
 30
0.000000
  70
    32
  0
VERTEX
  8
AM_VIS
  5
2B5
 10
14.8300
 20
3.74678
 30
0.000000
  70
    32
  0
VERTEX
  8
AM_VIS
  5
2B6
 10
14.8286
 20
3.74792
 30
0.000000
  70
    32
  0
VERTEX
  8
AM_VIS
  5
2B7
 10
14.8272
 20
3.74905
 30
0.000000
  70
    32
  0
VERTEX
  8
AM_VIS
  5
2B8
 10
14.8258
 20
3.75017
 30
0.000000
  70
    32
  0
VERTEX
  8
AM_VIS
  5
2B9
 10
14.8244
 20
3.75129
 30
0.000000
  70
    32
  0
VERTEX
  8
AM_VIS
  5
2BA
 10
14.8230
 20
3.75240
 30
0.000000
  70
    32
  0
VERTEX
  8
AM_VIS
  5
2BB
 10
14.8216
 20
3.75351
 30
0.000000
  70
    32
  0
VERTEX
  8
AM_VIS
  5
2BC
 10
14.8201
 20
3.75461
 30
0.000000
  70
    32
  0
VERTEX
  8
AM_VIS
  5
2BD
 10
14.8187
 20
3.75571
 30
0.000000
  70
    32
  0
VERTEX
  8
AM_VIS
  5
2BE
 10
14.8173
 20
3.75680
 30
0.000000
  70
    32
  0
VERTEX
  8
AM_VIS
  5
2BF
 10
14.8158
 20
3.75788
 30
0.000000
  70
    32
  0
VERTEX
  8
AM_VIS
  5
2C0
 10
14.8144
 20
3.75896
 30
0.000000
  70
    32
  0
VERTEX
  8
AM_VIS
  5
2C1
 10
14.8129
 20
3.76003
 30
0.000000
  70
    32
  0
VERTEX
  8
AM_VIS
  5
2C2
 10
14.8115
 20
3.76109
 30
0.000000
  70
    32
  0
VERTEX
  8
AM_VIS
  5
2C3
 10
14.8100
 20
3.76215
 30
0.000000
  70
    32
  0
VERTEX
  8
AM_VIS
  5
2C4
 10
14.8086
 20
3.76320
 30
0.000000
  70
    32
  0
VERTEX
  8
AM_VIS
  5
2C5
 10
14.8071
 20
3.76425
 30
0.000000
  70
    32
  0
VERTEX
  8
AM_VIS
  5
2C6
 10
14.8056
 20
3.76529
 30
0.000000
  70
    32
  0
VERTEX
  8
AM_VIS
  5
2C7
 10
14.8042
 20
3.76632
 30
0.000000
  70
    32
  0
VERTEX
  8
AM_VIS
  5
2C8
 10
14.8027
 20
3.76734
 30
0.000000
  70
    32
  0
VERTEX
  8
AM_VIS
  5
2C9
 10
14.8012
 20
3.76836
 30
0.000000
  70
    32
  0
VERTEX
  8
AM_VIS
  5
2CA
 10
14.7997
 20
3.76938
 30
0.000000
  70
    32
  0
VERTEX
  8
AM_VIS
  5
2CB
 10
14.7982
 20
3.77038
 30
0.000000
  70
    32
  0
VERTEX
  8
AM_VIS
  5
2CC
 10
14.7967
 20
3.77139
 30
0.000000
  70
    32
  0
VERTEX
  8
AM_VIS
  5
2CD
 10
14.7952
 20
3.77238
 30
0.000000
  70
    32
  0
VERTEX
  8
AM_VIS
  5
2CE
 10
14.7937
 20
3.77337
 30
0.000000
  70
    32
  0
VERTEX
  8
AM_VIS
  5
2CF
 10
14.7922
 20
3.77435
 30
0.000000
  70
    32
  0
VERTEX
  8
AM_VIS
  5
2D0
 10
14.7907
 20
3.77532
 30
0.000000
  70
    32
  0
VERTEX
  8
AM_VIS
  5
2D1
 10
14.7891
 20
3.77629
 30
0.000000
  70
    32
  0
VERTEX
  8
AM_VIS
  5
2D2
 10
14.7876
 20
3.77725
 30
0.000000
  70
    32
  0
VERTEX
  8
AM_VIS
  5
2D3
 10
14.7861
 20
3.77820
 30
0.000000
  70
    32
  0
VERTEX
  8
AM_VIS
  5
2D4
 10
14.7845
 20
3.77915
 30
0.000000
  70
    32
  0
VERTEX
  8
AM_VIS
  5
2D5
 10
14.7830
 20
3.78009
 30
0.000000
  70
    32
  0
VERTEX
  8
AM_VIS
  5
2D6
 10
14.7815
 20
3.78102
 30
0.000000
  70
    32
  0
VERTEX
  8
AM_VIS
  5
2D7
 10
14.7799
 20
3.78195
 30
0.000000
  70
    32
  0
VERTEX
  8
AM_VIS
  5
2D8
 10
14.7784
 20
3.78287
 30
0.000000
  70
    32
  0
VERTEX
  8
AM_VIS
  5
2D9
 10
14.7768
 20
3.78378
 30
0.000000
  70
    32
  0
VERTEX
  8
AM_VIS
  5
2DA
 10
14.7752
 20
3.78468
 30
0.000000
  70
    32
  0
VERTEX
  8
AM_VIS
  5
2DB
 10
14.7737
 20
3.78558
 30
0.000000
  70
    32
  0
VERTEX
  8
AM_VIS
  5
2DC
 10
14.7721
 20
3.78647
 30
0.000000
  70
    32
  0
VERTEX
  8
AM_VIS
  5
2DD
 10
14.7705
 20
3.78735
 30
0.000000
  70
    32
  0
VERTEX
  8
AM_VIS
  5
2DE
 10
14.7690
 20
3.78823
 30
0.000000
  70
    32
  0
VERTEX
  8
AM_VIS
  5
2DF
 10
14.7674
 20
3.78910
 30
0.000000
  70
    32
  0
VERTEX
  8
AM_VIS
  5
2E0
 10
14.7658
 20
3.78996
 30
0.000000
  70
    32
  0
VERTEX
  8
AM_VIS
  5
2E1
 10
14.7642
 20
3.79082
 30
0.000000
  70
    32
  0
VERTEX
  8
AM_VIS
  5
2E2
 10
14.7626
 20
3.79166
 30
0.000000
  70
    32
  0
VERTEX
  8
AM_VIS
  5
2E3
 10
14.7610
 20
3.79250
 30
0.000000
  70
    32
  0
VERTEX
  8
AM_VIS
  5
2E4
 10
14.7594
 20
3.79334
 30
0.000000
  70
    32
  0
VERTEX
  8
AM_VIS
  5
2E5
 10
14.7578
 20
3.79416
 30
0.000000
  70
    32
  0
VERTEX
  8
AM_VIS
  5
2E6
 10
14.7562
 20
3.79498
 30
0.000000
  70
    32
  0
VERTEX
  8
AM_VIS
  5
2E7
 10
14.7546
 20
3.79579
 30
0.000000
  70
    32
  0
VERTEX
  8
AM_VIS
  5
2E8
 10
14.7529
 20
3.79659
 30
0.000000
  70
    32
  0
VERTEX
  8
AM_VIS
  5
2E9
 10
14.7513
 20
3.79739
 30
0.000000
  70
    32
  0
VERTEX
  8
AM_VIS
  5
2EA
 10
14.7497
 20
3.79818
 30
0.000000
  70
    32
  0
VERTEX
  8
AM_VIS
  5
2EB
 10
14.7480
 20
3.79896
 30
0.000000
  70
    32
  0
VERTEX
  8
AM_VIS
  5
2EC
 10
14.7464
 20
3.79973
 30
0.000000
  70
    32
  0
VERTEX
  8
AM_VIS
  5
2ED
 10
14.7448
 20
3.80050
 30
0.000000
  70
    32
  0
VERTEX
  8
AM_VIS
  5
2EE
 10
14.7431
 20
3.80125
 30
0.000000
  70
    32
  0
VERTEX
  8
AM_VIS
  5
2EF
 10
14.7415
 20
3.80200
 30
0.000000
  70
    32
  0
VERTEX
  8
AM_VIS
  5
2F0
 10
14.7398
 20
3.80274
 30
0.000000
  70
    32
  0
VERTEX
  8
AM_VIS
  5
2F1
 10
14.7382
 20
3.80348
 30
0.000000
  70
    32
  0
VERTEX
  8
AM_VIS
  5
2F2
 10
14.7365
 20
3.80420
 30
0.000000
  70
    32
  0
VERTEX
  8
AM_VIS
  5
2F3
 10
14.7348
 20
3.80492
 30
0.000000
  70
    32
  0
VERTEX
  8
AM_VIS
  5
2F4
 10
14.7332
 20
3.80563
 30
0.000000
  70
    32
  0
VERTEX
  8
AM_VIS
  5
2F5
 10
14.7315
 20
3.80633
 30
0.000000
  70
    32
  0
VERTEX
  8
AM_VIS
  5
2F6
 10
14.7298
 20
3.80703
 30
0.000000
  70
    32
  0
VERTEX
  8
AM_VIS
  5
2F7
 10
14.7281
 20
3.80771
 30
0.000000
  70
    32
  0
VERTEX
  8
AM_VIS
  5
2F8
 10
14.7265
 20
3.80839
 30
0.000000
  70
    32
  0
VERTEX
  8
AM_VIS
  5
2F9
 10
14.7248
 20
3.80906
 30
0.000000
  70
    32
  0
VERTEX
  8
AM_VIS
  5
2FA
 10
14.7231
 20
3.80971
 30
0.000000
  70
    32
  0
VERTEX
  8
AM_VIS
  5
2FB
 10
14.7214
 20
3.81037
 30
0.000000
  70
    32
  0
VERTEX
  8
AM_VIS
  5
2FC
 10
14.7197
 20
3.81101
 30
0.000000
  70
    32
  0
VERTEX
  8
AM_VIS
  5
2FD
 10
14.7180
 20
3.81164
 30
0.000000
  70
    32
  0
VERTEX
  8
AM_VIS
  5
2FE
 10
14.7163
 20
3.81227
 30
0.000000
  70
    32
  0
VERTEX
  8
AM_VIS
  5
2FF
 10
14.7146
 20
3.81288
 30
0.000000
  70
    32
  0
VERTEX
  8
AM_VIS
  5
300
 10
14.7129
 20
3.81349
 30
0.000000
  70
    32
  0
VERTEX
  8
AM_VIS
  5
301
 10
14.7112
 20
3.81409
 30
0.000000
  70
    32
  0
VERTEX
  8
AM_VIS
  5
302
 10
14.7095
 20
3.81468
 30
0.000000
  70
    32
  0
VERTEX
  8
AM_VIS
  5
303
 10
14.7078
 20
3.81527
 30
0.000000
  70
    32
  0
VERTEX
  8
AM_VIS
  5
304
 10
14.7060
 20
3.81584
 30
0.000000
  70
    32
  0
VERTEX
  8
AM_VIS
  5
305
 10
14.7043
 20
3.81640
 30
0.000000
  70
    32
  0
VERTEX
  8
AM_VIS
  5
306
 10
14.7026
 20
3.81696
 30
0.000000
  70
    32
  0
VERTEX
  8
AM_VIS
  5
307
 10
14.7009
 20
3.81751
 30
0.000000
  70
    32
  0
VERTEX
  8
AM_VIS
  5
308
 10
14.6991
 20
3.81805
 30
0.000000
  70
    32
  0
VERTEX
  8
AM_VIS
  5
309
 10
14.6974
 20
3.81858
 30
0.000000
  70
    32
  0
VERTEX
  8
AM_VIS
  5
30A
 10
14.6957
 20
3.81910
 30
0.000000
  70
    32
  0
VERTEX
  8
AM_VIS
  5
30B
 10
14.6939
 20
3.81961
 30
0.000000
  70
    32
  0
VERTEX
  8
AM_VIS
  5
30C
 10
14.6922
 20
3.82011
 30
0.000000
  70
    32
  0
VERTEX
  8
AM_VIS
  5
30D
 10
14.6905
 20
3.82060
 30
0.000000
  70
    32
  0
VERTEX
  8
AM_VIS
  5
30E
 10
14.6887
 20
3.82109
 30
0.000000
  70
    32
  0
VERTEX
  8
AM_VIS
  5
30F
 10
14.6870
 20
3.82157
 30
0.000000
  70
    32
  0
VERTEX
  8
AM_VIS
  5
310
 10
14.6852
 20
3.82203
 30
0.000000
  70
    32
  0
VERTEX
  8
AM_VIS
  5
311
 10
14.6835
 20
3.82249
 30
0.000000
  70
    32
  0
VERTEX
  8
AM_VIS
  5
312
 10
14.6817
 20
3.82294
 30
0.000000
  70
    32
  0
VERTEX
  8
AM_VIS
  5
313
 10
14.6799
 20
3.82338
 30
0.000000
  70
    32
  0
VERTEX
  8
AM_VIS
  5
314
 10
14.6782
 20
3.82381
 30
0.000000
  70
    32
  0
VERTEX
  8
AM_VIS
  5
315
 10
14.6764
 20
3.82423
 30
0.000000
  70
    32
  0
VERTEX
  8
AM_VIS
  5
316
 10
14.6746
 20
3.82464
 30
0.000000
  70
    32
  0
VERTEX
  8
AM_VIS
  5
317
 10
14.6729
 20
3.82505
 30
0.000000
  70
    32
  0
VERTEX
  8
AM_VIS
  5
318
 10
14.6711
 20
3.82544
 30
0.000000
  70
    32
  0
VERTEX
  8
AM_VIS
  5
319
 10
14.6693
 20
3.82583
 30
0.000000
  70
    32
  0
VERTEX
  8
AM_VIS
  5
31A
 10
14.6676
 20
3.82620
 30
0.000000
  70
    32
  0
VERTEX
  8
AM_VIS
  5
31B
 10
14.6658
 20
3.82657
 30
0.000000
  70
    32
  0
VERTEX
  8
AM_VIS
  5
31C
 10
14.6640
 20
3.82692
 30
0.000000
  70
    32
  0
VERTEX
  8
AM_VIS
  5
31D
 10
14.6622
 20
3.82727
 30
0.000000
  70
    32
  0
VERTEX
  8
AM_VIS
  5
31E
 10
14.6604
 20
3.82761
 30
0.000000
  70
    32
  0
VERTEX
  8
AM_VIS
  5
31F
 10
14.6586
 20
3.82794
 30
0.000000
  70
    32
  0
VERTEX
  8
AM_VIS
  5
320
 10
14.6568
 20
3.82826
 30
0.000000
  70
    32
  0
VERTEX
  8
AM_VIS
  5
321
 10
14.6550
 20
3.82857
 30
0.000000
  70
    32
  0
VERTEX
  8
AM_VIS
  5
322
 10
14.6533
 20
3.82887
 30
0.000000
  70
    32
  0
VERTEX
  8
AM_VIS
  5
323
 10
14.6515
 20
3.82916
 30
0.000000
  70
    32
  0
VERTEX
  8
AM_VIS
  5
324
 10
14.6497
 20
3.82944
 30
0.000000
  70
    32
  0
VERTEX
  8
AM_VIS
  5
325
 10
14.6479
 20
3.82971
 30
0.000000
  70
    32
  0
VERTEX
  8
AM_VIS
  5
326
 10
14.6460
 20
3.82997
 30
0.000000
  70
    32
  0
VERTEX
  8
AM_VIS
  5
327
 10
14.6442
 20
3.83023
 30
0.000000
  70
    32
  0
VERTEX
  8
AM_VIS
  5
328
 10
14.6424
 20
3.83047
 30
0.000000
  70
    32
  0
VERTEX
  8
AM_VIS
  5
329
 10
14.6406
 20
3.83070
 30
0.000000
  70
    32
  0
VERTEX
  8
AM_VIS
  5
32A
 10
14.6388
 20
3.83093
 30
0.000000
  70
    32
  0
VERTEX
  8
AM_VIS
  5
32B
 10
14.6370
 20
3.83114
 30
0.000000
  70
    32
  0
VERTEX
  8
AM_VIS
  5
32C
 10
14.6352
 20
3.83134
 30
0.000000
  70
    32
  0
VERTEX
  8
AM_VIS
  5
32D
 10
14.6334
 20
3.83154
 30
0.000000
  70
    32
  0
VERTEX
  8
AM_VIS
  5
32E
 10
14.6316
 20
3.83172
 30
0.000000
  70
    32
  0
VERTEX
  8
AM_VIS
  5
32F
 10
14.6297
 20
3.83189
 30
0.000000
  70
    32
  0
VERTEX
  8
AM_VIS
  5
330
 10
14.6279
 20
3.83206
 30
0.000000
  70
    32
  0
VERTEX
  8
AM_VIS
  5
331
 10
14.6261
 20
3.83221
 30
0.000000
  70
    32
  0
VERTEX
  8
AM_VIS
  5
332
 10
14.6243
 20
3.83236
 30
0.000000
  70
    32
  0
VERTEX
  8
AM_VIS
  5
333
 10
14.6225
 20
3.83249
 30
0.000000
  70
    32
  0
VERTEX
  8
AM_VIS
  5
334
 10
14.6207
 20
3.83261
 30
0.000000
  70
    32
  0
VERTEX
  8
AM_VIS
  5
335
 10
14.6188
 20
3.83273
 30
0.000000
  70
    32
  0
VERTEX
  8
AM_VIS
  5
336
 10
14.6170
 20
3.83283
 30
0.000000
  70
    32
  0
VERTEX
  8
AM_VIS
  5
337
 10
14.6152
 20
3.83293
 30
0.000000
  70
    32
  0
VERTEX
  8
AM_VIS
  5
338
 10
14.6134
 20
3.83301
 30
0.000000
  70
    32
  0
VERTEX
  8
AM_VIS
  5
339
 10
14.6115
 20
3.83309
 30
0.000000
  70
    32
  0
VERTEX
  8
AM_VIS
  5
33A
 10
14.6097
 20
3.83315
 30
0.000000
  70
    32
  0
VERTEX
  8
AM_VIS
  5
33B
 10
14.6079
 20
3.83321
 30
0.000000
  70
    32
  0
VERTEX
  8
AM_VIS
  5
33C
 10
14.6061
 20
3.83325
 30
0.000000
  70
    32
  0
VERTEX
  8
AM_VIS
  5
33D
 10
14.6042
 20
3.83329
 30
0.000000
  70
    32
  0
VERTEX
  8
AM_VIS
  5
33E
 10
14.6024
 20
3.83331
 30
0.000000
  70
    32
  0
VERTEX
  8
AM_VIS
  5
33F
 10
14.6006
 20
3.83333
 30
0.000000
  70
    32
  0
VERTEX
  8
AM_VIS
  5
340
 10
14.5988
 20
3.83333
 30
0.000000
  70
    32
  0
SEQEND
  8
AM_VIS
  5
341
  0
POLYLINE
  8
AM_VIS
  5
342
  66
     1
 10
0.000000
 20
0.000000
 30
0.000000
  70
     8
  0
VERTEX
  8
AM_VIS
  5
343
 10
14.5988
 20
2.84823
 30
0.000000
  70
    32
  0
VERTEX
  8
AM_VIS
  5
344
 10
14.6006
 20
2.84824
 30
0.000000
  70
    32
  0
VERTEX
  8
AM_VIS
  5
345
 10
14.6025
 20
2.84825
 30
0.000000
  70
    32
  0
VERTEX
  8
AM_VIS
  5
346
 10
14.6044
 20
2.84828
 30
0.000000
  70
    32
  0
VERTEX
  8
AM_VIS
  5
347
 10
14.6062
 20
2.84832
 30
0.000000
  70
    32
  0
VERTEX
  8
AM_VIS
  5
348
 10
14.6081
 20
2.84836
 30
0.000000
  70
    32
  0
VERTEX
  8
AM_VIS
  5
349
 10
14.6100
 20
2.84842
 30
0.000000
  70
    32
  0
VERTEX
  8
AM_VIS
  5
34A
 10
14.6118
 20
2.84849
 30
0.000000
  70
    32
  0
VERTEX
  8
AM_VIS
  5
34B
 10
14.6137
 20
2.84857
 30
0.000000
  70
    32
  0
VERTEX
  8
AM_VIS
  5
34C
 10
14.6156
 20
2.84865
 30
0.000000
  70
    32
  0
VERTEX
  8
AM_VIS
  5
34D
 10
14.6174
 20
2.84875
 30
0.000000
  70
    32
  0
VERTEX
  8
AM_VIS
  5
34E
 10
14.6193
 20
2.84886
 30
0.000000
  70
    32
  0
VERTEX
  8
AM_VIS
  5
34F
 10
14.6211
 20
2.84898
 30
0.000000
  70
    32
  0
VERTEX
  8
AM_VIS
  5
350
 10
14.6230
 20
2.84911
 30
0.000000
  70
    32
  0
VERTEX
  8
AM_VIS
  5
351
 10
14.6248
 20
2.84925
 30
0.000000
  70
    32
  0
VERTEX
  8
AM_VIS
  5
352
 10
14.6267
 20
2.84940
 30
0.000000
  70
    32
  0
VERTEX
  8
AM_VIS
  5
353
 10
14.6285
 20
2.84956
 30
0.000000
  70
    32
  0
VERTEX
  8
AM_VIS
  5
354
 10
14.6304
 20
2.84973
 30
0.000000
  70
    32
  0
VERTEX
  8
AM_VIS
  5
355
 10
14.6322
 20
2.84991
 30
0.000000
  70
    32
  0
VERTEX
  8
AM_VIS
  5
356
 10
14.6341
 20
2.85010
 30
0.000000
  70
    32
  0
VERTEX
  8
AM_VIS
  5
357
 10
14.6359
 20
2.85030
 30
0.000000
  70
    32
  0
VERTEX
  8
AM_VIS
  5
358
 10
14.6377
 20
2.85051
 30
0.000000
  70
    32
  0
VERTEX
  8
AM_VIS
  5
359
 10
14.6396
 20
2.85073
 30
0.000000
  70
    32
  0
VERTEX
  8
AM_VIS
  5
35A
 10
14.6414
 20
2.85096
 30
0.000000
  70
    32
  0
VERTEX
  8
AM_VIS
  5
35B
 10
14.6433
 20
2.85120
 30
0.000000
  70
    32
  0
VERTEX
  8
AM_VIS
  5
35C
 10
14.6451
 20
2.85145
 30
0.000000
  70
    32
  0
VERTEX
  8
AM_VIS
  5
35D
 10
14.6469
 20
2.85172
 30
0.000000
  70
    32
  0
VERTEX
  8
AM_VIS
  5
35E
 10
14.6488
 20
2.85199
 30
0.000000
  70
    32
  0
VERTEX
  8
AM_VIS
  5
35F
 10
14.6506
 20
2.85227
 30
0.000000
  70
    32
  0
VERTEX
  8
AM_VIS
  5
360
 10
14.6524
 20
2.85256
 30
0.000000
  70
    32
  0
VERTEX
  8
AM_VIS
  5
361
 10
14.6542
 20
2.85286
 30
0.000000
  70
    32
  0
VERTEX
  8
AM_VIS
  5
362
 10
14.6561
 20
2.85317
 30
0.000000
  70
    32
  0
VERTEX
  8
AM_VIS
  5
363
 10
14.6579
 20
2.85349
 30
0.000000
  70
    32
  0
VERTEX
  8
AM_VIS
  5
364
 10
14.6597
 20
2.85382
 30
0.000000
  70
    32
  0
VERTEX
  8
AM_VIS
  5
365
 10
14.6615
 20
2.85416
 30
0.000000
  70
    32
  0
VERTEX
  8
AM_VIS
  5
366
 10
14.6633
 20
2.85451
 30
0.000000
  70
    32
  0
VERTEX
  8
AM_VIS
  5
367
 10
14.6651
 20
2.85487
 30
0.000000
  70
    32
  0
VERTEX
  8
AM_VIS
  5
368
 10
14.6670
 20
2.85524
 30
0.000000
  70
    32
  0
VERTEX
  8
AM_VIS
  5
369
 10
14.6688
 20
2.85562
 30
0.000000
  70
    32
  0
VERTEX
  8
AM_VIS
  5
36A
 10
14.6706
 20
2.85601
 30
0.000000
  70
    32
  0
VERTEX
  8
AM_VIS
  5
36B
 10
14.6724
 20
2.85641
 30
0.000000
  70
    32
  0
VERTEX
  8
AM_VIS
  5
36C
 10
14.6742
 20
2.85681
 30
0.000000
  70
    32
  0
VERTEX
  8
AM_VIS
  5
36D
 10
14.6760
 20
2.85723
 30
0.000000
  70
    32
  0
VERTEX
  8
AM_VIS
  5
36E
 10
14.6778
 20
2.85766
 30
0.000000
  70
    32
  0
VERTEX
  8
AM_VIS
  5
36F
 10
14.6796
 20
2.85810
 30
0.000000
  70
    32
  0
VERTEX
  8
AM_VIS
  5
370
 10
14.6814
 20
2.85854
 30
0.000000
  70
    32
  0
VERTEX
  8
AM_VIS
  5
371
 10
14.6832
 20
2.85900
 30
0.000000
  70
    32
  0
VERTEX
  8
AM_VIS
  5
372
 10
14.6850
 20
2.85947
 30
0.000000
  70
    32
  0
VERTEX
  8
AM_VIS
  5
373
 10
14.6868
 20
2.85994
 30
0.000000
  70
    32
  0
VERTEX
  8
AM_VIS
  5
374
 10
14.6885
 20
2.86043
 30
0.000000
  70
    32
  0
VERTEX
  8
AM_VIS
  5
375
 10
14.6903
 20
2.86092
 30
0.000000
  70
    32
  0
VERTEX
  8
AM_VIS
  5
376
 10
14.6921
 20
2.86143
 30
0.000000
  70
    32
  0
VERTEX
  8
AM_VIS
  5
377
 10
14.6939
 20
2.86194
 30
0.000000
  70
    32
  0
VERTEX
  8
AM_VIS
  5
378
 10
14.6957
 20
2.86247
 30
0.000000
  70
    32
  0
VERTEX
  8
AM_VIS
  5
379
 10
14.6974
 20
2.86300
 30
0.000000
  70
    32
  0
VERTEX
  8
AM_VIS
  5
37A
 10
14.6992
 20
2.86354
 30
0.000000
  70
    32
  0
VERTEX
  8
AM_VIS
  5
37B
 10
14.7010
 20
2.86409
 30
0.000000
  70
    32
  0
VERTEX
  8
AM_VIS
  5
37C
 10
14.7028
 20
2.86466
 30
0.000000
  70
    32
  0
VERTEX
  8
AM_VIS
  5
37D
 10
14.7045
 20
2.86523
 30
0.000000
  70
    32
  0
VERTEX
  8
AM_VIS
  5
37E
 10
14.7063
 20
2.86581
 30
0.000000
  70
    32
  0
VERTEX
  8
AM_VIS
  5
37F
 10
14.7080
 20
2.86640
 30
0.000000
  70
    32
  0
VERTEX
  8
AM_VIS
  5
380
 10
14.7098
 20
2.86700
 30
0.000000
  70
    32
  0
VERTEX
  8
AM_VIS
  5
381
 10
14.7116
 20
2.86760
 30
0.000000
  70
    32
  0
VERTEX
  8
AM_VIS
  5
382
 10
14.7133
 20
2.86822
 30
0.000000
  70
    32
  0
VERTEX
  8
AM_VIS
  5
383
 10
14.7151
 20
2.86885
 30
0.000000
  70
    32
  0
VERTEX
  8
AM_VIS
  5
384
 10
14.7168
 20
2.86948
 30
0.000000
  70
    32
  0
VERTEX
  8
AM_VIS
  5
385
 10
14.7186
 20
2.87013
 30
0.000000
  70
    32
  0
VERTEX
  8
AM_VIS
  5
386
 10
14.7203
 20
2.87078
 30
0.000000
  70
    32
  0
VERTEX
  8
AM_VIS
  5
387
 10
14.7220
 20
2.87144
 30
0.000000
  70
    32
  0
VERTEX
  8
AM_VIS
  5
388
 10
14.7238
 20
2.87212
 30
0.000000
  70
    32
  0
VERTEX
  8
AM_VIS
  5
389
 10
14.7255
 20
2.87280
 30
0.000000
  70
    32
  0
VERTEX
  8
AM_VIS
  5
38A
 10
14.7272
 20
2.87348
 30
0.000000
  70
    32
  0
VERTEX
  8
AM_VIS
  5
38B
 10
14.7289
 20
2.87418
 30
0.000000
  70
    32
  0
VERTEX
  8
AM_VIS
  5
38C
 10
14.7307
 20
2.87489
 30
0.000000
  70
    32
  0
VERTEX
  8
AM_VIS
  5
38D
 10
14.7324
 20
2.87560
 30
0.000000
  70
    32
  0
VERTEX
  8
AM_VIS
  5
38E
 10
14.7341
 20
2.87632
 30
0.000000
  70
    32
  0
VERTEX
  8
AM_VIS
  5
38F
 10
14.7358
 20
2.87705
 30
0.000000
  70
    32
  0
VERTEX
  8
AM_VIS
  5
390
 10
14.7375
 20
2.87779
 30
0.000000
  70
    32
  0
VERTEX
  8
AM_VIS
  5
391
 10
14.7392
 20
2.87854
 30
0.000000
  70
    32
  0
VERTEX
  8
AM_VIS
  5
392
 10
14.7409
 20
2.87929
 30
0.000000
  70
    32
  0
VERTEX
  8
AM_VIS
  5
393
 10
14.7426
 20
2.88006
 30
0.000000
  70
    32
  0
VERTEX
  8
AM_VIS
  5
394
 10
14.7442
 20
2.88083
 30
0.000000
  70
    32
  0
VERTEX
  8
AM_VIS
  5
395
 10
14.7459
 20
2.88161
 30
0.000000
  70
    32
  0
VERTEX
  8
AM_VIS
  5
396
 10
14.7476
 20
2.88240
 30
0.000000
  70
    32
  0
VERTEX
  8
AM_VIS
  5
397
 10
14.7493
 20
2.88319
 30
0.000000
  70
    32
  0
VERTEX
  8
AM_VIS
  5
398
 10
14.7509
 20
2.88400
 30
0.000000
  70
    32
  0
VERTEX
  8
AM_VIS
  5
399
 10
14.7526
 20
2.88481
 30
0.000000
  70
    32
  0
VERTEX
  8
AM_VIS
  5
39A
 10
14.7543
 20
2.88563
 30
0.000000
  70
    32
  0
VERTEX
  8
AM_VIS
  5
39B
 10
14.7559
 20
2.88645
 30
0.000000
  70
    32
  0
VERTEX
  8
AM_VIS
  5
39C
 10
14.7576
 20
2.88729
 30
0.000000
  70
    32
  0
VERTEX
  8
AM_VIS
  5
39D
 10
14.7592
 20
2.88813
 30
0.000000
  70
    32
  0
VERTEX
  8
AM_VIS
  5
39E
 10
14.7609
 20
2.88899
 30
0.000000
  70
    32
  0
VERTEX
  8
AM_VIS
  5
39F
 10
14.7625
 20
2.88984
 30
0.000000
  70
    32
  0
VERTEX
  8
AM_VIS
  5
3A0
 10
14.7641
 20
2.89071
 30
0.000000
  70
    32
  0
VERTEX
  8
AM_VIS
  5
3A1
 10
14.7658
 20
2.89159
 30
0.000000
  70
    32
  0
VERTEX
  8
AM_VIS
  5
3A2
 10
14.7674
 20
2.89247
 30
0.000000
  70
    32
  0
VERTEX
  8
AM_VIS
  5
3A3
 10
14.7690
 20
2.89336
 30
0.000000
  70
    32
  0
VERTEX
  8
AM_VIS
  5
3A4
 10
14.7706
 20
2.89426
 30
0.000000
  70
    32
  0
VERTEX
  8
AM_VIS
  5
3A5
 10
14.7722
 20
2.89516
 30
0.000000
  70
    32
  0
VERTEX
  8
AM_VIS
  5
3A6
 10
14.7738
 20
2.89607
 30
0.000000
  70
    32
  0
VERTEX
  8
AM_VIS
  5
3A7
 10
14.7754
 20
2.89699
 30
0.000000
  70
    32
  0
VERTEX
  8
AM_VIS
  5
3A8
 10
14.7770
 20
2.89792
 30
0.000000
  70
    32
  0
VERTEX
  8
AM_VIS
  5
3A9
 10
14.7786
 20
2.89886
 30
0.000000
  70
    32
  0
VERTEX
  8
AM_VIS
  5
3AA
 10
14.7802
 20
2.89980
 30
0.000000
  70
    32
  0
VERTEX
  8
AM_VIS
  5
3AB
 10
14.7818
 20
2.90075
 30
0.000000
  70
    32
  0
VERTEX
  8
AM_VIS
  5
3AC
 10
14.7834
 20
2.90170
 30
0.000000
  70
    32
  0
VERTEX
  8
AM_VIS
  5
3AD
 10
14.7849
 20
2.90267
 30
0.000000
  70
    32
  0
VERTEX
  8
AM_VIS
  5
3AE
 10
14.7865
 20
2.90364
 30
0.000000
  70
    32
  0
VERTEX
  8
AM_VIS
  5
3AF
 10
14.7881
 20
2.90462
 30
0.000000
  70
    32
  0
VERTEX
  8
AM_VIS
  5
3B0
 10
14.7896
 20
2.90560
 30
0.000000
  70
    32
  0
VERTEX
  8
AM_VIS
  5
3B1
 10
14.7912
 20
2.90660
 30
0.000000
  70
    32
  0
VERTEX
  8
AM_VIS
  5
3B2
 10
14.7928
 20
2.90760
 30
0.000000
  70
    32
  0
VERTEX
  8
AM_VIS
  5
3B3
 10
14.7943
 20
2.90860
 30
0.000000
  70
    32
  0
VERTEX
  8
AM_VIS
  5
3B4
 10
14.7958
 20
2.90962
 30
0.000000
  70
    32
  0
VERTEX
  8
AM_VIS
  5
3B5
 10
14.7974
 20
2.91064
 30
0.000000
  70
    32
  0
VERTEX
  8
AM_VIS
  5
3B6
 10
14.7989
 20
2.91166
 30
0.000000
  70
    32
  0
VERTEX
  8
AM_VIS
  5
3B7
 10
14.8004
 20
2.91270
 30
0.000000
  70
    32
  0
VERTEX
  8
AM_VIS
  5
3B8
 10
14.8020
 20
2.91374
 30
0.000000
  70
    32
  0
VERTEX
  8
AM_VIS
  5
3B9
 10
14.8035
 20
2.91479
 30
0.000000
  70
    32
  0
VERTEX
  8
AM_VIS
  5
3BA
 10
14.8050
 20
2.91584
 30
0.000000
  70
    32
  0
VERTEX
  8
AM_VIS
  5
3BB
 10
14.8065
 20
2.91690
 30
0.000000
  70
    32
  0
VERTEX
  8
AM_VIS
  5
3BC
 10
14.8080
 20
2.91797
 30
0.000000
  70
    32
  0
VERTEX
  8
AM_VIS
  5
3BD
 10
14.8095
 20
2.91905
 30
0.000000
  70
    32
  0
VERTEX
  8
AM_VIS
  5
3BE
 10
14.8110
 20
2.92013
 30
0.000000
  70
    32
  0
VERTEX
  8
AM_VIS
  5
3BF
 10
14.8125
 20
2.92122
 30
0.000000
  70
    32
  0
VERTEX
  8
AM_VIS
  5
3C0
 10
14.8140
 20
2.92231
 30
0.000000
  70
    32
  0
VERTEX
  8
AM_VIS
  5
3C1
 10
14.8155
 20
2.92341
 30
0.000000
  70
    32
  0
VERTEX
  8
AM_VIS
  5
3C2
 10
14.8169
 20
2.92452
 30
0.000000
  70
    32
  0
VERTEX
  8
AM_VIS
  5
3C3
 10
14.8184
 20
2.92563
 30
0.000000
  70
    32
  0
VERTEX
  8
AM_VIS
  5
3C4
 10
14.8199
 20
2.92675
 30
0.000000
  70
    32
  0
VERTEX
  8
AM_VIS
  5
3C5
 10
14.8213
 20
2.92788
 30
0.000000
  70
    32
  0
VERTEX
  8
AM_VIS
  5
3C6
 10
14.8228
 20
2.92901
 30
0.000000
  70
    32
  0
VERTEX
  8
AM_VIS
  5
3C7
 10
14.8242
 20
2.93015
 30
0.000000
  70
    32
  0
VERTEX
  8
AM_VIS
  5
3C8
 10
14.8257
 20
2.93130
 30
0.000000
  70
    32
  0
VERTEX
  8
AM_VIS
  5
3C9
 10
14.8271
 20
2.93245
 30
0.000000
  70
    32
  0
VERTEX
  8
AM_VIS
  5
3CA
 10
14.8286
 20
2.93361
 30
0.000000
  70
    32
  0
VERTEX
  8
AM_VIS
  5
3CB
 10
14.8300
 20
2.93477
 30
0.000000
  70
    32
  0
VERTEX
  8
AM_VIS
  5
3CC
 10
14.8314
 20
2.93594
 30
0.000000
  70
    32
  0
VERTEX
  8
AM_VIS
  5
3CD
 10
14.8329
 20
2.93712
 30
0.000000
  70
    32
  0
VERTEX
  8
AM_VIS
  5
3CE
 10
14.8343
 20
2.93830
 30
0.000000
  70
    32
  0
VERTEX
  8
AM_VIS
  5
3CF
 10
14.8357
 20
2.93949
 30
0.000000
  70
    32
  0
VERTEX
  8
AM_VIS
  5
3D0
 10
14.8371
 20
2.94068
 30
0.000000
  70
    32
  0
VERTEX
  8
AM_VIS
  5
3D1
 10
14.8385
 20
2.94188
 30
0.000000
  70
    32
  0
VERTEX
  8
AM_VIS
  5
3D2
 10
14.8399
 20
2.94309
 30
0.000000
  70
    32
  0
VERTEX
  8
AM_VIS
  5
3D3
 10
14.8413
 20
2.94430
 30
0.000000
  70
    32
  0
VERTEX
  8
AM_VIS
  5
3D4
 10
14.8427
 20
2.94552
 30
0.000000
  70
    32
  0
VERTEX
  8
AM_VIS
  5
3D5
 10
14.8440
 20
2.94674
 30
0.000000
  70
    32
  0
VERTEX
  8
AM_VIS
  5
3D6
 10
14.8454
 20
2.94797
 30
0.000000
  70
    32
  0
VERTEX
  8
AM_VIS
  5
3D7
 10
14.8468
 20
2.94920
 30
0.000000
  70
    32
  0
VERTEX
  8
AM_VIS
  5
3D8
 10
14.8482
 20
2.95044
 30
0.000000
  70
    32
  0
VERTEX
  8
AM_VIS
  5
3D9
 10
14.8495
 20
2.95169
 30
0.000000
  70
    32
  0
VERTEX
  8
AM_VIS
  5
3DA
 10
14.8509
 20
2.95294
 30
0.000000
  70
    32
  0
VERTEX
  8
AM_VIS
  5
3DB
 10
14.8522
 20
2.95420
 30
0.000000
  70
    32
  0
VERTEX
  8
AM_VIS
  5
3DC
 10
14.8536
 20
2.95546
 30
0.000000
  70
    32
  0
VERTEX
  8
AM_VIS
  5
3DD
 10
14.8549
 20
2.95673
 30
0.000000
  70
    32
  0
VERTEX
  8
AM_VIS
  5
3DE
 10
14.8562
 20
2.95800
 30
0.000000
  70
    32
  0
VERTEX
  8
AM_VIS
  5
3DF
 10
14.8576
 20
2.95928
 30
0.000000
  70
    32
  0
VERTEX
  8
AM_VIS
  5
3E0
 10
14.8589
 20
2.96057
 30
0.000000
  70
    32
  0
VERTEX
  8
AM_VIS
  5
3E1
 10
14.8602
 20
2.96186
 30
0.000000
  70
    32
  0
VERTEX
  8
AM_VIS
  5
3E2
 10
14.8615
 20
2.96315
 30
0.000000
  70
    32
  0
VERTEX
  8
AM_VIS
  5
3E3
 10
14.8628
 20
2.96445
 30
0.000000
  70
    32
  0
VERTEX
  8
AM_VIS
  5
3E4
 10
14.8641
 20
2.96576
 30
0.000000
  70
    32
  0
VERTEX
  8
AM_VIS
  5
3E5
 10
14.8654
 20
2.96707
 30
0.000000
  70
    32
  0
VERTEX
  8
AM_VIS
  5
3E6
 10
14.8667
 20
2.96839
 30
0.000000
  70
    32
  0
VERTEX
  8
AM_VIS
  5
3E7
 10
14.8680
 20
2.96971
 30
0.000000
  70
    32
  0
VERTEX
  8
AM_VIS
  5
3E8
 10
14.8693
 20
2.97103
 30
0.000000
  70
    32
  0
VERTEX
  8
AM_VIS
  5
3E9
 10
14.8706
 20
2.97237
 30
0.000000
  70
    32
  0
VERTEX
  8
AM_VIS
  5
3EA
 10
14.8719
 20
2.97370
 30
0.000000
  70
    32
  0
VERTEX
  8
AM_VIS
  5
3EB
 10
14.8731
 20
2.97505
 30
0.000000
  70
    32
  0
VERTEX
  8
AM_VIS
  5
3EC
 10
14.8744
 20
2.97639
 30
0.000000
  70
    32
  0
VERTEX
  8
AM_VIS
  5
3ED
 10
14.8756
 20
2.97775
 30
0.000000
  70
    32
  0
VERTEX
  8
AM_VIS
  5
3EE
 10
14.8769
 20
2.97910
 30
0.000000
  70
    32
  0
VERTEX
  8
AM_VIS
  5
3EF
 10
14.8781
 20
2.98047
 30
0.000000
  70
    32
  0
VERTEX
  8
AM_VIS
  5
3F0
 10
14.8794
 20
2.98183
 30
0.000000
  70
    32
  0
VERTEX
  8
AM_VIS
  5
3F1
 10
14.8806
 20
2.98321
 30
0.000000
  70
    32
  0
VERTEX
  8
AM_VIS
  5
3F2
 10
14.8818
 20
2.98458
 30
0.000000
  70
    32
  0
VERTEX
  8
AM_VIS
  5
3F3
 10
14.8831
 20
2.98597
 30
0.000000
  70
    32
  0
VERTEX
  8
AM_VIS
  5
3F4
 10
14.8843
 20
2.98735
 30
0.000000
  70
    32
  0
VERTEX
  8
AM_VIS
  5
3F5
 10
14.8855
 20
2.98874
 30
0.000000
  70
    32
  0
VERTEX
  8
AM_VIS
  5
3F6
 10
14.8867
 20
2.99014
 30
0.000000
  70
    32
  0
VERTEX
  8
AM_VIS
  5
3F7
 10
14.8879
 20
2.99154
 30
0.000000
  70
    32
  0
VERTEX
  8
AM_VIS
  5
3F8
 10
14.8891
 20
2.99295
 30
0.000000
  70
    32
  0
VERTEX
  8
AM_VIS
  5
3F9
 10
14.8903
 20
2.99436
 30
0.000000
  70
    32
  0
VERTEX
  8
AM_VIS
  5
3FA
 10
14.8915
 20
2.99577
 30
0.000000
  70
    32
  0
VERTEX
  8
AM_VIS
  5
3FB
 10
14.8927
 20
2.99719
 30
0.000000
  70
    32
  0
VERTEX
  8
AM_VIS
  5
3FC
 10
14.8938
 20
2.99862
 30
0.000000
  70
    32
  0
VERTEX
  8
AM_VIS
  5
3FD
 10
14.8950
 20
3.00005
 30
0.000000
  70
    32
  0
VERTEX
  8
AM_VIS
  5
3FE
 10
14.8962
 20
3.00148
 30
0.000000
  70
    32
  0
VERTEX
  8
AM_VIS
  5
3FF
 10
14.8973
 20
3.00292
 30
0.000000
  70
    32
  0
VERTEX
  8
AM_VIS
  5
400
 10
14.8985
 20
3.00436
 30
0.000000
  70
    32
  0
VERTEX
  8
AM_VIS
  5
401
 10
14.8996
 20
3.00581
 30
0.000000
  70
    32
  0
VERTEX
  8
AM_VIS
  5
402
 10
14.9008
 20
3.00726
 30
0.000000
  70
    32
  0
VERTEX
  8
AM_VIS
  5
403
 10
14.9019
 20
3.00872
 30
0.000000
  70
    32
  0
VERTEX
  8
AM_VIS
  5
404
 10
14.9031
 20
3.01018
 30
0.000000
  70
    32
  0
VERTEX
  8
AM_VIS
  5
405
 10
14.9042
 20
3.01164
 30
0.000000
  70
    32
  0
VERTEX
  8
AM_VIS
  5
406
 10
14.9053
 20
3.01311
 30
0.000000
  70
    32
  0
VERTEX
  8
AM_VIS
  5
407
 10
14.9064
 20
3.01459
 30
0.000000
  70
    32
  0
VERTEX
  8
AM_VIS
  5
408
 10
14.9075
 20
3.01606
 30
0.000000
  70
    32
  0
VERTEX
  8
AM_VIS
  5
409
 10
14.9086
 20
3.01754
 30
0.000000
  70
    32
  0
VERTEX
  8
AM_VIS
  5
40A
 10
14.9097
 20
3.01903
 30
0.000000
  70
    32
  0
VERTEX
  8
AM_VIS
  5
40B
 10
14.9108
 20
3.02052
 30
0.000000
  70
    32
  0
VERTEX
  8
AM_VIS
  5
40C
 10
14.9119
 20
3.02201
 30
0.000000
  70
    32
  0
VERTEX
  8
AM_VIS
  5
40D
 10
14.9130
 20
3.02351
 30
0.000000
  70
    32
  0
VERTEX
  8
AM_VIS
  5
40E
 10
14.9141
 20
3.02502
 30
0.000000
  70
    32
  0
VERTEX
  8
AM_VIS
  5
40F
 10
14.9152
 20
3.02652
 30
0.000000
  70
    32
  0
VERTEX
  8
AM_VIS
  5
410
 10
14.9162
 20
3.02803
 30
0.000000
  70
    32
  0
VERTEX
  8
AM_VIS
  5
411
 10
14.9173
 20
3.02955
 30
0.000000
  70
    32
  0
VERTEX
  8
AM_VIS
  5
412
 10
14.9183
 20
3.03106
 30
0.000000
  70
    32
  0
VERTEX
  8
AM_VIS
  5
413
 10
14.9194
 20
3.03259
 30
0.000000
  70
    32
  0
VERTEX
  8
AM_VIS
  5
414
 10
14.9204
 20
3.03411
 30
0.000000
  70
    32
  0
VERTEX
  8
AM_VIS
  5
415
 10
14.9215
 20
3.03564
 30
0.000000
  70
    32
  0
VERTEX
  8
AM_VIS
  5
416
 10
14.9225
 20
3.03718
 30
0.000000
  70
    32
  0
VERTEX
  8
AM_VIS
  5
417
 10
14.9235
 20
3.03871
 30
0.000000
  70
    32
  0
VERTEX
  8
AM_VIS
  5
418
 10
14.9246
 20
3.04026
 30
0.000000
  70
    32
  0
VERTEX
  8
AM_VIS
  5
419
 10
14.9256
 20
3.04180
 30
0.000000
  70
    32
  0
VERTEX
  8
AM_VIS
  5
41A
 10
14.9266
 20
3.04335
 30
0.000000
  70
    32
  0
VERTEX
  8
AM_VIS
  5
41B
 10
14.9276
 20
3.04490
 30
0.000000
  70
    32
  0
VERTEX
  8
AM_VIS
  5
41C
 10
14.9286
 20
3.04646
 30
0.000000
  70
    32
  0
VERTEX
  8
AM_VIS
  5
41D
 10
14.9296
 20
3.04802
 30
0.000000
  70
    32
  0
VERTEX
  8
AM_VIS
  5
41E
 10
14.9306
 20
3.04958
 30
0.000000
  70
    32
  0
VERTEX
  8
AM_VIS
  5
41F
 10
14.9316
 20
3.05115
 30
0.000000
  70
    32
  0
VERTEX
  8
AM_VIS
  5
420
 10
14.9325
 20
3.05272
 30
0.000000
  70
    32
  0
VERTEX
  8
AM_VIS
  5
421
 10
14.9335
 20
3.05429
 30
0.000000
  70
    32
  0
VERTEX
  8
AM_VIS
  5
422
 10
14.9345
 20
3.05587
 30
0.000000
  70
    32
  0
VERTEX
  8
AM_VIS
  5
423
 10
14.9354
 20
3.05745
 30
0.000000
  70
    32
  0
VERTEX
  8
AM_VIS
  5
424
 10
14.9364
 20
3.05903
 30
0.000000
  70
    32
  0
VERTEX
  8
AM_VIS
  5
425
 10
14.9373
 20
3.06062
 30
0.000000
  70
    32
  0
VERTEX
  8
AM_VIS
  5
426
 10
14.9383
 20
3.06221
 30
0.000000
  70
    32
  0
VERTEX
  8
AM_VIS
  5
427
 10
14.9392
 20
3.06381
 30
0.000000
  70
    32
  0
VERTEX
  8
AM_VIS
  5
428
 10
14.9401
 20
3.06541
 30
0.000000
  70
    32
  0
VERTEX
  8
AM_VIS
  5
429
 10
14.9411
 20
3.06701
 30
0.000000
  70
    32
  0
VERTEX
  8
AM_VIS
  5
42A
 10
14.9420
 20
3.06862
 30
0.000000
  70
    32
  0
VERTEX
  8
AM_VIS
  5
42B
 10
14.9429
 20
3.07023
 30
0.000000
  70
    32
  0
VERTEX
  8
AM_VIS
  5
42C
 10
14.9438
 20
3.07184
 30
0.000000
  70
    32
  0
VERTEX
  8
AM_VIS
  5
42D
 10
14.9447
 20
3.07346
 30
0.000000
  70
    32
  0
VERTEX
  8
AM_VIS
  5
42E
 10
14.9456
 20
3.07508
 30
0.000000
  70
    32
  0
VERTEX
  8
AM_VIS
  5
42F
 10
14.9465
 20
3.07670
 30
0.000000
  70
    32
  0
VERTEX
  8
AM_VIS
  5
430
 10
14.9474
 20
3.07833
 30
0.000000
  70
    32
  0
VERTEX
  8
AM_VIS
  5
431
 10
14.9483
 20
3.07996
 30
0.000000
  70
    32
  0
VERTEX
  8
AM_VIS
  5
432
 10
14.9492
 20
3.08159
 30
0.000000
  70
    32
  0
VERTEX
  8
AM_VIS
  5
433
 10
14.9500
 20
3.08323
 30
0.000000
  70
    32
  0
VERTEX
  8
AM_VIS
  5
434
 10
14.9509
 20
3.08487
 30
0.000000
  70
    32
  0
VERTEX
  8
AM_VIS
  5
435
 10
14.9518
 20
3.08651
 30
0.000000
  70
    32
  0
VERTEX
  8
AM_VIS
  5
436
 10
14.9526
 20
3.08816
 30
0.000000
  70
    32
  0
VERTEX
  8
AM_VIS
  5
437
 10
14.9535
 20
3.08981
 30
0.000000
  70
    32
  0
VERTEX
  8
AM_VIS
  5
438
 10
14.9543
 20
3.09146
 30
0.000000
  70
    32
  0
VERTEX
  8
AM_VIS
  5
439
 10
14.9551
 20
3.09312
 30
0.000000
  70
    32
  0
VERTEX
  8
AM_VIS
  5
43A
 10
14.9560
 20
3.09478
 30
0.000000
  70
    32
  0
VERTEX
  8
AM_VIS
  5
43B
 10
14.9568
 20
3.09644
 30
0.000000
  70
    32
  0
VERTEX
  8
AM_VIS
  5
43C
 10
14.9576
 20
3.09811
 30
0.000000
  70
    32
  0
VERTEX
  8
AM_VIS
  5
43D
 10
14.9584
 20
3.09977
 30
0.000000
  70
    32
  0
VERTEX
  8
AM_VIS
  5
43E
 10
14.9592
 20
3.10145
 30
0.000000
  70
    32
  0
VERTEX
  8
AM_VIS
  5
43F
 10
14.9600
 20
3.10312
 30
0.000000
  70
    32
  0
VERTEX
  8
AM_VIS
  5
440
 10
14.9608
 20
3.10480
 30
0.000000
  70
    32
  0
VERTEX
  8
AM_VIS
  5
441
 10
14.9616
 20
3.10648
 30
0.000000
  70
    32
  0
VERTEX
  8
AM_VIS
  5
442
 10
14.9624
 20
3.10817
 30
0.000000
  70
    32
  0
VERTEX
  8
AM_VIS
  5
443
 10
14.9632
 20
3.10985
 30
0.000000
  70
    32
  0
VERTEX
  8
AM_VIS
  5
444
 10
14.9640
 20
3.11154
 30
0.000000
  70
    32
  0
VERTEX
  8
AM_VIS
  5
445
 10
14.9647
 20
3.11324
 30
0.000000
  70
    32
  0
VERTEX
  8
AM_VIS
  5
446
 10
14.9655
 20
3.11493
 30
0.000000
  70
    32
  0
VERTEX
  8
AM_VIS
  5
447
 10
14.9663
 20
3.11663
 30
0.000000
  70
    32
  0
VERTEX
  8
AM_VIS
  5
448
 10
14.9670
 20
3.11833
 30
0.000000
  70
    32
  0
VERTEX
  8
AM_VIS
  5
449
 10
14.9677
 20
3.12004
 30
0.000000
  70
    32
  0
VERTEX
  8
AM_VIS
  5
44A
 10
14.9685
 20
3.12175
 30
0.000000
  70
    32
  0
VERTEX
  8
AM_VIS
  5
44B
 10
14.9692
 20
3.12346
 30
0.000000
  70
    32
  0
VERTEX
  8
AM_VIS
  5
44C
 10
14.9700
 20
3.12517
 30
0.000000
  70
    32
  0
VERTEX
  8
AM_VIS
  5
44D
 10
14.9707
 20
3.12689
 30
0.000000
  70
    32
  0
VERTEX
  8
AM_VIS
  5
44E
 10
14.9714
 20
3.12861
 30
0.000000
  70
    32
  0
VERTEX
  8
AM_VIS
  5
44F
 10
14.9721
 20
3.13033
 30
0.000000
  70
    32
  0
VERTEX
  8
AM_VIS
  5
450
 10
14.9728
 20
3.13205
 30
0.000000
  70
    32
  0
VERTEX
  8
AM_VIS
  5
451
 10
14.9735
 20
3.13378
 30
0.000000
  70
    32
  0
VERTEX
  8
AM_VIS
  5
452
 10
14.9742
 20
3.13551
 30
0.000000
  70
    32
  0
VERTEX
  8
AM_VIS
  5
453
 10
14.9749
 20
3.13724
 30
0.000000
  70
    32
  0
VERTEX
  8
AM_VIS
  5
454
 10
14.9756
 20
3.13898
 30
0.000000
  70
    32
  0
VERTEX
  8
AM_VIS
  5
455
 10
14.9762
 20
3.14071
 30
0.000000
  70
    32
  0
VERTEX
  8
AM_VIS
  5
456
 10
14.9769
 20
3.14245
 30
0.000000
  70
    32
  0
VERTEX
  8
AM_VIS
  5
457
 10
14.9776
 20
3.14420
 30
0.000000
  70
    32
  0
VERTEX
  8
AM_VIS
  5
458
 10
14.9782
 20
3.14594
 30
0.000000
  70
    32
  0
VERTEX
  8
AM_VIS
  5
459
 10
14.9789
 20
3.14769
 30
0.000000
  70
    32
  0
VERTEX
  8
AM_VIS
  5
45A
 10
14.9795
 20
3.14944
 30
0.000000
  70
    32
  0
VERTEX
  8
AM_VIS
  5
45B
 10
14.9802
 20
3.15119
 30
0.000000
  70
    32
  0
VERTEX
  8
AM_VIS
  5
45C
 10
14.9808
 20
3.15295
 30
0.000000
  70
    32
  0
VERTEX
  8
AM_VIS
  5
45D
 10
14.9814
 20
3.15471
 30
0.000000
  70
    32
  0
VERTEX
  8
AM_VIS
  5
45E
 10
14.9820
 20
3.15647
 30
0.000000
  70
    32
  0
VERTEX
  8
AM_VIS
  5
45F
 10
14.9827
 20
3.15823
 30
0.000000
  70
    32
  0
VERTEX
  8
AM_VIS
  5
460
 10
14.9833
 20
3.16000
 30
0.000000
  70
    32
  0
VERTEX
  8
AM_VIS
  5
461
 10
14.9839
 20
3.16176
 30
0.000000
  70
    32
  0
VERTEX
  8
AM_VIS
  5
462
 10
14.9845
 20
3.16353
 30
0.000000
  70
    32
  0
VERTEX
  8
AM_VIS
  5
463
 10
14.9851
 20
3.16531
 30
0.000000
  70
    32
  0
VERTEX
  8
AM_VIS
  5
464
 10
14.9857
 20
3.16708
 30
0.000000
  70
    32
  0
VERTEX
  8
AM_VIS
  5
465
 10
14.9862
 20
3.16886
 30
0.000000
  70
    32
  0
VERTEX
  8
AM_VIS
  5
466
 10
14.9868
 20
3.17064
 30
0.000000
  70
    32
  0
VERTEX
  8
AM_VIS
  5
467
 10
14.9874
 20
3.17242
 30
0.000000
  70
    32
  0
VERTEX
  8
AM_VIS
  5
468
 10
14.9879
 20
3.17420
 30
0.000000
  70
    32
  0
VERTEX
  8
AM_VIS
  5
469
 10
14.9885
 20
3.17599
 30
0.000000
  70
    32
  0
VERTEX
  8
AM_VIS
  5
46A
 10
14.9891
 20
3.17777
 30
0.000000
  70
    32
  0
VERTEX
  8
AM_VIS
  5
46B
 10
14.9896
 20
3.17956
 30
0.000000
  70
    32
  0
VERTEX
  8
AM_VIS
  5
46C
 10
14.9901
 20
3.18136
 30
0.000000
  70
    32
  0
VERTEX
  8
AM_VIS
  5
46D
 10
14.9907
 20
3.18315
 30
0.000000
  70
    32
  0
VERTEX
  8
AM_VIS
  5
46E
 10
14.9912
 20
3.18495
 30
0.000000
  70
    32
  0
VERTEX
  8
AM_VIS
  5
46F
 10
14.9917
 20
3.18674
 30
0.000000
  70
    32
  0
VERTEX
  8
AM_VIS
  5
470
 10
14.9922
 20
3.18855
 30
0.000000
  70
    32
  0
VERTEX
  8
AM_VIS
  5
471
 10
14.9927
 20
3.19035
 30
0.000000
  70
    32
  0
VERTEX
  8
AM_VIS
  5
472
 10
14.9932
 20
3.19215
 30
0.000000
  70
    32
  0
VERTEX
  8
AM_VIS
  5
473
 10
14.9937
 20
3.19396
 30
0.000000
  70
    32
  0
VERTEX
  8
AM_VIS
  5
474
 10
14.9942
 20
3.19577
 30
0.000000
  70
    32
  0
VERTEX
  8
AM_VIS
  5
475
 10
14.9947
 20
3.19758
 30
0.000000
  70
    32
  0
VERTEX
  8
AM_VIS
  5
476
 10
14.9952
 20
3.19939
 30
0.000000
  70
    32
  0
VERTEX
  8
AM_VIS
  5
477
 10
14.9957
 20
3.20120
 30
0.000000
  70
    32
  0
VERTEX
  8
AM_VIS
  5
478
 10
14.9961
 20
3.20302
 30
0.000000
  70
    32
  0
VERTEX
  8
AM_VIS
  5
479
 10
14.9966
 20
3.20484
 30
0.000000
  70
    32
  0
VERTEX
  8
AM_VIS
  5
47A
 10
14.9970
 20
3.20666
 30
0.000000
  70
    32
  0
VERTEX
  8
AM_VIS
  5
47B
 10
14.9975
 20
3.20848
 30
0.000000
  70
    32
  0
VERTEX
  8
AM_VIS
  5
47C
 10
14.9979
 20
3.21030
 30
0.000000
  70
    32
  0
VERTEX
  8
AM_VIS
  5
47D
 10
14.9984
 20
3.21213
 30
0.000000
  70
    32
  0
VERTEX
  8
AM_VIS
  5
47E
 10
14.9988
 20
3.21395
 30
0.000000
  70
    32
  0
VERTEX
  8
AM_VIS
  5
47F
 10
14.9992
 20
3.21578
 30
0.000000
  70
    32
  0
VERTEX
  8
AM_VIS
  5
480
 10
14.9996
 20
3.21761
 30
0.000000
  70
    32
  0
VERTEX
  8
AM_VIS
  5
481
 10
15.0001
 20
3.21944
 30
0.000000
  70
    32
  0
VERTEX
  8
AM_VIS
  5
482
 10
15.0005
 20
3.22128
 30
0.000000
  70
    32
  0
VERTEX
  8
AM_VIS
  5
483
 10
15.0009
 20
3.22311
 30
0.000000
  70
    32
  0
VERTEX
  8
AM_VIS
  5
484
 10
15.0013
 20
3.22495
 30
0.000000
  70
    32
  0
VERTEX
  8
AM_VIS
  5
485
 10
15.0016
 20
3.22679
 30
0.000000
  70
    32
  0
VERTEX
  8
AM_VIS
  5
486
 10
15.0020
 20
3.22863
 30
0.000000
  70
    32
  0
VERTEX
  8
AM_VIS
  5
487
 10
15.0024
 20
3.23047
 30
0.000000
  70
    32
  0
VERTEX
  8
AM_VIS
  5
488
 10
15.0028
 20
3.23231
 30
0.000000
  70
    32
  0
VERTEX
  8
AM_VIS
  5
489
 10
15.0031
 20
3.23416
 30
0.000000
  70
    32
  0
VERTEX
  8
AM_VIS
  5
48A
 10
15.0035
 20
3.23600
 30
0.000000
  70
    32
  0
VERTEX
  8
AM_VIS
  5
48B
 10
15.0038
 20
3.23785
 30
0.000000
  70
    32
  0
VERTEX
  8
AM_VIS
  5
48C
 10
15.0042
 20
3.23970
 30
0.000000
  70
    32
  0
VERTEX
  8
AM_VIS
  5
48D
 10
15.0045
 20
3.24155
 30
0.000000
  70
    32
  0
VERTEX
  8
AM_VIS
  5
48E
 10
15.0048
 20
3.24340
 30
0.000000
  70
    32
  0
VERTEX
  8
AM_VIS
  5
48F
 10
15.0052
 20
3.24526
 30
0.000000
  70
    32
  0
VERTEX
  8
AM_VIS
  5
490
 10
15.0055
 20
3.24711
 30
0.000000
  70
    32
  0
VERTEX
  8
AM_VIS
  5
491
 10
15.0058
 20
3.24896
 30
0.000000
  70
    32
  0
VERTEX
  8
AM_VIS
  5
492
 10
15.0061
 20
3.25082
 30
0.000000
  70
    32
  0
VERTEX
  8
AM_VIS
  5
493
 10
15.0064
 20
3.25268
 30
0.000000
  70
    32
  0
VERTEX
  8
AM_VIS
  5
494
 10
15.0067
 20
3.25454
 30
0.000000
  70
    32
  0
VERTEX
  8
AM_VIS
  5
495
 10
15.0070
 20
3.25639
 30
0.000000
  70
    32
  0
VERTEX
  8
AM_VIS
  5
496
 10
15.0073
 20
3.25825
 30
0.000000
  70
    32
  0
VERTEX
  8
AM_VIS
  5
497
 10
15.0075
 20
3.26011
 30
0.000000
  70
    32
  0
VERTEX
  8
AM_VIS
  5
498
 10
15.0078
 20
3.26198
 30
0.000000
  70
    32
  0
VERTEX
  8
AM_VIS
  5
499
 10
15.0081
 20
3.26384
 30
0.000000
  70
    32
  0
VERTEX
  8
AM_VIS
  5
49A
 10
15.0083
 20
3.26570
 30
0.000000
  70
    32
  0
VERTEX
  8
AM_VIS
  5
49B
 10
15.0086
 20
3.26756
 30
0.000000
  70
    32
  0
VERTEX
  8
AM_VIS
  5
49C
 10
15.0088
 20
3.26943
 30
0.000000
  70
    32
  0
VERTEX
  8
AM_VIS
  5
49D
 10
15.0091
 20
3.27130
 30
0.000000
  70
    32
  0
VERTEX
  8
AM_VIS
  5
49E
 10
15.0093
 20
3.27316
 30
0.000000
  70
    32
  0
VERTEX
  8
AM_VIS
  5
49F
 10
15.0095
 20
3.27503
 30
0.000000
  70
    32
  0
VERTEX
  8
AM_VIS
  5
4A0
 10
15.0097
 20
3.27690
 30
0.000000
  70
    32
  0
VERTEX
  8
AM_VIS
  5
4A1
 10
15.0099
 20
3.27877
 30
0.000000
  70
    32
  0
VERTEX
  8
AM_VIS
  5
4A2
 10
15.0101
 20
3.28064
 30
0.000000
  70
    32
  0
VERTEX
  8
AM_VIS
  5
4A3
 10
15.0103
 20
3.28251
 30
0.000000
  70
    32
  0
VERTEX
  8
AM_VIS
  5
4A4
 10
15.0105
 20
3.28438
 30
0.000000
  70
    32
  0
VERTEX
  8
AM_VIS
  5
4A5
 10
15.0107
 20
3.28625
 30
0.000000
  70
    32
  0
VERTEX
  8
AM_VIS
  5
4A6
 10
15.0109
 20
3.28812
 30
0.000000
  70
    32
  0
VERTEX
  8
AM_VIS
  5
4A7
 10
15.0111
 20
3.29000
 30
0.000000
  70
    32
  0
VERTEX
  8
AM_VIS
  5
4A8
 10
15.0112
 20
3.29187
 30
0.000000
  70
    32
  0
VERTEX
  8
AM_VIS
  5
4A9
 10
15.0114
 20
3.29374
 30
0.000000
  70
    32
  0
VERTEX
  8
AM_VIS
  5
4AA
 10
15.0116
 20
3.29562
 30
0.000000
  70
    32
  0
VERTEX
  8
AM_VIS
  5
4AB
 10
15.0117
 20
3.29750
 30
0.000000
  70
    32
  0
VERTEX
  8
AM_VIS
  5
4AC
 10
15.0119
 20
3.29937
 30
0.000000
  70
    32
  0
VERTEX
  8
AM_VIS
  5
4AD
 10
15.0120
 20
3.30125
 30
0.000000
  70
    32
  0
VERTEX
  8
AM_VIS
  5
4AE
 10
15.0121
 20
3.30313
 30
0.000000
  70
    32
  0
VERTEX
  8
AM_VIS
  5
4AF
 10
15.0122
 20
3.30500
 30
0.000000
  70
    32
  0
VERTEX
  8
AM_VIS
  5
4B0
 10
15.0124
 20
3.30688
 30
0.000000
  70
    32
  0
VERTEX
  8
AM_VIS
  5
4B1
 10
15.0125
 20
3.30876
 30
0.000000
  70
    32
  0
VERTEX
  8
AM_VIS
  5
4B2
 10
15.0126
 20
3.31064
 30
0.000000
  70
    32
  0
VERTEX
  8
AM_VIS
  5
4B3
 10
15.0127
 20
3.31252
 30
0.000000
  70
    32
  0
VERTEX
  8
AM_VIS
  5
4B4
 10
15.0128
 20
3.31440
 30
0.000000
  70
    32
  0
VERTEX
  8
AM_VIS
  5
4B5
 10
15.0129
 20
3.31629
 30
0.000000
  70
    32
  0
VERTEX
  8
AM_VIS
  5
4B6
 10
15.0129
 20
3.31817
 30
0.000000
  70
    32
  0
VERTEX
  8
AM_VIS
  5
4B7
 10
15.0130
 20
3.32005
 30
0.000000
  70
    32
  0
VERTEX
  8
AM_VIS
  5
4B8
 10
15.0131
 20
3.32193
 30
0.000000
  70
    32
  0
VERTEX
  8
AM_VIS
  5
4B9
 10
15.0131
 20
3.32382
 30
0.000000
  70
    32
  0
VERTEX
  8
AM_VIS
  5
4BA
 10
15.0132
 20
3.32570
 30
0.000000
  70
    32
  0
VERTEX
  8
AM_VIS
  5
4BB
 10
15.0132
 20
3.32758
 30
0.000000
  70
    32
  0
VERTEX
  8
AM_VIS
  5
4BC
 10
15.0133
 20
3.32947
 30
0.000000
  70
    32
  0
VERTEX
  8
AM_VIS
  5
4BD
 10
15.0133
 20
3.33135
 30
0.000000
  70
    32
  0
VERTEX
  8
AM_VIS
  5
4BE
 10
15.0133
 20
3.33324
 30
0.000000
  70
    32
  0
VERTEX
  8
AM_VIS
  5
4BF
 10
15.0134
 20
3.33512
 30
0.000000
  70
    32
  0
VERTEX
  8
AM_VIS
  5
4C0
 10
15.0134
 20
3.33701
 30
0.000000
  70
    32
  0
VERTEX
  8
AM_VIS
  5
4C1
 10
15.0134
 20
3.33890
 30
0.000000
  70
    32
  0
VERTEX
  8
AM_VIS
  5
4C2
 10
15.0134
 20
3.34078
 30
0.000000
  70
    32
  0
SEQEND
  8
AM_VIS
  5
4C3
  0
POLYLINE
  8
AM_VIS
  5
4C4
  66
     1
 10
0.000000
 20
0.000000
 30
0.000000
  70
     8
  0
VERTEX
  8
AM_VIS
  5
4C5
 10
14.1842
 20
3.34078
 30
0.000000
  70
    32
  0
VERTEX
  8
AM_VIS
  5
4C6
 10
14.1842
 20
3.33883
 30
0.000000
  70
    32
  0
VERTEX
  8
AM_VIS
  5
4C7
 10
14.1842
 20
3.33688
 30
0.000000
  70
    32
  0
VERTEX
  8
AM_VIS
  5
4C8
 10
14.1842
 20
3.33494
 30
0.000000
  70
    32
  0
VERTEX
  8
AM_VIS
  5
4C9
 10
14.1842
 20
3.33299
 30
0.000000
  70
    32
  0
VERTEX
  8
AM_VIS
  5
4CA
 10
14.1842
 20
3.33104
 30
0.000000
  70
    32
  0
VERTEX
  8
AM_VIS
  5
4CB
 10
14.1843
 20
3.32910
 30
0.000000
  70
    32
  0
VERTEX
  8
AM_VIS
  5
4CC
 10
14.1843
 20
3.32715
 30
0.000000
  70
    32
  0
VERTEX
  8
AM_VIS
  5
4CD
 10
14.1844
 20
3.32521
 30
0.000000
  70
    32
  0
VERTEX
  8
AM_VIS
  5
4CE
 10
14.1844
 20
3.32326
 30
0.000000
  70
    32
  0
VERTEX
  8
AM_VIS
  5
4CF
 10
14.1845
 20
3.32132
 30
0.000000
  70
    32
  0
VERTEX
  8
AM_VIS
  5
4D0
 10
14.1846
 20
3.31937
 30
0.000000
  70
    32
  0
VERTEX
  8
AM_VIS
  5
4D1
 10
14.1846
 20
3.31743
 30
0.000000
  70
    32
  0
VERTEX
  8
AM_VIS
  5
4D2
 10
14.1847
 20
3.31549
 30
0.000000
  70
    32
  0
VERTEX
  8
AM_VIS
  5
4D3
 10
14.1848
 20
3.31355
 30
0.000000
  70
    32
  0
VERTEX
  8
AM_VIS
  5
4D4
 10
14.1849
 20
3.31161
 30
0.000000
  70
    32
  0
VERTEX
  8
AM_VIS
  5
4D5
 10
14.1850
 20
3.30967
 30
0.000000
  70
    32
  0
VERTEX
  8
AM_VIS
  5
4D6
 10
14.1851
 20
3.30773
 30
0.000000
  70
    32
  0
VERTEX
  8
AM_VIS
  5
4D7
 10
14.1852
 20
3.30579
 30
0.000000
  70
    32
  0
VERTEX
  8
AM_VIS
  5
4D8
 10
14.1854
 20
3.30385
 30
0.000000
  70
    32
  0
VERTEX
  8
AM_VIS
  5
4D9
 10
14.1855
 20
3.30192
 30
0.000000
  70
    32
  0
VERTEX
  8
AM_VIS
  5
4DA
 10
14.1856
 20
3.29998
 30
0.000000
  70
    32
  0
VERTEX
  8
AM_VIS
  5
4DB
 10
14.1858
 20
3.29805
 30
0.000000
  70
    32
  0
VERTEX
  8
AM_VIS
  5
4DC
 10
14.1859
 20
3.29611
 30
0.000000
  70
    32
  0
VERTEX
  8
AM_VIS
  5
4DD
 10
14.1861
 20
3.29418
 30
0.000000
  70
    32
  0
VERTEX
  8
AM_VIS
  5
4DE
 10
14.1863
 20
3.29225
 30
0.000000
  70
    32
  0
VERTEX
  8
AM_VIS
  5
4DF
 10
14.1864
 20
3.29032
 30
0.000000
  70
    32
  0
VERTEX
  8
AM_VIS
  5
4E0
 10
14.1866
 20
3.28839
 30
0.000000
  70
    32
  0
VERTEX
  8
AM_VIS
  5
4E1
 10
14.1868
 20
3.28646
 30
0.000000
  70
    32
  0
VERTEX
  8
AM_VIS
  5
4E2
 10
14.1870
 20
3.28453
 30
0.000000
  70
    32
  0
VERTEX
  8
AM_VIS
  5
4E3
 10
14.1872
 20
3.28260
 30
0.000000
  70
    32
  0
VERTEX
  8
AM_VIS
  5
4E4
 10
14.1874
 20
3.28068
 30
0.000000
  70
    32
  0
VERTEX
  8
AM_VIS
  5
4E5
 10
14.1876
 20
3.27875
 30
0.000000
  70
    32
  0
VERTEX
  8
AM_VIS
  5
4E6
 10
14.1878
 20
3.27683
 30
0.000000
  70
    32
  0
VERTEX
  8
AM_VIS
  5
4E7
 10
14.1880
 20
3.27491
 30
0.000000
  70
    32
  0
VERTEX
  8
AM_VIS
  5
4E8
 10
14.1883
 20
3.27298
 30
0.000000
  70
    32
  0
VERTEX
  8
AM_VIS
  5
4E9
 10
14.1885
 20
3.27106
 30
0.000000
  70
    32
  0
VERTEX
  8
AM_VIS
  5
4EA
 10
14.1888
 20
3.26914
 30
0.000000
  70
    32
  0
VERTEX
  8
AM_VIS
  5
4EB
 10
14.1890
 20
3.26723
 30
0.000000
  70
    32
  0
VERTEX
  8
AM_VIS
  5
4EC
 10
14.1893
 20
3.26531
 30
0.000000
  70
    32
  0
VERTEX
  8
AM_VIS
  5
4ED
 10
14.1895
 20
3.26339
 30
0.000000
  70
    32
  0
VERTEX
  8
AM_VIS
  5
4EE
 10
14.1898
 20
3.26148
 30
0.000000
  70
    32
  0
VERTEX
  8
AM_VIS
  5
4EF
 10
14.1901
 20
3.25957
 30
0.000000
  70
    32
  0
VERTEX
  8
AM_VIS
  5
4F0
 10
14.1904
 20
3.25765
 30
0.000000
  70
    32
  0
VERTEX
  8
AM_VIS
  5
4F1
 10
14.1906
 20
3.25574
 30
0.000000
  70
    32
  0
VERTEX
  8
AM_VIS
  5
4F2
 10
14.1909
 20
3.25383
 30
0.000000
  70
    32
  0
VERTEX
  8
AM_VIS
  5
4F3
 10
14.1912
 20
3.25192
 30
0.000000
  70
    32
  0
VERTEX
  8
AM_VIS
  5
4F4
 10
14.1916
 20
3.25002
 30
0.000000
  70
    32
  0
VERTEX
  8
AM_VIS
  5
4F5
 10
14.1919
 20
3.24811
 30
0.000000
  70
    32
  0
VERTEX
  8
AM_VIS
  5
4F6
 10
14.1922
 20
3.24621
 30
0.000000
  70
    32
  0
VERTEX
  8
AM_VIS
  5
4F7
 10
14.1925
 20
3.24430
 30
0.000000
  70
    32
  0
VERTEX
  8
AM_VIS
  5
4F8
 10
14.1929
 20
3.24240
 30
0.000000
  70
    32
  0
VERTEX
  8
AM_VIS
  5
4F9
 10
14.1932
 20
3.24050
 30
0.000000
  70
    32
  0
VERTEX
  8
AM_VIS
  5
4FA
 10
14.1936
 20
3.23860
 30
0.000000
  70
    32
  0
VERTEX
  8
AM_VIS
  5
4FB
 10
14.1939
 20
3.23671
 30
0.000000
  70
    32
  0
VERTEX
  8
AM_VIS
  5
4FC
 10
14.1943
 20
3.23481
 30
0.000000
  70
    32
  0
VERTEX
  8
AM_VIS
  5
4FD
 10
14.1946
 20
3.23292
 30
0.000000
  70
    32
  0
VERTEX
  8
AM_VIS
  5
4FE
 10
14.1950
 20
3.23103
 30
0.000000
  70
    32
  0
VERTEX
  8
AM_VIS
  5
4FF
 10
14.1954
 20
3.22913
 30
0.000000
  70
    32
  0
VERTEX
  8
AM_VIS
  5
500
 10
14.1958
 20
3.22724
 30
0.000000
  70
    32
  0
VERTEX
  8
AM_VIS
  5
501
 10
14.1962
 20
3.22536
 30
0.000000
  70
    32
  0
VERTEX
  8
AM_VIS
  5
502
 10
14.1966
 20
3.22347
 30
0.000000
  70
    32
  0
VERTEX
  8
AM_VIS
  5
503
 10
14.1970
 20
3.22159
 30
0.000000
  70
    32
  0
VERTEX
  8
AM_VIS
  5
504
 10
14.1974
 20
3.21970
 30
0.000000
  70
    32
  0
VERTEX
  8
AM_VIS
  5
505
 10
14.1978
 20
3.21782
 30
0.000000
  70
    32
  0
VERTEX
  8
AM_VIS
  5
506
 10
14.1983
 20
3.21594
 30
0.000000
  70
    32
  0
VERTEX
  8
AM_VIS
  5
507
 10
14.1987
 20
3.21406
 30
0.000000
  70
    32
  0
VERTEX
  8
AM_VIS
  5
508
 10
14.1991
 20
3.21219
 30
0.000000
  70
    32
  0
VERTEX
  8
AM_VIS
  5
509
 10
14.1996
 20
3.21031
 30
0.000000
  70
    32
  0
VERTEX
  8
AM_VIS
  5
50A
 10
14.2000
 20
3.20844
 30
0.000000
  70
    32
  0
VERTEX
  8
AM_VIS
  5
50B
 10
14.2005
 20
3.20657
 30
0.000000
  70
    32
  0
VERTEX
  8
AM_VIS
  5
50C
 10
14.2010
 20
3.20470
 30
0.000000
  70
    32
  0
VERTEX
  8
AM_VIS
  5
50D
 10
14.2014
 20
3.20283
 30
0.000000
  70
    32
  0
VERTEX
  8
AM_VIS
  5
50E
 10
14.2019
 20
3.20097
 30
0.000000
  70
    32
  0
VERTEX
  8
AM_VIS
  5
50F
 10
14.2024
 20
3.19910
 30
0.000000
  70
    32
  0
VERTEX
  8
AM_VIS
  5
510
 10
14.2029
 20
3.19724
 30
0.000000
  70
    32
  0
VERTEX
  8
AM_VIS
  5
511
 10
14.2034
 20
3.19538
 30
0.000000
  70
    32
  0
VERTEX
  8
AM_VIS
  5
512
 10
14.2039
 20
3.19352
 30
0.000000
  70
    32
  0
VERTEX
  8
AM_VIS
  5
513
 10
14.2044
 20
3.19166
 30
0.000000
  70
    32
  0
VERTEX
  8
AM_VIS
  5
514
 10
14.2049
 20
3.18981
 30
0.000000
  70
    32
  0
VERTEX
  8
AM_VIS
  5
515
 10
14.2055
 20
3.18796
 30
0.000000
  70
    32
  0
VERTEX
  8
AM_VIS
  5
516
 10
14.2060
 20
3.18611
 30
0.000000
  70
    32
  0
VERTEX
  8
AM_VIS
  5
517
 10
14.2065
 20
3.18426
 30
0.000000
  70
    32
  0
VERTEX
  8
AM_VIS
  5
518
 10
14.2071
 20
3.18241
 30
0.000000
  70
    32
  0
VERTEX
  8
AM_VIS
  5
519
 10
14.2076
 20
3.18057
 30
0.000000
  70
    32
  0
VERTEX
  8
AM_VIS
  5
51A
 10
14.2082
 20
3.17873
 30
0.000000
  70
    32
  0
VERTEX
  8
AM_VIS
  5
51B
 10
14.2088
 20
3.17688
 30
0.000000
  70
    32
  0
VERTEX
  8
AM_VIS
  5
51C
 10
14.2093
 20
3.17505
 30
0.000000
  70
    32
  0
VERTEX
  8
AM_VIS
  5
51D
 10
14.2099
 20
3.17321
 30
0.000000
  70
    32
  0
VERTEX
  8
AM_VIS
  5
51E
 10
14.2105
 20
3.17138
 30
0.000000
  70
    32
  0
VERTEX
  8
AM_VIS
  5
51F
 10
14.2111
 20
3.16954
 30
0.000000
  70
    32
  0
VERTEX
  8
AM_VIS
  5
520
 10
14.2117
 20
3.16771
 30
0.000000
  70
    32
  0
VERTEX
  8
AM_VIS
  5
521
 10
14.2123
 20
3.16589
 30
0.000000
  70
    32
  0
VERTEX
  8
AM_VIS
  5
522
 10
14.2129
 20
3.16406
 30
0.000000
  70
    32
  0
VERTEX
  8
AM_VIS
  5
523
 10
14.2135
 20
3.16224
 30
0.000000
  70
    32
  0
VERTEX
  8
AM_VIS
  5
524
 10
14.2141
 20
3.16042
 30
0.000000
  70
    32
  0
VERTEX
  8
AM_VIS
  5
525
 10
14.2147
 20
3.15860
 30
0.000000
  70
    32
  0
VERTEX
  8
AM_VIS
  5
526
 10
14.2154
 20
3.15678
 30
0.000000
  70
    32
  0
VERTEX
  8
AM_VIS
  5
527
 10
14.2160
 20
3.15497
 30
0.000000
  70
    32
  0
VERTEX
  8
AM_VIS
  5
528
 10
14.2167
 20
3.15316
 30
0.000000
  70
    32
  0
VERTEX
  8
AM_VIS
  5
529
 10
14.2173
 20
3.15135
 30
0.000000
  70
    32
  0
VERTEX
  8
AM_VIS
  5
52A
 10
14.2180
 20
3.14954
 30
0.000000
  70
    32
  0
VERTEX
  8
AM_VIS
  5
52B
 10
14.2186
 20
3.14773
 30
0.000000
  70
    32
  0
VERTEX
  8
AM_VIS
  5
52C
 10
14.2193
 20
3.14593
 30
0.000000
  70
    32
  0
VERTEX
  8
AM_VIS
  5
52D
 10
14.2200
 20
3.14413
 30
0.000000
  70
    32
  0
VERTEX
  8
AM_VIS
  5
52E
 10
14.2207
 20
3.14233
 30
0.000000
  70
    32
  0
VERTEX
  8
AM_VIS
  5
52F
 10
14.2214
 20
3.14054
 30
0.000000
  70
    32
  0
VERTEX
  8
AM_VIS
  5
530
 10
14.2221
 20
3.13875
 30
0.000000
  70
    32
  0
VERTEX
  8
AM_VIS
  5
531
 10
14.2228
 20
3.13696
 30
0.000000
  70
    32
  0
VERTEX
  8
AM_VIS
  5
532
 10
14.2235
 20
3.13517
 30
0.000000
  70
    32
  0
VERTEX
  8
AM_VIS
  5
533
 10
14.2242
 20
3.13339
 30
0.000000
  70
    32
  0
VERTEX
  8
AM_VIS
  5
534
 10
14.2249
 20
3.13161
 30
0.000000
  70
    32
  0
VERTEX
  8
AM_VIS
  5
535
 10
14.2256
 20
3.12984
 30
0.000000
  70
    32
  0
VERTEX
  8
AM_VIS
  5
536
 10
14.2264
 20
3.12807
 30
0.000000
  70
    32
  0
VERTEX
  8
AM_VIS
  5
537
 10
14.2271
 20
3.12630
 30
0.000000
  70
    32
  0
VERTEX
  8
AM_VIS
  5
538
 10
14.2279
 20
3.12453
 30
0.000000
  70
    32
  0
VERTEX
  8
AM_VIS
  5
539
 10
14.2286
 20
3.12278
 30
0.000000
  70
    32
  0
VERTEX
  8
AM_VIS
  5
53A
 10
14.2294
 20
3.12102
 30
0.000000
  70
    32
  0
VERTEX
  8
AM_VIS
  5
53B
 10
14.2301
 20
3.11927
 30
0.000000
  70
    32
  0
VERTEX
  8
AM_VIS
  5
53C
 10
14.2309
 20
3.11752
 30
0.000000
  70
    32
  0
VERTEX
  8
AM_VIS
  5
53D
 10
14.2317
 20
3.11577
 30
0.000000
  70
    32
  0
VERTEX
  8
AM_VIS
  5
53E
 10
14.2324
 20
3.11403
 30
0.000000
  70
    32
  0
VERTEX
  8
AM_VIS
  5
53F
 10
14.2332
 20
3.11230
 30
0.000000
  70
    32
  0
VERTEX
  8
AM_VIS
  5
540
 10
14.2340
 20
3.11056
 30
0.000000
  70
    32
  0
VERTEX
  8
AM_VIS
  5
541
 10
14.2348
 20
3.10883
 30
0.000000
  70
    32
  0
VERTEX
  8
AM_VIS
  5
542
 10
14.2356
 20
3.10711
 30
0.000000
  70
    32
  0
VERTEX
  8
AM_VIS
  5
543
 10
14.2364
 20
3.10539
 30
0.000000
  70
    32
  0
VERTEX
  8
AM_VIS
  5
544
 10
14.2372
 20
3.10367
 30
0.000000
  70
    32
  0
VERTEX
  8
AM_VIS
  5
545
 10
14.2381
 20
3.10195
 30
0.000000
  70
    32
  0
VERTEX
  8
AM_VIS
  5
546
 10
14.2389
 20
3.10025
 30
0.000000
  70
    32
  0
VERTEX
  8
AM_VIS
  5
547
 10
14.2397
 20
3.09854
 30
0.000000
  70
    32
  0
VERTEX
  8
AM_VIS
  5
548
 10
14.2405
 20
3.09684
 30
0.000000
  70
    32
  0
VERTEX
  8
AM_VIS
  5
549
 10
14.2414
 20
3.09514
 30
0.000000
  70
    32
  0
VERTEX
  8
AM_VIS
  5
54A
 10
14.2422
 20
3.09345
 30
0.000000
  70
    32
  0
VERTEX
  8
AM_VIS
  5
54B
 10
14.2431
 20
3.09176
 30
0.000000
  70
    32
  0
VERTEX
  8
AM_VIS
  5
54C
 10
14.2439
 20
3.09007
 30
0.000000
  70
    32
  0
VERTEX
  8
AM_VIS
  5
54D
 10
14.2448
 20
3.08839
 30
0.000000
  70
    32
  0
VERTEX
  8
AM_VIS
  5
54E
 10
14.2457
 20
3.08671
 30
0.000000
  70
    32
  0
VERTEX
  8
AM_VIS
  5
54F
 10
14.2465
 20
3.08504
 30
0.000000
  70
    32
  0
VERTEX
  8
AM_VIS
  5
550
 10
14.2474
 20
3.08337
 30
0.000000
  70
    32
  0
VERTEX
  8
AM_VIS
  5
551
 10
14.2483
 20
3.08171
 30
0.000000
  70
    32
  0
VERTEX
  8
AM_VIS
  5
552
 10
14.2492
 20
3.08005
 30
0.000000
  70
    32
  0
VERTEX
  8
AM_VIS
  5
553
 10
14.2501
 20
3.07839
 30
0.000000
  70
    32
  0
VERTEX
  8
AM_VIS
  5
554
 10
14.2510
 20
3.07674
 30
0.000000
  70
    32
  0
VERTEX
  8
AM_VIS
  5
555
 10
14.2519
 20
3.07509
 30
0.000000
  70
    32
  0
VERTEX
  8
AM_VIS
  5
556
 10
14.2528
 20
3.07345
 30
0.000000
  70
    32
  0
VERTEX
  8
AM_VIS
  5
557
 10
14.2537
 20
3.07181
 30
0.000000
  70
    32
  0
VERTEX
  8
AM_VIS
  5
558
 10
14.2547
 20
3.07017
 30
0.000000
  70
    32
  0
VERTEX
  8
AM_VIS
  5
559
 10
14.2556
 20
3.06854
 30
0.000000
  70
    32
  0
VERTEX
  8
AM_VIS
  5
55A
 10
14.2565
 20
3.06692
 30
0.000000
  70
    32
  0
VERTEX
  8
AM_VIS
  5
55B
 10
14.2575
 20
3.06529
 30
0.000000
  70
    32
  0
VERTEX
  8
AM_VIS
  5
55C
 10
14.2584
 20
3.06368
 30
0.000000
  70
    32
  0
VERTEX
  8
AM_VIS
  5
55D
 10
14.2593
 20
3.06206
 30
0.000000
  70
    32
  0
VERTEX
  8
AM_VIS
  5
55E
 10
14.2603
 20
3.06045
 30
0.000000
  70
    32
  0
VERTEX
  8
AM_VIS
  5
55F
 10
14.2613
 20
3.05885
 30
0.000000
  70
    32
  0
VERTEX
  8
AM_VIS
  5
560
 10
14.2622
 20
3.05725
 30
0.000000
  70
    32
  0
VERTEX
  8
AM_VIS
  5
561
 10
14.2632
 20
3.05566
 30
0.000000
  70
    32
  0
VERTEX
  8
AM_VIS
  5
562
 10
14.2642
 20
3.05407
 30
0.000000
  70
    32
  0
VERTEX
  8
AM_VIS
  5
563
 10
14.2652
 20
3.05248
 30
0.000000
  70
    32
  0
VERTEX
  8
AM_VIS
  5
564
 10
14.2661
 20
3.05090
 30
0.000000
  70
    32
  0
VERTEX
  8
AM_VIS
  5
565
 10
14.2671
 20
3.04932
 30
0.000000
  70
    32
  0
VERTEX
  8
AM_VIS
  5
566
 10
14.2681
 20
3.04775
 30
0.000000
  70
    32
  0
VERTEX
  8
AM_VIS
  5
567
 10
14.2691
 20
3.04618
 30
0.000000
  70
    32
  0
VERTEX
  8
AM_VIS
  5
568
 10
14.2701
 20
3.04462
 30
0.000000
  70
    32
  0
VERTEX
  8
AM_VIS
  5
569
 10
14.2711
 20
3.04306
 30
0.000000
  70
    32
  0
VERTEX
  8
AM_VIS
  5
56A
 10
14.2722
 20
3.04150
 30
0.000000
  70
    32
  0
VERTEX
  8
AM_VIS
  5
56B
 10
14.2732
 20
3.03995
 30
0.000000
  70
    32
  0
VERTEX
  8
AM_VIS
  5
56C
 10
14.2742
 20
3.03841
 30
0.000000
  70
    32
  0
VERTEX
  8
AM_VIS
  5
56D
 10
14.2752
 20
3.03687
 30
0.000000
  70
    32
  0
VERTEX
  8
AM_VIS
  5
56E
 10
14.2763
 20
3.03534
 30
0.000000
  70
    32
  0
VERTEX
  8
AM_VIS
  5
56F
 10
14.2773
 20
3.03380
 30
0.000000
  70
    32
  0
VERTEX
  8
AM_VIS
  5
570
 10
14.2784
 20
3.03228
 30
0.000000
  70
    32
  0
VERTEX
  8
AM_VIS
  5
571
 10
14.2794
 20
3.03076
 30
0.000000
  70
    32
  0
VERTEX
  8
AM_VIS
  5
572
 10
14.2805
 20
3.02924
 30
0.000000
  70
    32
  0
VERTEX
  8
AM_VIS
  5
573
 10
14.2815
 20
3.02773
 30
0.000000
  70
    32
  0
VERTEX
  8
AM_VIS
  5
574
 10
14.2826
 20
3.02623
 30
0.000000
  70
    32
  0
VERTEX
  8
AM_VIS
  5
575
 10
14.2837
 20
3.02472
 30
0.000000
  70
    32
  0
VERTEX
  8
AM_VIS
  5
576
 10
14.2847
 20
3.02323
 30
0.000000
  70
    32
  0
VERTEX
  8
AM_VIS
  5
577
 10
14.2858
 20
3.02174
 30
0.000000
  70
    32
  0
VERTEX
  8
AM_VIS
  5
578
 10
14.2869
 20
3.02025
 30
0.000000
  70
    32
  0
VERTEX
  8
AM_VIS
  5
579
 10
14.2880
 20
3.01877
 30
0.000000
  70
    32
  0
VERTEX
  8
AM_VIS
  5
57A
 10
14.2891
 20
3.01729
 30
0.000000
  70
    32
  0
VERTEX
  8
AM_VIS
  5
57B
 10
14.2902
 20
3.01582
 30
0.000000
  70
    32
  0
VERTEX
  8
AM_VIS
  5
57C
 10
14.2913
 20
3.01435
 30
0.000000
  70
    32
  0
VERTEX
  8
AM_VIS
  5
57D
 10
14.2924
 20
3.01289
 30
0.000000
  70
    32
  0
VERTEX
  8
AM_VIS
  5
57E
 10
14.2935
 20
3.01143
 30
0.000000
  70
    32
  0
VERTEX
  8
AM_VIS
  5
57F
 10
14.2946
 20
3.00998
 30
0.000000
  70
    32
  0
VERTEX
  8
AM_VIS
  5
580
 10
14.2958
 20
3.00853
 30
0.000000
  70
    32
  0
VERTEX
  8
AM_VIS
  5
581
 10
14.2969
 20
3.00709
 30
0.000000
  70
    32
  0
VERTEX
  8
AM_VIS
  5
582
 10
14.2980
 20
3.00566
 30
0.000000
  70
    32
  0
VERTEX
  8
AM_VIS
  5
583
 10
14.2992
 20
3.00423
 30
0.000000
  70
    32
  0
VERTEX
  8
AM_VIS
  5
584
 10
14.3003
 20
3.00280
 30
0.000000
  70
    32
  0
VERTEX
  8
AM_VIS
  5
585
 10
14.3014
 20
3.00138
 30
0.000000
  70
    32
  0
VERTEX
  8
AM_VIS
  5
586
 10
14.3026
 20
2.99996
 30
0.000000
  70
    32
  0
VERTEX
  8
AM_VIS
  5
587
 10
14.3038
 20
2.99855
 30
0.000000
  70
    32
  0
VERTEX
  8
AM_VIS
  5
588
 10
14.3049
 20
2.99715
 30
0.000000
  70
    32
  0
VERTEX
  8
AM_VIS
  5
589
 10
14.3061
 20
2.99575
 30
0.000000
  70
    32
  0
VERTEX
  8
AM_VIS
  5
58A
 10
14.3072
 20
2.99435
 30
0.000000
  70
    32
  0
VERTEX
  8
AM_VIS
  5
58B
 10
14.3084
 20
2.99296
 30
0.000000
  70
    32
  0
VERTEX
  8
AM_VIS
  5
58C
 10
14.3096
 20
2.99158
 30
0.000000
  70
    32
  0
VERTEX
  8
AM_VIS
  5
58D
 10
14.3108
 20
2.99020
 30
0.000000
  70
    32
  0
VERTEX
  8
AM_VIS
  5
58E
 10
14.3120
 20
2.98883
 30
0.000000
  70
    32
  0
VERTEX
  8
AM_VIS
  5
58F
 10
14.3132
 20
2.98746
 30
0.000000
  70
    32
  0
VERTEX
  8
AM_VIS
  5
590
 10
14.3144
 20
2.98609
 30
0.000000
  70
    32
  0
VERTEX
  8
AM_VIS
  5
591
 10
14.3156
 20
2.98474
 30
0.000000
  70
    32
  0
VERTEX
  8
AM_VIS
  5
592
 10
14.3168
 20
2.98339
 30
0.000000
  70
    32
  0
VERTEX
  8
AM_VIS
  5
593
 10
14.3180
 20
2.98204
 30
0.000000
  70
    32
  0
VERTEX
  8
AM_VIS
  5
594
 10
14.3192
 20
2.98070
 30
0.000000
  70
    32
  0
VERTEX
  8
AM_VIS
  5
595
 10
14.3204
 20
2.97936
 30
0.000000
  70
    32
  0
VERTEX
  8
AM_VIS
  5
596
 10
14.3216
 20
2.97803
 30
0.000000
  70
    32
  0
VERTEX
  8
AM_VIS
  5
597
 10
14.3229
 20
2.97671
 30
0.000000
  70
    32
  0
VERTEX
  8
AM_VIS
  5
598
 10
14.3241
 20
2.97539
 30
0.000000
  70
    32
  0
VERTEX
  8
AM_VIS
  5
599
 10
14.3253
 20
2.97408
 30
0.000000
  70
    32
  0
VERTEX
  8
AM_VIS
  5
59A
 10
14.3266
 20
2.97277
 30
0.000000
  70
    32
  0
VERTEX
  8
AM_VIS
  5
59B
 10
14.3278
 20
2.97147
 30
0.000000
  70
    32
  0
VERTEX
  8
AM_VIS
  5
59C
 10
14.3291
 20
2.97017
 30
0.000000
  70
    32
  0
VERTEX
  8
AM_VIS
  5
59D
 10
14.3303
 20
2.96888
 30
0.000000
  70
    32
  0
VERTEX
  8
AM_VIS
  5
59E
 10
14.3316
 20
2.96759
 30
0.000000
  70
    32
  0
VERTEX
  8
AM_VIS
  5
59F
 10
14.3329
 20
2.96631
 30
0.000000
  70
    32
  0
VERTEX
  8
AM_VIS
  5
5A0
 10
14.3341
 20
2.96503
 30
0.000000
  70
    32
  0
VERTEX
  8
AM_VIS
  5
5A1
 10
14.3354
 20
2.96376
 30
0.000000
  70
    32
  0
VERTEX
  8
AM_VIS
  5
5A2
 10
14.3367
 20
2.96249
 30
0.000000
  70
    32
  0
VERTEX
  8
AM_VIS
  5
5A3
 10
14.3380
 20
2.96123
 30
0.000000
  70
    32
  0
VERTEX
  8
AM_VIS
  5
5A4
 10
14.3393
 20
2.95997
 30
0.000000
  70
    32
  0
VERTEX
  8
AM_VIS
  5
5A5
 10
14.3405
 20
2.95872
 30
0.000000
  70
    32
  0
VERTEX
  8
AM_VIS
  5
5A6
 10
14.3418
 20
2.95748
 30
0.000000
  70
    32
  0
VERTEX
  8
AM_VIS
  5
5A7
 10
14.3432
 20
2.95624
 30
0.000000
  70
    32
  0
VERTEX
  8
AM_VIS
  5
5A8
 10
14.3445
 20
2.95500
 30
0.000000
  70
    32
  0
VERTEX
  8
AM_VIS
  5
5A9
 10
14.3458
 20
2.95377
 30
0.000000
  70
    32
  0
VERTEX
  8
AM_VIS
  5
5AA
 10
14.3471
 20
2.95254
 30
0.000000
  70
    32
  0
VERTEX
  8
AM_VIS
  5
5AB
 10
14.3484
 20
2.95132
 30
0.000000
  70
    32
  0
VERTEX
  8
AM_VIS
  5
5AC
 10
14.3498
 20
2.95011
 30
0.000000
  70
    32
  0
VERTEX
  8
AM_VIS
  5
5AD
 10
14.3511
 20
2.94890
 30
0.000000
  70
    32
  0
VERTEX
  8
AM_VIS
  5
5AE
 10
14.3524
 20
2.94769
 30
0.000000
  70
    32
  0
VERTEX
  8
AM_VIS
  5
5AF
 10
14.3538
 20
2.94649
 30
0.000000
  70
    32
  0
VERTEX
  8
AM_VIS
  5
5B0
 10
14.3551
 20
2.94530
 30
0.000000
  70
    32
  0
VERTEX
  8
AM_VIS
  5
5B1
 10
14.3565
 20
2.94411
 30
0.000000
  70
    32
  0
VERTEX
  8
AM_VIS
  5
5B2
 10
14.3578
 20
2.94293
 30
0.000000
  70
    32
  0
VERTEX
  8
AM_VIS
  5
5B3
 10
14.3592
 20
2.94175
 30
0.000000
  70
    32
  0
VERTEX
  8
AM_VIS
  5
5B4
 10
14.3606
 20
2.94058
 30
0.000000
  70
    32
  0
VERTEX
  8
AM_VIS
  5
5B5
 10
14.3619
 20
2.93942
 30
0.000000
  70
    32
  0
VERTEX
  8
AM_VIS
  5
5B6
 10
14.3633
 20
2.93826
 30
0.000000
  70
    32
  0
VERTEX
  8
AM_VIS
  5
5B7
 10
14.3647
 20
2.93710
 30
0.000000
  70
    32
  0
VERTEX
  8
AM_VIS
  5
5B8
 10
14.3661
 20
2.93596
 30
0.000000
  70
    32
  0
VERTEX
  8
AM_VIS
  5
5B9
 10
14.3675
 20
2.93481
 30
0.000000
  70
    32
  0
VERTEX
  8
AM_VIS
  5
5BA
 10
14.3689
 20
2.93368
 30
0.000000
  70
    32
  0
VERTEX
  8
AM_VIS
  5
5BB
 10
14.3703
 20
2.93255
 30
0.000000
  70
    32
  0
VERTEX
  8
AM_VIS
  5
5BC
 10
14.3717
 20
2.93142
 30
0.000000
  70
    32
  0
VERTEX
  8
AM_VIS
  5
5BD
 10
14.3731
 20
2.93030
 30
0.000000
  70
    32
  0
VERTEX
  8
AM_VIS
  5
5BE
 10
14.3745
 20
2.92919
 30
0.000000
  70
    32
  0
VERTEX
  8
AM_VIS
  5
5BF
 10
14.3759
 20
2.92808
 30
0.000000
  70
    32
  0
VERTEX
  8
AM_VIS
  5
5C0
 10
14.3774
 20
2.92698
 30
0.000000
  70
    32
  0
VERTEX
  8
AM_VIS
  5
5C1
 10
14.3788
 20
2.92588
 30
0.000000
  70
    32
  0
VERTEX
  8
AM_VIS
  5
5C2
 10
14.3802
 20
2.92480
 30
0.000000
  70
    32
  0
VERTEX
  8
AM_VIS
  5
5C3
 10
14.3817
 20
2.92371
 30
0.000000
  70
    32
  0
VERTEX
  8
AM_VIS
  5
5C4
 10
14.3831
 20
2.92264
 30
0.000000
  70
    32
  0
VERTEX
  8
AM_VIS
  5
5C5
 10
14.3846
 20
2.92157
 30
0.000000
  70
    32
  0
VERTEX
  8
AM_VIS
  5
5C6
 10
14.3860
 20
2.92050
 30
0.000000
  70
    32
  0
VERTEX
  8
AM_VIS
  5
5C7
 10
14.3875
 20
2.91944
 30
0.000000
  70
    32
  0
VERTEX
  8
AM_VIS
  5
5C8
 10
14.3889
 20
2.91839
 30
0.000000
  70
    32
  0
VERTEX
  8
AM_VIS
  5
5C9
 10
14.3904
 20
2.91735
 30
0.000000
  70
    32
  0
VERTEX
  8
AM_VIS
  5
5CA
 10
14.3919
 20
2.91631
 30
0.000000
  70
    32
  0
VERTEX
  8
AM_VIS
  5
5CB
 10
14.3934
 20
2.91527
 30
0.000000
  70
    32
  0
VERTEX
  8
AM_VIS
  5
5CC
 10
14.3948
 20
2.91425
 30
0.000000
  70
    32
  0
VERTEX
  8
AM_VIS
  5
5CD
 10
14.3963
 20
2.91323
 30
0.000000
  70
    32
  0
VERTEX
  8
AM_VIS
  5
5CE
 10
14.3978
 20
2.91221
 30
0.000000
  70
    32
  0
VERTEX
  8
AM_VIS
  5
5CF
 10
14.3993
 20
2.91121
 30
0.000000
  70
    32
  0
VERTEX
  8
AM_VIS
  5
5D0
 10
14.4008
 20
2.91021
 30
0.000000
  70
    32
  0
VERTEX
  8
AM_VIS
  5
5D1
 10
14.4023
 20
2.90921
 30
0.000000
  70
    32
  0
VERTEX
  8
AM_VIS
  5
5D2
 10
14.4038
 20
2.90823
 30
0.000000
  70
    32
  0
VERTEX
  8
AM_VIS
  5
5D3
 10
14.4053
 20
2.90724
 30
0.000000
  70
    32
  0
VERTEX
  8
AM_VIS
  5
5D4
 10
14.4068
 20
2.90627
 30
0.000000
  70
    32
  0
VERTEX
  8
AM_VIS
  5
5D5
 10
14.4084
 20
2.90530
 30
0.000000
  70
    32
  0
VERTEX
  8
AM_VIS
  5
5D6
 10
14.4099
 20
2.90434
 30
0.000000
  70
    32
  0
VERTEX
  8
AM_VIS
  5
5D7
 10
14.4114
 20
2.90339
 30
0.000000
  70
    32
  0
VERTEX
  8
AM_VIS
  5
5D8
 10
14.4130
 20
2.90244
 30
0.000000
  70
    32
  0
VERTEX
  8
AM_VIS
  5
5D9
 10
14.4145
 20
2.90150
 30
0.000000
  70
    32
  0
VERTEX
  8
AM_VIS
  5
5DA
 10
14.4160
 20
2.90057
 30
0.000000
  70
    32
  0
VERTEX
  8
AM_VIS
  5
5DB
 10
14.4176
 20
2.89964
 30
0.000000
  70
    32
  0
VERTEX
  8
AM_VIS
  5
5DC
 10
14.4191
 20
2.89873
 30
0.000000
  70
    32
  0
VERTEX
  8
AM_VIS
  5
5DD
 10
14.4207
 20
2.89781
 30
0.000000
  70
    32
  0
VERTEX
  8
AM_VIS
  5
5DE
 10
14.4223
 20
2.89691
 30
0.000000
  70
    32
  0
VERTEX
  8
AM_VIS
  5
5DF
 10
14.4238
 20
2.89601
 30
0.000000
  70
    32
  0
VERTEX
  8
AM_VIS
  5
5E0
 10
14.4254
 20
2.89512
 30
0.000000
  70
    32
  0
VERTEX
  8
AM_VIS
  5
5E1
 10
14.4270
 20
2.89424
 30
0.000000
  70
    32
  0
VERTEX
  8
AM_VIS
  5
5E2
 10
14.4285
 20
2.89336
 30
0.000000
  70
    32
  0
VERTEX
  8
AM_VIS
  5
5E3
 10
14.4301
 20
2.89249
 30
0.000000
  70
    32
  0
VERTEX
  8
AM_VIS
  5
5E4
 10
14.4317
 20
2.89163
 30
0.000000
  70
    32
  0
VERTEX
  8
AM_VIS
  5
5E5
 10
14.4333
 20
2.89077
 30
0.000000
  70
    32
  0
VERTEX
  8
AM_VIS
  5
5E6
 10
14.4349
 20
2.88993
 30
0.000000
  70
    32
  0
VERTEX
  8
AM_VIS
  5
5E7
 10
14.4365
 20
2.88909
 30
0.000000
  70
    32
  0
VERTEX
  8
AM_VIS
  5
5E8
 10
14.4381
 20
2.88825
 30
0.000000
  70
    32
  0
VERTEX
  8
AM_VIS
  5
5E9
 10
14.4397
 20
2.88743
 30
0.000000
  70
    32
  0
VERTEX
  8
AM_VIS
  5
5EA
 10
14.4413
 20
2.88661
 30
0.000000
  70
    32
  0
VERTEX
  8
AM_VIS
  5
5EB
 10
14.4429
 20
2.88580
 30
0.000000
  70
    32
  0
VERTEX
  8
AM_VIS
  5
5EC
 10
14.4446
 20
2.88499
 30
0.000000
  70
    32
  0
VERTEX
  8
AM_VIS
  5
5ED
 10
14.4462
 20
2.88420
 30
0.000000
  70
    32
  0
VERTEX
  8
AM_VIS
  5
5EE
 10
14.4478
 20
2.88341
 30
0.000000
  70
    32
  0
VERTEX
  8
AM_VIS
  5
5EF
 10
14.4494
 20
2.88263
 30
0.000000
  70
    32
  0
VERTEX
  8
AM_VIS
  5
5F0
 10
14.4511
 20
2.88186
 30
0.000000
  70
    32
  0
VERTEX
  8
AM_VIS
  5
5F1
 10
14.4527
 20
2.88109
 30
0.000000
  70
    32
  0
VERTEX
  8
AM_VIS
  5
5F2
 10
14.4544
 20
2.88034
 30
0.000000
  70
    32
  0
VERTEX
  8
AM_VIS
  5
5F3
 10
14.4560
 20
2.87959
 30
0.000000
  70
    32
  0
VERTEX
  8
AM_VIS
  5
5F4
 10
14.4577
 20
2.87884
 30
0.000000
  70
    32
  0
VERTEX
  8
AM_VIS
  5
5F5
 10
14.4593
 20
2.87811
 30
0.000000
  70
    32
  0
VERTEX
  8
AM_VIS
  5
5F6
 10
14.4610
 20
2.87738
 30
0.000000
  70
    32
  0
VERTEX
  8
AM_VIS
  5
5F7
 10
14.4627
 20
2.87667
 30
0.000000
  70
    32
  0
VERTEX
  8
AM_VIS
  5
5F8
 10
14.4643
 20
2.87596
 30
0.000000
  70
    32
  0
VERTEX
  8
AM_VIS
  5
5F9
 10
14.4660
 20
2.87525
 30
0.000000
  70
    32
  0
VERTEX
  8
AM_VIS
  5
5FA
 10
14.4677
 20
2.87456
 30
0.000000
  70
    32
  0
VERTEX
  8
AM_VIS
  5
5FB
 10
14.4693
 20
2.87388
 30
0.000000
  70
    32
  0
VERTEX
  8
AM_VIS
  5
5FC
 10
14.4710
 20
2.87320
 30
0.000000
  70
    32
  0
VERTEX
  8
AM_VIS
  5
5FD
 10
14.4727
 20
2.87253
 30
0.000000
  70
    32
  0
VERTEX
  8
AM_VIS
  5
5FE
 10
14.4744
 20
2.87187
 30
0.000000
  70
    32
  0
VERTEX
  8
AM_VIS
  5
5FF
 10
14.4761
 20
2.87122
 30
0.000000
  70
    32
  0
VERTEX
  8
AM_VIS
  5
600
 10
14.4778
 20
2.87057
 30
0.000000
  70
    32
  0
VERTEX
  8
AM_VIS
  5
601
 10
14.4795
 20
2.86994
 30
0.000000
  70
    32
  0
VERTEX
  8
AM_VIS
  5
602
 10
14.4812
 20
2.86931
 30
0.000000
  70
    32
  0
VERTEX
  8
AM_VIS
  5
603
 10
14.4829
 20
2.86870
 30
0.000000
  70
    32
  0
VERTEX
  8
AM_VIS
  5
604
 10
14.4846
 20
2.86809
 30
0.000000
  70
    32
  0
VERTEX
  8
AM_VIS
  5
605
 10
14.4863
 20
2.86749
 30
0.000000
  70
    32
  0
VERTEX
  8
AM_VIS
  5
606
 10
14.4880
 20
2.86689
 30
0.000000
  70
    32
  0
VERTEX
  8
AM_VIS
  5
607
 10
14.4897
 20
2.86631
 30
0.000000
  70
    32
  0
VERTEX
  8
AM_VIS
  5
608
 10
14.4915
 20
2.86574
 30
0.000000
  70
    32
  0
VERTEX
  8
AM_VIS
  5
609
 10
14.4932
 20
2.86517
 30
0.000000
  70
    32
  0
VERTEX
  8
AM_VIS
  5
60A
 10
14.4949
 20
2.86461
 30
0.000000
  70
    32
  0
VERTEX
  8
AM_VIS
  5
60B
 10
14.4966
 20
2.86407
 30
0.000000
  70
    32
  0
VERTEX
  8
AM_VIS
  5
60C
 10
14.4984
 20
2.86353
 30
0.000000
  70
    32
  0
VERTEX
  8
AM_VIS
  5
60D
 10
14.5001
 20
2.86299
 30
0.000000
  70
    32
  0
VERTEX
  8
AM_VIS
  5
60E
 10
14.5019
 20
2.86247
 30
0.000000
  70
    32
  0
VERTEX
  8
AM_VIS
  5
60F
 10
14.5036
 20
2.86196
 30
0.000000
  70
    32
  0
VERTEX
  8
AM_VIS
  5
610
 10
14.5053
 20
2.86146
 30
0.000000
  70
    32
  0
VERTEX
  8
AM_VIS
  5
611
 10
14.5071
 20
2.86096
 30
0.000000
  70
    32
  0
VERTEX
  8
AM_VIS
  5
612
 10
14.5088
 20
2.86047
 30
0.000000
  70
    32
  0
VERTEX
  8
AM_VIS
  5
613
 10
14.5106
 20
2.86000
 30
0.000000
  70
    32
  0
VERTEX
  8
AM_VIS
  5
614
 10
14.5123
 20
2.85953
 30
0.000000
  70
    32
  0
VERTEX
  8
AM_VIS
  5
615
 10
14.5141
 20
2.85907
 30
0.000000
  70
    32
  0
VERTEX
  8
AM_VIS
  5
616
 10
14.5159
 20
2.85862
 30
0.000000
  70
    32
  0
VERTEX
  8
AM_VIS
  5
617
 10
14.5176
 20
2.85818
 30
0.000000
  70
    32
  0
VERTEX
  8
AM_VIS
  5
618
 10
14.5194
 20
2.85775
 30
0.000000
  70
    32
  0
VERTEX
  8
AM_VIS
  5
619
 10
14.5212
 20
2.85732
 30
0.000000
  70
    32
  0
VERTEX
  8
AM_VIS
  5
61A
 10
14.5229
 20
2.85691
 30
0.000000
  70
    32
  0
VERTEX
  8
AM_VIS
  5
61B
 10
14.5247
 20
2.85651
 30
0.000000
  70
    32
  0
VERTEX
  8
AM_VIS
  5
61C
 10
14.5265
 20
2.85611
 30
0.000000
  70
    32
  0
VERTEX
  8
AM_VIS
  5
61D
 10
14.5283
 20
2.85573
 30
0.000000
  70
    32
  0
VERTEX
  8
AM_VIS
  5
61E
 10
14.5301
 20
2.85535
 30
0.000000
  70
    32
  0
VERTEX
  8
AM_VIS
  5
61F
 10
14.5318
 20
2.85498
 30
0.000000
  70
    32
  0
VERTEX
  8
AM_VIS
  5
620
 10
14.5336
 20
2.85462
 30
0.000000
  70
    32
  0
VERTEX
  8
AM_VIS
  5
621
 10
14.5354
 20
2.85428
 30
0.000000
  70
    32
  0
VERTEX
  8
AM_VIS
  5
622
 10
14.5372
 20
2.85394
 30
0.000000
  70
    32
  0
VERTEX
  8
AM_VIS
  5
623
 10
14.5390
 20
2.85361
 30
0.000000
  70
    32
  0
VERTEX
  8
AM_VIS
  5
624
 10
14.5408
 20
2.85329
 30
0.000000
  70
    32
  0
VERTEX
  8
AM_VIS
  5
625
 10
14.5426
 20
2.85298
 30
0.000000
  70
    32
  0
VERTEX
  8
AM_VIS
  5
626
 10
14.5444
 20
2.85268
 30
0.000000
  70
    32
  0
VERTEX
  8
AM_VIS
  5
627
 10
14.5462
 20
2.85239
 30
0.000000
  70
    32
  0
VERTEX
  8
AM_VIS
  5
628
 10
14.5480
 20
2.85211
 30
0.000000
  70
    32
  0
VERTEX
  8
AM_VIS
  5
629
 10
14.5498
 20
2.85184
 30
0.000000
  70
    32
  0
VERTEX
  8
AM_VIS
  5
62A
 10
14.5516
 20
2.85158
 30
0.000000
  70
    32
  0
VERTEX
  8
AM_VIS
  5
62B
 10
14.5534
 20
2.85133
 30
0.000000
  70
    32
  0
VERTEX
  8
AM_VIS
  5
62C
 10
14.5552
 20
2.85109
 30
0.000000
  70
    32
  0
VERTEX
  8
AM_VIS
  5
62D
 10
14.5570
 20
2.85085
 30
0.000000
  70
    32
  0
VERTEX
  8
AM_VIS
  5
62E
 10
14.5588
 20
2.85063
 30
0.000000
  70
    32
  0
VERTEX
  8
AM_VIS
  5
62F
 10
14.5606
 20
2.85042
 30
0.000000
  70
    32
  0
VERTEX
  8
AM_VIS
  5
630
 10
14.5624
 20
2.85022
 30
0.000000
  70
    32
  0
VERTEX
  8
AM_VIS
  5
631
 10
14.5642
 20
2.85002
 30
0.000000
  70
    32
  0
VERTEX
  8
AM_VIS
  5
632
 10
14.5660
 20
2.84984
 30
0.000000
  70
    32
  0
VERTEX
  8
AM_VIS
  5
633
 10
14.5678
 20
2.84967
 30
0.000000
  70
    32
  0
VERTEX
  8
AM_VIS
  5
634
 10
14.5696
 20
2.84950
 30
0.000000
  70
    32
  0
VERTEX
  8
AM_VIS
  5
635
 10
14.5715
 20
2.84935
 30
0.000000
  70
    32
  0
VERTEX
  8
AM_VIS
  5
636
 10
14.5733
 20
2.84921
 30
0.000000
  70
    32
  0
VERTEX
  8
AM_VIS
  5
637
 10
14.5751
 20
2.84907
 30
0.000000
  70
    32
  0
VERTEX
  8
AM_VIS
  5
638
 10
14.5769
 20
2.84895
 30
0.000000
  70
    32
  0
VERTEX
  8
AM_VIS
  5
639
 10
14.5787
 20
2.84883
 30
0.000000
  70
    32
  0
VERTEX
  8
AM_VIS
  5
63A
 10
14.5805
 20
2.84873
 30
0.000000
  70
    32
  0
VERTEX
  8
AM_VIS
  5
63B
 10
14.5824
 20
2.84864
 30
0.000000
  70
    32
  0
VERTEX
  8
AM_VIS
  5
63C
 10
14.5842
 20
2.84855
 30
0.000000
  70
    32
  0
VERTEX
  8
AM_VIS
  5
63D
 10
14.5860
 20
2.84848
 30
0.000000
  70
    32
  0
VERTEX
  8
AM_VIS
  5
63E
 10
14.5878
 20
2.84841
 30
0.000000
  70
    32
  0
VERTEX
  8
AM_VIS
  5
63F
 10
14.5896
 20
2.84836
 30
0.000000
  70
    32
  0
VERTEX
  8
AM_VIS
  5
640
 10
14.5915
 20
2.84831
 30
0.000000
  70
    32
  0
VERTEX
  8
AM_VIS
  5
641
 10
14.5933
 20
2.84828
 30
0.000000
  70
    32
  0
VERTEX
  8
AM_VIS
  5
642
 10
14.5951
 20
2.84825
 30
0.000000
  70
    32
  0
VERTEX
  8
AM_VIS
  5
643
 10
14.5969
 20
2.84824
 30
0.000000
  70
    32
  0
VERTEX
  8
AM_VIS
  5
644
 10
14.5988
 20
2.84823
 30
0.000000
  70
    32
  0
SEQEND
  8
AM_VIS
  5
645
  0
POLYLINE
  8
AM_VIS
  5
646
  66
     1
 10
0.000000
 20
0.000000
 30
0.000000
  70
     8
  0
VERTEX
  8
AM_VIS
  5
647
 10
14.5988
 20
3.83333
 30
0.000000
  70
    32
  0
VERTEX
  8
AM_VIS
  5
648
 10
14.5969
 20
3.83333
 30
0.000000
  70
    32
  0
VERTEX
  8
AM_VIS
  5
649
 10
14.5950
 20
3.83331
 30
0.000000
  70
    32
  0
VERTEX
  8
AM_VIS
  5
64A
 10
14.5932
 20
3.83328
 30
0.000000
  70
    32
  0
VERTEX
  8
AM_VIS
  5
64B
 10
14.5913
 20
3.83325
 30
0.000000
  70
    32
  0
VERTEX
  8
AM_VIS
  5
64C
 10
14.5894
 20
3.83320
 30
0.000000
  70
    32
  0
VERTEX
  8
AM_VIS
  5
64D
 10
14.5876
 20
3.83314
 30
0.000000
  70
    32
  0
VERTEX
  8
AM_VIS
  5
64E
 10
14.5857
 20
3.83308
 30
0.000000
  70
    32
  0
VERTEX
  8
AM_VIS
  5
64F
 10
14.5838
 20
3.83300
 30
0.000000
  70
    32
  0
VERTEX
  8
AM_VIS
  5
650
 10
14.5820
 20
3.83291
 30
0.000000
  70
    32
  0
VERTEX
  8
AM_VIS
  5
651
 10
14.5801
 20
3.83281
 30
0.000000
  70
    32
  0
VERTEX
  8
AM_VIS
  5
652
 10
14.5783
 20
3.83270
 30
0.000000
  70
    32
  0
VERTEX
  8
AM_VIS
  5
653
 10
14.5764
 20
3.83258
 30
0.000000
  70
    32
  0
VERTEX
  8
AM_VIS
  5
654
 10
14.5746
 20
3.83245
 30
0.000000
  70
    32
  0
VERTEX
  8
AM_VIS
  5
655
 10
14.5727
 20
3.83231
 30
0.000000
  70
    32
  0
VERTEX
  8
AM_VIS
  5
656
 10
14.5709
 20
3.83216
 30
0.000000
  70
    32
  0
VERTEX
  8
AM_VIS
  5
657
 10
14.5690
 20
3.83200
 30
0.000000
  70
    32
  0
VERTEX
  8
AM_VIS
  5
658
 10
14.5672
 20
3.83183
 30
0.000000
  70
    32
  0
VERTEX
  8
AM_VIS
  5
659
 10
14.5653
 20
3.83165
 30
0.000000
  70
    32
  0
VERTEX
  8
AM_VIS
  5
65A
 10
14.5635
 20
3.83146
 30
0.000000
  70
    32
  0
VERTEX
  8
AM_VIS
  5
65B
 10
14.5616
 20
3.83126
 30
0.000000
  70
    32
  0
VERTEX
  8
AM_VIS
  5
65C
 10
14.5598
 20
3.83105
 30
0.000000
  70
    32
  0
VERTEX
  8
AM_VIS
  5
65D
 10
14.5579
 20
3.83083
 30
0.000000
  70
    32
  0
VERTEX
  8
AM_VIS
  5
65E
 10
14.5561
 20
3.83060
 30
0.000000
  70
    32
  0
VERTEX
  8
AM_VIS
  5
65F
 10
14.5543
 20
3.83036
 30
0.000000
  70
    32
  0
VERTEX
  8
AM_VIS
  5
660
 10
14.5524
 20
3.83011
 30
0.000000
  70
    32
  0
VERTEX
  8
AM_VIS
  5
661
 10
14.5506
 20
3.82985
 30
0.000000
  70
    32
  0
VERTEX
  8
AM_VIS
  5
662
 10
14.5488
 20
3.82958
 30
0.000000
  70
    32
  0
VERTEX
  8
AM_VIS
  5
663
 10
14.5469
 20
3.82930
 30
0.000000
  70
    32
  0
VERTEX
  8
AM_VIS
  5
664
 10
14.5451
 20
3.82901
 30
0.000000
  70
    32
  0
VERTEX
  8
AM_VIS
  5
665
 10
14.5433
 20
3.82871
 30
0.000000
  70
    32
  0
VERTEX
  8
AM_VIS
  5
666
 10
14.5415
 20
3.82839
 30
0.000000
  70
    32
  0
VERTEX
  8
AM_VIS
  5
667
 10
14.5396
 20
3.82807
 30
0.000000
  70
    32
  0
VERTEX
  8
AM_VIS
  5
668
 10
14.5378
 20
3.82774
 30
0.000000
  70
    32
  0
VERTEX
  8
AM_VIS
  5
669
 10
14.5360
 20
3.82740
 30
0.000000
  70
    32
  0
VERTEX
  8
AM_VIS
  5
66A
 10
14.5342
 20
3.82705
 30
0.000000
  70
    32
  0
VERTEX
  8
AM_VIS
  5
66B
 10
14.5324
 20
3.82669
 30
0.000000
  70
    32
  0
VERTEX
  8
AM_VIS
  5
66C
 10
14.5306
 20
3.82632
 30
0.000000
  70
    32
  0
VERTEX
  8
AM_VIS
  5
66D
 10
14.5288
 20
3.82595
 30
0.000000
  70
    32
  0
VERTEX
  8
AM_VIS
  5
66E
 10
14.5270
 20
3.82556
 30
0.000000
  70
    32
  0
VERTEX
  8
AM_VIS
  5
66F
 10
14.5251
 20
3.82516
 30
0.000000
  70
    32
  0
VERTEX
  8
AM_VIS
  5
670
 10
14.5233
 20
3.82475
 30
0.000000
  70
    32
  0
VERTEX
  8
AM_VIS
  5
671
 10
14.5215
 20
3.82433
 30
0.000000
  70
    32
  0
VERTEX
  8
AM_VIS
  5
672
 10
14.5197
 20
3.82390
 30
0.000000
  70
    32
  0
VERTEX
  8
AM_VIS
  5
673
 10
14.5179
 20
3.82347
 30
0.000000
  70
    32
  0
VERTEX
  8
AM_VIS
  5
674
 10
14.5161
 20
3.82302
 30
0.000000
  70
    32
  0
VERTEX
  8
AM_VIS
  5
675
 10
14.5144
 20
3.82256
 30
0.000000
  70
    32
  0
VERTEX
  8
AM_VIS
  5
676
 10
14.5126
 20
3.82210
 30
0.000000
  70
    32
  0
VERTEX
  8
AM_VIS
  5
677
 10
14.5108
 20
3.82162
 30
0.000000
  70
    32
  0
VERTEX
  8
AM_VIS
  5
678
 10
14.5090
 20
3.82113
 30
0.000000
  70
    32
  0
VERTEX
  8
AM_VIS
  5
679
 10
14.5072
 20
3.82064
 30
0.000000
  70
    32
  0
VERTEX
  8
AM_VIS
  5
67A
 10
14.5054
 20
3.82013
 30
0.000000
  70
    32
  0
VERTEX
  8
AM_VIS
  5
67B
 10
14.5036
 20
3.81962
 30
0.000000
  70
    32
  0
VERTEX
  8
AM_VIS
  5
67C
 10
14.5019
 20
3.81910
 30
0.000000
  70
    32
  0
VERTEX
  8
AM_VIS
  5
67D
 10
14.5001
 20
3.81856
 30
0.000000
  70
    32
  0
VERTEX
  8
AM_VIS
  5
67E
 10
14.4983
 20
3.81802
 30
0.000000
  70
    32
  0
VERTEX
  8
AM_VIS
  5
67F
 10
14.4966
 20
3.81747
 30
0.000000
  70
    32
  0
VERTEX
  8
AM_VIS
  5
680
 10
14.4948
 20
3.81691
 30
0.000000
  70
    32
  0
VERTEX
  8
AM_VIS
  5
681
 10
14.4930
 20
3.81634
 30
0.000000
  70
    32
  0
VERTEX
  8
AM_VIS
  5
682
 10
14.4913
 20
3.81576
 30
0.000000
  70
    32
  0
VERTEX
  8
AM_VIS
  5
683
 10
14.4895
 20
3.81517
 30
0.000000
  70
    32
  0
VERTEX
  8
AM_VIS
  5
684
 10
14.4877
 20
3.81457
 30
0.000000
  70
    32
  0
VERTEX
  8
AM_VIS
  5
685
 10
14.4860
 20
3.81396
 30
0.000000
  70
    32
  0
VERTEX
  8
AM_VIS
  5
686
 10
14.4842
 20
3.81334
 30
0.000000
  70
    32
  0
VERTEX
  8
AM_VIS
  5
687
 10
14.4825
 20
3.81272
 30
0.000000
  70
    32
  0
VERTEX
  8
AM_VIS
  5
688
 10
14.4807
 20
3.81208
 30
0.000000
  70
    32
  0
VERTEX
  8
AM_VIS
  5
689
 10
14.4790
 20
3.81144
 30
0.000000
  70
    32
  0
VERTEX
  8
AM_VIS
  5
68A
 10
14.4772
 20
3.81078
 30
0.000000
  70
    32
  0
VERTEX
  8
AM_VIS
  5
68B
 10
14.4755
 20
3.81012
 30
0.000000
  70
    32
  0
VERTEX
  8
AM_VIS
  5
68C
 10
14.4738
 20
3.80945
 30
0.000000
  70
    32
  0
VERTEX
  8
AM_VIS
  5
68D
 10
14.4720
 20
3.80877
 30
0.000000
  70
    32
  0
VERTEX
  8
AM_VIS
  5
68E
 10
14.4703
 20
3.80808
 30
0.000000
  70
    32
  0
VERTEX
  8
AM_VIS
  5
68F
 10
14.4686
 20
3.80738
 30
0.000000
  70
    32
  0
VERTEX
  8
AM_VIS
  5
690
 10
14.4669
 20
3.80668
 30
0.000000
  70
    32
  0
VERTEX
  8
AM_VIS
  5
691
 10
14.4652
 20
3.80597
 30
0.000000
  70
    32
  0
VERTEX
  8
AM_VIS
  5
692
 10
14.4635
 20
3.80524
 30
0.000000
  70
    32
  0
VERTEX
  8
AM_VIS
  5
693
 10
14.4618
 20
3.80451
 30
0.000000
  70
    32
  0
VERTEX
  8
AM_VIS
  5
694
 10
14.4601
 20
3.80377
 30
0.000000
  70
    32
  0
VERTEX
  8
AM_VIS
  5
695
 10
14.4584
 20
3.80303
 30
0.000000
  70
    32
  0
VERTEX
  8
AM_VIS
  5
696
 10
14.4567
 20
3.80227
 30
0.000000
  70
    32
  0
VERTEX
  8
AM_VIS
  5
697
 10
14.4550
 20
3.80151
 30
0.000000
  70
    32
  0
VERTEX
  8
AM_VIS
  5
698
 10
14.4533
 20
3.80074
 30
0.000000
  70
    32
  0
VERTEX
  8
AM_VIS
  5
699
 10
14.4516
 20
3.79996
 30
0.000000
  70
    32
  0
VERTEX
  8
AM_VIS
  5
69A
 10
14.4499
 20
3.79917
 30
0.000000
  70
    32
  0
VERTEX
  8
AM_VIS
  5
69B
 10
14.4483
 20
3.79837
 30
0.000000
  70
    32
  0
VERTEX
  8
AM_VIS
  5
69C
 10
14.4466
 20
3.79757
 30
0.000000
  70
    32
  0
VERTEX
  8
AM_VIS
  5
69D
 10
14.4449
 20
3.79676
 30
0.000000
  70
    32
  0
VERTEX
  8
AM_VIS
  5
69E
 10
14.4433
 20
3.79594
 30
0.000000
  70
    32
  0
VERTEX
  8
AM_VIS
  5
69F
 10
14.4416
 20
3.79511
 30
0.000000
  70
    32
  0
VERTEX
  8
AM_VIS
  5
6A0
 10
14.4400
 20
3.79427
 30
0.000000
  70
    32
  0
VERTEX
  8
AM_VIS
  5
6A1
 10
14.4383
 20
3.79343
 30
0.000000
  70
    32
  0
VERTEX
  8
AM_VIS
  5
6A2
 10
14.4367
 20
3.79258
 30
0.000000
  70
    32
  0
VERTEX
  8
AM_VIS
  5
6A3
 10
14.4350
 20
3.79172
 30
0.000000
  70
    32
  0
VERTEX
  8
AM_VIS
  5
6A4
 10
14.4334
 20
3.79085
 30
0.000000
  70
    32
  0
VERTEX
  8
AM_VIS
  5
6A5
 10
14.4318
 20
3.78998
 30
0.000000
  70
    32
  0
VERTEX
  8
AM_VIS
  5
6A6
 10
14.4302
 20
3.78910
 30
0.000000
  70
    32
  0
VERTEX
  8
AM_VIS
  5
6A7
 10
14.4285
 20
3.78821
 30
0.000000
  70
    32
  0
VERTEX
  8
AM_VIS
  5
6A8
 10
14.4269
 20
3.78731
 30
0.000000
  70
    32
  0
VERTEX
  8
AM_VIS
  5
6A9
 10
14.4253
 20
3.78640
 30
0.000000
  70
    32
  0
VERTEX
  8
AM_VIS
  5
6AA
 10
14.4237
 20
3.78549
 30
0.000000
  70
    32
  0
VERTEX
  8
AM_VIS
  5
6AB
 10
14.4221
 20
3.78457
 30
0.000000
  70
    32
  0
VERTEX
  8
AM_VIS
  5
6AC
 10
14.4205
 20
3.78364
 30
0.000000
  70
    32
  0
VERTEX
  8
AM_VIS
  5
6AD
 10
14.4189
 20
3.78271
 30
0.000000
  70
    32
  0
VERTEX
  8
AM_VIS
  5
6AE
 10
14.4173
 20
3.78177
 30
0.000000
  70
    32
  0
VERTEX
  8
AM_VIS
  5
6AF
 10
14.4157
 20
3.78082
 30
0.000000
  70
    32
  0
VERTEX
  8
AM_VIS
  5
6B0
 10
14.4142
 20
3.77986
 30
0.000000
  70
    32
  0
VERTEX
  8
AM_VIS
  5
6B1
 10
14.4126
 20
3.77890
 30
0.000000
  70
    32
  0
VERTEX
  8
AM_VIS
  5
6B2
 10
14.4110
 20
3.77792
 30
0.000000
  70
    32
  0
VERTEX
  8
AM_VIS
  5
6B3
 10
14.4095
 20
3.77695
 30
0.000000
  70
    32
  0
VERTEX
  8
AM_VIS
  5
6B4
 10
14.4079
 20
3.77596
 30
0.000000
  70
    32
  0
VERTEX
  8
AM_VIS
  5
6B5
 10
14.4063
 20
3.77497
 30
0.000000
  70
    32
  0
VERTEX
  8
AM_VIS
  5
6B6
 10
14.4048
 20
3.77397
 30
0.000000
  70
    32
  0
VERTEX
  8
AM_VIS
  5
6B7
 10
14.4032
 20
3.77296
 30
0.000000
  70
    32
  0
VERTEX
  8
AM_VIS
  5
6B8
 10
14.4017
 20
3.77195
 30
0.000000
  70
    32
  0
VERTEX
  8
AM_VIS
  5
6B9
 10
14.4002
 20
3.77093
 30
0.000000
  70
    32
  0
VERTEX
  8
AM_VIS
  5
6BA
 10
14.3986
 20
3.76990
 30
0.000000
  70
    32
  0
VERTEX
  8
AM_VIS
  5
6BB
 10
14.3971
 20
3.76887
 30
0.000000
  70
    32
  0
VERTEX
  8
AM_VIS
  5
6BC
 10
14.3956
 20
3.76782
 30
0.000000
  70
    32
  0
VERTEX
  8
AM_VIS
  5
6BD
 10
14.3941
 20
3.76678
 30
0.000000
  70
    32
  0
VERTEX
  8
AM_VIS
  5
6BE
 10
14.3925
 20
3.76572
 30
0.000000
  70
    32
  0
VERTEX
  8
AM_VIS
  5
6BF
 10
14.3910
 20
3.76466
 30
0.000000
  70
    32
  0
VERTEX
  8
AM_VIS
  5
6C0
 10
14.3895
 20
3.76359
 30
0.000000
  70
    32
  0
VERTEX
  8
AM_VIS
  5
6C1
 10
14.3880
 20
3.76252
 30
0.000000
  70
    32
  0
VERTEX
  8
AM_VIS
  5
6C2
 10
14.3865
 20
3.76144
 30
0.000000
  70
    32
  0
VERTEX
  8
AM_VIS
  5
6C3
 10
14.3850
 20
3.76035
 30
0.000000
  70
    32
  0
VERTEX
  8
AM_VIS
  5
6C4
 10
14.3836
 20
3.75925
 30
0.000000
  70
    32
  0
VERTEX
  8
AM_VIS
  5
6C5
 10
14.3821
 20
3.75815
 30
0.000000
  70
    32
  0
VERTEX
  8
AM_VIS
  5
6C6
 10
14.3806
 20
3.75704
 30
0.000000
  70
    32
  0
VERTEX
  8
AM_VIS
  5
6C7
 10
14.3791
 20
3.75593
 30
0.000000
  70
    32
  0
VERTEX
  8
AM_VIS
  5
6C8
 10
14.3777
 20
3.75481
 30
0.000000
  70
    32
  0
VERTEX
  8
AM_VIS
  5
6C9
 10
14.3762
 20
3.75368
 30
0.000000
  70
    32
  0
VERTEX
  8
AM_VIS
  5
6CA
 10
14.3747
 20
3.75255
 30
0.000000
  70
    32
  0
VERTEX
  8
AM_VIS
  5
6CB
 10
14.3733
 20
3.75141
 30
0.000000
  70
    32
  0
VERTEX
  8
AM_VIS
  5
6CC
 10
14.3718
 20
3.75027
 30
0.000000
  70
    32
  0
VERTEX
  8
AM_VIS
  5
6CD
 10
14.3704
 20
3.74911
 30
0.000000
  70
    32
  0
VERTEX
  8
AM_VIS
  5
6CE
 10
14.3690
 20
3.74796
 30
0.000000
  70
    32
  0
VERTEX
  8
AM_VIS
  5
6CF
 10
14.3675
 20
3.74679
 30
0.000000
  70
    32
  0
VERTEX
  8
AM_VIS
  5
6D0
 10
14.3661
 20
3.74562
 30
0.000000
  70
    32
  0
VERTEX
  8
AM_VIS
  5
6D1
 10
14.3647
 20
3.74445
 30
0.000000
  70
    32
  0
VERTEX
  8
AM_VIS
  5
6D2
 10
14.3633
 20
3.74326
 30
0.000000
  70
    32
  0
VERTEX
  8
AM_VIS
  5
6D3
 10
14.3619
 20
3.74208
 30
0.000000
  70
    32
  0
VERTEX
  8
AM_VIS
  5
6D4
 10
14.3605
 20
3.74088
 30
0.000000
  70
    32
  0
VERTEX
  8
AM_VIS
  5
6D5
 10
14.3591
 20
3.73968
 30
0.000000
  70
    32
  0
VERTEX
  8
AM_VIS
  5
6D6
 10
14.3577
 20
3.73848
 30
0.000000
  70
    32
  0
VERTEX
  8
AM_VIS
  5
6D7
 10
14.3563
 20
3.73727
 30
0.000000
  70
    32
  0
VERTEX
  8
AM_VIS
  5
6D8
 10
14.3549
 20
3.73605
 30
0.000000
  70
    32
  0
VERTEX
  8
AM_VIS
  5
6D9
 10
14.3535
 20
3.73483
 30
0.000000
  70
    32
  0
VERTEX
  8
AM_VIS
  5
6DA
 10
14.3521
 20
3.73360
 30
0.000000
  70
    32
  0
VERTEX
  8
AM_VIS
  5
6DB
 10
14.3507
 20
3.73236
 30
0.000000
  70
    32
  0
VERTEX
  8
AM_VIS
  5
6DC
 10
14.3494
 20
3.73112
 30
0.000000
  70
    32
  0
VERTEX
  8
AM_VIS
  5
6DD
 10
14.3480
 20
3.72988
 30
0.000000
  70
    32
  0
VERTEX
  8
AM_VIS
  5
6DE
 10
14.3467
 20
3.72862
 30
0.000000
  70
    32
  0
VERTEX
  8
AM_VIS
  5
6DF
 10
14.3453
 20
3.72737
 30
0.000000
  70
    32
  0
VERTEX
  8
AM_VIS
  5
6E0
 10
14.3440
 20
3.72611
 30
0.000000
  70
    32
  0
VERTEX
  8
AM_VIS
  5
6E1
 10
14.3426
 20
3.72484
 30
0.000000
  70
    32
  0
VERTEX
  8
AM_VIS
  5
6E2
 10
14.3413
 20
3.72356
 30
0.000000
  70
    32
  0
VERTEX
  8
AM_VIS
  5
6E3
 10
14.3400
 20
3.72228
 30
0.000000
  70
    32
  0
VERTEX
  8
AM_VIS
  5
6E4
 10
14.3386
 20
3.72100
 30
0.000000
  70
    32
  0
VERTEX
  8
AM_VIS
  5
6E5
 10
14.3373
 20
3.71971
 30
0.000000
  70
    32
  0
VERTEX
  8
AM_VIS
  5
6E6
 10
14.3360
 20
3.71842
 30
0.000000
  70
    32
  0
VERTEX
  8
AM_VIS
  5
6E7
 10
14.3347
 20
3.71711
 30
0.000000
  70
    32
  0
VERTEX
  8
AM_VIS
  5
6E8
 10
14.3334
 20
3.71581
 30
0.000000
  70
    32
  0
VERTEX
  8
AM_VIS
  5
6E9
 10
14.3321
 20
3.71450
 30
0.000000
  70
    32
  0
VERTEX
  8
AM_VIS
  5
6EA
 10
14.3308
 20
3.71318
 30
0.000000
  70
    32
  0
VERTEX
  8
AM_VIS
  5
6EB
 10
14.3295
 20
3.71186
 30
0.000000
  70
    32
  0
VERTEX
  8
AM_VIS
  5
6EC
 10
14.3282
 20
3.71053
 30
0.000000
  70
    32
  0
VERTEX
  8
AM_VIS
  5
6ED
 10
14.3270
 20
3.70920
 30
0.000000
  70
    32
  0
VERTEX
  8
AM_VIS
  5
6EE
 10
14.3257
 20
3.70786
 30
0.000000
  70
    32
  0
VERTEX
  8
AM_VIS
  5
6EF
 10
14.3244
 20
3.70652
 30
0.000000
  70
    32
  0
VERTEX
  8
AM_VIS
  5
6F0
 10
14.3232
 20
3.70517
 30
0.000000
  70
    32
  0
VERTEX
  8
AM_VIS
  5
6F1
 10
14.3219
 20
3.70382
 30
0.000000
  70
    32
  0
VERTEX
  8
AM_VIS
  5
6F2
 10
14.3207
 20
3.70246
 30
0.000000
  70
    32
  0
VERTEX
  8
AM_VIS
  5
6F3
 10
14.3194
 20
3.70110
 30
0.000000
  70
    32
  0
VERTEX
  8
AM_VIS
  5
6F4
 10
14.3182
 20
3.69973
 30
0.000000
  70
    32
  0
VERTEX
  8
AM_VIS
  5
6F5
 10
14.3169
 20
3.69836
 30
0.000000
  70
    32
  0
VERTEX
  8
AM_VIS
  5
6F6
 10
14.3157
 20
3.69698
 30
0.000000
  70
    32
  0
VERTEX
  8
AM_VIS
  5
6F7
 10
14.3145
 20
3.69560
 30
0.000000
  70
    32
  0
VERTEX
  8
AM_VIS
  5
6F8
 10
14.3133
 20
3.69421
 30
0.000000
  70
    32
  0
VERTEX
  8
AM_VIS
  5
6F9
 10
14.3120
 20
3.69282
 30
0.000000
  70
    32
  0
VERTEX
  8
AM_VIS
  5
6FA
 10
14.3108
 20
3.69143
 30
0.000000
  70
    32
  0
VERTEX
  8
AM_VIS
  5
6FB
 10
14.3096
 20
3.69003
 30
0.000000
  70
    32
  0
VERTEX
  8
AM_VIS
  5
6FC
 10
14.3084
 20
3.68862
 30
0.000000
  70
    32
  0
VERTEX
  8
AM_VIS
  5
6FD
 10
14.3072
 20
3.68721
 30
0.000000
  70
    32
  0
VERTEX
  8
AM_VIS
  5
6FE
 10
14.3061
 20
3.68579
 30
0.000000
  70
    32
  0
VERTEX
  8
AM_VIS
  5
6FF
 10
14.3049
 20
3.68437
 30
0.000000
  70
    32
  0
VERTEX
  8
AM_VIS
  5
700
 10
14.3037
 20
3.68295
 30
0.000000
  70
    32
  0
VERTEX
  8
AM_VIS
  5
701
 10
14.3025
 20
3.68152
 30
0.000000
  70
    32
  0
VERTEX
  8
AM_VIS
  5
702
 10
14.3014
 20
3.68009
 30
0.000000
  70
    32
  0
VERTEX
  8
AM_VIS
  5
703
 10
14.3002
 20
3.67865
 30
0.000000
  70
    32
  0
VERTEX
  8
AM_VIS
  5
704
 10
14.2990
 20
3.67720
 30
0.000000
  70
    32
  0
VERTEX
  8
AM_VIS
  5
705
 10
14.2979
 20
3.67576
 30
0.000000
  70
    32
  0
VERTEX
  8
AM_VIS
  5
706
 10
14.2968
 20
3.67431
 30
0.000000
  70
    32
  0
VERTEX
  8
AM_VIS
  5
707
 10
14.2956
 20
3.67285
 30
0.000000
  70
    32
  0
VERTEX
  8
AM_VIS
  5
708
 10
14.2945
 20
3.67139
 30
0.000000
  70
    32
  0
VERTEX
  8
AM_VIS
  5
709
 10
14.2934
 20
3.66992
 30
0.000000
  70
    32
  0
VERTEX
  8
AM_VIS
  5
70A
 10
14.2922
 20
3.66846
 30
0.000000
  70
    32
  0
VERTEX
  8
AM_VIS
  5
70B
 10
14.2911
 20
3.66698
 30
0.000000
  70
    32
  0
VERTEX
  8
AM_VIS
  5
70C
 10
14.2900
 20
3.66550
 30
0.000000
  70
    32
  0
VERTEX
  8
AM_VIS
  5
70D
 10
14.2889
 20
3.66402
 30
0.000000
  70
    32
  0
VERTEX
  8
AM_VIS
  5
70E
 10
14.2878
 20
3.66254
 30
0.000000
  70
    32
  0
VERTEX
  8
AM_VIS
  5
70F
 10
14.2867
 20
3.66105
 30
0.000000
  70
    32
  0
VERTEX
  8
AM_VIS
  5
710
 10
14.2856
 20
3.65955
 30
0.000000
  70
    32
  0
VERTEX
  8
AM_VIS
  5
711
 10
14.2845
 20
3.65805
 30
0.000000
  70
    32
  0
VERTEX
  8
AM_VIS
  5
712
 10
14.2835
 20
3.65655
 30
0.000000
  70
    32
  0
VERTEX
  8
AM_VIS
  5
713
 10
14.2824
 20
3.65505
 30
0.000000
  70
    32
  0
VERTEX
  8
AM_VIS
  5
714
 10
14.2813
 20
3.65353
 30
0.000000
  70
    32
  0
VERTEX
  8
AM_VIS
  5
715
 10
14.2803
 20
3.65202
 30
0.000000
  70
    32
  0
VERTEX
  8
AM_VIS
  5
716
 10
14.2792
 20
3.65050
 30
0.000000
  70
    32
  0
VERTEX
  8
AM_VIS
  5
717
 10
14.2781
 20
3.64898
 30
0.000000
  70
    32
  0
VERTEX
  8
AM_VIS
  5
718
 10
14.2771
 20
3.64745
 30
0.000000
  70
    32
  0
VERTEX
  8
AM_VIS
  5
719
 10
14.2761
 20
3.64592
 30
0.000000
  70
    32
  0
VERTEX
  8
AM_VIS
  5
71A
 10
14.2750
 20
3.64439
 30
0.000000
  70
    32
  0
VERTEX
  8
AM_VIS
  5
71B
 10
14.2740
 20
3.64285
 30
0.000000
  70
    32
  0
VERTEX
  8
AM_VIS
  5
71C
 10
14.2730
 20
3.64131
 30
0.000000
  70
    32
  0
VERTEX
  8
AM_VIS
  5
71D
 10
14.2720
 20
3.63976
 30
0.000000
  70
    32
  0
VERTEX
  8
AM_VIS
  5
71E
 10
14.2710
 20
3.63822
 30
0.000000
  70
    32
  0
VERTEX
  8
AM_VIS
  5
71F
 10
14.2699
 20
3.63666
 30
0.000000
  70
    32
  0
VERTEX
  8
AM_VIS
  5
720
 10
14.2689
 20
3.63511
 30
0.000000
  70
    32
  0
VERTEX
  8
AM_VIS
  5
721
 10
14.2680
 20
3.63355
 30
0.000000
  70
    32
  0
VERTEX
  8
AM_VIS
  5
722
 10
14.2670
 20
3.63198
 30
0.000000
  70
    32
  0
VERTEX
  8
AM_VIS
  5
723
 10
14.2660
 20
3.63042
 30
0.000000
  70
    32
  0
VERTEX
  8
AM_VIS
  5
724
 10
14.2650
 20
3.62885
 30
0.000000
  70
    32
  0
VERTEX
  8
AM_VIS
  5
725
 10
14.2640
 20
3.62727
 30
0.000000
  70
    32
  0
VERTEX
  8
AM_VIS
  5
726
 10
14.2631
 20
3.62569
 30
0.000000
  70
    32
  0
VERTEX
  8
AM_VIS
  5
727
 10
14.2621
 20
3.62411
 30
0.000000
  70
    32
  0
VERTEX
  8
AM_VIS
  5
728
 10
14.2612
 20
3.62253
 30
0.000000
  70
    32
  0
VERTEX
  8
AM_VIS
  5
729
 10
14.2602
 20
3.62094
 30
0.000000
  70
    32
  0
VERTEX
  8
AM_VIS
  5
72A
 10
14.2593
 20
3.61935
 30
0.000000
  70
    32
  0
VERTEX
  8
AM_VIS
  5
72B
 10
14.2583
 20
3.61775
 30
0.000000
  70
    32
  0
VERTEX
  8
AM_VIS
  5
72C
 10
14.2574
 20
3.61615
 30
0.000000
  70
    32
  0
VERTEX
  8
AM_VIS
  5
72D
 10
14.2565
 20
3.61455
 30
0.000000
  70
    32
  0
VERTEX
  8
AM_VIS
  5
72E
 10
14.2555
 20
3.61295
 30
0.000000
  70
    32
  0
VERTEX
  8
AM_VIS
  5
72F
 10
14.2546
 20
3.61134
 30
0.000000
  70
    32
  0
VERTEX
  8
AM_VIS
  5
730
 10
14.2537
 20
3.60972
 30
0.000000
  70
    32
  0
VERTEX
  8
AM_VIS
  5
731
 10
14.2528
 20
3.60811
 30
0.000000
  70
    32
  0
VERTEX
  8
AM_VIS
  5
732
 10
14.2519
 20
3.60649
 30
0.000000
  70
    32
  0
VERTEX
  8
AM_VIS
  5
733
 10
14.2510
 20
3.60486
 30
0.000000
  70
    32
  0
VERTEX
  8
AM_VIS
  5
734
 10
14.2501
 20
3.60324
 30
0.000000
  70
    32
  0
VERTEX
  8
AM_VIS
  5
735
 10
14.2493
 20
3.60161
 30
0.000000
  70
    32
  0
VERTEX
  8
AM_VIS
  5
736
 10
14.2484
 20
3.59997
 30
0.000000
  70
    32
  0
VERTEX
  8
AM_VIS
  5
737
 10
14.2475
 20
3.59834
 30
0.000000
  70
    32
  0
VERTEX
  8
AM_VIS
  5
738
 10
14.2466
 20
3.59670
 30
0.000000
  70
    32
  0
VERTEX
  8
AM_VIS
  5
739
 10
14.2458
 20
3.59505
 30
0.000000
  70
    32
  0
VERTEX
  8
AM_VIS
  5
73A
 10
14.2449
 20
3.59341
 30
0.000000
  70
    32
  0
VERTEX
  8
AM_VIS
  5
73B
 10
14.2441
 20
3.59176
 30
0.000000
  70
    32
  0
VERTEX
  8
AM_VIS
  5
73C
 10
14.2432
 20
3.59010
 30
0.000000
  70
    32
  0
VERTEX
  8
AM_VIS
  5
73D
 10
14.2424
 20
3.58845
 30
0.000000
  70
    32
  0
VERTEX
  8
AM_VIS
  5
73E
 10
14.2416
 20
3.58679
 30
0.000000
  70
    32
  0
VERTEX
  8
AM_VIS
  5
73F
 10
14.2407
 20
3.58513
 30
0.000000
  70
    32
  0
VERTEX
  8
AM_VIS
  5
740
 10
14.2399
 20
3.58346
 30
0.000000
  70
    32
  0
VERTEX
  8
AM_VIS
  5
741
 10
14.2391
 20
3.58179
 30
0.000000
  70
    32
  0
VERTEX
  8
AM_VIS
  5
742
 10
14.2383
 20
3.58012
 30
0.000000
  70
    32
  0
VERTEX
  8
AM_VIS
  5
743
 10
14.2375
 20
3.57844
 30
0.000000
  70
    32
  0
VERTEX
  8
AM_VIS
  5
744
 10
14.2367
 20
3.57677
 30
0.000000
  70
    32
  0
VERTEX
  8
AM_VIS
  5
745
 10
14.2359
 20
3.57509
 30
0.000000
  70
    32
  0
VERTEX
  8
AM_VIS
  5
746
 10
14.2351
 20
3.57340
 30
0.000000
  70
    32
  0
VERTEX
  8
AM_VIS
  5
747
 10
14.2343
 20
3.57171
 30
0.000000
  70
    32
  0
VERTEX
  8
AM_VIS
  5
748
 10
14.2336
 20
3.57002
 30
0.000000
  70
    32
  0
VERTEX
  8
AM_VIS
  5
749
 10
14.2328
 20
3.56833
 30
0.000000
  70
    32
  0
VERTEX
  8
AM_VIS
  5
74A
 10
14.2320
 20
3.56663
 30
0.000000
  70
    32
  0
VERTEX
  8
AM_VIS
  5
74B
 10
14.2313
 20
3.56494
 30
0.000000
  70
    32
  0
VERTEX
  8
AM_VIS
  5
74C
 10
14.2305
 20
3.56323
 30
0.000000
  70
    32
  0
VERTEX
  8
AM_VIS
  5
74D
 10
14.2298
 20
3.56153
 30
0.000000
  70
    32
  0
VERTEX
  8
AM_VIS
  5
74E
 10
14.2291
 20
3.55982
 30
0.000000
  70
    32
  0
VERTEX
  8
AM_VIS
  5
74F
 10
14.2283
 20
3.55811
 30
0.000000
  70
    32
  0
VERTEX
  8
AM_VIS
  5
750
 10
14.2276
 20
3.55640
 30
0.000000
  70
    32
  0
VERTEX
  8
AM_VIS
  5
751
 10
14.2269
 20
3.55468
 30
0.000000
  70
    32
  0
VERTEX
  8
AM_VIS
  5
752
 10
14.2262
 20
3.55296
 30
0.000000
  70
    32
  0
VERTEX
  8
AM_VIS
  5
753
 10
14.2254
 20
3.55124
 30
0.000000
  70
    32
  0
VERTEX
  8
AM_VIS
  5
754
 10
14.2247
 20
3.54952
 30
0.000000
  70
    32
  0
VERTEX
  8
AM_VIS
  5
755
 10
14.2240
 20
3.54779
 30
0.000000
  70
    32
  0
VERTEX
  8
AM_VIS
  5
756
 10
14.2233
 20
3.54606
 30
0.000000
  70
    32
  0
VERTEX
  8
AM_VIS
  5
757
 10
14.2227
 20
3.54433
 30
0.000000
  70
    32
  0
VERTEX
  8
AM_VIS
  5
758
 10
14.2220
 20
3.54259
 30
0.000000
  70
    32
  0
VERTEX
  8
AM_VIS
  5
759
 10
14.2213
 20
3.54086
 30
0.000000
  70
    32
  0
VERTEX
  8
AM_VIS
  5
75A
 10
14.2206
 20
3.53912
 30
0.000000
  70
    32
  0
VERTEX
  8
AM_VIS
  5
75B
 10
14.2200
 20
3.53737
 30
0.000000
  70
    32
  0
VERTEX
  8
AM_VIS
  5
75C
 10
14.2193
 20
3.53563
 30
0.000000
  70
    32
  0
VERTEX
  8
AM_VIS
  5
75D
 10
14.2187
 20
3.53388
 30
0.000000
  70
    32
  0
VERTEX
  8
AM_VIS
  5
75E
 10
14.2180
 20
3.53213
 30
0.000000
  70
    32
  0
VERTEX
  8
AM_VIS
  5
75F
 10
14.2174
 20
3.53038
 30
0.000000
  70
    32
  0
VERTEX
  8
AM_VIS
  5
760
 10
14.2167
 20
3.52862
 30
0.000000
  70
    32
  0
VERTEX
  8
AM_VIS
  5
761
 10
14.2161
 20
3.52687
 30
0.000000
  70
    32
  0
VERTEX
  8
AM_VIS
  5
762
 10
14.2155
 20
3.52510
 30
0.000000
  70
    32
  0
VERTEX
  8
AM_VIS
  5
763
 10
14.2149
 20
3.52334
 30
0.000000
  70
    32
  0
VERTEX
  8
AM_VIS
  5
764
 10
14.2143
 20
3.52158
 30
0.000000
  70
    32
  0
VERTEX
  8
AM_VIS
  5
765
 10
14.2137
 20
3.51981
 30
0.000000
  70
    32
  0
VERTEX
  8
AM_VIS
  5
766
 10
14.2131
 20
3.51804
 30
0.000000
  70
    32
  0
VERTEX
  8
AM_VIS
  5
767
 10
14.2125
 20
3.51627
 30
0.000000
  70
    32
  0
VERTEX
  8
AM_VIS
  5
768
 10
14.2119
 20
3.51449
 30
0.000000
  70
    32
  0
VERTEX
  8
AM_VIS
  5
769
 10
14.2113
 20
3.51272
 30
0.000000
  70
    32
  0
VERTEX
  8
AM_VIS
  5
76A
 10
14.2107
 20
3.51094
 30
0.000000
  70
    32
  0
VERTEX
  8
AM_VIS
  5
76B
 10
14.2102
 20
3.50916
 30
0.000000
  70
    32
  0
VERTEX
  8
AM_VIS
  5
76C
 10
14.2096
 20
3.50738
 30
0.000000
  70
    32
  0
VERTEX
  8
AM_VIS
  5
76D
 10
14.2090
 20
3.50559
 30
0.000000
  70
    32
  0
VERTEX
  8
AM_VIS
  5
76E
 10
14.2085
 20
3.50380
 30
0.000000
  70
    32
  0
VERTEX
  8
AM_VIS
  5
76F
 10
14.2079
 20
3.50201
 30
0.000000
  70
    32
  0
VERTEX
  8
AM_VIS
  5
770
 10
14.2074
 20
3.50022
 30
0.000000
  70
    32
  0
VERTEX
  8
AM_VIS
  5
771
 10
14.2069
 20
3.49843
 30
0.000000
  70
    32
  0
VERTEX
  8
AM_VIS
  5
772
 10
14.2063
 20
3.49663
 30
0.000000
  70
    32
  0
VERTEX
  8
AM_VIS
  5
773
 10
14.2058
 20
3.49483
 30
0.000000
  70
    32
  0
VERTEX
  8
AM_VIS
  5
774
 10
14.2053
 20
3.49303
 30
0.000000
  70
    32
  0
VERTEX
  8
AM_VIS
  5
775
 10
14.2048
 20
3.49123
 30
0.000000
  70
    32
  0
VERTEX
  8
AM_VIS
  5
776
 10
14.2043
 20
3.48943
 30
0.000000
  70
    32
  0
VERTEX
  8
AM_VIS
  5
777
 10
14.2038
 20
3.48762
 30
0.000000
  70
    32
  0
VERTEX
  8
AM_VIS
  5
778
 10
14.2033
 20
3.48581
 30
0.000000
  70
    32
  0
VERTEX
  8
AM_VIS
  5
779
 10
14.2028
 20
3.48400
 30
0.000000
  70
    32
  0
VERTEX
  8
AM_VIS
  5
77A
 10
14.2023
 20
3.48219
 30
0.000000
  70
    32
  0
VERTEX
  8
AM_VIS
  5
77B
 10
14.2019
 20
3.48038
 30
0.000000
  70
    32
  0
VERTEX
  8
AM_VIS
  5
77C
 10
14.2014
 20
3.47856
 30
0.000000
  70
    32
  0
VERTEX
  8
AM_VIS
  5
77D
 10
14.2009
 20
3.47674
 30
0.000000
  70
    32
  0
VERTEX
  8
AM_VIS
  5
77E
 10
14.2005
 20
3.47492
 30
0.000000
  70
    32
  0
VERTEX
  8
AM_VIS
  5
77F
 10
14.2000
 20
3.47310
 30
0.000000
  70
    32
  0
VERTEX
  8
AM_VIS
  5
780
 10
14.1996
 20
3.47128
 30
0.000000
  70
    32
  0
VERTEX
  8
AM_VIS
  5
781
 10
14.1992
 20
3.46945
 30
0.000000
  70
    32
  0
VERTEX
  8
AM_VIS
  5
782
 10
14.1987
 20
3.46763
 30
0.000000
  70
    32
  0
VERTEX
  8
AM_VIS
  5
783
 10
14.1983
 20
3.46580
 30
0.000000
  70
    32
  0
VERTEX
  8
AM_VIS
  5
784
 10
14.1979
 20
3.46397
 30
0.000000
  70
    32
  0
VERTEX
  8
AM_VIS
  5
785
 10
14.1975
 20
3.46214
 30
0.000000
  70
    32
  0
VERTEX
  8
AM_VIS
  5
786
 10
14.1971
 20
3.46030
 30
0.000000
  70
    32
  0
VERTEX
  8
AM_VIS
  5
787
 10
14.1967
 20
3.45847
 30
0.000000
  70
    32
  0
VERTEX
  8
AM_VIS
  5
788
 10
14.1963
 20
3.45663
 30
0.000000
  70
    32
  0
VERTEX
  8
AM_VIS
  5
789
 10
14.1959
 20
3.45479
 30
0.000000
  70
    32
  0
VERTEX
  8
AM_VIS
  5
78A
 10
14.1955
 20
3.45295
 30
0.000000
  70
    32
  0
VERTEX
  8
AM_VIS
  5
78B
 10
14.1951
 20
3.45111
 30
0.000000
  70
    32
  0
VERTEX
  8
AM_VIS
  5
78C
 10
14.1948
 20
3.44927
 30
0.000000
  70
    32
  0
VERTEX
  8
AM_VIS
  5
78D
 10
14.1944
 20
3.44742
 30
0.000000
  70
    32
  0
VERTEX
  8
AM_VIS
  5
78E
 10
14.1941
 20
3.44558
 30
0.000000
  70
    32
  0
VERTEX
  8
AM_VIS
  5
78F
 10
14.1937
 20
3.44373
 30
0.000000
  70
    32
  0
VERTEX
  8
AM_VIS
  5
790
 10
14.1934
 20
3.44188
 30
0.000000
  70
    32
  0
VERTEX
  8
AM_VIS
  5
791
 10
14.1930
 20
3.44003
 30
0.000000
  70
    32
  0
VERTEX
  8
AM_VIS
  5
792
 10
14.1927
 20
3.43818
 30
0.000000
  70
    32
  0
VERTEX
  8
AM_VIS
  5
793
 10
14.1924
 20
3.43632
 30
0.000000
  70
    32
  0
VERTEX
  8
AM_VIS
  5
794
 10
14.1921
 20
3.43447
 30
0.000000
  70
    32
  0
VERTEX
  8
AM_VIS
  5
795
 10
14.1917
 20
3.43261
 30
0.000000
  70
    32
  0
VERTEX
  8
AM_VIS
  5
796
 10
14.1914
 20
3.43076
 30
0.000000
  70
    32
  0
VERTEX
  8
AM_VIS
  5
797
 10
14.1911
 20
3.42890
 30
0.000000
  70
    32
  0
VERTEX
  8
AM_VIS
  5
798
 10
14.1908
 20
3.42704
 30
0.000000
  70
    32
  0
VERTEX
  8
AM_VIS
  5
799
 10
14.1906
 20
3.42518
 30
0.000000
  70
    32
  0
VERTEX
  8
AM_VIS
  5
79A
 10
14.1903
 20
3.42332
 30
0.000000
  70
    32
  0
VERTEX
  8
AM_VIS
  5
79B
 10
14.1900
 20
3.42146
 30
0.000000
  70
    32
  0
VERTEX
  8
AM_VIS
  5
79C
 10
14.1897
 20
3.41960
 30
0.000000
  70
    32
  0
VERTEX
  8
AM_VIS
  5
79D
 10
14.1895
 20
3.41774
 30
0.000000
  70
    32
  0
VERTEX
  8
AM_VIS
  5
79E
 10
14.1892
 20
3.41587
 30
0.000000
  70
    32
  0
VERTEX
  8
AM_VIS
  5
79F
 10
14.1890
 20
3.41401
 30
0.000000
  70
    32
  0
VERTEX
  8
AM_VIS
  5
7A0
 10
14.1887
 20
3.41214
 30
0.000000
  70
    32
  0
VERTEX
  8
AM_VIS
  5
7A1
 10
14.1885
 20
3.41028
 30
0.000000
  70
    32
  0
VERTEX
  8
AM_VIS
  5
7A2
 10
14.1883
 20
3.40841
 30
0.000000
  70
    32
  0
VERTEX
  8
AM_VIS
  5
7A3
 10
14.1880
 20
3.40654
 30
0.000000
  70
    32
  0
VERTEX
  8
AM_VIS
  5
7A4
 10
14.1878
 20
3.40468
 30
0.000000
  70
    32
  0
VERTEX
  8
AM_VIS
  5
7A5
 10
14.1876
 20
3.40281
 30
0.000000
  70
    32
  0
VERTEX
  8
AM_VIS
  5
7A6
 10
14.1874
 20
3.40094
 30
0.000000
  70
    32
  0
VERTEX
  8
AM_VIS
  5
7A7
 10
14.1872
 20
3.39906
 30
0.000000
  70
    32
  0
VERTEX
  8
AM_VIS
  5
7A8
 10
14.1870
 20
3.39719
 30
0.000000
  70
    32
  0
VERTEX
  8
AM_VIS
  5
7A9
 10
14.1868
 20
3.39532
 30
0.000000
  70
    32
  0
VERTEX
  8
AM_VIS
  5
7AA
 10
14.1866
 20
3.39345
 30
0.000000
  70
    32
  0
VERTEX
  8
AM_VIS
  5
7AB
 10
14.1865
 20
3.39157
 30
0.000000
  70
    32
  0
VERTEX
  8
AM_VIS
  5
7AC
 10
14.1863
 20
3.38970
 30
0.000000
  70
    32
  0
VERTEX
  8
AM_VIS
  5
7AD
 10
14.1861
 20
3.38783
 30
0.000000
  70
    32
  0
VERTEX
  8
AM_VIS
  5
7AE
 10
14.1860
 20
3.38595
 30
0.000000
  70
    32
  0
VERTEX
  8
AM_VIS
  5
7AF
 10
14.1858
 20
3.38407
 30
0.000000
  70
    32
  0
VERTEX
  8
AM_VIS
  5
7B0
 10
14.1857
 20
3.38220
 30
0.000000
  70
    32
  0
VERTEX
  8
AM_VIS
  5
7B1
 10
14.1855
 20
3.38032
 30
0.000000
  70
    32
  0
VERTEX
  8
AM_VIS
  5
7B2
 10
14.1854
 20
3.37844
 30
0.000000
  70
    32
  0
VERTEX
  8
AM_VIS
  5
7B3
 10
14.1853
 20
3.37656
 30
0.000000
  70
    32
  0
VERTEX
  8
AM_VIS
  5
7B4
 10
14.1852
 20
3.37468
 30
0.000000
  70
    32
  0
VERTEX
  8
AM_VIS
  5
7B5
 10
14.1851
 20
3.37280
 30
0.000000
  70
    32
  0
VERTEX
  8
AM_VIS
  5
7B6
 10
14.1850
 20
3.37092
 30
0.000000
  70
    32
  0
VERTEX
  8
AM_VIS
  5
7B7
 10
14.1849
 20
3.36904
 30
0.000000
  70
    32
  0
VERTEX
  8
AM_VIS
  5
7B8
 10
14.1848
 20
3.36716
 30
0.000000
  70
    32
  0
VERTEX
  8
AM_VIS
  5
7B9
 10
14.1847
 20
3.36528
 30
0.000000
  70
    32
  0
VERTEX
  8
AM_VIS
  5
7BA
 10
14.1846
 20
3.36340
 30
0.000000
  70
    32
  0
VERTEX
  8
AM_VIS
  5
7BB
 10
14.1845
 20
3.36152
 30
0.000000
  70
    32
  0
VERTEX
  8
AM_VIS
  5
7BC
 10
14.1845
 20
3.35963
 30
0.000000
  70
    32
  0
VERTEX
  8
AM_VIS
  5
7BD
 10
14.1844
 20
3.35775
 30
0.000000
  70
    32
  0
VERTEX
  8
AM_VIS
  5
7BE
 10
14.1844
 20
3.35587
 30
0.000000
  70
    32
  0
VERTEX
  8
AM_VIS
  5
7BF
 10
14.1843
 20
3.35398
 30
0.000000
  70
    32
  0
VERTEX
  8
AM_VIS
  5
7C0
 10
14.1843
 20
3.35210
 30
0.000000
  70
    32
  0
VERTEX
  8
AM_VIS
  5
7C1
 10
14.1842
 20
3.35021
 30
0.000000
  70
    32
  0
VERTEX
  8
AM_VIS
  5
7C2
 10
14.1842
 20
3.34833
 30
0.000000
  70
    32
  0
VERTEX
  8
AM_VIS
  5
7C3
 10
14.1842
 20
3.34644
 30
0.000000
  70
    32
  0
VERTEX
  8
AM_VIS
  5
7C4
 10
14.1842
 20
3.34456
 30
0.000000
  70
    32
  0
VERTEX
  8
AM_VIS
  5
7C5
 10
14.1842
 20
3.34267
 30
0.000000
  70
    32
  0
VERTEX
  8
AM_VIS
  5
7C6
 10
14.1842
 20
3.34078
 30
0.000000
  70
    32
  0
SEQEND
  8
AM_VIS
  5
7C7
  0
POLYLINE
  8
AM_VIS
  5
7C8
  66
     1
 10
0.000000
 20
0.000000
 30
0.000000
  70
     8
  0
VERTEX
  8
AM_VIS
  5
7C9
 10
15.0134
 20
1.78102
 30
0.000000
  70
    32
  0
VERTEX
  8
AM_VIS
  5
7CA
 10
15.0134
 20
1.78297
 30
0.000000
  70
    32
  0
VERTEX
  8
AM_VIS
  5
7CB
 10
15.0134
 20
1.78492
 30
0.000000
  70
    32
  0
VERTEX
  8
AM_VIS
  5
7CC
 10
15.0134
 20
1.78687
 30
0.000000
  70
    32
  0
VERTEX
  8
AM_VIS
  5
7CD
 10
15.0133
 20
1.78882
 30
0.000000
  70
    32
  0
VERTEX
  8
AM_VIS
  5
7CE
 10
15.0133
 20
1.79077
 30
0.000000
  70
    32
  0
VERTEX
  8
AM_VIS
  5
7CF
 10
15.0133
 20
1.79271
 30
0.000000
  70
    32
  0
VERTEX
  8
AM_VIS
  5
7D0
 10
15.0132
 20
1.79466
 30
0.000000
  70
    32
  0
VERTEX
  8
AM_VIS
  5
7D1
 10
15.0132
 20
1.79661
 30
0.000000
  70
    32
  0
VERTEX
  8
AM_VIS
  5
7D2
 10
15.0131
 20
1.79855
 30
0.000000
  70
    32
  0
VERTEX
  8
AM_VIS
  5
7D3
 10
15.0131
 20
1.80050
 30
0.000000
  70
    32
  0
VERTEX
  8
AM_VIS
  5
7D4
 10
15.0130
 20
1.80244
 30
0.000000
  70
    32
  0
VERTEX
  8
AM_VIS
  5
7D5
 10
15.0129
 20
1.80438
 30
0.000000
  70
    32
  0
VERTEX
  8
AM_VIS
  5
7D6
 10
15.0128
 20
1.80633
 30
0.000000
  70
    32
  0
VERTEX
  8
AM_VIS
  5
7D7
 10
15.0127
 20
1.80827
 30
0.000000
  70
    32
  0
VERTEX
  8
AM_VIS
  5
7D8
 10
15.0126
 20
1.81021
 30
0.000000
  70
    32
  0
VERTEX
  8
AM_VIS
  5
7D9
 10
15.0125
 20
1.81215
 30
0.000000
  70
    32
  0
VERTEX
  8
AM_VIS
  5
7DA
 10
15.0124
 20
1.81409
 30
0.000000
  70
    32
  0
VERTEX
  8
AM_VIS
  5
7DB
 10
15.0123
 20
1.81603
 30
0.000000
  70
    32
  0
VERTEX
  8
AM_VIS
  5
7DC
 10
15.0122
 20
1.81797
 30
0.000000
  70
    32
  0
VERTEX
  8
AM_VIS
  5
7DD
 10
15.0120
 20
1.81991
 30
0.000000
  70
    32
  0
VERTEX
  8
AM_VIS
  5
7DE
 10
15.0119
 20
1.82184
 30
0.000000
  70
    32
  0
VERTEX
  8
AM_VIS
  5
7DF
 10
15.0118
 20
1.82378
 30
0.000000
  70
    32
  0
VERTEX
  8
AM_VIS
  5
7E0
 10
15.0116
 20
1.82572
 30
0.000000
  70
    32
  0
VERTEX
  8
AM_VIS
  5
7E1
 10
15.0114
 20
1.82765
 30
0.000000
  70
    32
  0
VERTEX
  8
AM_VIS
  5
7E2
 10
15.0113
 20
1.82958
 30
0.000000
  70
    32
  0
VERTEX
  8
AM_VIS
  5
7E3
 10
15.0111
 20
1.83151
 30
0.000000
  70
    32
  0
VERTEX
  8
AM_VIS
  5
7E4
 10
15.0109
 20
1.83345
 30
0.000000
  70
    32
  0
VERTEX
  8
AM_VIS
  5
7E5
 10
15.0107
 20
1.83538
 30
0.000000
  70
    32
  0
VERTEX
  8
AM_VIS
  5
7E6
 10
15.0106
 20
1.83731
 30
0.000000
  70
    32
  0
VERTEX
  8
AM_VIS
  5
7E7
 10
15.0104
 20
1.83923
 30
0.000000
  70
    32
  0
VERTEX
  8
AM_VIS
  5
7E8
 10
15.0102
 20
1.84116
 30
0.000000
  70
    32
  0
VERTEX
  8
AM_VIS
  5
7E9
 10
15.0099
 20
1.84309
 30
0.000000
  70
    32
  0
VERTEX
  8
AM_VIS
  5
7EA
 10
15.0097
 20
1.84501
 30
0.000000
  70
    32
  0
VERTEX
  8
AM_VIS
  5
7EB
 10
15.0095
 20
1.84694
 30
0.000000
  70
    32
  0
VERTEX
  8
AM_VIS
  5
7EC
 10
15.0093
 20
1.84886
 30
0.000000
  70
    32
  0
VERTEX
  8
AM_VIS
  5
7ED
 10
15.0090
 20
1.85078
 30
0.000000
  70
    32
  0
VERTEX
  8
AM_VIS
  5
7EE
 10
15.0088
 20
1.85270
 30
0.000000
  70
    32
  0
VERTEX
  8
AM_VIS
  5
7EF
 10
15.0085
 20
1.85462
 30
0.000000
  70
    32
  0
VERTEX
  8
AM_VIS
  5
7F0
 10
15.0083
 20
1.85654
 30
0.000000
  70
    32
  0
VERTEX
  8
AM_VIS
  5
7F1
 10
15.0080
 20
1.85846
 30
0.000000
  70
    32
  0
VERTEX
  8
AM_VIS
  5
7F2
 10
15.0077
 20
1.86037
 30
0.000000
  70
    32
  0
VERTEX
  8
AM_VIS
  5
7F3
 10
15.0075
 20
1.86229
 30
0.000000
  70
    32
  0
VERTEX
  8
AM_VIS
  5
7F4
 10
15.0072
 20
1.86420
 30
0.000000
  70
    32
  0
VERTEX
  8
AM_VIS
  5
7F5
 10
15.0069
 20
1.86611
 30
0.000000
  70
    32
  0
VERTEX
  8
AM_VIS
  5
7F6
 10
15.0066
 20
1.86803
 30
0.000000
  70
    32
  0
VERTEX
  8
AM_VIS
  5
7F7
 10
15.0063
 20
1.86994
 30
0.000000
  70
    32
  0
VERTEX
  8
AM_VIS
  5
7F8
 10
15.0060
 20
1.87184
 30
0.000000
  70
    32
  0
VERTEX
  8
AM_VIS
  5
7F9
 10
15.0057
 20
1.87375
 30
0.000000
  70
    32
  0
VERTEX
  8
AM_VIS
  5
7FA
 10
15.0053
 20
1.87566
 30
0.000000
  70
    32
  0
VERTEX
  8
AM_VIS
  5
7FB
 10
15.0050
 20
1.87756
 30
0.000000
  70
    32
  0
VERTEX
  8
AM_VIS
  5
7FC
 10
15.0047
 20
1.87946
 30
0.000000
  70
    32
  0
VERTEX
  8
AM_VIS
  5
7FD
 10
15.0043
 20
1.88136
 30
0.000000
  70
    32
  0
VERTEX
  8
AM_VIS
  5
7FE
 10
15.0040
 20
1.88326
 30
0.000000
  70
    32
  0
VERTEX
  8
AM_VIS
  5
7FF
 10
15.0036
 20
1.88516
 30
0.000000
  70
    32
  0
VERTEX
  8
AM_VIS
  5
800
 10
15.0032
 20
1.88706
 30
0.000000
  70
    32
  0
VERTEX
  8
AM_VIS
  5
801
 10
15.0029
 20
1.88896
 30
0.000000
  70
    32
  0
VERTEX
  8
AM_VIS
  5
802
 10
15.0025
 20
1.89085
 30
0.000000
  70
    32
  0
VERTEX
  8
AM_VIS
  5
803
 10
15.0021
 20
1.89274
 30
0.000000
  70
    32
  0
VERTEX
  8
AM_VIS
  5
804
 10
15.0017
 20
1.89463
 30
0.000000
  70
    32
  0
VERTEX
  8
AM_VIS
  5
805
 10
15.0013
 20
1.89652
 30
0.000000
  70
    32
  0
VERTEX
  8
AM_VIS
  5
806
 10
15.0009
 20
1.89841
 30
0.000000
  70
    32
  0
VERTEX
  8
AM_VIS
  5
807
 10
15.0005
 20
1.90030
 30
0.000000
  70
    32
  0
VERTEX
  8
AM_VIS
  5
808
 10
15.0001
 20
1.90218
 30
0.000000
  70
    32
  0
VERTEX
  8
AM_VIS
  5
809
 10
14.9997
 20
1.90406
 30
0.000000
  70
    32
  0
VERTEX
  8
AM_VIS
  5
80A
 10
14.9993
 20
1.90595
 30
0.000000
  70
    32
  0
VERTEX
  8
AM_VIS
  5
80B
 10
14.9988
 20
1.90782
 30
0.000000
  70
    32
  0
VERTEX
  8
AM_VIS
  5
80C
 10
14.9984
 20
1.90970
 30
0.000000
  70
    32
  0
VERTEX
  8
AM_VIS
  5
80D
 10
14.9979
 20
1.91158
 30
0.000000
  70
    32
  0
VERTEX
  8
AM_VIS
  5
80E
 10
14.9975
 20
1.91345
 30
0.000000
  70
    32
  0
VERTEX
  8
AM_VIS
  5
80F
 10
14.9970
 20
1.91533
 30
0.000000
  70
    32
  0
VERTEX
  8
AM_VIS
  5
810
 10
14.9965
 20
1.91720
 30
0.000000
  70
    32
  0
VERTEX
  8
AM_VIS
  5
811
 10
14.9961
 20
1.91907
 30
0.000000
  70
    32
  0
VERTEX
  8
AM_VIS
  5
812
 10
14.9956
 20
1.92093
 30
0.000000
  70
    32
  0
VERTEX
  8
AM_VIS
  5
813
 10
14.9951
 20
1.92280
 30
0.000000
  70
    32
  0
VERTEX
  8
AM_VIS
  5
814
 10
14.9946
 20
1.92466
 30
0.000000
  70
    32
  0
VERTEX
  8
AM_VIS
  5
815
 10
14.9941
 20
1.92652
 30
0.000000
  70
    32
  0
VERTEX
  8
AM_VIS
  5
816
 10
14.9936
 20
1.92838
 30
0.000000
  70
    32
  0
VERTEX
  8
AM_VIS
  5
817
 10
14.9931
 20
1.93024
 30
0.000000
  70
    32
  0
VERTEX
  8
AM_VIS
  5
818
 10
14.9926
 20
1.93210
 30
0.000000
  70
    32
  0
VERTEX
  8
AM_VIS
  5
819
 10
14.9920
 20
1.93395
 30
0.000000
  70
    32
  0
VERTEX
  8
AM_VIS
  5
81A
 10
14.9915
 20
1.93580
 30
0.000000
  70
    32
  0
VERTEX
  8
AM_VIS
  5
81B
 10
14.9910
 20
1.93765
 30
0.000000
  70
    32
  0
VERTEX
  8
AM_VIS
  5
81C
 10
14.9904
 20
1.93950
 30
0.000000
  70
    32
  0
VERTEX
  8
AM_VIS
  5
81D
 10
14.9899
 20
1.94135
 30
0.000000
  70
    32
  0
VERTEX
  8
AM_VIS
  5
81E
 10
14.9893
 20
1.94319
 30
0.000000
  70
    32
  0
VERTEX
  8
AM_VIS
  5
81F
 10
14.9887
 20
1.94504
 30
0.000000
  70
    32
  0
VERTEX
  8
AM_VIS
  5
820
 10
14.9882
 20
1.94688
 30
0.000000
  70
    32
  0
VERTEX
  8
AM_VIS
  5
821
 10
14.9876
 20
1.94871
 30
0.000000
  70
    32
  0
VERTEX
  8
AM_VIS
  5
822
 10
14.9870
 20
1.95055
 30
0.000000
  70
    32
  0
VERTEX
  8
AM_VIS
  5
823
 10
14.9864
 20
1.95238
 30
0.000000
  70
    32
  0
VERTEX
  8
AM_VIS
  5
824
 10
14.9858
 20
1.95421
 30
0.000000
  70
    32
  0
VERTEX
  8
AM_VIS
  5
825
 10
14.9852
 20
1.95604
 30
0.000000
  70
    32
  0
VERTEX
  8
AM_VIS
  5
826
 10
14.9846
 20
1.95787
 30
0.000000
  70
    32
  0
VERTEX
  8
AM_VIS
  5
827
 10
14.9840
 20
1.95970
 30
0.000000
  70
    32
  0
VERTEX
  8
AM_VIS
  5
828
 10
14.9834
 20
1.96152
 30
0.000000
  70
    32
  0
VERTEX
  8
AM_VIS
  5
829
 10
14.9827
 20
1.96334
 30
0.000000
  70
    32
  0
VERTEX
  8
AM_VIS
  5
82A
 10
14.9821
 20
1.96516
 30
0.000000
  70
    32
  0
VERTEX
  8
AM_VIS
  5
82B
 10
14.9815
 20
1.96697
 30
0.000000
  70
    32
  0
VERTEX
  8
AM_VIS
  5
82C
 10
14.9808
 20
1.96879
 30
0.000000
  70
    32
  0
VERTEX
  8
AM_VIS
  5
82D
 10
14.9802
 20
1.97060
 30
0.000000
  70
    32
  0
VERTEX
  8
AM_VIS
  5
82E
 10
14.9795
 20
1.97241
 30
0.000000
  70
    32
  0
VERTEX
  8
AM_VIS
  5
82F
 10
14.9788
 20
1.97421
 30
0.000000
  70
    32
  0
VERTEX
  8
AM_VIS
  5
830
 10
14.9782
 20
1.97602
 30
0.000000
  70
    32
  0
VERTEX
  8
AM_VIS
  5
831
 10
14.9775
 20
1.97782
 30
0.000000
  70
    32
  0
VERTEX
  8
AM_VIS
  5
832
 10
14.9768
 20
1.97962
 30
0.000000
  70
    32
  0
VERTEX
  8
AM_VIS
  5
833
 10
14.9761
 20
1.98142
 30
0.000000
  70
    32
  0
VERTEX
  8
AM_VIS
  5
834
 10
14.9754
 20
1.98321
 30
0.000000
  70
    32
  0
VERTEX
  8
AM_VIS
  5
835
 10
14.9747
 20
1.98500
 30
0.000000
  70
    32
  0
VERTEX
  8
AM_VIS
  5
836
 10
14.9740
 20
1.98678
 30
0.000000
  70
    32
  0
VERTEX
  8
AM_VIS
  5
837
 10
14.9733
 20
1.98856
 30
0.000000
  70
    32
  0
VERTEX
  8
AM_VIS
  5
838
 10
14.9726
 20
1.99034
 30
0.000000
  70
    32
  0
VERTEX
  8
AM_VIS
  5
839
 10
14.9718
 20
1.99211
 30
0.000000
  70
    32
  0
VERTEX
  8
AM_VIS
  5
83A
 10
14.9711
 20
1.99388
 30
0.000000
  70
    32
  0
VERTEX
  8
AM_VIS
  5
83B
 10
14.9704
 20
1.99565
 30
0.000000
  70
    32
  0
VERTEX
  8
AM_VIS
  5
83C
 10
14.9696
 20
1.99741
 30
0.000000
  70
    32
  0
VERTEX
  8
AM_VIS
  5
83D
 10
14.9689
 20
1.99917
 30
0.000000
  70
    32
  0
VERTEX
  8
AM_VIS
  5
83E
 10
14.9681
 20
2.00093
 30
0.000000
  70
    32
  0
VERTEX
  8
AM_VIS
  5
83F
 10
14.9674
 20
2.00268
 30
0.000000
  70
    32
  0
VERTEX
  8
AM_VIS
  5
840
 10
14.9666
 20
2.00443
 30
0.000000
  70
    32
  0
VERTEX
  8
AM_VIS
  5
841
 10
14.9658
 20
2.00617
 30
0.000000
  70
    32
  0
VERTEX
  8
AM_VIS
  5
842
 10
14.9650
 20
2.00791
 30
0.000000
  70
    32
  0
VERTEX
  8
AM_VIS
  5
843
 10
14.9642
 20
2.00965
 30
0.000000
  70
    32
  0
VERTEX
  8
AM_VIS
  5
844
 10
14.9635
 20
2.01138
 30
0.000000
  70
    32
  0
VERTEX
  8
AM_VIS
  5
845
 10
14.9627
 20
2.01311
 30
0.000000
  70
    32
  0
VERTEX
  8
AM_VIS
  5
846
 10
14.9619
 20
2.01483
 30
0.000000
  70
    32
  0
VERTEX
  8
AM_VIS
  5
847
 10
14.9610
 20
2.01655
 30
0.000000
  70
    32
  0
VERTEX
  8
AM_VIS
  5
848
 10
14.9602
 20
2.01827
 30
0.000000
  70
    32
  0
VERTEX
  8
AM_VIS
  5
849
 10
14.9594
 20
2.01998
 30
0.000000
  70
    32
  0
VERTEX
  8
AM_VIS
  5
84A
 10
14.9586
 20
2.02169
 30
0.000000
  70
    32
  0
VERTEX
  8
AM_VIS
  5
84B
 10
14.9578
 20
2.02340
 30
0.000000
  70
    32
  0
VERTEX
  8
AM_VIS
  5
84C
 10
14.9569
 20
2.02510
 30
0.000000
  70
    32
  0
VERTEX
  8
AM_VIS
  5
84D
 10
14.9561
 20
2.02680
 30
0.000000
  70
    32
  0
VERTEX
  8
AM_VIS
  5
84E
 10
14.9552
 20
2.02849
 30
0.000000
  70
    32
  0
VERTEX
  8
AM_VIS
  5
84F
 10
14.9544
 20
2.03018
 30
0.000000
  70
    32
  0
VERTEX
  8
AM_VIS
  5
850
 10
14.9535
 20
2.03186
 30
0.000000
  70
    32
  0
VERTEX
  8
AM_VIS
  5
851
 10
14.9527
 20
2.03354
 30
0.000000
  70
    32
  0
VERTEX
  8
AM_VIS
  5
852
 10
14.9518
 20
2.03522
 30
0.000000
  70
    32
  0
VERTEX
  8
AM_VIS
  5
853
 10
14.9509
 20
2.03689
 30
0.000000
  70
    32
  0
VERTEX
  8
AM_VIS
  5
854
 10
14.9500
 20
2.03856
 30
0.000000
  70
    32
  0
VERTEX
  8
AM_VIS
  5
855
 10
14.9492
 20
2.04022
 30
0.000000
  70
    32
  0
VERTEX
  8
AM_VIS
  5
856
 10
14.9483
 20
2.04188
 30
0.000000
  70
    32
  0
VERTEX
  8
AM_VIS
  5
857
 10
14.9474
 20
2.04354
 30
0.000000
  70
    32
  0
VERTEX
  8
AM_VIS
  5
858
 10
14.9465
 20
2.04519
 30
0.000000
  70
    32
  0
VERTEX
  8
AM_VIS
  5
859
 10
14.9456
 20
2.04683
 30
0.000000
  70
    32
  0
VERTEX
  8
AM_VIS
  5
85A
 10
14.9447
 20
2.04848
 30
0.000000
  70
    32
  0
VERTEX
  8
AM_VIS
  5
85B
 10
14.9437
 20
2.05012
 30
0.000000
  70
    32
  0
VERTEX
  8
AM_VIS
  5
85C
 10
14.9428
 20
2.05175
 30
0.000000
  70
    32
  0
VERTEX
  8
AM_VIS
  5
85D
 10
14.9419
 20
2.05338
 30
0.000000
  70
    32
  0
VERTEX
  8
AM_VIS
  5
85E
 10
14.9410
 20
2.05500
 30
0.000000
  70
    32
  0
VERTEX
  8
AM_VIS
  5
85F
 10
14.9400
 20
2.05663
 30
0.000000
  70
    32
  0
VERTEX
  8
AM_VIS
  5
860
 10
14.9391
 20
2.05824
 30
0.000000
  70
    32
  0
VERTEX
  8
AM_VIS
  5
861
 10
14.9381
 20
2.05985
 30
0.000000
  70
    32
  0
VERTEX
  8
AM_VIS
  5
862
 10
14.9372
 20
2.06146
 30
0.000000
  70
    32
  0
VERTEX
  8
AM_VIS
  5
863
 10
14.9362
 20
2.06307
 30
0.000000
  70
    32
  0
VERTEX
  8
AM_VIS
  5
864
 10
14.9352
 20
2.06466
 30
0.000000
  70
    32
  0
VERTEX
  8
AM_VIS
  5
865
 10
14.9343
 20
2.06626
 30
0.000000
  70
    32
  0
VERTEX
  8
AM_VIS
  5
866
 10
14.9333
 20
2.06785
 30
0.000000
  70
    32
  0
VERTEX
  8
AM_VIS
  5
867
 10
14.9323
 20
2.06943
 30
0.000000
  70
    32
  0
VERTEX
  8
AM_VIS
  5
868
 10
14.9313
 20
2.07101
 30
0.000000
  70
    32
  0
VERTEX
  8
AM_VIS
  5
869
 10
14.9303
 20
2.07259
 30
0.000000
  70
    32
  0
VERTEX
  8
AM_VIS
  5
86A
 10
14.9293
 20
2.07416
 30
0.000000
  70
    32
  0
VERTEX
  8
AM_VIS
  5
86B
 10
14.9283
 20
2.07573
 30
0.000000
  70
    32
  0
VERTEX
  8
AM_VIS
  5
86C
 10
14.9273
 20
2.07729
 30
0.000000
  70
    32
  0
VERTEX
  8
AM_VIS
  5
86D
 10
14.9263
 20
2.07885
 30
0.000000
  70
    32
  0
VERTEX
  8
AM_VIS
  5
86E
 10
14.9253
 20
2.08040
 30
0.000000
  70
    32
  0
VERTEX
  8
AM_VIS
  5
86F
 10
14.9243
 20
2.08195
 30
0.000000
  70
    32
  0
VERTEX
  8
AM_VIS
  5
870
 10
14.9233
 20
2.08349
 30
0.000000
  70
    32
  0
VERTEX
  8
AM_VIS
  5
871
 10
14.9222
 20
2.08503
 30
0.000000
  70
    32
  0
VERTEX
  8
AM_VIS
  5
872
 10
14.9212
 20
2.08657
 30
0.000000
  70
    32
  0
VERTEX
  8
AM_VIS
  5
873
 10
14.9202
 20
2.08809
 30
0.000000
  70
    32
  0
VERTEX
  8
AM_VIS
  5
874
 10
14.9191
 20
2.08962
 30
0.000000
  70
    32
  0
VERTEX
  8
AM_VIS
  5
875
 10
14.9181
 20
2.09114
 30
0.000000
  70
    32
  0
VERTEX
  8
AM_VIS
  5
876
 10
14.9170
 20
2.09265
 30
0.000000
  70
    32
  0
VERTEX
  8
AM_VIS
  5
877
 10
14.9160
 20
2.09416
 30
0.000000
  70
    32
  0
VERTEX
  8
AM_VIS
  5
878
 10
14.9149
 20
2.09567
 30
0.000000
  70
    32
  0
VERTEX
  8
AM_VIS
  5
879
 10
14.9138
 20
2.09717
 30
0.000000
  70
    32
  0
VERTEX
  8
AM_VIS
  5
87A
 10
14.9127
 20
2.09867
 30
0.000000
  70
    32
  0
VERTEX
  8
AM_VIS
  5
87B
 10
14.9117
 20
2.10016
 30
0.000000
  70
    32
  0
VERTEX
  8
AM_VIS
  5
87C
 10
14.9106
 20
2.10164
 30
0.000000
  70
    32
  0
VERTEX
  8
AM_VIS
  5
87D
 10
14.9095
 20
2.10312
 30
0.000000
  70
    32
  0
VERTEX
  8
AM_VIS
  5
87E
 10
14.9084
 20
2.10460
 30
0.000000
  70
    32
  0
VERTEX
  8
AM_VIS
  5
87F
 10
14.9073
 20
2.10607
 30
0.000000
  70
    32
  0
VERTEX
  8
AM_VIS
  5
880
 10
14.9062
 20
2.10753
 30
0.000000
  70
    32
  0
VERTEX
  8
AM_VIS
  5
881
 10
14.9051
 20
2.10900
 30
0.000000
  70
    32
  0
VERTEX
  8
AM_VIS
  5
882
 10
14.9040
 20
2.11045
 30
0.000000
  70
    32
  0
VERTEX
  8
AM_VIS
  5
883
 10
14.9028
 20
2.11190
 30
0.000000
  70
    32
  0
VERTEX
  8
AM_VIS
  5
884
 10
14.9017
 20
2.11335
 30
0.000000
  70
    32
  0
VERTEX
  8
AM_VIS
  5
885
 10
14.9006
 20
2.11479
 30
0.000000
  70
    32
  0
VERTEX
  8
AM_VIS
  5
886
 10
14.8995
 20
2.11622
 30
0.000000
  70
    32
  0
VERTEX
  8
AM_VIS
  5
887
 10
14.8983
 20
2.11765
 30
0.000000
  70
    32
  0
VERTEX
  8
AM_VIS
  5
888
 10
14.8972
 20
2.11908
 30
0.000000
  70
    32
  0
VERTEX
  8
AM_VIS
  5
889
 10
14.8960
 20
2.12050
 30
0.000000
  70
    32
  0
VERTEX
  8
AM_VIS
  5
88A
 10
14.8949
 20
2.12191
 30
0.000000
  70
    32
  0
VERTEX
  8
AM_VIS
  5
88B
 10
14.8937
 20
2.12332
 30
0.000000
  70
    32
  0
VERTEX
  8
AM_VIS
  5
88C
 10
14.8926
 20
2.12473
 30
0.000000
  70
    32
  0
VERTEX
  8
AM_VIS
  5
88D
 10
14.8914
 20
2.12613
 30
0.000000
  70
    32
  0
VERTEX
  8
AM_VIS
  5
88E
 10
14.8902
 20
2.12752
 30
0.000000
  70
    32
  0
VERTEX
  8
AM_VIS
  5
88F
 10
14.8891
 20
2.12891
 30
0.000000
  70
    32
  0
VERTEX
  8
AM_VIS
  5
890
 10
14.8879
 20
2.13029
 30
0.000000
  70
    32
  0
VERTEX
  8
AM_VIS
  5
891
 10
14.8867
 20
2.13167
 30
0.000000
  70
    32
  0
VERTEX
  8
AM_VIS
  5
892
 10
14.8855
 20
2.13304
 30
0.000000
  70
    32
  0
VERTEX
  8
AM_VIS
  5
893
 10
14.8843
 20
2.13441
 30
0.000000
  70
    32
  0
VERTEX
  8
AM_VIS
  5
894
 10
14.8831
 20
2.13577
 30
0.000000
  70
    32
  0
VERTEX
  8
AM_VIS
  5
895
 10
14.8819
 20
2.13713
 30
0.000000
  70
    32
  0
VERTEX
  8
AM_VIS
  5
896
 10
14.8807
 20
2.13848
 30
0.000000
  70
    32
  0
VERTEX
  8
AM_VIS
  5
897
 10
14.8795
 20
2.13982
 30
0.000000
  70
    32
  0
VERTEX
  8
AM_VIS
  5
898
 10
14.8783
 20
2.14116
 30
0.000000
  70
    32
  0
VERTEX
  8
AM_VIS
  5
899
 10
14.8771
 20
2.14250
 30
0.000000
  70
    32
  0
VERTEX
  8
AM_VIS
  5
89A
 10
14.8758
 20
2.14383
 30
0.000000
  70
    32
  0
VERTEX
  8
AM_VIS
  5
89B
 10
14.8746
 20
2.14515
 30
0.000000
  70
    32
  0
VERTEX
  8
AM_VIS
  5
89C
 10
14.8734
 20
2.14647
 30
0.000000
  70
    32
  0
VERTEX
  8
AM_VIS
  5
89D
 10
14.8722
 20
2.14778
 30
0.000000
  70
    32
  0
VERTEX
  8
AM_VIS
  5
89E
 10
14.8709
 20
2.14909
 30
0.000000
  70
    32
  0
VERTEX
  8
AM_VIS
  5
89F
 10
14.8697
 20
2.15039
 30
0.000000
  70
    32
  0
VERTEX
  8
AM_VIS
  5
8A0
 10
14.8684
 20
2.15168
 30
0.000000
  70
    32
  0
VERTEX
  8
AM_VIS
  5
8A1
 10
14.8672
 20
2.15297
 30
0.000000
  70
    32
  0
VERTEX
  8
AM_VIS
  5
8A2
 10
14.8659
 20
2.15426
 30
0.000000
  70
    32
  0
VERTEX
  8
AM_VIS
  5
8A3
 10
14.8646
 20
2.15554
 30
0.000000
  70
    32
  0
VERTEX
  8
AM_VIS
  5
8A4
 10
14.8634
 20
2.15682
 30
0.000000
  70
    32
  0
VERTEX
  8
AM_VIS
  5
8A5
 10
14.8621
 20
2.15809
 30
0.000000
  70
    32
  0
VERTEX
  8
AM_VIS
  5
8A6
 10
14.8608
 20
2.15936
 30
0.000000
  70
    32
  0
VERTEX
  8
AM_VIS
  5
8A7
 10
14.8595
 20
2.16062
 30
0.000000
  70
    32
  0
VERTEX
  8
AM_VIS
  5
8A8
 10
14.8582
 20
2.16188
 30
0.000000
  70
    32
  0
VERTEX
  8
AM_VIS
  5
8A9
 10
14.8569
 20
2.16313
 30
0.000000
  70
    32
  0
VERTEX
  8
AM_VIS
  5
8AA
 10
14.8556
 20
2.16437
 30
0.000000
  70
    32
  0
VERTEX
  8
AM_VIS
  5
8AB
 10
14.8543
 20
2.16561
 30
0.000000
  70
    32
  0
VERTEX
  8
AM_VIS
  5
8AC
 10
14.8530
 20
2.16685
 30
0.000000
  70
    32
  0
VERTEX
  8
AM_VIS
  5
8AD
 10
14.8517
 20
2.16808
 30
0.000000
  70
    32
  0
VERTEX
  8
AM_VIS
  5
8AE
 10
14.8504
 20
2.16931
 30
0.000000
  70
    32
  0
VERTEX
  8
AM_VIS
  5
8AF
 10
14.8491
 20
2.17053
 30
0.000000
  70
    32
  0
VERTEX
  8
AM_VIS
  5
8B0
 10
14.8477
 20
2.17174
 30
0.000000
  70
    32
  0
VERTEX
  8
AM_VIS
  5
8B1
 10
14.8464
 20
2.17295
 30
0.000000
  70
    32
  0
VERTEX
  8
AM_VIS
  5
8B2
 10
14.8451
 20
2.17416
 30
0.000000
  70
    32
  0
VERTEX
  8
AM_VIS
  5
8B3
 10
14.8437
 20
2.17535
 30
0.000000
  70
    32
  0
VERTEX
  8
AM_VIS
  5
8B4
 10
14.8424
 20
2.17655
 30
0.000000
  70
    32
  0
VERTEX
  8
AM_VIS
  5
8B5
 10
14.8410
 20
2.17773
 30
0.000000
  70
    32
  0
VERTEX
  8
AM_VIS
  5
8B6
 10
14.8397
 20
2.17892
 30
0.000000
  70
    32
  0
VERTEX
  8
AM_VIS
  5
8B7
 10
14.8383
 20
2.18009
 30
0.000000
  70
    32
  0
VERTEX
  8
AM_VIS
  5
8B8
 10
14.8369
 20
2.18126
 30
0.000000
  70
    32
  0
VERTEX
  8
AM_VIS
  5
8B9
 10
14.8355
 20
2.18243
 30
0.000000
  70
    32
  0
VERTEX
  8
AM_VIS
  5
8BA
 10
14.8342
 20
2.18359
 30
0.000000
  70
    32
  0
VERTEX
  8
AM_VIS
  5
8BB
 10
14.8328
 20
2.18474
 30
0.000000
  70
    32
  0
VERTEX
  8
AM_VIS
  5
8BC
 10
14.8314
 20
2.18589
 30
0.000000
  70
    32
  0
VERTEX
  8
AM_VIS
  5
8BD
 10
14.8300
 20
2.18703
 30
0.000000
  70
    32
  0
VERTEX
  8
AM_VIS
  5
8BE
 10
14.8286
 20
2.18817
 30
0.000000
  70
    32
  0
VERTEX
  8
AM_VIS
  5
8BF
 10
14.8272
 20
2.18930
 30
0.000000
  70
    32
  0
VERTEX
  8
AM_VIS
  5
8C0
 10
14.8258
 20
2.19042
 30
0.000000
  70
    32
  0
VERTEX
  8
AM_VIS
  5
8C1
 10
14.8244
 20
2.19154
 30
0.000000
  70
    32
  0
VERTEX
  8
AM_VIS
  5
8C2
 10
14.8230
 20
2.19266
 30
0.000000
  70
    32
  0
VERTEX
  8
AM_VIS
  5
8C3
 10
14.8215
 20
2.19376
 30
0.000000
  70
    32
  0
VERTEX
  8
AM_VIS
  5
8C4
 10
14.8201
 20
2.19486
 30
0.000000
  70
    32
  0
VERTEX
  8
AM_VIS
  5
8C5
 10
14.8187
 20
2.19596
 30
0.000000
  70
    32
  0
VERTEX
  8
AM_VIS
  5
8C6
 10
14.8173
 20
2.19705
 30
0.000000
  70
    32
  0
VERTEX
  8
AM_VIS
  5
8C7
 10
14.8158
 20
2.19813
 30
0.000000
  70
    32
  0
VERTEX
  8
AM_VIS
  5
8C8
 10
14.8144
 20
2.19921
 30
0.000000
  70
    32
  0
VERTEX
  8
AM_VIS
  5
8C9
 10
14.8129
 20
2.20028
 30
0.000000
  70
    32
  0
VERTEX
  8
AM_VIS
  5
8CA
 10
14.8115
 20
2.20134
 30
0.000000
  70
    32
  0
VERTEX
  8
AM_VIS
  5
8CB
 10
14.8100
 20
2.20240
 30
0.000000
  70
    32
  0
VERTEX
  8
AM_VIS
  5
8CC
 10
14.8085
 20
2.20345
 30
0.000000
  70
    32
  0
VERTEX
  8
AM_VIS
  5
8CD
 10
14.8071
 20
2.20450
 30
0.000000
  70
    32
  0
VERTEX
  8
AM_VIS
  5
8CE
 10
14.8056
 20
2.20554
 30
0.000000
  70
    32
  0
VERTEX
  8
AM_VIS
  5
8CF
 10
14.8041
 20
2.20657
 30
0.000000
  70
    32
  0
VERTEX
  8
AM_VIS
  5
8D0
 10
14.8027
 20
2.20759
 30
0.000000
  70
    32
  0
VERTEX
  8
AM_VIS
  5
8D1
 10
14.8012
 20
2.20861
 30
0.000000
  70
    32
  0
VERTEX
  8
AM_VIS
  5
8D2
 10
14.7997
 20
2.20963
 30
0.000000
  70
    32
  0
VERTEX
  8
AM_VIS
  5
8D3
 10
14.7982
 20
2.21063
 30
0.000000
  70
    32
  0
VERTEX
  8
AM_VIS
  5
8D4
 10
14.7967
 20
2.21163
 30
0.000000
  70
    32
  0
VERTEX
  8
AM_VIS
  5
8D5
 10
14.7952
 20
2.21263
 30
0.000000
  70
    32
  0
VERTEX
  8
AM_VIS
  5
8D6
 10
14.7937
 20
2.21361
 30
0.000000
  70
    32
  0
VERTEX
  8
AM_VIS
  5
8D7
 10
14.7922
 20
2.21459
 30
0.000000
  70
    32
  0
VERTEX
  8
AM_VIS
  5
8D8
 10
14.7906
 20
2.21557
 30
0.000000
  70
    32
  0
VERTEX
  8
AM_VIS
  5
8D9
 10
14.7891
 20
2.21653
 30
0.000000
  70
    32
  0
VERTEX
  8
AM_VIS
  5
8DA
 10
14.7876
 20
2.21750
 30
0.000000
  70
    32
  0
VERTEX
  8
AM_VIS
  5
8DB
 10
14.7861
 20
2.21845
 30
0.000000
  70
    32
  0
VERTEX
  8
AM_VIS
  5
8DC
 10
14.7845
 20
2.21939
 30
0.000000
  70
    32
  0
VERTEX
  8
AM_VIS
  5
8DD
 10
14.7830
 20
2.22033
 30
0.000000
  70
    32
  0
VERTEX
  8
AM_VIS
  5
8DE
 10
14.7814
 20
2.22127
 30
0.000000
  70
    32
  0
VERTEX
  8
AM_VIS
  5
8DF
 10
14.7799
 20
2.22219
 30
0.000000
  70
    32
  0
VERTEX
  8
AM_VIS
  5
8E0
 10
14.7783
 20
2.22311
 30
0.000000
  70
    32
  0
VERTEX
  8
AM_VIS
  5
8E1
 10
14.7768
 20
2.22402
 30
0.000000
  70
    32
  0
VERTEX
  8
AM_VIS
  5
8E2
 10
14.7752
 20
2.22493
 30
0.000000
  70
    32
  0
VERTEX
  8
AM_VIS
  5
8E3
 10
14.7737
 20
2.22583
 30
0.000000
  70
    32
  0
VERTEX
  8
AM_VIS
  5
8E4
 10
14.7721
 20
2.22672
 30
0.000000
  70
    32
  0
VERTEX
  8
AM_VIS
  5
8E5
 10
14.7705
 20
2.22760
 30
0.000000
  70
    32
  0
VERTEX
  8
AM_VIS
  5
8E6
 10
14.7689
 20
2.22848
 30
0.000000
  70
    32
  0
VERTEX
  8
AM_VIS
  5
8E7
 10
14.7674
 20
2.22935
 30
0.000000
  70
    32
  0
VERTEX
  8
AM_VIS
  5
8E8
 10
14.7658
 20
2.23021
 30
0.000000
  70
    32
  0
VERTEX
  8
AM_VIS
  5
8E9
 10
14.7642
 20
2.23106
 30
0.000000
  70
    32
  0
VERTEX
  8
AM_VIS
  5
8EA
 10
14.7626
 20
2.23191
 30
0.000000
  70
    32
  0
VERTEX
  8
AM_VIS
  5
8EB
 10
14.7610
 20
2.23275
 30
0.000000
  70
    32
  0
VERTEX
  8
AM_VIS
  5
8EC
 10
14.7594
 20
2.23358
 30
0.000000
  70
    32
  0
VERTEX
  8
AM_VIS
  5
8ED
 10
14.7578
 20
2.23441
 30
0.000000
  70
    32
  0
VERTEX
  8
AM_VIS
  5
8EE
 10
14.7562
 20
2.23523
 30
0.000000
  70
    32
  0
VERTEX
  8
AM_VIS
  5
8EF
 10
14.7545
 20
2.23604
 30
0.000000
  70
    32
  0
VERTEX
  8
AM_VIS
  5
8F0
 10
14.7529
 20
2.23684
 30
0.000000
  70
    32
  0
VERTEX
  8
AM_VIS
  5
8F1
 10
14.7513
 20
2.23763
 30
0.000000
  70
    32
  0
VERTEX
  8
AM_VIS
  5
8F2
 10
14.7497
 20
2.23842
 30
0.000000
  70
    32
  0
VERTEX
  8
AM_VIS
  5
8F3
 10
14.7480
 20
2.23920
 30
0.000000
  70
    32
  0
VERTEX
  8
AM_VIS
  5
8F4
 10
14.7464
 20
2.23997
 30
0.000000
  70
    32
  0
VERTEX
  8
AM_VIS
  5
8F5
 10
14.7448
 20
2.24074
 30
0.000000
  70
    32
  0
VERTEX
  8
AM_VIS
  5
8F6
 10
14.7431
 20
2.24150
 30
0.000000
  70
    32
  0
VERTEX
  8
AM_VIS
  5
8F7
 10
14.7415
 20
2.24225
 30
0.000000
  70
    32
  0
VERTEX
  8
AM_VIS
  5
8F8
 10
14.7398
 20
2.24299
 30
0.000000
  70
    32
  0
VERTEX
  8
AM_VIS
  5
8F9
 10
14.7381
 20
2.24372
 30
0.000000
  70
    32
  0
VERTEX
  8
AM_VIS
  5
8FA
 10
14.7365
 20
2.24445
 30
0.000000
  70
    32
  0
VERTEX
  8
AM_VIS
  5
8FB
 10
14.7348
 20
2.24516
 30
0.000000
  70
    32
  0
VERTEX
  8
AM_VIS
  5
8FC
 10
14.7332
 20
2.24587
 30
0.000000
  70
    32
  0
VERTEX
  8
AM_VIS
  5
8FD
 10
14.7315
 20
2.24658
 30
0.000000
  70
    32
  0
VERTEX
  8
AM_VIS
  5
8FE
 10
14.7298
 20
2.24727
 30
0.000000
  70
    32
  0
VERTEX
  8
AM_VIS
  5
8FF
 10
14.7281
 20
2.24795
 30
0.000000
  70
    32
  0
VERTEX
  8
AM_VIS
  5
900
 10
14.7264
 20
2.24863
 30
0.000000
  70
    32
  0
VERTEX
  8
AM_VIS
  5
901
 10
14.7248
 20
2.24930
 30
0.000000
  70
    32
  0
VERTEX
  8
AM_VIS
  5
902
 10
14.7231
 20
2.24996
 30
0.000000
  70
    32
  0
VERTEX
  8
AM_VIS
  5
903
 10
14.7214
 20
2.25061
 30
0.000000
  70
    32
  0
VERTEX
  8
AM_VIS
  5
904
 10
14.7197
 20
2.25125
 30
0.000000
  70
    32
  0
VERTEX
  8
AM_VIS
  5
905
 10
14.7180
 20
2.25188
 30
0.000000
  70
    32
  0
VERTEX
  8
AM_VIS
  5
906
 10
14.7163
 20
2.25251
 30
0.000000
  70
    32
  0
VERTEX
  8
AM_VIS
  5
907
 10
14.7146
 20
2.25312
 30
0.000000
  70
    32
  0
VERTEX
  8
AM_VIS
  5
908
 10
14.7129
 20
2.25373
 30
0.000000
  70
    32
  0
VERTEX
  8
AM_VIS
  5
909
 10
14.7112
 20
2.25433
 30
0.000000
  70
    32
  0
VERTEX
  8
AM_VIS
  5
90A
 10
14.7095
 20
2.25492
 30
0.000000
  70
    32
  0
VERTEX
  8
AM_VIS
  5
90B
 10
14.7078
 20
2.25551
 30
0.000000
  70
    32
  0
VERTEX
  8
AM_VIS
  5
90C
 10
14.7060
 20
2.25608
 30
0.000000
  70
    32
  0
VERTEX
  8
AM_VIS
  5
90D
 10
14.7043
 20
2.25664
 30
0.000000
  70
    32
  0
VERTEX
  8
AM_VIS
  5
90E
 10
14.7026
 20
2.25720
 30
0.000000
  70
    32
  0
VERTEX
  8
AM_VIS
  5
90F
 10
14.7009
 20
2.25775
 30
0.000000
  70
    32
  0
VERTEX
  8
AM_VIS
  5
910
 10
14.6991
 20
2.25829
 30
0.000000
  70
    32
  0
VERTEX
  8
AM_VIS
  5
911
 10
14.6974
 20
2.25881
 30
0.000000
  70
    32
  0
VERTEX
  8
AM_VIS
  5
912
 10
14.6957
 20
2.25934
 30
0.000000
  70
    32
  0
VERTEX
  8
AM_VIS
  5
913
 10
14.6939
 20
2.25985
 30
0.000000
  70
    32
  0
VERTEX
  8
AM_VIS
  5
914
 10
14.6922
 20
2.26035
 30
0.000000
  70
    32
  0
VERTEX
  8
AM_VIS
  5
915
 10
14.6904
 20
2.26084
 30
0.000000
  70
    32
  0
VERTEX
  8
AM_VIS
  5
916
 10
14.6887
 20
2.26133
 30
0.000000
  70
    32
  0
VERTEX
  8
AM_VIS
  5
917
 10
14.6870
 20
2.26181
 30
0.000000
  70
    32
  0
VERTEX
  8
AM_VIS
  5
918
 10
14.6852
 20
2.26227
 30
0.000000
  70
    32
  0
VERTEX
  8
AM_VIS
  5
919
 10
14.6834
 20
2.26273
 30
0.000000
  70
    32
  0
VERTEX
  8
AM_VIS
  5
91A
 10
14.6817
 20
2.26318
 30
0.000000
  70
    32
  0
VERTEX
  8
AM_VIS
  5
91B
 10
14.6799
 20
2.26362
 30
0.000000
  70
    32
  0
VERTEX
  8
AM_VIS
  5
91C
 10
14.6782
 20
2.26405
 30
0.000000
  70
    32
  0
VERTEX
  8
AM_VIS
  5
91D
 10
14.6764
 20
2.26447
 30
0.000000
  70
    32
  0
VERTEX
  8
AM_VIS
  5
91E
 10
14.6746
 20
2.26488
 30
0.000000
  70
    32
  0
VERTEX
  8
AM_VIS
  5
91F
 10
14.6729
 20
2.26529
 30
0.000000
  70
    32
  0
VERTEX
  8
AM_VIS
  5
920
 10
14.6711
 20
2.26568
 30
0.000000
  70
    32
  0
VERTEX
  8
AM_VIS
  5
921
 10
14.6693
 20
2.26607
 30
0.000000
  70
    32
  0
VERTEX
  8
AM_VIS
  5
922
 10
14.6675
 20
2.26644
 30
0.000000
  70
    32
  0
VERTEX
  8
AM_VIS
  5
923
 10
14.6658
 20
2.26681
 30
0.000000
  70
    32
  0
VERTEX
  8
AM_VIS
  5
924
 10
14.6640
 20
2.26716
 30
0.000000
  70
    32
  0
VERTEX
  8
AM_VIS
  5
925
 10
14.6622
 20
2.26751
 30
0.000000
  70
    32
  0
VERTEX
  8
AM_VIS
  5
926
 10
14.6604
 20
2.26785
 30
0.000000
  70
    32
  0
VERTEX
  8
AM_VIS
  5
927
 10
14.6586
 20
2.26818
 30
0.000000
  70
    32
  0
VERTEX
  8
AM_VIS
  5
928
 10
14.6568
 20
2.26850
 30
0.000000
  70
    32
  0
VERTEX
  8
AM_VIS
  5
929
 10
14.6550
 20
2.26881
 30
0.000000
  70
    32
  0
VERTEX
  8
AM_VIS
  5
92A
 10
14.6532
 20
2.26911
 30
0.000000
  70
    32
  0
VERTEX
  8
AM_VIS
  5
92B
 10
14.6514
 20
2.26940
 30
0.000000
  70
    32
  0
VERTEX
  8
AM_VIS
  5
92C
 10
14.6496
 20
2.26968
 30
0.000000
  70
    32
  0
VERTEX
  8
AM_VIS
  5
92D
 10
14.6478
 20
2.26995
 30
0.000000
  70
    32
  0
VERTEX
  8
AM_VIS
  5
92E
 10
14.6460
 20
2.27021
 30
0.000000
  70
    32
  0
VERTEX
  8
AM_VIS
  5
92F
 10
14.6442
 20
2.27047
 30
0.000000
  70
    32
  0
VERTEX
  8
AM_VIS
  5
930
 10
14.6424
 20
2.27071
 30
0.000000
  70
    32
  0
VERTEX
  8
AM_VIS
  5
931
 10
14.6406
 20
2.27094
 30
0.000000
  70
    32
  0
VERTEX
  8
AM_VIS
  5
932
 10
14.6388
 20
2.27116
 30
0.000000
  70
    32
  0
VERTEX
  8
AM_VIS
  5
933
 10
14.6370
 20
2.27138
 30
0.000000
  70
    32
  0
VERTEX
  8
AM_VIS
  5
934
 10
14.6352
 20
2.27158
 30
0.000000
  70
    32
  0
VERTEX
  8
AM_VIS
  5
935
 10
14.6334
 20
2.27177
 30
0.000000
  70
    32
  0
VERTEX
  8
AM_VIS
  5
936
 10
14.6315
 20
2.27196
 30
0.000000
  70
    32
  0
VERTEX
  8
AM_VIS
  5
937
 10
14.6297
 20
2.27213
 30
0.000000
  70
    32
  0
VERTEX
  8
AM_VIS
  5
938
 10
14.6279
 20
2.27230
 30
0.000000
  70
    32
  0
VERTEX
  8
AM_VIS
  5
939
 10
14.6261
 20
2.27245
 30
0.000000
  70
    32
  0
VERTEX
  8
AM_VIS
  5
93A
 10
14.6243
 20
2.27259
 30
0.000000
  70
    32
  0
VERTEX
  8
AM_VIS
  5
93B
 10
14.6225
 20
2.27273
 30
0.000000
  70
    32
  0
VERTEX
  8
AM_VIS
  5
93C
 10
14.6206
 20
2.27285
 30
0.000000
  70
    32
  0
VERTEX
  8
AM_VIS
  5
93D
 10
14.6188
 20
2.27297
 30
0.000000
  70
    32
  0
VERTEX
  8
AM_VIS
  5
93E
 10
14.6170
 20
2.27307
 30
0.000000
  70
    32
  0
VERTEX
  8
AM_VIS
  5
93F
 10
14.6152
 20
2.27317
 30
0.000000
  70
    32
  0
VERTEX
  8
AM_VIS
  5
940
 10
14.6134
 20
2.27325
 30
0.000000
  70
    32
  0
VERTEX
  8
AM_VIS
  5
941
 10
14.6115
 20
2.27333
 30
0.000000
  70
    32
  0
VERTEX
  8
AM_VIS
  5
942
 10
14.6097
 20
2.27339
 30
0.000000
  70
    32
  0
VERTEX
  8
AM_VIS
  5
943
 10
14.6079
 20
2.27344
 30
0.000000
  70
    32
  0
VERTEX
  8
AM_VIS
  5
944
 10
14.6061
 20
2.27349
 30
0.000000
  70
    32
  0
VERTEX
  8
AM_VIS
  5
945
 10
14.6042
 20
2.27352
 30
0.000000
  70
    32
  0
VERTEX
  8
AM_VIS
  5
946
 10
14.6024
 20
2.27355
 30
0.000000
  70
    32
  0
VERTEX
  8
AM_VIS
  5
947
 10
14.6006
 20
2.27356
 30
0.000000
  70
    32
  0
VERTEX
  8
AM_VIS
  5
948
 10
14.5988
 20
2.27357
 30
0.000000
  70
    32
  0
SEQEND
  8
AM_VIS
  5
949
  0
POLYLINE
  8
AM_VIS
  5
94A
  66
     1
 10
0.000000
 20
0.000000
 30
0.000000
  70
     8
  0
VERTEX
  8
AM_VIS
  5
94B
 10
14.5988
 20
1.28847
 30
0.000000
  70
    32
  0
VERTEX
  8
AM_VIS
  5
94C
 10
14.6006
 20
1.28848
 30
0.000000
  70
    32
  0
VERTEX
  8
AM_VIS
  5
94D
 10
14.6024
 20
1.28849
 30
0.000000
  70
    32
  0
VERTEX
  8
AM_VIS
  5
94E
 10
14.6043
 20
1.28852
 30
0.000000
  70
    32
  0
VERTEX
  8
AM_VIS
  5
94F
 10
14.6061
 20
1.28855
 30
0.000000
  70
    32
  0
VERTEX
  8
AM_VIS
  5
950
 10
14.6079
 20
1.28860
 30
0.000000
  70
    32
  0
VERTEX
  8
AM_VIS
  5
951
 10
14.6097
 20
1.28865
 30
0.000000
  70
    32
  0
VERTEX
  8
AM_VIS
  5
952
 10
14.6116
 20
1.28872
 30
0.000000
  70
    32
  0
VERTEX
  8
AM_VIS
  5
953
 10
14.6134
 20
1.28879
 30
0.000000
  70
    32
  0
VERTEX
  8
AM_VIS
  5
954
 10
14.6152
 20
1.28888
 30
0.000000
  70
    32
  0
VERTEX
  8
AM_VIS
  5
955
 10
14.6170
 20
1.28897
 30
0.000000
  70
    32
  0
VERTEX
  8
AM_VIS
  5
956
 10
14.6189
 20
1.28907
 30
0.000000
  70
    32
  0
VERTEX
  8
AM_VIS
  5
957
 10
14.6207
 20
1.28919
 30
0.000000
  70
    32
  0
VERTEX
  8
AM_VIS
  5
958
 10
14.6225
 20
1.28931
 30
0.000000
  70
    32
  0
VERTEX
  8
AM_VIS
  5
959
 10
14.6243
 20
1.28945
 30
0.000000
  70
    32
  0
VERTEX
  8
AM_VIS
  5
95A
 10
14.6261
 20
1.28959
 30
0.000000
  70
    32
  0
VERTEX
  8
AM_VIS
  5
95B
 10
14.6279
 20
1.28975
 30
0.000000
  70
    32
  0
VERTEX
  8
AM_VIS
  5
95C
 10
14.6297
 20
1.28991
 30
0.000000
  70
    32
  0
VERTEX
  8
AM_VIS
  5
95D
 10
14.6316
 20
1.29008
 30
0.000000
  70
    32
  0
VERTEX
  8
AM_VIS
  5
95E
 10
14.6334
 20
1.29027
 30
0.000000
  70
    32
  0
VERTEX
  8
AM_VIS
  5
95F
 10
14.6352
 20
1.29046
 30
0.000000
  70
    32
  0
VERTEX
  8
AM_VIS
  5
960
 10
14.6370
 20
1.29066
 30
0.000000
  70
    32
  0
VERTEX
  8
AM_VIS
  5
961
 10
14.6388
 20
1.29087
 30
0.000000
  70
    32
  0
VERTEX
  8
AM_VIS
  5
962
 10
14.6406
 20
1.29109
 30
0.000000
  70
    32
  0
VERTEX
  8
AM_VIS
  5
963
 10
14.6424
 20
1.29133
 30
0.000000
  70
    32
  0
VERTEX
  8
AM_VIS
  5
964
 10
14.6442
 20
1.29157
 30
0.000000
  70
    32
  0
VERTEX
  8
AM_VIS
  5
965
 10
14.6460
 20
1.29182
 30
0.000000
  70
    32
  0
VERTEX
  8
AM_VIS
  5
966
 10
14.6478
 20
1.29208
 30
0.000000
  70
    32
  0
VERTEX
  8
AM_VIS
  5
967
 10
14.6496
 20
1.29235
 30
0.000000
  70
    32
  0
VERTEX
  8
AM_VIS
  5
968
 10
14.6514
 20
1.29263
 30
0.000000
  70
    32
  0
VERTEX
  8
AM_VIS
  5
969
 10
14.6531
 20
1.29292
 30
0.000000
  70
    32
  0
VERTEX
  8
AM_VIS
  5
96A
 10
14.6549
 20
1.29321
 30
0.000000
  70
    32
  0
VERTEX
  8
AM_VIS
  5
96B
 10
14.6567
 20
1.29352
 30
0.000000
  70
    32
  0
VERTEX
  8
AM_VIS
  5
96C
 10
14.6585
 20
1.29384
 30
0.000000
  70
    32
  0
VERTEX
  8
AM_VIS
  5
96D
 10
14.6603
 20
1.29417
 30
0.000000
  70
    32
  0
VERTEX
  8
AM_VIS
  5
96E
 10
14.6621
 20
1.29450
 30
0.000000
  70
    32
  0
VERTEX
  8
AM_VIS
  5
96F
 10
14.6639
 20
1.29485
 30
0.000000
  70
    32
  0
VERTEX
  8
AM_VIS
  5
970
 10
14.6656
 20
1.29520
 30
0.000000
  70
    32
  0
VERTEX
  8
AM_VIS
  5
971
 10
14.6674
 20
1.29557
 30
0.000000
  70
    32
  0
VERTEX
  8
AM_VIS
  5
972
 10
14.6692
 20
1.29594
 30
0.000000
  70
    32
  0
VERTEX
  8
AM_VIS
  5
973
 10
14.6709
 20
1.29632
 30
0.000000
  70
    32
  0
VERTEX
  8
AM_VIS
  5
974
 10
14.6727
 20
1.29672
 30
0.000000
  70
    32
  0
VERTEX
  8
AM_VIS
  5
975
 10
14.6745
 20
1.29712
 30
0.000000
  70
    32
  0
VERTEX
  8
AM_VIS
  5
976
 10
14.6762
 20
1.29753
 30
0.000000
  70
    32
  0
VERTEX
  8
AM_VIS
  5
977
 10
14.6780
 20
1.29795
 30
0.000000
  70
    32
  0
VERTEX
  8
AM_VIS
  5
978
 10
14.6798
 20
1.29838
 30
0.000000
  70
    32
  0
VERTEX
  8
AM_VIS
  5
979
 10
14.6815
 20
1.29882
 30
0.000000
  70
    32
  0
VERTEX
  8
AM_VIS
  5
97A
 10
14.6833
 20
1.29927
 30
0.000000
  70
    32
  0
VERTEX
  8
AM_VIS
  5
97B
 10
14.6850
 20
1.29973
 30
0.000000
  70
    32
  0
VERTEX
  8
AM_VIS
  5
97C
 10
14.6868
 20
1.30019
 30
0.000000
  70
    32
  0
VERTEX
  8
AM_VIS
  5
97D
 10
14.6885
 20
1.30067
 30
0.000000
  70
    32
  0
VERTEX
  8
AM_VIS
  5
97E
 10
14.6903
 20
1.30115
 30
0.000000
  70
    32
  0
VERTEX
  8
AM_VIS
  5
97F
 10
14.6920
 20
1.30165
 30
0.000000
  70
    32
  0
VERTEX
  8
AM_VIS
  5
980
 10
14.6938
 20
1.30215
 30
0.000000
  70
    32
  0
VERTEX
  8
AM_VIS
  5
981
 10
14.6955
 20
1.30266
 30
0.000000
  70
    32
  0
VERTEX
  8
AM_VIS
  5
982
 10
14.6973
 20
1.30319
 30
0.000000
  70
    32
  0
VERTEX
  8
AM_VIS
  5
983
 10
14.6990
 20
1.30372
 30
0.000000
  70
    32
  0
VERTEX
  8
AM_VIS
  5
984
 10
14.7007
 20
1.30426
 30
0.000000
  70
    32
  0
VERTEX
  8
AM_VIS
  5
985
 10
14.7025
 20
1.30480
 30
0.000000
  70
    32
  0
VERTEX
  8
AM_VIS
  5
986
 10
14.7042
 20
1.30536
 30
0.000000
  70
    32
  0
VERTEX
  8
AM_VIS
  5
987
 10
14.7059
 20
1.30593
 30
0.000000
  70
    32
  0
VERTEX
  8
AM_VIS
  5
988
 10
14.7077
 20
1.30650
 30
0.000000
  70
    32
  0
VERTEX
  8
AM_VIS
  5
989
 10
14.7094
 20
1.30709
 30
0.000000
  70
    32
  0
VERTEX
  8
AM_VIS
  5
98A
 10
14.7111
 20
1.30768
 30
0.000000
  70
    32
  0
VERTEX
  8
AM_VIS
  5
98B
 10
14.7128
 20
1.30829
 30
0.000000
  70
    32
  0
VERTEX
  8
AM_VIS
  5
98C
 10
14.7145
 20
1.30890
 30
0.000000
  70
    32
  0
VERTEX
  8
AM_VIS
  5
98D
 10
14.7163
 20
1.30952
 30
0.000000
  70
    32
  0
VERTEX
  8
AM_VIS
  5
98E
 10
14.7180
 20
1.31015
 30
0.000000
  70
    32
  0
VERTEX
  8
AM_VIS
  5
98F
 10
14.7197
 20
1.31078
 30
0.000000
  70
    32
  0
VERTEX
  8
AM_VIS
  5
990
 10
14.7214
 20
1.31143
 30
0.000000
  70
    32
  0
VERTEX
  8
AM_VIS
  5
991
 10
14.7231
 20
1.31209
 30
0.000000
  70
    32
  0
VERTEX
  8
AM_VIS
  5
992
 10
14.7248
 20
1.31275
 30
0.000000
  70
    32
  0
VERTEX
  8
AM_VIS
  5
993
 10
14.7265
 20
1.31342
 30
0.000000
  70
    32
  0
VERTEX
  8
AM_VIS
  5
994
 10
14.7282
 20
1.31410
 30
0.000000
  70
    32
  0
VERTEX
  8
AM_VIS
  5
995
 10
14.7298
 20
1.31479
 30
0.000000
  70
    32
  0
VERTEX
  8
AM_VIS
  5
996
 10
14.7315
 20
1.31548
 30
0.000000
  70
    32
  0
VERTEX
  8
AM_VIS
  5
997
 10
14.7332
 20
1.31619
 30
0.000000
  70
    32
  0
VERTEX
  8
AM_VIS
  5
998
 10
14.7349
 20
1.31690
 30
0.000000
  70
    32
  0
VERTEX
  8
AM_VIS
  5
999
 10
14.7365
 20
1.31762
 30
0.000000
  70
    32
  0
VERTEX
  8
AM_VIS
  5
99A
 10
14.7382
 20
1.31834
 30
0.000000
  70
    32
  0
VERTEX
  8
AM_VIS
  5
99B
 10
14.7399
 20
1.31908
 30
0.000000
  70
    32
  0
VERTEX
  8
AM_VIS
  5
99C
 10
14.7415
 20
1.31982
 30
0.000000
  70
    32
  0
VERTEX
  8
AM_VIS
  5
99D
 10
14.7432
 20
1.32057
 30
0.000000
  70
    32
  0
VERTEX
  8
AM_VIS
  5
99E
 10
14.7448
 20
1.32133
 30
0.000000
  70
    32
  0
VERTEX
  8
AM_VIS
  5
99F
 10
14.7465
 20
1.32210
 30
0.000000
  70
    32
  0
VERTEX
  8
AM_VIS
  5
9A0
 10
14.7481
 20
1.32288
 30
0.000000
  70
    32
  0
VERTEX
  8
AM_VIS
  5
9A1
 10
14.7498
 20
1.32366
 30
0.000000
  70
    32
  0
VERTEX
  8
AM_VIS
  5
9A2
 10
14.7514
 20
1.32445
 30
0.000000
  70
    32
  0
VERTEX
  8
AM_VIS
  5
9A3
 10
14.7530
 20
1.32525
 30
0.000000
  70
    32
  0
VERTEX
  8
AM_VIS
  5
9A4
 10
14.7546
 20
1.32605
 30
0.000000
  70
    32
  0
VERTEX
  8
AM_VIS
  5
9A5
 10
14.7563
 20
1.32687
 30
0.000000
  70
    32
  0
VERTEX
  8
AM_VIS
  5
9A6
 10
14.7579
 20
1.32769
 30
0.000000
  70
    32
  0
VERTEX
  8
AM_VIS
  5
9A7
 10
14.7595
 20
1.32851
 30
0.000000
  70
    32
  0
VERTEX
  8
AM_VIS
  5
9A8
 10
14.7611
 20
1.32935
 30
0.000000
  70
    32
  0
VERTEX
  8
AM_VIS
  5
9A9
 10
14.7627
 20
1.33019
 30
0.000000
  70
    32
  0
VERTEX
  8
AM_VIS
  5
9AA
 10
14.7643
 20
1.33104
 30
0.000000
  70
    32
  0
VERTEX
  8
AM_VIS
  5
9AB
 10
14.7659
 20
1.33190
 30
0.000000
  70
    32
  0
VERTEX
  8
AM_VIS
  5
9AC
 10
14.7675
 20
1.33277
 30
0.000000
  70
    32
  0
VERTEX
  8
AM_VIS
  5
9AD
 10
14.7691
 20
1.33364
 30
0.000000
  70
    32
  0
VERTEX
  8
AM_VIS
  5
9AE
 10
14.7707
 20
1.33452
 30
0.000000
  70
    32
  0
VERTEX
  8
AM_VIS
  5
9AF
 10
14.7722
 20
1.33541
 30
0.000000
  70
    32
  0
VERTEX
  8
AM_VIS
  5
9B0
 10
14.7738
 20
1.33630
 30
0.000000
  70
    32
  0
VERTEX
  8
AM_VIS
  5
9B1
 10
14.7754
 20
1.33720
 30
0.000000
  70
    32
  0
VERTEX
  8
AM_VIS
  5
9B2
 10
14.7769
 20
1.33811
 30
0.000000
  70
    32
  0
VERTEX
  8
AM_VIS
  5
9B3
 10
14.7785
 20
1.33903
 30
0.000000
  70
    32
  0
VERTEX
  8
AM_VIS
  5
9B4
 10
14.7801
 20
1.33995
 30
0.000000
  70
    32
  0
VERTEX
  8
AM_VIS
  5
9B5
 10
14.7816
 20
1.34088
 30
0.000000
  70
    32
  0
VERTEX
  8
AM_VIS
  5
9B6
 10
14.7832
 20
1.34182
 30
0.000000
  70
    32
  0
VERTEX
  8
AM_VIS
  5
9B7
 10
14.7847
 20
1.34276
 30
0.000000
  70
    32
  0
VERTEX
  8
AM_VIS
  5
9B8
 10
14.7863
 20
1.34371
 30
0.000000
  70
    32
  0
VERTEX
  8
AM_VIS
  5
9B9
 10
14.7878
 20
1.34467
 30
0.000000
  70
    32
  0
VERTEX
  8
AM_VIS
  5
9BA
 10
14.7893
 20
1.34564
 30
0.000000
  70
    32
  0
VERTEX
  8
AM_VIS
  5
9BB
 10
14.7908
 20
1.34661
 30
0.000000
  70
    32
  0
VERTEX
  8
AM_VIS
  5
9BC
 10
14.7924
 20
1.34758
 30
0.000000
  70
    32
  0
VERTEX
  8
AM_VIS
  5
9BD
 10
14.7939
 20
1.34857
 30
0.000000
  70
    32
  0
VERTEX
  8
AM_VIS
  5
9BE
 10
14.7954
 20
1.34956
 30
0.000000
  70
    32
  0
VERTEX
  8
AM_VIS
  5
9BF
 10
14.7969
 20
1.35056
 30
0.000000
  70
    32
  0
VERTEX
  8
AM_VIS
  5
9C0
 10
14.7984
 20
1.35156
 30
0.000000
  70
    32
  0
VERTEX
  8
AM_VIS
  5
9C1
 10
14.7999
 20
1.35258
 30
0.000000
  70
    32
  0
VERTEX
  8
AM_VIS
  5
9C2
 10
14.8014
 20
1.35359
 30
0.000000
  70
    32
  0
VERTEX
  8
AM_VIS
  5
9C3
 10
14.8029
 20
1.35462
 30
0.000000
  70
    32
  0
VERTEX
  8
AM_VIS
  5
9C4
 10
14.8044
 20
1.35565
 30
0.000000
  70
    32
  0
VERTEX
  8
AM_VIS
  5
9C5
 10
14.8059
 20
1.35669
 30
0.000000
  70
    32
  0
VERTEX
  8
AM_VIS
  5
9C6
 10
14.8073
 20
1.35773
 30
0.000000
  70
    32
  0
VERTEX
  8
AM_VIS
  5
9C7
 10
14.8088
 20
1.35878
 30
0.000000
  70
    32
  0
VERTEX
  8
AM_VIS
  5
9C8
 10
14.8103
 20
1.35984
 30
0.000000
  70
    32
  0
VERTEX
  8
AM_VIS
  5
9C9
 10
14.8117
 20
1.36090
 30
0.000000
  70
    32
  0
VERTEX
  8
AM_VIS
  5
9CA
 10
14.8132
 20
1.36197
 30
0.000000
  70
    32
  0
VERTEX
  8
AM_VIS
  5
9CB
 10
14.8147
 20
1.36305
 30
0.000000
  70
    32
  0
VERTEX
  8
AM_VIS
  5
9CC
 10
14.8161
 20
1.36413
 30
0.000000
  70
    32
  0
VERTEX
  8
AM_VIS
  5
9CD
 10
14.8176
 20
1.36522
 30
0.000000
  70
    32
  0
VERTEX
  8
AM_VIS
  5
9CE
 10
14.8190
 20
1.36631
 30
0.000000
  70
    32
  0
VERTEX
  8
AM_VIS
  5
9CF
 10
14.8204
 20
1.36741
 30
0.000000
  70
    32
  0
VERTEX
  8
AM_VIS
  5
9D0
 10
14.8219
 20
1.36852
 30
0.000000
  70
    32
  0
VERTEX
  8
AM_VIS
  5
9D1
 10
14.8233
 20
1.36963
 30
0.000000
  70
    32
  0
VERTEX
  8
AM_VIS
  5
9D2
 10
14.8247
 20
1.37075
 30
0.000000
  70
    32
  0
VERTEX
  8
AM_VIS
  5
9D3
 10
14.8261
 20
1.37188
 30
0.000000
  70
    32
  0
VERTEX
  8
AM_VIS
  5
9D4
 10
14.8275
 20
1.37301
 30
0.000000
  70
    32
  0
VERTEX
  8
AM_VIS
  5
9D5
 10
14.8289
 20
1.37414
 30
0.000000
  70
    32
  0
VERTEX
  8
AM_VIS
  5
9D6
 10
14.8303
 20
1.37529
 30
0.000000
  70
    32
  0
VERTEX
  8
AM_VIS
  5
9D7
 10
14.8317
 20
1.37643
 30
0.000000
  70
    32
  0
VERTEX
  8
AM_VIS
  5
9D8
 10
14.8331
 20
1.37759
 30
0.000000
  70
    32
  0
VERTEX
  8
AM_VIS
  5
9D9
 10
14.8345
 20
1.37875
 30
0.000000
  70
    32
  0
VERTEX
  8
AM_VIS
  5
9DA
 10
14.8359
 20
1.37991
 30
0.000000
  70
    32
  0
VERTEX
  8
AM_VIS
  5
9DB
 10
14.8373
 20
1.38108
 30
0.000000
  70
    32
  0
VERTEX
  8
AM_VIS
  5
9DC
 10
14.8387
 20
1.38226
 30
0.000000
  70
    32
  0
VERTEX
  8
AM_VIS
  5
9DD
 10
14.8400
 20
1.38344
 30
0.000000
  70
    32
  0
VERTEX
  8
AM_VIS
  5
9DE
 10
14.8414
 20
1.38463
 30
0.000000
  70
    32
  0
VERTEX
  8
AM_VIS
  5
9DF
 10
14.8427
 20
1.38583
 30
0.000000
  70
    32
  0
VERTEX
  8
AM_VIS
  5
9E0
 10
14.8441
 20
1.38702
 30
0.000000
  70
    32
  0
VERTEX
  8
AM_VIS
  5
9E1
 10
14.8454
 20
1.38823
 30
0.000000
  70
    32
  0
VERTEX
  8
AM_VIS
  5
9E2
 10
14.8468
 20
1.38944
 30
0.000000
  70
    32
  0
VERTEX
  8
AM_VIS
  5
9E3
 10
14.8481
 20
1.39065
 30
0.000000
  70
    32
  0
VERTEX
  8
AM_VIS
  5
9E4
 10
14.8495
 20
1.39188
 30
0.000000
  70
    32
  0
VERTEX
  8
AM_VIS
  5
9E5
 10
14.8508
 20
1.39310
 30
0.000000
  70
    32
  0
VERTEX
  8
AM_VIS
  5
9E6
 10
14.8521
 20
1.39433
 30
0.000000
  70
    32
  0
VERTEX
  8
AM_VIS
  5
9E7
 10
14.8534
 20
1.39557
 30
0.000000
  70
    32
  0
VERTEX
  8
AM_VIS
  5
9E8
 10
14.8547
 20
1.39681
 30
0.000000
  70
    32
  0
VERTEX
  8
AM_VIS
  5
9E9
 10
14.8561
 20
1.39806
 30
0.000000
  70
    32
  0
VERTEX
  8
AM_VIS
  5
9EA
 10
14.8574
 20
1.39931
 30
0.000000
  70
    32
  0
VERTEX
  8
AM_VIS
  5
9EB
 10
14.8587
 20
1.40057
 30
0.000000
  70
    32
  0
VERTEX
  8
AM_VIS
  5
9EC
 10
14.8600
 20
1.40183
 30
0.000000
  70
    32
  0
VERTEX
  8
AM_VIS
  5
9ED
 10
14.8612
 20
1.40310
 30
0.000000
  70
    32
  0
VERTEX
  8
AM_VIS
  5
9EE
 10
14.8625
 20
1.40438
 30
0.000000
  70
    32
  0
VERTEX
  8
AM_VIS
  5
9EF
 10
14.8638
 20
1.40566
 30
0.000000
  70
    32
  0
VERTEX
  8
AM_VIS
  5
9F0
 10
14.8651
 20
1.40694
 30
0.000000
  70
    32
  0
VERTEX
  8
AM_VIS
  5
9F1
 10
14.8663
 20
1.40823
 30
0.000000
  70
    32
  0
VERTEX
  8
AM_VIS
  5
9F2
 10
14.8676
 20
1.40952
 30
0.000000
  70
    32
  0
VERTEX
  8
AM_VIS
  5
9F3
 10
14.8689
 20
1.41082
 30
0.000000
  70
    32
  0
VERTEX
  8
AM_VIS
  5
9F4
 10
14.8701
 20
1.41213
 30
0.000000
  70
    32
  0
VERTEX
  8
AM_VIS
  5
9F5
 10
14.8714
 20
1.41343
 30
0.000000
  70
    32
  0
VERTEX
  8
AM_VIS
  5
9F6
 10
14.8726
 20
1.41475
 30
0.000000
  70
    32
  0
VERTEX
  8
AM_VIS
  5
9F7
 10
14.8739
 20
1.41607
 30
0.000000
  70
    32
  0
VERTEX
  8
AM_VIS
  5
9F8
 10
14.8751
 20
1.41739
 30
0.000000
  70
    32
  0
VERTEX
  8
AM_VIS
  5
9F9
 10
14.8763
 20
1.41872
 30
0.000000
  70
    32
  0
VERTEX
  8
AM_VIS
  5
9FA
 10
14.8775
 20
1.42005
 30
0.000000
  70
    32
  0
VERTEX
  8
AM_VIS
  5
9FB
 10
14.8788
 20
1.42139
 30
0.000000
  70
    32
  0
VERTEX
  8
AM_VIS
  5
9FC
 10
14.8800
 20
1.42273
 30
0.000000
  70
    32
  0
VERTEX
  8
AM_VIS
  5
9FD
 10
14.8812
 20
1.42408
 30
0.000000
  70
    32
  0
VERTEX
  8
AM_VIS
  5
9FE
 10
14.8824
 20
1.42543
 30
0.000000
  70
    32
  0
VERTEX
  8
AM_VIS
  5
9FF
 10
14.8836
 20
1.42679
 30
0.000000
  70
    32
  0
VERTEX
  8
AM_VIS
  5
A00
 10
14.8848
 20
1.42815
 30
0.000000
  70
    32
  0
VERTEX
  8
AM_VIS
  5
A01
 10
14.8860
 20
1.42952
 30
0.000000
  70
    32
  0
VERTEX
  8
AM_VIS
  5
A02
 10
14.8871
 20
1.43089
 30
0.000000
  70
    32
  0
VERTEX
  8
AM_VIS
  5
A03
 10
14.8883
 20
1.43226
 30
0.000000
  70
    32
  0
VERTEX
  8
AM_VIS
  5
A04
 10
14.8895
 20
1.43364
 30
0.000000
  70
    32
  0
VERTEX
  8
AM_VIS
  5
A05
 10
14.8907
 20
1.43503
 30
0.000000
  70
    32
  0
VERTEX
  8
AM_VIS
  5
A06
 10
14.8918
 20
1.43642
 30
0.000000
  70
    32
  0
VERTEX
  8
AM_VIS
  5
A07
 10
14.8930
 20
1.43781
 30
0.000000
  70
    32
  0
VERTEX
  8
AM_VIS
  5
A08
 10
14.8941
 20
1.43921
 30
0.000000
  70
    32
  0
VERTEX
  8
AM_VIS
  5
A09
 10
14.8953
 20
1.44061
 30
0.000000
  70
    32
  0
VERTEX
  8
AM_VIS
  5
A0A
 10
14.8964
 20
1.44202
 30
0.000000
  70
    32
  0
VERTEX
  8
AM_VIS
  5
A0B
 10
14.8976
 20
1.44343
 30
0.000000
  70
    32
  0
VERTEX
  8
AM_VIS
  5
A0C
 10
14.8987
 20
1.44484
 30
0.000000
  70
    32
  0
VERTEX
  8
AM_VIS
  5
A0D
 10
14.8998
 20
1.44626
 30
0.000000
  70
    32
  0
VERTEX
  8
AM_VIS
  5
A0E
 10
14.9009
 20
1.44769
 30
0.000000
  70
    32
  0
VERTEX
  8
AM_VIS
  5
A0F
 10
14.9021
 20
1.44911
 30
0.000000
  70
    32
  0
VERTEX
  8
AM_VIS
  5
A10
 10
14.9032
 20
1.45055
 30
0.000000
  70
    32
  0
VERTEX
  8
AM_VIS
  5
A11
 10
14.9043
 20
1.45198
 30
0.000000
  70
    32
  0
VERTEX
  8
AM_VIS
  5
A12
 10
14.9054
 20
1.45342
 30
0.000000
  70
    32
  0
VERTEX
  8
AM_VIS
  5
A13
 10
14.9065
 20
1.45487
 30
0.000000
  70
    32
  0
VERTEX
  8
AM_VIS
  5
A14
 10
14.9075
 20
1.45632
 30
0.000000
  70
    32
  0
VERTEX
  8
AM_VIS
  5
A15
 10
14.9086
 20
1.45777
 30
0.000000
  70
    32
  0
VERTEX
  8
AM_VIS
  5
A16
 10
14.9097
 20
1.45922
 30
0.000000
  70
    32
  0
VERTEX
  8
AM_VIS
  5
A17
 10
14.9108
 20
1.46069
 30
0.000000
  70
    32
  0
VERTEX
  8
AM_VIS
  5
A18
 10
14.9119
 20
1.46215
 30
0.000000
  70
    32
  0
VERTEX
  8
AM_VIS
  5
A19
 10
14.9129
 20
1.46362
 30
0.000000
  70
    32
  0
VERTEX
  8
AM_VIS
  5
A1A
 10
14.9140
 20
1.46509
 30
0.000000
  70
    32
  0
VERTEX
  8
AM_VIS
  5
A1B
 10
14.9150
 20
1.46657
 30
0.000000
  70
    32
  0
VERTEX
  8
AM_VIS
  5
A1C
 10
14.9161
 20
1.46805
 30
0.000000
  70
    32
  0
VERTEX
  8
AM_VIS
  5
A1D
 10
14.9171
 20
1.46953
 30
0.000000
  70
    32
  0
VERTEX
  8
AM_VIS
  5
A1E
 10
14.9181
 20
1.47102
 30
0.000000
  70
    32
  0
VERTEX
  8
AM_VIS
  5
A1F
 10
14.9192
 20
1.47251
 30
0.000000
  70
    32
  0
VERTEX
  8
AM_VIS
  5
A20
 10
14.9202
 20
1.47401
 30
0.000000
  70
    32
  0
VERTEX
  8
AM_VIS
  5
A21
 10
14.9212
 20
1.47551
 30
0.000000
  70
    32
  0
VERTEX
  8
AM_VIS
  5
A22
 10
14.9222
 20
1.47701
 30
0.000000
  70
    32
  0
VERTEX
  8
AM_VIS
  5
A23
 10
14.9232
 20
1.47852
 30
0.000000
  70
    32
  0
VERTEX
  8
AM_VIS
  5
A24
 10
14.9243
 20
1.48003
 30
0.000000
  70
    32
  0
VERTEX
  8
AM_VIS
  5
A25
 10
14.9253
 20
1.48154
 30
0.000000
  70
    32
  0
VERTEX
  8
AM_VIS
  5
A26
 10
14.9262
 20
1.48306
 30
0.000000
  70
    32
  0
VERTEX
  8
AM_VIS
  5
A27
 10
14.9272
 20
1.48458
 30
0.000000
  70
    32
  0
VERTEX
  8
AM_VIS
  5
A28
 10
14.9282
 20
1.48611
 30
0.000000
  70
    32
  0
VERTEX
  8
AM_VIS
  5
A29
 10
14.9292
 20
1.48763
 30
0.000000
  70
    32
  0
VERTEX
  8
AM_VIS
  5
A2A
 10
14.9302
 20
1.48917
 30
0.000000
  70
    32
  0
VERTEX
  8
AM_VIS
  5
A2B
 10
14.9311
 20
1.49070
 30
0.000000
  70
    32
  0
VERTEX
  8
AM_VIS
  5
A2C
 10
14.9321
 20
1.49224
 30
0.000000
  70
    32
  0
VERTEX
  8
AM_VIS
  5
A2D
 10
14.9330
 20
1.49378
 30
0.000000
  70
    32
  0
VERTEX
  8
AM_VIS
  5
A2E
 10
14.9340
 20
1.49533
 30
0.000000
  70
    32
  0
VERTEX
  8
AM_VIS
  5
A2F
 10
14.9349
 20
1.49687
 30
0.000000
  70
    32
  0
VERTEX
  8
AM_VIS
  5
A30
 10
14.9359
 20
1.49843
 30
0.000000
  70
    32
  0
VERTEX
  8
AM_VIS
  5
A31
 10
14.9368
 20
1.49998
 30
0.000000
  70
    32
  0
VERTEX
  8
AM_VIS
  5
A32
 10
14.9377
 20
1.50154
 30
0.000000
  70
    32
  0
VERTEX
  8
AM_VIS
  5
A33
 10
14.9387
 20
1.50310
 30
0.000000
  70
    32
  0
VERTEX
  8
AM_VIS
  5
A34
 10
14.9396
 20
1.50467
 30
0.000000
  70
    32
  0
VERTEX
  8
AM_VIS
  5
A35
 10
14.9405
 20
1.50624
 30
0.000000
  70
    32
  0
VERTEX
  8
AM_VIS
  5
A36
 10
14.9414
 20
1.50782
 30
0.000000
  70
    32
  0
VERTEX
  8
AM_VIS
  5
A37
 10
14.9423
 20
1.50940
 30
0.000000
  70
    32
  0
VERTEX
  8
AM_VIS
  5
A38
 10
14.9432
 20
1.51098
 30
0.000000
  70
    32
  0
VERTEX
  8
AM_VIS
  5
A39
 10
14.9441
 20
1.51257
 30
0.000000
  70
    32
  0
VERTEX
  8
AM_VIS
  5
A3A
 10
14.9450
 20
1.51417
 30
0.000000
  70
    32
  0
VERTEX
  8
AM_VIS
  5
A3B
 10
14.9459
 20
1.51576
 30
0.000000
  70
    32
  0
VERTEX
  8
AM_VIS
  5
A3C
 10
14.9468
 20
1.51737
 30
0.000000
  70
    32
  0
VERTEX
  8
AM_VIS
  5
A3D
 10
14.9476
 20
1.51897
 30
0.000000
  70
    32
  0
VERTEX
  8
AM_VIS
  5
A3E
 10
14.9485
 20
1.52059
 30
0.000000
  70
    32
  0
VERTEX
  8
AM_VIS
  5
A3F
 10
14.9494
 20
1.52220
 30
0.000000
  70
    32
  0
VERTEX
  8
AM_VIS
  5
A40
 10
14.9502
 20
1.52382
 30
0.000000
  70
    32
  0
VERTEX
  8
AM_VIS
  5
A41
 10
14.9511
 20
1.52545
 30
0.000000
  70
    32
  0
VERTEX
  8
AM_VIS
  5
A42
 10
14.9519
 20
1.52708
 30
0.000000
  70
    32
  0
VERTEX
  8
AM_VIS
  5
A43
 10
14.9528
 20
1.52871
 30
0.000000
  70
    32
  0
VERTEX
  8
AM_VIS
  5
A44
 10
14.9536
 20
1.53035
 30
0.000000
  70
    32
  0
VERTEX
  8
AM_VIS
  5
A45
 10
14.9545
 20
1.53199
 30
0.000000
  70
    32
  0
VERTEX
  8
AM_VIS
  5
A46
 10
14.9553
 20
1.53364
 30
0.000000
  70
    32
  0
VERTEX
  8
AM_VIS
  5
A47
 10
14.9561
 20
1.53529
 30
0.000000
  70
    32
  0
VERTEX
  8
AM_VIS
  5
A48
 10
14.9569
 20
1.53694
 30
0.000000
  70
    32
  0
VERTEX
  8
AM_VIS
  5
A49
 10
14.9577
 20
1.53860
 30
0.000000
  70
    32
  0
VERTEX
  8
AM_VIS
  5
A4A
 10
14.9586
 20
1.54027
 30
0.000000
  70
    32
  0
VERTEX
  8
AM_VIS
  5
A4B
 10
14.9594
 20
1.54194
 30
0.000000
  70
    32
  0
VERTEX
  8
AM_VIS
  5
A4C
 10
14.9602
 20
1.54361
 30
0.000000
  70
    32
  0
VERTEX
  8
AM_VIS
  5
A4D
 10
14.9610
 20
1.54529
 30
0.000000
  70
    32
  0
VERTEX
  8
AM_VIS
  5
A4E
 10
14.9617
 20
1.54697
 30
0.000000
  70
    32
  0
VERTEX
  8
AM_VIS
  5
A4F
 10
14.9625
 20
1.54865
 30
0.000000
  70
    32
  0
VERTEX
  8
AM_VIS
  5
A50
 10
14.9633
 20
1.55034
 30
0.000000
  70
    32
  0
VERTEX
  8
AM_VIS
  5
A51
 10
14.9641
 20
1.55203
 30
0.000000
  70
    32
  0
VERTEX
  8
AM_VIS
  5
A52
 10
14.9649
 20
1.55373
 30
0.000000
  70
    32
  0
VERTEX
  8
AM_VIS
  5
A53
 10
14.9656
 20
1.55543
 30
0.000000
  70
    32
  0
VERTEX
  8
AM_VIS
  5
A54
 10
14.9664
 20
1.55714
 30
0.000000
  70
    32
  0
VERTEX
  8
AM_VIS
  5
A55
 10
14.9671
 20
1.55885
 30
0.000000
  70
    32
  0
VERTEX
  8
AM_VIS
  5
A56
 10
14.9679
 20
1.56056
 30
0.000000
  70
    32
  0
VERTEX
  8
AM_VIS
  5
A57
 10
14.9686
 20
1.56228
 30
0.000000
  70
    32
  0
VERTEX
  8
AM_VIS
  5
A58
 10
14.9694
 20
1.56400
 30
0.000000
  70
    32
  0
VERTEX
  8
AM_VIS
  5
A59
 10
14.9701
 20
1.56573
 30
0.000000
  70
    32
  0
VERTEX
  8
AM_VIS
  5
A5A
 10
14.9708
 20
1.56746
 30
0.000000
  70
    32
  0
VERTEX
  8
AM_VIS
  5
A5B
 10
14.9715
 20
1.56919
 30
0.000000
  70
    32
  0
VERTEX
  8
AM_VIS
  5
A5C
 10
14.9723
 20
1.57093
 30
0.000000
  70
    32
  0
VERTEX
  8
AM_VIS
  5
A5D
 10
14.9730
 20
1.57267
 30
0.000000
  70
    32
  0
VERTEX
  8
AM_VIS
  5
A5E
 10
14.9737
 20
1.57442
 30
0.000000
  70
    32
  0
VERTEX
  8
AM_VIS
  5
A5F
 10
14.9744
 20
1.57617
 30
0.000000
  70
    32
  0
VERTEX
  8
AM_VIS
  5
A60
 10
14.9751
 20
1.57792
 30
0.000000
  70
    32
  0
VERTEX
  8
AM_VIS
  5
A61
 10
14.9757
 20
1.57968
 30
0.000000
  70
    32
  0
VERTEX
  8
AM_VIS
  5
A62
 10
14.9764
 20
1.58144
 30
0.000000
  70
    32
  0
VERTEX
  8
AM_VIS
  5
A63
 10
14.9771
 20
1.58320
 30
0.000000
  70
    32
  0
VERTEX
  8
AM_VIS
  5
A64
 10
14.9778
 20
1.58497
 30
0.000000
  70
    32
  0
VERTEX
  8
AM_VIS
  5
A65
 10
14.9784
 20
1.58675
 30
0.000000
  70
    32
  0
VERTEX
  8
AM_VIS
  5
A66
 10
14.9791
 20
1.58852
 30
0.000000
  70
    32
  0
VERTEX
  8
AM_VIS
  5
A67
 10
14.9798
 20
1.59030
 30
0.000000
  70
    32
  0
VERTEX
  8
AM_VIS
  5
A68
 10
14.9804
 20
1.59209
 30
0.000000
  70
    32
  0
VERTEX
  8
AM_VIS
  5
A69
 10
14.9811
 20
1.59388
 30
0.000000
  70
    32
  0
VERTEX
  8
AM_VIS
  5
A6A
 10
14.9817
 20
1.59567
 30
0.000000
  70
    32
  0
VERTEX
  8
AM_VIS
  5
A6B
 10
14.9823
 20
1.59746
 30
0.000000
  70
    32
  0
VERTEX
  8
AM_VIS
  5
A6C
 10
14.9830
 20
1.59926
 30
0.000000
  70
    32
  0
VERTEX
  8
AM_VIS
  5
A6D
 10
14.9836
 20
1.60107
 30
0.000000
  70
    32
  0
VERTEX
  8
AM_VIS
  5
A6E
 10
14.9842
 20
1.60287
 30
0.000000
  70
    32
  0
VERTEX
  8
AM_VIS
  5
A6F
 10
14.9848
 20
1.60468
 30
0.000000
  70
    32
  0
VERTEX
  8
AM_VIS
  5
A70
 10
14.9854
 20
1.60650
 30
0.000000
  70
    32
  0
VERTEX
  8
AM_VIS
  5
A71
 10
14.9860
 20
1.60832
 30
0.000000
  70
    32
  0
VERTEX
  8
AM_VIS
  5
A72
 10
14.9866
 20
1.61014
 30
0.000000
  70
    32
  0
VERTEX
  8
AM_VIS
  5
A73
 10
14.9872
 20
1.61196
 30
0.000000
  70
    32
  0
VERTEX
  8
AM_VIS
  5
A74
 10
14.9878
 20
1.61379
 30
0.000000
  70
    32
  0
VERTEX
  8
AM_VIS
  5
A75
 10
14.9883
 20
1.61562
 30
0.000000
  70
    32
  0
VERTEX
  8
AM_VIS
  5
A76
 10
14.9889
 20
1.61746
 30
0.000000
  70
    32
  0
VERTEX
  8
AM_VIS
  5
A77
 10
14.9895
 20
1.61930
 30
0.000000
  70
    32
  0
VERTEX
  8
AM_VIS
  5
A78
 10
14.9900
 20
1.62114
 30
0.000000
  70
    32
  0
VERTEX
  8
AM_VIS
  5
A79
 10
14.9906
 20
1.62299
 30
0.000000
  70
    32
  0
VERTEX
  8
AM_VIS
  5
A7A
 10
14.9911
 20
1.62484
 30
0.000000
  70
    32
  0
VERTEX
  8
AM_VIS
  5
A7B
 10
14.9916
 20
1.62669
 30
0.000000
  70
    32
  0
VERTEX
  8
AM_VIS
  5
A7C
 10
14.9922
 20
1.62855
 30
0.000000
  70
    32
  0
VERTEX
  8
AM_VIS
  5
A7D
 10
14.9927
 20
1.63041
 30
0.000000
  70
    32
  0
VERTEX
  8
AM_VIS
  5
A7E
 10
14.9932
 20
1.63227
 30
0.000000
  70
    32
  0
VERTEX
  8
AM_VIS
  5
A7F
 10
14.9937
 20
1.63414
 30
0.000000
  70
    32
  0
VERTEX
  8
AM_VIS
  5
A80
 10
14.9942
 20
1.63601
 30
0.000000
  70
    32
  0
VERTEX
  8
AM_VIS
  5
A81
 10
14.9947
 20
1.63788
 30
0.000000
  70
    32
  0
VERTEX
  8
AM_VIS
  5
A82
 10
14.9952
 20
1.63976
 30
0.000000
  70
    32
  0
VERTEX
  8
AM_VIS
  5
A83
 10
14.9957
 20
1.64164
 30
0.000000
  70
    32
  0
VERTEX
  8
AM_VIS
  5
A84
 10
14.9962
 20
1.64353
 30
0.000000
  70
    32
  0
VERTEX
  8
AM_VIS
  5
A85
 10
14.9967
 20
1.64541
 30
0.000000
  70
    32
  0
VERTEX
  8
AM_VIS
  5
A86
 10
14.9972
 20
1.64731
 30
0.000000
  70
    32
  0
VERTEX
  8
AM_VIS
  5
A87
 10
14.9976
 20
1.64920
 30
0.000000
  70
    32
  0
VERTEX
  8
AM_VIS
  5
A88
 10
14.9981
 20
1.65110
 30
0.000000
  70
    32
  0
VERTEX
  8
AM_VIS
  5
A89
 10
14.9985
 20
1.65300
 30
0.000000
  70
    32
  0
VERTEX
  8
AM_VIS
  5
A8A
 10
14.9990
 20
1.65490
 30
0.000000
  70
    32
  0
VERTEX
  8
AM_VIS
  5
A8B
 10
14.9994
 20
1.65681
 30
0.000000
  70
    32
  0
VERTEX
  8
AM_VIS
  5
A8C
 10
14.9998
 20
1.65872
 30
0.000000
  70
    32
  0
VERTEX
  8
AM_VIS
  5
A8D
 10
15.0003
 20
1.66063
 30
0.000000
  70
    32
  0
VERTEX
  8
AM_VIS
  5
A8E
 10
15.0007
 20
1.66255
 30
0.000000
  70
    32
  0
VERTEX
  8
AM_VIS
  5
A8F
 10
15.0011
 20
1.66447
 30
0.000000
  70
    32
  0
VERTEX
  8
AM_VIS
  5
A90
 10
15.0015
 20
1.66639
 30
0.000000
  70
    32
  0
VERTEX
  8
AM_VIS
  5
A91
 10
15.0019
 20
1.66832
 30
0.000000
  70
    32
  0
VERTEX
  8
AM_VIS
  5
A92
 10
15.0023
 20
1.67025
 30
0.000000
  70
    32
  0
VERTEX
  8
AM_VIS
  5
A93
 10
15.0027
 20
1.67218
 30
0.000000
  70
    32
  0
VERTEX
  8
AM_VIS
  5
A94
 10
15.0031
 20
1.67412
 30
0.000000
  70
    32
  0
VERTEX
  8
AM_VIS
  5
A95
 10
15.0034
 20
1.67606
 30
0.000000
  70
    32
  0
VERTEX
  8
AM_VIS
  5
A96
 10
15.0038
 20
1.67800
 30
0.000000
  70
    32
  0
VERTEX
  8
AM_VIS
  5
A97
 10
15.0042
 20
1.67995
 30
0.000000
  70
    32
  0
VERTEX
  8
AM_VIS
  5
A98
 10
15.0045
 20
1.68189
 30
0.000000
  70
    32
  0
VERTEX
  8
AM_VIS
  5
A99
 10
15.0049
 20
1.68384
 30
0.000000
  70
    32
  0
VERTEX
  8
AM_VIS
  5
A9A
 10
15.0052
 20
1.68580
 30
0.000000
  70
    32
  0
VERTEX
  8
AM_VIS
  5
A9B
 10
15.0056
 20
1.68776
 30
0.000000
  70
    32
  0
VERTEX
  8
AM_VIS
  5
A9C
 10
15.0059
 20
1.68972
 30
0.000000
  70
    32
  0
VERTEX
  8
AM_VIS
  5
A9D
 10
15.0062
 20
1.69168
 30
0.000000
  70
    32
  0
VERTEX
  8
AM_VIS
  5
A9E
 10
15.0065
 20
1.69365
 30
0.000000
  70
    32
  0
VERTEX
  8
AM_VIS
  5
A9F
 10
15.0068
 20
1.69561
 30
0.000000
  70
    32
  0
VERTEX
  8
AM_VIS
  5
AA0
 10
15.0071
 20
1.69758
 30
0.000000
  70
    32
  0
VERTEX
  8
AM_VIS
  5
AA1
 10
15.0074
 20
1.69956
 30
0.000000
  70
    32
  0
VERTEX
  8
AM_VIS
  5
AA2
 10
15.0077
 20
1.70153
 30
0.000000
  70
    32
  0
VERTEX
  8
AM_VIS
  5
AA3
 10
15.0080
 20
1.70350
 30
0.000000
  70
    32
  0
VERTEX
  8
AM_VIS
  5
AA4
 10
15.0083
 20
1.70548
 30
0.000000
  70
    32
  0
VERTEX
  8
AM_VIS
  5
AA5
 10
15.0085
 20
1.70745
 30
0.000000
  70
    32
  0
VERTEX
  8
AM_VIS
  5
AA6
 10
15.0088
 20
1.70943
 30
0.000000
  70
    32
  0
VERTEX
  8
AM_VIS
  5
AA7
 10
15.0090
 20
1.71140
 30
0.000000
  70
    32
  0
VERTEX
  8
AM_VIS
  5
AA8
 10
15.0093
 20
1.71338
 30
0.000000
  70
    32
  0
VERTEX
  8
AM_VIS
  5
AA9
 10
15.0095
 20
1.71536
 30
0.000000
  70
    32
  0
VERTEX
  8
AM_VIS
  5
AAA
 10
15.0098
 20
1.71734
 30
0.000000
  70
    32
  0
VERTEX
  8
AM_VIS
  5
AAB
 10
15.0100
 20
1.71932
 30
0.000000
  70
    32
  0
VERTEX
  8
AM_VIS
  5
AAC
 10
15.0102
 20
1.72130
 30
0.000000
  70
    32
  0
VERTEX
  8
AM_VIS
  5
AAD
 10
15.0104
 20
1.72328
 30
0.000000
  70
    32
  0
VERTEX
  8
AM_VIS
  5
AAE
 10
15.0106
 20
1.72526
 30
0.000000
  70
    32
  0
VERTEX
  8
AM_VIS
  5
AAF
 10
15.0108
 20
1.72725
 30
0.000000
  70
    32
  0
VERTEX
  8
AM_VIS
  5
AB0
 10
15.0110
 20
1.72923
 30
0.000000
  70
    32
  0
VERTEX
  8
AM_VIS
  5
AB1
 10
15.0112
 20
1.73122
 30
0.000000
  70
    32
  0
VERTEX
  8
AM_VIS
  5
AB2
 10
15.0113
 20
1.73320
 30
0.000000
  70
    32
  0
VERTEX
  8
AM_VIS
  5
AB3
 10
15.0115
 20
1.73519
 30
0.000000
  70
    32
  0
VERTEX
  8
AM_VIS
  5
AB4
 10
15.0117
 20
1.73717
 30
0.000000
  70
    32
  0
VERTEX
  8
AM_VIS
  5
AB5
 10
15.0118
 20
1.73916
 30
0.000000
  70
    32
  0
VERTEX
  8
AM_VIS
  5
AB6
 10
15.0120
 20
1.74115
 30
0.000000
  70
    32
  0
VERTEX
  8
AM_VIS
  5
AB7
 10
15.0121
 20
1.74314
 30
0.000000
  70
    32
  0
VERTEX
  8
AM_VIS
  5
AB8
 10
15.0122
 20
1.74513
 30
0.000000
  70
    32
  0
VERTEX
  8
AM_VIS
  5
AB9
 10
15.0124
 20
1.74712
 30
0.000000
  70
    32
  0
VERTEX
  8
AM_VIS
  5
ABA
 10
15.0125
 20
1.74911
 30
0.000000
  70
    32
  0
VERTEX
  8
AM_VIS
  5
ABB
 10
15.0126
 20
1.75110
 30
0.000000
  70
    32
  0
VERTEX
  8
AM_VIS
  5
ABC
 10
15.0127
 20
1.75309
 30
0.000000
  70
    32
  0
VERTEX
  8
AM_VIS
  5
ABD
 10
15.0128
 20
1.75508
 30
0.000000
  70
    32
  0
VERTEX
  8
AM_VIS
  5
ABE
 10
15.0129
 20
1.75708
 30
0.000000
  70
    32
  0
VERTEX
  8
AM_VIS
  5
ABF
 10
15.0130
 20
1.75907
 30
0.000000
  70
    32
  0
VERTEX
  8
AM_VIS
  5
AC0
 10
15.0130
 20
1.76106
 30
0.000000
  70
    32
  0
VERTEX
  8
AM_VIS
  5
AC1
 10
15.0131
 20
1.76306
 30
0.000000
  70
    32
  0
VERTEX
  8
AM_VIS
  5
AC2
 10
15.0132
 20
1.76505
 30
0.000000
  70
    32
  0
VERTEX
  8
AM_VIS
  5
AC3
 10
15.0132
 20
1.76705
 30
0.000000
  70
    32
  0
VERTEX
  8
AM_VIS
  5
AC4
 10
15.0133
 20
1.76904
 30
0.000000
  70
    32
  0
VERTEX
  8
AM_VIS
  5
AC5
 10
15.0133
 20
1.77104
 30
0.000000
  70
    32
  0
VERTEX
  8
AM_VIS
  5
AC6
 10
15.0133
 20
1.77303
 30
0.000000
  70
    32
  0
VERTEX
  8
AM_VIS
  5
AC7
 10
15.0134
 20
1.77503
 30
0.000000
  70
    32
  0
VERTEX
  8
AM_VIS
  5
AC8
 10
15.0134
 20
1.77703
 30
0.000000
  70
    32
  0
VERTEX
  8
AM_VIS
  5
AC9
 10
15.0134
 20
1.77902
 30
0.000000
  70
    32
  0
VERTEX
  8
AM_VIS
  5
ACA
 10
15.0134
 20
1.78102
 30
0.000000
  70
    32
  0
SEQEND
  8
AM_VIS
  5
ACB
  0
POLYLINE
  8
AM_VIS
  5
ACC
  66
     1
 10
0.000000
 20
0.000000
 30
0.000000
  70
     8
  0
VERTEX
  8
AM_VIS
  5
ACD
 10
14.1842
 20
1.78102
 30
0.000000
  70
    32
  0
VERTEX
  8
AM_VIS
  5
ACE
 10
14.1842
 20
1.77907
 30
0.000000
  70
    32
  0
VERTEX
  8
AM_VIS
  5
ACF
 10
14.1842
 20
1.77712
 30
0.000000
  70
    32
  0
VERTEX
  8
AM_VIS
  5
AD0
 10
14.1842
 20
1.77517
 30
0.000000
  70
    32
  0
VERTEX
  8
AM_VIS
  5
AD1
 10
14.1842
 20
1.77322
 30
0.000000
  70
    32
  0
VERTEX
  8
AM_VIS
  5
AD2
 10
14.1842
 20
1.77128
 30
0.000000
  70
    32
  0
VERTEX
  8
AM_VIS
  5
AD3
 10
14.1843
 20
1.76933
 30
0.000000
  70
    32
  0
VERTEX
  8
AM_VIS
  5
AD4
 10
14.1843
 20
1.76738
 30
0.000000
  70
    32
  0
VERTEX
  8
AM_VIS
  5
AD5
 10
14.1844
 20
1.76544
 30
0.000000
  70
    32
  0
VERTEX
  8
AM_VIS
  5
AD6
 10
14.1844
 20
1.76349
 30
0.000000
  70
    32
  0
VERTEX
  8
AM_VIS
  5
AD7
 10
14.1845
 20
1.76154
 30
0.000000
  70
    32
  0
VERTEX
  8
AM_VIS
  5
AD8
 10
14.1846
 20
1.75960
 30
0.000000
  70
    32
  0
VERTEX
  8
AM_VIS
  5
AD9
 10
14.1846
 20
1.75766
 30
0.000000
  70
    32
  0
VERTEX
  8
AM_VIS
  5
ADA
 10
14.1847
 20
1.75571
 30
0.000000
  70
    32
  0
VERTEX
  8
AM_VIS
  5
ADB
 10
14.1848
 20
1.75377
 30
0.000000
  70
    32
  0
VERTEX
  8
AM_VIS
  5
ADC
 10
14.1849
 20
1.75183
 30
0.000000
  70
    32
  0
VERTEX
  8
AM_VIS
  5
ADD
 10
14.1850
 20
1.74989
 30
0.000000
  70
    32
  0
VERTEX
  8
AM_VIS
  5
ADE
 10
14.1851
 20
1.74795
 30
0.000000
  70
    32
  0
VERTEX
  8
AM_VIS
  5
ADF
 10
14.1852
 20
1.74601
 30
0.000000
  70
    32
  0
VERTEX
  8
AM_VIS
  5
AE0
 10
14.1854
 20
1.74407
 30
0.000000
  70
    32
  0
VERTEX
  8
AM_VIS
  5
AE1
 10
14.1855
 20
1.74214
 30
0.000000
  70
    32
  0
VERTEX
  8
AM_VIS
  5
AE2
 10
14.1856
 20
1.74020
 30
0.000000
  70
    32
  0
VERTEX
  8
AM_VIS
  5
AE3
 10
14.1858
 20
1.73826
 30
0.000000
  70
    32
  0
VERTEX
  8
AM_VIS
  5
AE4
 10
14.1859
 20
1.73633
 30
0.000000
  70
    32
  0
VERTEX
  8
AM_VIS
  5
AE5
 10
14.1861
 20
1.73439
 30
0.000000
  70
    32
  0
VERTEX
  8
AM_VIS
  5
AE6
 10
14.1863
 20
1.73246
 30
0.000000
  70
    32
  0
VERTEX
  8
AM_VIS
  5
AE7
 10
14.1864
 20
1.73053
 30
0.000000
  70
    32
  0
VERTEX
  8
AM_VIS
  5
AE8
 10
14.1866
 20
1.72860
 30
0.000000
  70
    32
  0
VERTEX
  8
AM_VIS
  5
AE9
 10
14.1868
 20
1.72667
 30
0.000000
  70
    32
  0
VERTEX
  8
AM_VIS
  5
AEA
 10
14.1870
 20
1.72474
 30
0.000000
  70
    32
  0
VERTEX
  8
AM_VIS
  5
AEB
 10
14.1872
 20
1.72281
 30
0.000000
  70
    32
  0
VERTEX
  8
AM_VIS
  5
AEC
 10
14.1874
 20
1.72088
 30
0.000000
  70
    32
  0
VERTEX
  8
AM_VIS
  5
AED
 10
14.1876
 20
1.71896
 30
0.000000
  70
    32
  0
VERTEX
  8
AM_VIS
  5
AEE
 10
14.1878
 20
1.71703
 30
0.000000
  70
    32
  0
VERTEX
  8
AM_VIS
  5
AEF
 10
14.1880
 20
1.71511
 30
0.000000
  70
    32
  0
VERTEX
  8
AM_VIS
  5
AF0
 10
14.1883
 20
1.71319
 30
0.000000
  70
    32
  0
VERTEX
  8
AM_VIS
  5
AF1
 10
14.1885
 20
1.71126
 30
0.000000
  70
    32
  0
VERTEX
  8
AM_VIS
  5
AF2
 10
14.1888
 20
1.70934
 30
0.000000
  70
    32
  0
VERTEX
  8
AM_VIS
  5
AF3
 10
14.1890
 20
1.70742
 30
0.000000
  70
    32
  0
VERTEX
  8
AM_VIS
  5
AF4
 10
14.1893
 20
1.70551
 30
0.000000
  70
    32
  0
VERTEX
  8
AM_VIS
  5
AF5
 10
14.1895
 20
1.70359
 30
0.000000
  70
    32
  0
VERTEX
  8
AM_VIS
  5
AF6
 10
14.1898
 20
1.70167
 30
0.000000
  70
    32
  0
VERTEX
  8
AM_VIS
  5
AF7
 10
14.1901
 20
1.69976
 30
0.000000
  70
    32
  0
VERTEX
  8
AM_VIS
  5
AF8
 10
14.1904
 20
1.69784
 30
0.000000
  70
    32
  0
VERTEX
  8
AM_VIS
  5
AF9
 10
14.1907
 20
1.69593
 30
0.000000
  70
    32
  0
VERTEX
  8
AM_VIS
  5
AFA
 10
14.1910
 20
1.69402
 30
0.000000
  70
    32
  0
VERTEX
  8
AM_VIS
  5
AFB
 10
14.1913
 20
1.69211
 30
0.000000
  70
    32
  0
VERTEX
  8
AM_VIS
  5
AFC
 10
14.1916
 20
1.69020
 30
0.000000
  70
    32
  0
VERTEX
  8
AM_VIS
  5
AFD
 10
14.1919
 20
1.68830
 30
0.000000
  70
    32
  0
VERTEX
  8
AM_VIS
  5
AFE
 10
14.1922
 20
1.68639
 30
0.000000
  70
    32
  0
VERTEX
  8
AM_VIS
  5
AFF
 10
14.1925
 20
1.68449
 30
0.000000
  70
    32
  0
VERTEX
  8
AM_VIS
  5
B00
 10
14.1929
 20
1.68258
 30
0.000000
  70
    32
  0
VERTEX
  8
AM_VIS
  5
B01
 10
14.1932
 20
1.68068
 30
0.000000
  70
    32
  0
VERTEX
  8
AM_VIS
  5
B02
 10
14.1936
 20
1.67878
 30
0.000000
  70
    32
  0
VERTEX
  8
AM_VIS
  5
B03
 10
14.1939
 20
1.67689
 30
0.000000
  70
    32
  0
VERTEX
  8
AM_VIS
  5
B04
 10
14.1943
 20
1.67499
 30
0.000000
  70
    32
  0
VERTEX
  8
AM_VIS
  5
B05
 10
14.1947
 20
1.67309
 30
0.000000
  70
    32
  0
VERTEX
  8
AM_VIS
  5
B06
 10
14.1950
 20
1.67120
 30
0.000000
  70
    32
  0
VERTEX
  8
AM_VIS
  5
B07
 10
14.1954
 20
1.66931
 30
0.000000
  70
    32
  0
VERTEX
  8
AM_VIS
  5
B08
 10
14.1958
 20
1.66742
 30
0.000000
  70
    32
  0
VERTEX
  8
AM_VIS
  5
B09
 10
14.1962
 20
1.66553
 30
0.000000
  70
    32
  0
VERTEX
  8
AM_VIS
  5
B0A
 10
14.1966
 20
1.66364
 30
0.000000
  70
    32
  0
VERTEX
  8
AM_VIS
  5
B0B
 10
14.1970
 20
1.66175
 30
0.000000
  70
    32
  0
VERTEX
  8
AM_VIS
  5
B0C
 10
14.1974
 20
1.65987
 30
0.000000
  70
    32
  0
VERTEX
  8
AM_VIS
  5
B0D
 10
14.1979
 20
1.65799
 30
0.000000
  70
    32
  0
VERTEX
  8
AM_VIS
  5
B0E
 10
14.1983
 20
1.65610
 30
0.000000
  70
    32
  0
VERTEX
  8
AM_VIS
  5
B0F
 10
14.1987
 20
1.65423
 30
0.000000
  70
    32
  0
VERTEX
  8
AM_VIS
  5
B10
 10
14.1992
 20
1.65235
 30
0.000000
  70
    32
  0
VERTEX
  8
AM_VIS
  5
B11
 10
14.1996
 20
1.65047
 30
0.000000
  70
    32
  0
VERTEX
  8
AM_VIS
  5
B12
 10
14.2001
 20
1.64860
 30
0.000000
  70
    32
  0
VERTEX
  8
AM_VIS
  5
B13
 10
14.2005
 20
1.64672
 30
0.000000
  70
    32
  0
VERTEX
  8
AM_VIS
  5
B14
 10
14.2010
 20
1.64485
 30
0.000000
  70
    32
  0
VERTEX
  8
AM_VIS
  5
B15
 10
14.2015
 20
1.64298
 30
0.000000
  70
    32
  0
VERTEX
  8
AM_VIS
  5
B16
 10
14.2019
 20
1.64112
 30
0.000000
  70
    32
  0
VERTEX
  8
AM_VIS
  5
B17
 10
14.2024
 20
1.63925
 30
0.000000
  70
    32
  0
VERTEX
  8
AM_VIS
  5
B18
 10
14.2029
 20
1.63739
 30
0.000000
  70
    32
  0
VERTEX
  8
AM_VIS
  5
B19
 10
14.2034
 20
1.63553
 30
0.000000
  70
    32
  0
VERTEX
  8
AM_VIS
  5
B1A
 10
14.2039
 20
1.63367
 30
0.000000
  70
    32
  0
VERTEX
  8
AM_VIS
  5
B1B
 10
14.2045
 20
1.63181
 30
0.000000
  70
    32
  0
VERTEX
  8
AM_VIS
  5
B1C
 10
14.2050
 20
1.62995
 30
0.000000
  70
    32
  0
VERTEX
  8
AM_VIS
  5
B1D
 10
14.2055
 20
1.62810
 30
0.000000
  70
    32
  0
VERTEX
  8
AM_VIS
  5
B1E
 10
14.2060
 20
1.62625
 30
0.000000
  70
    32
  0
VERTEX
  8
AM_VIS
  5
B1F
 10
14.2066
 20
1.62440
 30
0.000000
  70
    32
  0
VERTEX
  8
AM_VIS
  5
B20
 10
14.2071
 20
1.62255
 30
0.000000
  70
    32
  0
VERTEX
  8
AM_VIS
  5
B21
 10
14.2077
 20
1.62070
 30
0.000000
  70
    32
  0
VERTEX
  8
AM_VIS
  5
B22
 10
14.2082
 20
1.61886
 30
0.000000
  70
    32
  0
VERTEX
  8
AM_VIS
  5
B23
 10
14.2088
 20
1.61702
 30
0.000000
  70
    32
  0
VERTEX
  8
AM_VIS
  5
B24
 10
14.2094
 20
1.61518
 30
0.000000
  70
    32
  0
VERTEX
  8
AM_VIS
  5
B25
 10
14.2099
 20
1.61334
 30
0.000000
  70
    32
  0
VERTEX
  8
AM_VIS
  5
B26
 10
14.2105
 20
1.61150
 30
0.000000
  70
    32
  0
VERTEX
  8
AM_VIS
  5
B27
 10
14.2111
 20
1.60967
 30
0.000000
  70
    32
  0
VERTEX
  8
AM_VIS
  5
B28
 10
14.2117
 20
1.60784
 30
0.000000
  70
    32
  0
VERTEX
  8
AM_VIS
  5
B29
 10
14.2123
 20
1.60601
 30
0.000000
  70
    32
  0
VERTEX
  8
AM_VIS
  5
B2A
 10
14.2129
 20
1.60418
 30
0.000000
  70
    32
  0
VERTEX
  8
AM_VIS
  5
B2B
 10
14.2135
 20
1.60236
 30
0.000000
  70
    32
  0
VERTEX
  8
AM_VIS
  5
B2C
 10
14.2142
 20
1.60054
 30
0.000000
  70
    32
  0
VERTEX
  8
AM_VIS
  5
B2D
 10
14.2148
 20
1.59872
 30
0.000000
  70
    32
  0
VERTEX
  8
AM_VIS
  5
B2E
 10
14.2154
 20
1.59690
 30
0.000000
  70
    32
  0
VERTEX
  8
AM_VIS
  5
B2F
 10
14.2161
 20
1.59508
 30
0.000000
  70
    32
  0
VERTEX
  8
AM_VIS
  5
B30
 10
14.2167
 20
1.59327
 30
0.000000
  70
    32
  0
VERTEX
  8
AM_VIS
  5
B31
 10
14.2174
 20
1.59146
 30
0.000000
  70
    32
  0
VERTEX
  8
AM_VIS
  5
B32
 10
14.2180
 20
1.58965
 30
0.000000
  70
    32
  0
VERTEX
  8
AM_VIS
  5
B33
 10
14.2187
 20
1.58784
 30
0.000000
  70
    32
  0
VERTEX
  8
AM_VIS
  5
B34
 10
14.2194
 20
1.58604
 30
0.000000
  70
    32
  0
VERTEX
  8
AM_VIS
  5
B35
 10
14.2200
 20
1.58423
 30
0.000000
  70
    32
  0
VERTEX
  8
AM_VIS
  5
B36
 10
14.2207
 20
1.58244
 30
0.000000
  70
    32
  0
VERTEX
  8
AM_VIS
  5
B37
 10
14.2214
 20
1.58064
 30
0.000000
  70
    32
  0
VERTEX
  8
AM_VIS
  5
B38
 10
14.2221
 20
1.57885
 30
0.000000
  70
    32
  0
VERTEX
  8
AM_VIS
  5
B39
 10
14.2228
 20
1.57706
 30
0.000000
  70
    32
  0
VERTEX
  8
AM_VIS
  5
B3A
 10
14.2235
 20
1.57528
 30
0.000000
  70
    32
  0
VERTEX
  8
AM_VIS
  5
B3B
 10
14.2242
 20
1.57349
 30
0.000000
  70
    32
  0
VERTEX
  8
AM_VIS
  5
B3C
 10
14.2250
 20
1.57172
 30
0.000000
  70
    32
  0
VERTEX
  8
AM_VIS
  5
B3D
 10
14.2257
 20
1.56994
 30
0.000000
  70
    32
  0
VERTEX
  8
AM_VIS
  5
B3E
 10
14.2264
 20
1.56817
 30
0.000000
  70
    32
  0
VERTEX
  8
AM_VIS
  5
B3F
 10
14.2272
 20
1.56641
 30
0.000000
  70
    32
  0
VERTEX
  8
AM_VIS
  5
B40
 10
14.2279
 20
1.56464
 30
0.000000
  70
    32
  0
VERTEX
  8
AM_VIS
  5
B41
 10
14.2287
 20
1.56288
 30
0.000000
  70
    32
  0
VERTEX
  8
AM_VIS
  5
B42
 10
14.2294
 20
1.56113
 30
0.000000
  70
    32
  0
VERTEX
  8
AM_VIS
  5
B43
 10
14.2302
 20
1.55938
 30
0.000000
  70
    32
  0
VERTEX
  8
AM_VIS
  5
B44
 10
14.2309
 20
1.55763
 30
0.000000
  70
    32
  0
VERTEX
  8
AM_VIS
  5
B45
 10
14.2317
 20
1.55589
 30
0.000000
  70
    32
  0
VERTEX
  8
AM_VIS
  5
B46
 10
14.2325
 20
1.55415
 30
0.000000
  70
    32
  0
VERTEX
  8
AM_VIS
  5
B47
 10
14.2333
 20
1.55241
 30
0.000000
  70
    32
  0
VERTEX
  8
AM_VIS
  5
B48
 10
14.2341
 20
1.55068
 30
0.000000
  70
    32
  0
VERTEX
  8
AM_VIS
  5
B49
 10
14.2349
 20
1.54895
 30
0.000000
  70
    32
  0
VERTEX
  8
AM_VIS
  5
B4A
 10
14.2357
 20
1.54722
 30
0.000000
  70
    32
  0
VERTEX
  8
AM_VIS
  5
B4B
 10
14.2365
 20
1.54550
 30
0.000000
  70
    32
  0
VERTEX
  8
AM_VIS
  5
B4C
 10
14.2373
 20
1.54379
 30
0.000000
  70
    32
  0
VERTEX
  8
AM_VIS
  5
B4D
 10
14.2381
 20
1.54207
 30
0.000000
  70
    32
  0
VERTEX
  8
AM_VIS
  5
B4E
 10
14.2389
 20
1.54037
 30
0.000000
  70
    32
  0
VERTEX
  8
AM_VIS
  5
B4F
 10
14.2398
 20
1.53866
 30
0.000000
  70
    32
  0
VERTEX
  8
AM_VIS
  5
B50
 10
14.2406
 20
1.53696
 30
0.000000
  70
    32
  0
VERTEX
  8
AM_VIS
  5
B51
 10
14.2414
 20
1.53526
 30
0.000000
  70
    32
  0
VERTEX
  8
AM_VIS
  5
B52
 10
14.2423
 20
1.53357
 30
0.000000
  70
    32
  0
VERTEX
  8
AM_VIS
  5
B53
 10
14.2431
 20
1.53188
 30
0.000000
  70
    32
  0
VERTEX
  8
AM_VIS
  5
B54
 10
14.2440
 20
1.53020
 30
0.000000
  70
    32
  0
VERTEX
  8
AM_VIS
  5
B55
 10
14.2449
 20
1.52852
 30
0.000000
  70
    32
  0
VERTEX
  8
AM_VIS
  5
B56
 10
14.2457
 20
1.52684
 30
0.000000
  70
    32
  0
VERTEX
  8
AM_VIS
  5
B57
 10
14.2466
 20
1.52517
 30
0.000000
  70
    32
  0
VERTEX
  8
AM_VIS
  5
B58
 10
14.2475
 20
1.52350
 30
0.000000
  70
    32
  0
VERTEX
  8
AM_VIS
  5
B59
 10
14.2484
 20
1.52184
 30
0.000000
  70
    32
  0
VERTEX
  8
AM_VIS
  5
B5A
 10
14.2493
 20
1.52018
 30
0.000000
  70
    32
  0
VERTEX
  8
AM_VIS
  5
B5B
 10
14.2502
 20
1.51852
 30
0.000000
  70
    32
  0
VERTEX
  8
AM_VIS
  5
B5C
 10
14.2511
 20
1.51687
 30
0.000000
  70
    32
  0
VERTEX
  8
AM_VIS
  5
B5D
 10
14.2520
 20
1.51522
 30
0.000000
  70
    32
  0
VERTEX
  8
AM_VIS
  5
B5E
 10
14.2529
 20
1.51358
 30
0.000000
  70
    32
  0
VERTEX
  8
AM_VIS
  5
B5F
 10
14.2538
 20
1.51194
 30
0.000000
  70
    32
  0
VERTEX
  8
AM_VIS
  5
B60
 10
14.2547
 20
1.51031
 30
0.000000
  70
    32
  0
VERTEX
  8
AM_VIS
  5
B61
 10
14.2556
 20
1.50868
 30
0.000000
  70
    32
  0
VERTEX
  8
AM_VIS
  5
B62
 10
14.2566
 20
1.50705
 30
0.000000
  70
    32
  0
VERTEX
  8
AM_VIS
  5
B63
 10
14.2575
 20
1.50543
 30
0.000000
  70
    32
  0
VERTEX
  8
AM_VIS
  5
B64
 10
14.2585
 20
1.50382
 30
0.000000
  70
    32
  0
VERTEX
  8
AM_VIS
  5
B65
 10
14.2594
 20
1.50221
 30
0.000000
  70
    32
  0
VERTEX
  8
AM_VIS
  5
B66
 10
14.2604
 20
1.50060
 30
0.000000
  70
    32
  0
VERTEX
  8
AM_VIS
  5
B67
 10
14.2613
 20
1.49899
 30
0.000000
  70
    32
  0
VERTEX
  8
AM_VIS
  5
B68
 10
14.2623
 20
1.49740
 30
0.000000
  70
    32
  0
VERTEX
  8
AM_VIS
  5
B69
 10
14.2633
 20
1.49580
 30
0.000000
  70
    32
  0
VERTEX
  8
AM_VIS
  5
B6A
 10
14.2642
 20
1.49421
 30
0.000000
  70
    32
  0
VERTEX
  8
AM_VIS
  5
B6B
 10
14.2652
 20
1.49263
 30
0.000000
  70
    32
  0
VERTEX
  8
AM_VIS
  5
B6C
 10
14.2662
 20
1.49105
 30
0.000000
  70
    32
  0
VERTEX
  8
AM_VIS
  5
B6D
 10
14.2672
 20
1.48947
 30
0.000000
  70
    32
  0
VERTEX
  8
AM_VIS
  5
B6E
 10
14.2682
 20
1.48790
 30
0.000000
  70
    32
  0
VERTEX
  8
AM_VIS
  5
B6F
 10
14.2692
 20
1.48633
 30
0.000000
  70
    32
  0
VERTEX
  8
AM_VIS
  5
B70
 10
14.2702
 20
1.48477
 30
0.000000
  70
    32
  0
VERTEX
  8
AM_VIS
  5
B71
 10
14.2712
 20
1.48321
 30
0.000000
  70
    32
  0
VERTEX
  8
AM_VIS
  5
B72
 10
14.2722
 20
1.48166
 30
0.000000
  70
    32
  0
VERTEX
  8
AM_VIS
  5
B73
 10
14.2732
 20
1.48011
 30
0.000000
  70
    32
  0
VERTEX
  8
AM_VIS
  5
B74
 10
14.2743
 20
1.47857
 30
0.000000
  70
    32
  0
VERTEX
  8
AM_VIS
  5
B75
 10
14.2753
 20
1.47703
 30
0.000000
  70
    32
  0
VERTEX
  8
AM_VIS
  5
B76
 10
14.2763
 20
1.47550
 30
0.000000
  70
    32
  0
VERTEX
  8
AM_VIS
  5
B77
 10
14.2774
 20
1.47397
 30
0.000000
  70
    32
  0
VERTEX
  8
AM_VIS
  5
B78
 10
14.2784
 20
1.47244
 30
0.000000
  70
    32
  0
VERTEX
  8
AM_VIS
  5
B79
 10
14.2795
 20
1.47092
 30
0.000000
  70
    32
  0
VERTEX
  8
AM_VIS
  5
B7A
 10
14.2805
 20
1.46941
 30
0.000000
  70
    32
  0
VERTEX
  8
AM_VIS
  5
B7B
 10
14.2816
 20
1.46790
 30
0.000000
  70
    32
  0
VERTEX
  8
AM_VIS
  5
B7C
 10
14.2826
 20
1.46639
 30
0.000000
  70
    32
  0
VERTEX
  8
AM_VIS
  5
B7D
 10
14.2837
 20
1.46489
 30
0.000000
  70
    32
  0
VERTEX
  8
AM_VIS
  5
B7E
 10
14.2848
 20
1.46340
 30
0.000000
  70
    32
  0
VERTEX
  8
AM_VIS
  5
B7F
 10
14.2859
 20
1.46191
 30
0.000000
  70
    32
  0
VERTEX
  8
AM_VIS
  5
B80
 10
14.2869
 20
1.46042
 30
0.000000
  70
    32
  0
VERTEX
  8
AM_VIS
  5
B81
 10
14.2880
 20
1.45894
 30
0.000000
  70
    32
  0
VERTEX
  8
AM_VIS
  5
B82
 10
14.2891
 20
1.45746
 30
0.000000
  70
    32
  0
VERTEX
  8
AM_VIS
  5
B83
 10
14.2902
 20
1.45599
 30
0.000000
  70
    32
  0
VERTEX
  8
AM_VIS
  5
B84
 10
14.2913
 20
1.45453
 30
0.000000
  70
    32
  0
VERTEX
  8
AM_VIS
  5
B85
 10
14.2924
 20
1.45307
 30
0.000000
  70
    32
  0
VERTEX
  8
AM_VIS
  5
B86
 10
14.2936
 20
1.45161
 30
0.000000
  70
    32
  0
VERTEX
  8
AM_VIS
  5
B87
 10
14.2947
 20
1.45016
 30
0.000000
  70
    32
  0
VERTEX
  8
AM_VIS
  5
B88
 10
14.2958
 20
1.44871
 30
0.000000
  70
    32
  0
VERTEX
  8
AM_VIS
  5
B89
 10
14.2969
 20
1.44727
 30
0.000000
  70
    32
  0
VERTEX
  8
AM_VIS
  5
B8A
 10
14.2981
 20
1.44584
 30
0.000000
  70
    32
  0
VERTEX
  8
AM_VIS
  5
B8B
 10
14.2992
 20
1.44441
 30
0.000000
  70
    32
  0
VERTEX
  8
AM_VIS
  5
B8C
 10
14.3003
 20
1.44298
 30
0.000000
  70
    32
  0
VERTEX
  8
AM_VIS
  5
B8D
 10
14.3015
 20
1.44156
 30
0.000000
  70
    32
  0
VERTEX
  8
AM_VIS
  5
B8E
 10
14.3026
 20
1.44015
 30
0.000000
  70
    32
  0
VERTEX
  8
AM_VIS
  5
B8F
 10
14.3038
 20
1.43874
 30
0.000000
  70
    32
  0
VERTEX
  8
AM_VIS
  5
B90
 10
14.3050
 20
1.43734
 30
0.000000
  70
    32
  0
VERTEX
  8
AM_VIS
  5
B91
 10
14.3061
 20
1.43594
 30
0.000000
  70
    32
  0
VERTEX
  8
AM_VIS
  5
B92
 10
14.3073
 20
1.43454
 30
0.000000
  70
    32
  0
VERTEX
  8
AM_VIS
  5
B93
 10
14.3085
 20
1.43315
 30
0.000000
  70
    32
  0
VERTEX
  8
AM_VIS
  5
B94
 10
14.3096
 20
1.43177
 30
0.000000
  70
    32
  0
VERTEX
  8
AM_VIS
  5
B95
 10
14.3108
 20
1.43039
 30
0.000000
  70
    32
  0
VERTEX
  8
AM_VIS
  5
B96
 10
14.3120
 20
1.42902
 30
0.000000
  70
    32
  0
VERTEX
  8
AM_VIS
  5
B97
 10
14.3132
 20
1.42765
 30
0.000000
  70
    32
  0
VERTEX
  8
AM_VIS
  5
B98
 10
14.3144
 20
1.42629
 30
0.000000
  70
    32
  0
VERTEX
  8
AM_VIS
  5
B99
 10
14.3156
 20
1.42494
 30
0.000000
  70
    32
  0
VERTEX
  8
AM_VIS
  5
B9A
 10
14.3168
 20
1.42359
 30
0.000000
  70
    32
  0
VERTEX
  8
AM_VIS
  5
B9B
 10
14.3180
 20
1.42224
 30
0.000000
  70
    32
  0
VERTEX
  8
AM_VIS
  5
B9C
 10
14.3192
 20
1.42090
 30
0.000000
  70
    32
  0
VERTEX
  8
AM_VIS
  5
B9D
 10
14.3204
 20
1.41957
 30
0.000000
  70
    32
  0
VERTEX
  8
AM_VIS
  5
B9E
 10
14.3217
 20
1.41824
 30
0.000000
  70
    32
  0
VERTEX
  8
AM_VIS
  5
B9F
 10
14.3229
 20
1.41691
 30
0.000000
  70
    32
  0
VERTEX
  8
AM_VIS
  5
BA0
 10
14.3241
 20
1.41560
 30
0.000000
  70
    32
  0
VERTEX
  8
AM_VIS
  5
BA1
 10
14.3254
 20
1.41428
 30
0.000000
  70
    32
  0
VERTEX
  8
AM_VIS
  5
BA2
 10
14.3266
 20
1.41298
 30
0.000000
  70
    32
  0
VERTEX
  8
AM_VIS
  5
BA3
 10
14.3279
 20
1.41167
 30
0.000000
  70
    32
  0
VERTEX
  8
AM_VIS
  5
BA4
 10
14.3291
 20
1.41038
 30
0.000000
  70
    32
  0
VERTEX
  8
AM_VIS
  5
BA5
 10
14.3304
 20
1.40909
 30
0.000000
  70
    32
  0
VERTEX
  8
AM_VIS
  5
BA6
 10
14.3316
 20
1.40780
 30
0.000000
  70
    32
  0
VERTEX
  8
AM_VIS
  5
BA7
 10
14.3329
 20
1.40652
 30
0.000000
  70
    32
  0
VERTEX
  8
AM_VIS
  5
BA8
 10
14.3342
 20
1.40524
 30
0.000000
  70
    32
  0
VERTEX
  8
AM_VIS
  5
BA9
 10
14.3354
 20
1.40397
 30
0.000000
  70
    32
  0
VERTEX
  8
AM_VIS
  5
BAA
 10
14.3367
 20
1.40270
 30
0.000000
  70
    32
  0
VERTEX
  8
AM_VIS
  5
BAB
 10
14.3380
 20
1.40144
 30
0.000000
  70
    32
  0
VERTEX
  8
AM_VIS
  5
BAC
 10
14.3393
 20
1.40019
 30
0.000000
  70
    32
  0
VERTEX
  8
AM_VIS
  5
BAD
 10
14.3406
 20
1.39894
 30
0.000000
  70
    32
  0
VERTEX
  8
AM_VIS
  5
BAE
 10
14.3419
 20
1.39769
 30
0.000000
  70
    32
  0
VERTEX
  8
AM_VIS
  5
BAF
 10
14.3432
 20
1.39645
 30
0.000000
  70
    32
  0
VERTEX
  8
AM_VIS
  5
BB0
 10
14.3445
 20
1.39521
 30
0.000000
  70
    32
  0
VERTEX
  8
AM_VIS
  5
BB1
 10
14.3458
 20
1.39398
 30
0.000000
  70
    32
  0
VERTEX
  8
AM_VIS
  5
BB2
 10
14.3471
 20
1.39276
 30
0.000000
  70
    32
  0
VERTEX
  8
AM_VIS
  5
BB3
 10
14.3485
 20
1.39154
 30
0.000000
  70
    32
  0
VERTEX
  8
AM_VIS
  5
BB4
 10
14.3498
 20
1.39032
 30
0.000000
  70
    32
  0
VERTEX
  8
AM_VIS
  5
BB5
 10
14.3511
 20
1.38911
 30
0.000000
  70
    32
  0
VERTEX
  8
AM_VIS
  5
BB6
 10
14.3525
 20
1.38791
 30
0.000000
  70
    32
  0
VERTEX
  8
AM_VIS
  5
BB7
 10
14.3538
 20
1.38671
 30
0.000000
  70
    32
  0
VERTEX
  8
AM_VIS
  5
BB8
 10
14.3551
 20
1.38552
 30
0.000000
  70
    32
  0
VERTEX
  8
AM_VIS
  5
BB9
 10
14.3565
 20
1.38433
 30
0.000000
  70
    32
  0
VERTEX
  8
AM_VIS
  5
BBA
 10
14.3579
 20
1.38315
 30
0.000000
  70
    32
  0
VERTEX
  8
AM_VIS
  5
BBB
 10
14.3592
 20
1.38197
 30
0.000000
  70
    32
  0
VERTEX
  8
AM_VIS
  5
BBC
 10
14.3606
 20
1.38080
 30
0.000000
  70
    32
  0
VERTEX
  8
AM_VIS
  5
BBD
 10
14.3620
 20
1.37963
 30
0.000000
  70
    32
  0
VERTEX
  8
AM_VIS
  5
BBE
 10
14.3633
 20
1.37847
 30
0.000000
  70
    32
  0
VERTEX
  8
AM_VIS
  5
BBF
 10
14.3647
 20
1.37732
 30
0.000000
  70
    32
  0
VERTEX
  8
AM_VIS
  5
BC0
 10
14.3661
 20
1.37617
 30
0.000000
  70
    32
  0
VERTEX
  8
AM_VIS
  5
BC1
 10
14.3675
 20
1.37503
 30
0.000000
  70
    32
  0
VERTEX
  8
AM_VIS
  5
BC2
 10
14.3689
 20
1.37389
 30
0.000000
  70
    32
  0
VERTEX
  8
AM_VIS
  5
BC3
 10
14.3703
 20
1.37276
 30
0.000000
  70
    32
  0
VERTEX
  8
AM_VIS
  5
BC4
 10
14.3717
 20
1.37164
 30
0.000000
  70
    32
  0
VERTEX
  8
AM_VIS
  5
BC5
 10
14.3731
 20
1.37052
 30
0.000000
  70
    32
  0
VERTEX
  8
AM_VIS
  5
BC6
 10
14.3745
 20
1.36941
 30
0.000000
  70
    32
  0
VERTEX
  8
AM_VIS
  5
BC7
 10
14.3760
 20
1.36830
 30
0.000000
  70
    32
  0
VERTEX
  8
AM_VIS
  5
BC8
 10
14.3774
 20
1.36720
 30
0.000000
  70
    32
  0
VERTEX
  8
AM_VIS
  5
BC9
 10
14.3788
 20
1.36610
 30
0.000000
  70
    32
  0
VERTEX
  8
AM_VIS
  5
BCA
 10
14.3803
 20
1.36501
 30
0.000000
  70
    32
  0
VERTEX
  8
AM_VIS
  5
BCB
 10
14.3817
 20
1.36393
 30
0.000000
  70
    32
  0
VERTEX
  8
AM_VIS
  5
BCC
 10
14.3831
 20
1.36285
 30
0.000000
  70
    32
  0
VERTEX
  8
AM_VIS
  5
BCD
 10
14.3846
 20
1.36178
 30
0.000000
  70
    32
  0
VERTEX
  8
AM_VIS
  5
BCE
 10
14.3860
 20
1.36072
 30
0.000000
  70
    32
  0
VERTEX
  8
AM_VIS
  5
BCF
 10
14.3875
 20
1.35966
 30
0.000000
  70
    32
  0
VERTEX
  8
AM_VIS
  5
BD0
 10
14.3890
 20
1.35861
 30
0.000000
  70
    32
  0
VERTEX
  8
AM_VIS
  5
BD1
 10
14.3904
 20
1.35756
 30
0.000000
  70
    32
  0
VERTEX
  8
AM_VIS
  5
BD2
 10
14.3919
 20
1.35653
 30
0.000000
  70
    32
  0
VERTEX
  8
AM_VIS
  5
BD3
 10
14.3934
 20
1.35549
 30
0.000000
  70
    32
  0
VERTEX
  8
AM_VIS
  5
BD4
 10
14.3949
 20
1.35447
 30
0.000000
  70
    32
  0
VERTEX
  8
AM_VIS
  5
BD5
 10
14.3963
 20
1.35345
 30
0.000000
  70
    32
  0
VERTEX
  8
AM_VIS
  5
BD6
 10
14.3978
 20
1.35243
 30
0.000000
  70
    32
  0
VERTEX
  8
AM_VIS
  5
BD7
 10
14.3993
 20
1.35143
 30
0.000000
  70
    32
  0
VERTEX
  8
AM_VIS
  5
BD8
 10
14.4008
 20
1.35043
 30
0.000000
  70
    32
  0
VERTEX
  8
AM_VIS
  5
BD9
 10
14.4023
 20
1.34943
 30
0.000000
  70
    32
  0
VERTEX
  8
AM_VIS
  5
BDA
 10
14.4038
 20
1.34845
 30
0.000000
  70
    32
  0
VERTEX
  8
AM_VIS
  5
BDB
 10
14.4053
 20
1.34747
 30
0.000000
  70
    32
  0
VERTEX
  8
AM_VIS
  5
BDC
 10
14.4069
 20
1.34649
 30
0.000000
  70
    32
  0
VERTEX
  8
AM_VIS
  5
BDD
 10
14.4084
 20
1.34553
 30
0.000000
  70
    32
  0
VERTEX
  8
AM_VIS
  5
BDE
 10
14.4099
 20
1.34457
 30
0.000000
  70
    32
  0
VERTEX
  8
AM_VIS
  5
BDF
 10
14.4114
 20
1.34361
 30
0.000000
  70
    32
  0
VERTEX
  8
AM_VIS
  5
BE0
 10
14.4130
 20
1.34267
 30
0.000000
  70
    32
  0
VERTEX
  8
AM_VIS
  5
BE1
 10
14.4145
 20
1.34173
 30
0.000000
  70
    32
  0
VERTEX
  8
AM_VIS
  5
BE2
 10
14.4161
 20
1.34079
 30
0.000000
  70
    32
  0
VERTEX
  8
AM_VIS
  5
BE3
 10
14.4176
 20
1.33987
 30
0.000000
  70
    32
  0
VERTEX
  8
AM_VIS
  5
BE4
 10
14.4192
 20
1.33895
 30
0.000000
  70
    32
  0
VERTEX
  8
AM_VIS
  5
BE5
 10
14.4207
 20
1.33804
 30
0.000000
  70
    32
  0
VERTEX
  8
AM_VIS
  5
BE6
 10
14.4223
 20
1.33713
 30
0.000000
  70
    32
  0
VERTEX
  8
AM_VIS
  5
BE7
 10
14.4238
 20
1.33623
 30
0.000000
  70
    32
  0
VERTEX
  8
AM_VIS
  5
BE8
 10
14.4254
 20
1.33534
 30
0.000000
  70
    32
  0
VERTEX
  8
AM_VIS
  5
BE9
 10
14.4270
 20
1.33446
 30
0.000000
  70
    32
  0
VERTEX
  8
AM_VIS
  5
BEA
 10
14.4286
 20
1.33358
 30
0.000000
  70
    32
  0
VERTEX
  8
AM_VIS
  5
BEB
 10
14.4301
 20
1.33271
 30
0.000000
  70
    32
  0
VERTEX
  8
AM_VIS
  5
BEC
 10
14.4317
 20
1.33185
 30
0.000000
  70
    32
  0
VERTEX
  8
AM_VIS
  5
BED
 10
14.4333
 20
1.33100
 30
0.000000
  70
    32
  0
VERTEX
  8
AM_VIS
  5
BEE
 10
14.4349
 20
1.33015
 30
0.000000
  70
    32
  0
VERTEX
  8
AM_VIS
  5
BEF
 10
14.4365
 20
1.32931
 30
0.000000
  70
    32
  0
VERTEX
  8
AM_VIS
  5
BF0
 10
14.4381
 20
1.32848
 30
0.000000
  70
    32
  0
VERTEX
  8
AM_VIS
  5
BF1
 10
14.4397
 20
1.32765
 30
0.000000
  70
    32
  0
VERTEX
  8
AM_VIS
  5
BF2
 10
14.4413
 20
1.32683
 30
0.000000
  70
    32
  0
VERTEX
  8
AM_VIS
  5
BF3
 10
14.4430
 20
1.32602
 30
0.000000
  70
    32
  0
VERTEX
  8
AM_VIS
  5
BF4
 10
14.4446
 20
1.32522
 30
0.000000
  70
    32
  0
VERTEX
  8
AM_VIS
  5
BF5
 10
14.4462
 20
1.32443
 30
0.000000
  70
    32
  0
VERTEX
  8
AM_VIS
  5
BF6
 10
14.4478
 20
1.32364
 30
0.000000
  70
    32
  0
VERTEX
  8
AM_VIS
  5
BF7
 10
14.4495
 20
1.32286
 30
0.000000
  70
    32
  0
VERTEX
  8
AM_VIS
  5
BF8
 10
14.4511
 20
1.32208
 30
0.000000
  70
    32
  0
VERTEX
  8
AM_VIS
  5
BF9
 10
14.4527
 20
1.32132
 30
0.000000
  70
    32
  0
VERTEX
  8
AM_VIS
  5
BFA
 10
14.4544
 20
1.32056
 30
0.000000
  70
    32
  0
VERTEX
  8
AM_VIS
  5
BFB
 10
14.4560
 20
1.31981
 30
0.000000
  70
    32
  0
VERTEX
  8
AM_VIS
  5
BFC
 10
14.4577
 20
1.31907
 30
0.000000
  70
    32
  0
VERTEX
  8
AM_VIS
  5
BFD
 10
14.4594
 20
1.31834
 30
0.000000
  70
    32
  0
VERTEX
  8
AM_VIS
  5
BFE
 10
14.4610
 20
1.31761
 30
0.000000
  70
    32
  0
VERTEX
  8
AM_VIS
  5
BFF
 10
14.4627
 20
1.31689
 30
0.000000
  70
    32
  0
VERTEX
  8
AM_VIS
  5
C00
 10
14.4643
 20
1.31618
 30
0.000000
  70
    32
  0
VERTEX
  8
AM_VIS
  5
C01
 10
14.4660
 20
1.31548
 30
0.000000
  70
    32
  0
VERTEX
  8
AM_VIS
  5
C02
 10
14.4677
 20
1.31479
 30
0.000000
  70
    32
  0
VERTEX
  8
AM_VIS
  5
C03
 10
14.4694
 20
1.31410
 30
0.000000
  70
    32
  0
VERTEX
  8
AM_VIS
  5
C04
 10
14.4711
 20
1.31343
 30
0.000000
  70
    32
  0
VERTEX
  8
AM_VIS
  5
C05
 10
14.4727
 20
1.31276
 30
0.000000
  70
    32
  0
VERTEX
  8
AM_VIS
  5
C06
 10
14.4744
 20
1.31210
 30
0.000000
  70
    32
  0
VERTEX
  8
AM_VIS
  5
C07
 10
14.4761
 20
1.31145
 30
0.000000
  70
    32
  0
VERTEX
  8
AM_VIS
  5
C08
 10
14.4778
 20
1.31080
 30
0.000000
  70
    32
  0
VERTEX
  8
AM_VIS
  5
C09
 10
14.4795
 20
1.31017
 30
0.000000
  70
    32
  0
VERTEX
  8
AM_VIS
  5
C0A
 10
14.4812
 20
1.30954
 30
0.000000
  70
    32
  0
VERTEX
  8
AM_VIS
  5
C0B
 10
14.4829
 20
1.30893
 30
0.000000
  70
    32
  0
VERTEX
  8
AM_VIS
  5
C0C
 10
14.4846
 20
1.30832
 30
0.000000
  70
    32
  0
VERTEX
  8
AM_VIS
  5
C0D
 10
14.4863
 20
1.30772
 30
0.000000
  70
    32
  0
VERTEX
  8
AM_VIS
  5
C0E
 10
14.4881
 20
1.30712
 30
0.000000
  70
    32
  0
VERTEX
  8
AM_VIS
  5
C0F
 10
14.4898
 20
1.30654
 30
0.000000
  70
    32
  0
VERTEX
  8
AM_VIS
  5
C10
 10
14.4915
 20
1.30597
 30
0.000000
  70
    32
  0
VERTEX
  8
AM_VIS
  5
C11
 10
14.4932
 20
1.30540
 30
0.000000
  70
    32
  0
VERTEX
  8
AM_VIS
  5
C12
 10
14.4949
 20
1.30484
 30
0.000000
  70
    32
  0
VERTEX
  8
AM_VIS
  5
C13
 10
14.4967
 20
1.30430
 30
0.000000
  70
    32
  0
VERTEX
  8
AM_VIS
  5
C14
 10
14.4984
 20
1.30376
 30
0.000000
  70
    32
  0
VERTEX
  8
AM_VIS
  5
C15
 10
14.5001
 20
1.30323
 30
0.000000
  70
    32
  0
VERTEX
  8
AM_VIS
  5
C16
 10
14.5019
 20
1.30270
 30
0.000000
  70
    32
  0
VERTEX
  8
AM_VIS
  5
C17
 10
14.5036
 20
1.30219
 30
0.000000
  70
    32
  0
VERTEX
  8
AM_VIS
  5
C18
 10
14.5054
 20
1.30169
 30
0.000000
  70
    32
  0
VERTEX
  8
AM_VIS
  5
C19
 10
14.5071
 20
1.30119
 30
0.000000
  70
    32
  0
VERTEX
  8
AM_VIS
  5
C1A
 10
14.5089
 20
1.30071
 30
0.000000
  70
    32
  0
VERTEX
  8
AM_VIS
  5
C1B
 10
14.5106
 20
1.30023
 30
0.000000
  70
    32
  0
VERTEX
  8
AM_VIS
  5
C1C
 10
14.5124
 20
1.29976
 30
0.000000
  70
    32
  0
VERTEX
  8
AM_VIS
  5
C1D
 10
14.5141
 20
1.29930
 30
0.000000
  70
    32
  0
VERTEX
  8
AM_VIS
  5
C1E
 10
14.5159
 20
1.29885
 30
0.000000
  70
    32
  0
VERTEX
  8
AM_VIS
  5
C1F
 10
14.5177
 20
1.29841
 30
0.000000
  70
    32
  0
VERTEX
  8
AM_VIS
  5
C20
 10
14.5194
 20
1.29798
 30
0.000000
  70
    32
  0
VERTEX
  8
AM_VIS
  5
C21
 10
14.5212
 20
1.29756
 30
0.000000
  70
    32
  0
VERTEX
  8
AM_VIS
  5
C22
 10
14.5230
 20
1.29714
 30
0.000000
  70
    32
  0
VERTEX
  8
AM_VIS
  5
C23
 10
14.5247
 20
1.29674
 30
0.000000
  70
    32
  0
VERTEX
  8
AM_VIS
  5
C24
 10
14.5265
 20
1.29634
 30
0.000000
  70
    32
  0
VERTEX
  8
AM_VIS
  5
C25
 10
14.5283
 20
1.29596
 30
0.000000
  70
    32
  0
VERTEX
  8
AM_VIS
  5
C26
 10
14.5301
 20
1.29558
 30
0.000000
  70
    32
  0
VERTEX
  8
AM_VIS
  5
C27
 10
14.5319
 20
1.29521
 30
0.000000
  70
    32
  0
VERTEX
  8
AM_VIS
  5
C28
 10
14.5337
 20
1.29486
 30
0.000000
  70
    32
  0
VERTEX
  8
AM_VIS
  5
C29
 10
14.5354
 20
1.29451
 30
0.000000
  70
    32
  0
VERTEX
  8
AM_VIS
  5
C2A
 10
14.5372
 20
1.29417
 30
0.000000
  70
    32
  0
VERTEX
  8
AM_VIS
  5
C2B
 10
14.5390
 20
1.29384
 30
0.000000
  70
    32
  0
VERTEX
  8
AM_VIS
  5
C2C
 10
14.5408
 20
1.29352
 30
0.000000
  70
    32
  0
VERTEX
  8
AM_VIS
  5
C2D
 10
14.5426
 20
1.29321
 30
0.000000
  70
    32
  0
VERTEX
  8
AM_VIS
  5
C2E
 10
14.5444
 20
1.29292
 30
0.000000
  70
    32
  0
VERTEX
  8
AM_VIS
  5
C2F
 10
14.5462
 20
1.29263
 30
0.000000
  70
    32
  0
VERTEX
  8
AM_VIS
  5
C30
 10
14.5480
 20
1.29235
 30
0.000000
  70
    32
  0
VERTEX
  8
AM_VIS
  5
C31
 10
14.5498
 20
1.29207
 30
0.000000
  70
    32
  0
VERTEX
  8
AM_VIS
  5
C32
 10
14.5516
 20
1.29181
 30
0.000000
  70
    32
  0
VERTEX
  8
AM_VIS
  5
C33
 10
14.5534
 20
1.29156
 30
0.000000
  70
    32
  0
VERTEX
  8
AM_VIS
  5
C34
 10
14.5552
 20
1.29132
 30
0.000000
  70
    32
  0
VERTEX
  8
AM_VIS
  5
C35
 10
14.5570
 20
1.29109
 30
0.000000
  70
    32
  0
VERTEX
  8
AM_VIS
  5
C36
 10
14.5588
 20
1.29087
 30
0.000000
  70
    32
  0
VERTEX
  8
AM_VIS
  5
C37
 10
14.5606
 20
1.29066
 30
0.000000
  70
    32
  0
VERTEX
  8
AM_VIS
  5
C38
 10
14.5624
 20
1.29045
 30
0.000000
  70
    32
  0
VERTEX
  8
AM_VIS
  5
C39
 10
14.5642
 20
1.29026
 30
0.000000
  70
    32
  0
VERTEX
  8
AM_VIS
  5
C3A
 10
14.5660
 20
1.29008
 30
0.000000
  70
    32
  0
VERTEX
  8
AM_VIS
  5
C3B
 10
14.5678
 20
1.28990
 30
0.000000
  70
    32
  0
VERTEX
  8
AM_VIS
  5
C3C
 10
14.5697
 20
1.28974
 30
0.000000
  70
    32
  0
VERTEX
  8
AM_VIS
  5
C3D
 10
14.5715
 20
1.28959
 30
0.000000
  70
    32
  0
VERTEX
  8
AM_VIS
  5
C3E
 10
14.5733
 20
1.28944
 30
0.000000
  70
    32
  0
VERTEX
  8
AM_VIS
  5
C3F
 10
14.5751
 20
1.28931
 30
0.000000
  70
    32
  0
VERTEX
  8
AM_VIS
  5
C40
 10
14.5769
 20
1.28919
 30
0.000000
  70
    32
  0
VERTEX
  8
AM_VIS
  5
C41
 10
14.5787
 20
1.28907
 30
0.000000
  70
    32
  0
VERTEX
  8
AM_VIS
  5
C42
 10
14.5805
 20
1.28897
 30
0.000000
  70
    32
  0
VERTEX
  8
AM_VIS
  5
C43
 10
14.5824
 20
1.28887
 30
0.000000
  70
    32
  0
VERTEX
  8
AM_VIS
  5
C44
 10
14.5842
 20
1.28879
 30
0.000000
  70
    32
  0
VERTEX
  8
AM_VIS
  5
C45
 10
14.5860
 20
1.28871
 30
0.000000
  70
    32
  0
VERTEX
  8
AM_VIS
  5
C46
 10
14.5878
 20
1.28865
 30
0.000000
  70
    32
  0
VERTEX
  8
AM_VIS
  5
C47
 10
14.5896
 20
1.28859
 30
0.000000
  70
    32
  0
VERTEX
  8
AM_VIS
  5
C48
 10
14.5915
 20
1.28855
 30
0.000000
  70
    32
  0
VERTEX
  8
AM_VIS
  5
C49
 10
14.5933
 20
1.28852
 30
0.000000
  70
    32
  0
VERTEX
  8
AM_VIS
  5
C4A
 10
14.5951
 20
1.28849
 30
0.000000
  70
    32
  0
VERTEX
  8
AM_VIS
  5
C4B
 10
14.5969
 20
1.28848
 30
0.000000
  70
    32
  0
VERTEX
  8
AM_VIS
  5
C4C
 10
14.5988
 20
1.28847
 30
0.000000
  70
    32
  0
SEQEND
  8
AM_VIS
  5
C4D
  0
POLYLINE
  8
AM_VIS
  5
C4E
  66
     1
 10
0.000000
 20
0.000000
 30
0.000000
  70
     8
  0
VERTEX
  8
AM_VIS
  5
C4F
 10
14.5988
 20
2.27357
 30
0.000000
  70
    32
  0
VERTEX
  8
AM_VIS
  5
C50
 10
14.5969
 20
2.27356
 30
0.000000
  70
    32
  0
VERTEX
  8
AM_VIS
  5
C51
 10
14.5951
 20
2.27355
 30
0.000000
  70
    32
  0
VERTEX
  8
AM_VIS
  5
C52
 10
14.5933
 20
2.27352
 30
0.000000
  70
    32
  0
VERTEX
  8
AM_VIS
  5
C53
 10
14.5914
 20
2.27349
 30
0.000000
  70
    32
  0
VERTEX
  8
AM_VIS
  5
C54
 10
14.5896
 20
2.27344
 30
0.000000
  70
    32
  0
VERTEX
  8
AM_VIS
  5
C55
 10
14.5878
 20
2.27339
 30
0.000000
  70
    32
  0
VERTEX
  8
AM_VIS
  5
C56
 10
14.5860
 20
2.27332
 30
0.000000
  70
    32
  0
VERTEX
  8
AM_VIS
  5
C57
 10
14.5841
 20
2.27325
 30
0.000000
  70
    32
  0
VERTEX
  8
AM_VIS
  5
C58
 10
14.5823
 20
2.27316
 30
0.000000
  70
    32
  0
VERTEX
  8
AM_VIS
  5
C59
 10
14.5805
 20
2.27307
 30
0.000000
  70
    32
  0
VERTEX
  8
AM_VIS
  5
C5A
 10
14.5787
 20
2.27296
 30
0.000000
  70
    32
  0
VERTEX
  8
AM_VIS
  5
C5B
 10
14.5769
 20
2.27285
 30
0.000000
  70
    32
  0
VERTEX
  8
AM_VIS
  5
C5C
 10
14.5750
 20
2.27273
 30
0.000000
  70
    32
  0
VERTEX
  8
AM_VIS
  5
C5D
 10
14.5732
 20
2.27259
 30
0.000000
  70
    32
  0
VERTEX
  8
AM_VIS
  5
C5E
 10
14.5714
 20
2.27245
 30
0.000000
  70
    32
  0
VERTEX
  8
AM_VIS
  5
C5F
 10
14.5696
 20
2.27229
 30
0.000000
  70
    32
  0
VERTEX
  8
AM_VIS
  5
C60
 10
14.5678
 20
2.27213
 30
0.000000
  70
    32
  0
VERTEX
  8
AM_VIS
  5
C61
 10
14.5660
 20
2.27196
 30
0.000000
  70
    32
  0
VERTEX
  8
AM_VIS
  5
C62
 10
14.5642
 20
2.27177
 30
0.000000
  70
    32
  0
VERTEX
  8
AM_VIS
  5
C63
 10
14.5624
 20
2.27158
 30
0.000000
  70
    32
  0
VERTEX
  8
AM_VIS
  5
C64
 10
14.5606
 20
2.27138
 30
0.000000
  70
    32
  0
VERTEX
  8
AM_VIS
  5
C65
 10
14.5587
 20
2.27117
 30
0.000000
  70
    32
  0
VERTEX
  8
AM_VIS
  5
C66
 10
14.5569
 20
2.27094
 30
0.000000
  70
    32
  0
VERTEX
  8
AM_VIS
  5
C67
 10
14.5551
 20
2.27071
 30
0.000000
  70
    32
  0
VERTEX
  8
AM_VIS
  5
C68
 10
14.5533
 20
2.27047
 30
0.000000
  70
    32
  0
VERTEX
  8
AM_VIS
  5
C69
 10
14.5515
 20
2.27022
 30
0.000000
  70
    32
  0
VERTEX
  8
AM_VIS
  5
C6A
 10
14.5498
 20
2.26996
 30
0.000000
  70
    32
  0
VERTEX
  8
AM_VIS
  5
C6B
 10
14.5480
 20
2.26969
 30
0.000000
  70
    32
  0
VERTEX
  8
AM_VIS
  5
C6C
 10
14.5462
 20
2.26941
 30
0.000000
  70
    32
  0
VERTEX
  8
AM_VIS
  5
C6D
 10
14.5444
 20
2.26912
 30
0.000000
  70
    32
  0
VERTEX
  8
AM_VIS
  5
C6E
 10
14.5426
 20
2.26882
 30
0.000000
  70
    32
  0
VERTEX
  8
AM_VIS
  5
C6F
 10
14.5408
 20
2.26852
 30
0.000000
  70
    32
  0
VERTEX
  8
AM_VIS
  5
C70
 10
14.5390
 20
2.26820
 30
0.000000
  70
    32
  0
VERTEX
  8
AM_VIS
  5
C71
 10
14.5372
 20
2.26787
 30
0.000000
  70
    32
  0
VERTEX
  8
AM_VIS
  5
C72
 10
14.5355
 20
2.26754
 30
0.000000
  70
    32
  0
VERTEX
  8
AM_VIS
  5
C73
 10
14.5337
 20
2.26719
 30
0.000000
  70
    32
  0
VERTEX
  8
AM_VIS
  5
C74
 10
14.5319
 20
2.26683
 30
0.000000
  70
    32
  0
VERTEX
  8
AM_VIS
  5
C75
 10
14.5301
 20
2.26647
 30
0.000000
  70
    32
  0
VERTEX
  8
AM_VIS
  5
C76
 10
14.5283
 20
2.26610
 30
0.000000
  70
    32
  0
VERTEX
  8
AM_VIS
  5
C77
 10
14.5266
 20
2.26571
 30
0.000000
  70
    32
  0
VERTEX
  8
AM_VIS
  5
C78
 10
14.5248
 20
2.26532
 30
0.000000
  70
    32
  0
VERTEX
  8
AM_VIS
  5
C79
 10
14.5230
 20
2.26492
 30
0.000000
  70
    32
  0
VERTEX
  8
AM_VIS
  5
C7A
 10
14.5213
 20
2.26451
 30
0.000000
  70
    32
  0
VERTEX
  8
AM_VIS
  5
C7B
 10
14.5195
 20
2.26409
 30
0.000000
  70
    32
  0
VERTEX
  8
AM_VIS
  5
C7C
 10
14.5178
 20
2.26366
 30
0.000000
  70
    32
  0
VERTEX
  8
AM_VIS
  5
C7D
 10
14.5160
 20
2.26322
 30
0.000000
  70
    32
  0
VERTEX
  8
AM_VIS
  5
C7E
 10
14.5142
 20
2.26277
 30
0.000000
  70
    32
  0
VERTEX
  8
AM_VIS
  5
C7F
 10
14.5125
 20
2.26231
 30
0.000000
  70
    32
  0
VERTEX
  8
AM_VIS
  5
C80
 10
14.5107
 20
2.26184
 30
0.000000
  70
    32
  0
VERTEX
  8
AM_VIS
  5
C81
 10
14.5090
 20
2.26137
 30
0.000000
  70
    32
  0
VERTEX
  8
AM_VIS
  5
C82
 10
14.5072
 20
2.26088
 30
0.000000
  70
    32
  0
VERTEX
  8
AM_VIS
  5
C83
 10
14.5055
 20
2.26039
 30
0.000000
  70
    32
  0
VERTEX
  8
AM_VIS
  5
C84
 10
14.5037
 20
2.25988
 30
0.000000
  70
    32
  0
VERTEX
  8
AM_VIS
  5
C85
 10
14.5020
 20
2.25937
 30
0.000000
  70
    32
  0
VERTEX
  8
AM_VIS
  5
C86
 10
14.5003
 20
2.25885
 30
0.000000
  70
    32
  0
VERTEX
  8
AM_VIS
  5
C87
 10
14.4985
 20
2.25832
 30
0.000000
  70
    32
  0
VERTEX
  8
AM_VIS
  5
C88
 10
14.4968
 20
2.25778
 30
0.000000
  70
    32
  0
VERTEX
  8
AM_VIS
  5
C89
 10
14.4951
 20
2.25723
 30
0.000000
  70
    32
  0
VERTEX
  8
AM_VIS
  5
C8A
 10
14.4933
 20
2.25667
 30
0.000000
  70
    32
  0
VERTEX
  8
AM_VIS
  5
C8B
 10
14.4916
 20
2.25611
 30
0.000000
  70
    32
  0
VERTEX
  8
AM_VIS
  5
C8C
 10
14.4899
 20
2.25553
 30
0.000000
  70
    32
  0
VERTEX
  8
AM_VIS
  5
C8D
 10
14.4881
 20
2.25495
 30
0.000000
  70
    32
  0
VERTEX
  8
AM_VIS
  5
C8E
 10
14.4864
 20
2.25435
 30
0.000000
  70
    32
  0
VERTEX
  8
AM_VIS
  5
C8F
 10
14.4847
 20
2.25375
 30
0.000000
  70
    32
  0
VERTEX
  8
AM_VIS
  5
C90
 10
14.4830
 20
2.25314
 30
0.000000
  70
    32
  0
VERTEX
  8
AM_VIS
  5
C91
 10
14.4813
 20
2.25252
 30
0.000000
  70
    32
  0
VERTEX
  8
AM_VIS
  5
C92
 10
14.4796
 20
2.25189
 30
0.000000
  70
    32
  0
VERTEX
  8
AM_VIS
  5
C93
 10
14.4779
 20
2.25125
 30
0.000000
  70
    32
  0
VERTEX
  8
AM_VIS
  5
C94
 10
14.4762
 20
2.25061
 30
0.000000
  70
    32
  0
VERTEX
  8
AM_VIS
  5
C95
 10
14.4745
 20
2.24995
 30
0.000000
  70
    32
  0
VERTEX
  8
AM_VIS
  5
C96
 10
14.4728
 20
2.24929
 30
0.000000
  70
    32
  0
VERTEX
  8
AM_VIS
  5
C97
 10
14.4711
 20
2.24862
 30
0.000000
  70
    32
  0
VERTEX
  8
AM_VIS
  5
C98
 10
14.4694
 20
2.24794
 30
0.000000
  70
    32
  0
VERTEX
  8
AM_VIS
  5
C99
 10
14.4677
 20
2.24725
 30
0.000000
  70
    32
  0
VERTEX
  8
AM_VIS
  5
C9A
 10
14.4660
 20
2.24655
 30
0.000000
  70
    32
  0
VERTEX
  8
AM_VIS
  5
C9B
 10
14.4643
 20
2.24585
 30
0.000000
  70
    32
  0
VERTEX
  8
AM_VIS
  5
C9C
 10
14.4627
 20
2.24514
 30
0.000000
  70
    32
  0
VERTEX
  8
AM_VIS
  5
C9D
 10
14.4610
 20
2.24442
 30
0.000000
  70
    32
  0
VERTEX
  8
AM_VIS
  5
C9E
 10
14.4593
 20
2.24369
 30
0.000000
  70
    32
  0
VERTEX
  8
AM_VIS
  5
C9F
 10
14.4577
 20
2.24295
 30
0.000000
  70
    32
  0
VERTEX
  8
AM_VIS
  5
CA0
 10
14.4560
 20
2.24221
 30
0.000000
  70
    32
  0
VERTEX
  8
AM_VIS
  5
CA1
 10
14.4543
 20
2.24146
 30
0.000000
  70
    32
  0
VERTEX
  8
AM_VIS
  5
CA2
 10
14.4527
 20
2.24070
 30
0.000000
  70
    32
  0
VERTEX
  8
AM_VIS
  5
CA3
 10
14.4511
 20
2.23993
 30
0.000000
  70
    32
  0
VERTEX
  8
AM_VIS
  5
CA4
 10
14.4494
 20
2.23916
 30
0.000000
  70
    32
  0
VERTEX
  8
AM_VIS
  5
CA5
 10
14.4478
 20
2.23837
 30
0.000000
  70
    32
  0
VERTEX
  8
AM_VIS
  5
CA6
 10
14.4461
 20
2.23758
 30
0.000000
  70
    32
  0
VERTEX
  8
AM_VIS
  5
CA7
 10
14.4445
 20
2.23679
 30
0.000000
  70
    32
  0
VERTEX
  8
AM_VIS
  5
CA8
 10
14.4429
 20
2.23598
 30
0.000000
  70
    32
  0
VERTEX
  8
AM_VIS
  5
CA9
 10
14.4413
 20
2.23517
 30
0.000000
  70
    32
  0
VERTEX
  8
AM_VIS
  5
CAA
 10
14.4396
 20
2.23435
 30
0.000000
  70
    32
  0
VERTEX
  8
AM_VIS
  5
CAB
 10
14.4380
 20
2.23352
 30
0.000000
  70
    32
  0
VERTEX
  8
AM_VIS
  5
CAC
 10
14.4364
 20
2.23268
 30
0.000000
  70
    32
  0
VERTEX
  8
AM_VIS
  5
CAD
 10
14.4348
 20
2.23184
 30
0.000000
  70
    32
  0
VERTEX
  8
AM_VIS
  5
CAE
 10
14.4332
 20
2.23099
 30
0.000000
  70
    32
  0
VERTEX
  8
AM_VIS
  5
CAF
 10
14.4316
 20
2.23013
 30
0.000000
  70
    32
  0
VERTEX
  8
AM_VIS
  5
CB0
 10
14.4300
 20
2.22926
 30
0.000000
  70
    32
  0
VERTEX
  8
AM_VIS
  5
CB1
 10
14.4284
 20
2.22839
 30
0.000000
  70
    32
  0
VERTEX
  8
AM_VIS
  5
CB2
 10
14.4269
 20
2.22751
 30
0.000000
  70
    32
  0
VERTEX
  8
AM_VIS
  5
CB3
 10
14.4253
 20
2.22662
 30
0.000000
  70
    32
  0
VERTEX
  8
AM_VIS
  5
CB4
 10
14.4237
 20
2.22573
 30
0.000000
  70
    32
  0
VERTEX
  8
AM_VIS
  5
CB5
 10
14.4221
 20
2.22483
 30
0.000000
  70
    32
  0
VERTEX
  8
AM_VIS
  5
CB6
 10
14.4206
 20
2.22392
 30
0.000000
  70
    32
  0
VERTEX
  8
AM_VIS
  5
CB7
 10
14.4190
 20
2.22300
 30
0.000000
  70
    32
  0
VERTEX
  8
AM_VIS
  5
CB8
 10
14.4175
 20
2.22208
 30
0.000000
  70
    32
  0
VERTEX
  8
AM_VIS
  5
CB9
 10
14.4159
 20
2.22115
 30
0.000000
  70
    32
  0
VERTEX
  8
AM_VIS
  5
CBA
 10
14.4144
 20
2.22021
 30
0.000000
  70
    32
  0
VERTEX
  8
AM_VIS
  5
CBB
 10
14.4128
 20
2.21927
 30
0.000000
  70
    32
  0
VERTEX
  8
AM_VIS
  5
CBC
 10
14.4113
 20
2.21832
 30
0.000000
  70
    32
  0
VERTEX
  8
AM_VIS
  5
CBD
 10
14.4097
 20
2.21736
 30
0.000000
  70
    32
  0
VERTEX
  8
AM_VIS
  5
CBE
 10
14.4082
 20
2.21639
 30
0.000000
  70
    32
  0
VERTEX
  8
AM_VIS
  5
CBF
 10
14.4067
 20
2.21542
 30
0.000000
  70
    32
  0
VERTEX
  8
AM_VIS
  5
CC0
 10
14.4052
 20
2.21444
 30
0.000000
  70
    32
  0
VERTEX
  8
AM_VIS
  5
CC1
 10
14.4036
 20
2.21346
 30
0.000000
  70
    32
  0
VERTEX
  8
AM_VIS
  5
CC2
 10
14.4021
 20
2.21247
 30
0.000000
  70
    32
  0
VERTEX
  8
AM_VIS
  5
CC3
 10
14.4006
 20
2.21147
 30
0.000000
  70
    32
  0
VERTEX
  8
AM_VIS
  5
CC4
 10
14.3991
 20
2.21046
 30
0.000000
  70
    32
  0
VERTEX
  8
AM_VIS
  5
CC5
 10
14.3976
 20
2.20945
 30
0.000000
  70
    32
  0
VERTEX
  8
AM_VIS
  5
CC6
 10
14.3961
 20
2.20843
 30
0.000000
  70
    32
  0
VERTEX
  8
AM_VIS
  5
CC7
 10
14.3946
 20
2.20741
 30
0.000000
  70
    32
  0
VERTEX
  8
AM_VIS
  5
CC8
 10
14.3931
 20
2.20638
 30
0.000000
  70
    32
  0
VERTEX
  8
AM_VIS
  5
CC9
 10
14.3917
 20
2.20534
 30
0.000000
  70
    32
  0
VERTEX
  8
AM_VIS
  5
CCA
 10
14.3902
 20
2.20430
 30
0.000000
  70
    32
  0
VERTEX
  8
AM_VIS
  5
CCB
 10
14.3887
 20
2.20324
 30
0.000000
  70
    32
  0
VERTEX
  8
AM_VIS
  5
CCC
 10
14.3872
 20
2.20219
 30
0.000000
  70
    32
  0
VERTEX
  8
AM_VIS
  5
CCD
 10
14.3858
 20
2.20112
 30
0.000000
  70
    32
  0
VERTEX
  8
AM_VIS
  5
CCE
 10
14.3843
 20
2.20005
 30
0.000000
  70
    32
  0
VERTEX
  8
AM_VIS
  5
CCF
 10
14.3829
 20
2.19898
 30
0.000000
  70
    32
  0
VERTEX
  8
AM_VIS
  5
CD0
 10
14.3814
 20
2.19790
 30
0.000000
  70
    32
  0
VERTEX
  8
AM_VIS
  5
CD1
 10
14.3800
 20
2.19681
 30
0.000000
  70
    32
  0
VERTEX
  8
AM_VIS
  5
CD2
 10
14.3785
 20
2.19571
 30
0.000000
  70
    32
  0
VERTEX
  8
AM_VIS
  5
CD3
 10
14.3771
 20
2.19461
 30
0.000000
  70
    32
  0
VERTEX
  8
AM_VIS
  5
CD4
 10
14.3757
 20
2.19351
 30
0.000000
  70
    32
  0
VERTEX
  8
AM_VIS
  5
CD5
 10
14.3742
 20
2.19239
 30
0.000000
  70
    32
  0
VERTEX
  8
AM_VIS
  5
CD6
 10
14.3728
 20
2.19127
 30
0.000000
  70
    32
  0
VERTEX
  8
AM_VIS
  5
CD7
 10
14.3714
 20
2.19015
 30
0.000000
  70
    32
  0
VERTEX
  8
AM_VIS
  5
CD8
 10
14.3700
 20
2.18902
 30
0.000000
  70
    32
  0
VERTEX
  8
AM_VIS
  5
CD9
 10
14.3686
 20
2.18788
 30
0.000000
  70
    32
  0
VERTEX
  8
AM_VIS
  5
CDA
 10
14.3672
 20
2.18674
 30
0.000000
  70
    32
  0
VERTEX
  8
AM_VIS
  5
CDB
 10
14.3658
 20
2.18559
 30
0.000000
  70
    32
  0
VERTEX
  8
AM_VIS
  5
CDC
 10
14.3644
 20
2.18444
 30
0.000000
  70
    32
  0
VERTEX
  8
AM_VIS
  5
CDD
 10
14.3630
 20
2.18328
 30
0.000000
  70
    32
  0
VERTEX
  8
AM_VIS
  5
CDE
 10
14.3616
 20
2.18211
 30
0.000000
  70
    32
  0
VERTEX
  8
AM_VIS
  5
CDF
 10
14.3602
 20
2.18094
 30
0.000000
  70
    32
  0
VERTEX
  8
AM_VIS
  5
CE0
 10
14.3589
 20
2.17976
 30
0.000000
  70
    32
  0
VERTEX
  8
AM_VIS
  5
CE1
 10
14.3575
 20
2.17858
 30
0.000000
  70
    32
  0
VERTEX
  8
AM_VIS
  5
CE2
 10
14.3561
 20
2.17739
 30
0.000000
  70
    32
  0
VERTEX
  8
AM_VIS
  5
CE3
 10
14.3548
 20
2.17620
 30
0.000000
  70
    32
  0
VERTEX
  8
AM_VIS
  5
CE4
 10
14.3534
 20
2.17500
 30
0.000000
  70
    32
  0
VERTEX
  8
AM_VIS
  5
CE5
 10
14.3521
 20
2.17380
 30
0.000000
  70
    32
  0
VERTEX
  8
AM_VIS
  5
CE6
 10
14.3507
 20
2.17259
 30
0.000000
  70
    32
  0
VERTEX
  8
AM_VIS
  5
CE7
 10
14.3494
 20
2.17137
 30
0.000000
  70
    32
  0
VERTEX
  8
AM_VIS
  5
CE8
 10
14.3481
 20
2.17015
 30
0.000000
  70
    32
  0
VERTEX
  8
AM_VIS
  5
CE9
 10
14.3467
 20
2.16892
 30
0.000000
  70
    32
  0
VERTEX
  8
AM_VIS
  5
CEA
 10
14.3454
 20
2.16769
 30
0.000000
  70
    32
  0
VERTEX
  8
AM_VIS
  5
CEB
 10
14.3441
 20
2.16645
 30
0.000000
  70
    32
  0
VERTEX
  8
AM_VIS
  5
CEC
 10
14.3428
 20
2.16521
 30
0.000000
  70
    32
  0
VERTEX
  8
AM_VIS
  5
CED
 10
14.3415
 20
2.16396
 30
0.000000
  70
    32
  0
VERTEX
  8
AM_VIS
  5
CEE
 10
14.3402
 20
2.16271
 30
0.000000
  70
    32
  0
VERTEX
  8
AM_VIS
  5
CEF
 10
14.3389
 20
2.16145
 30
0.000000
  70
    32
  0
VERTEX
  8
AM_VIS
  5
CF0
 10
14.3376
 20
2.16019
 30
0.000000
  70
    32
  0
VERTEX
  8
AM_VIS
  5
CF1
 10
14.3363
 20
2.15892
 30
0.000000
  70
    32
  0
VERTEX
  8
AM_VIS
  5
CF2
 10
14.3350
 20
2.15765
 30
0.000000
  70
    32
  0
VERTEX
  8
AM_VIS
  5
CF3
 10
14.3337
 20
2.15637
 30
0.000000
  70
    32
  0
VERTEX
  8
AM_VIS
  5
CF4
 10
14.3324
 20
2.15508
 30
0.000000
  70
    32
  0
VERTEX
  8
AM_VIS
  5
CF5
 10
14.3312
 20
2.15379
 30
0.000000
  70
    32
  0
VERTEX
  8
AM_VIS
  5
CF6
 10
14.3299
 20
2.15250
 30
0.000000
  70
    32
  0
VERTEX
  8
AM_VIS
  5
CF7
 10
14.3287
 20
2.15120
 30
0.000000
  70
    32
  0
VERTEX
  8
AM_VIS
  5
CF8
 10
14.3274
 20
2.14990
 30
0.000000
  70
    32
  0
VERTEX
  8
AM_VIS
  5
CF9
 10
14.3261
 20
2.14859
 30
0.000000
  70
    32
  0
VERTEX
  8
AM_VIS
  5
CFA
 10
14.3249
 20
2.14727
 30
0.000000
  70
    32
  0
VERTEX
  8
AM_VIS
  5
CFB
 10
14.3237
 20
2.14595
 30
0.000000
  70
    32
  0
VERTEX
  8
AM_VIS
  5
CFC
 10
14.3224
 20
2.14463
 30
0.000000
  70
    32
  0
VERTEX
  8
AM_VIS
  5
CFD
 10
14.3212
 20
2.14330
 30
0.000000
  70
    32
  0
VERTEX
  8
AM_VIS
  5
CFE
 10
14.3200
 20
2.14197
 30
0.000000
  70
    32
  0
VERTEX
  8
AM_VIS
  5
CFF
 10
14.3188
 20
2.14063
 30
0.000000
  70
    32
  0
VERTEX
  8
AM_VIS
  5
D00
 10
14.3175
 20
2.13929
 30
0.000000
  70
    32
  0
VERTEX
  8
AM_VIS
  5
D01
 10
14.3163
 20
2.13794
 30
0.000000
  70
    32
  0
VERTEX
  8
AM_VIS
  5
D02
 10
14.3151
 20
2.13659
 30
0.000000
  70
    32
  0
VERTEX
  8
AM_VIS
  5
D03
 10
14.3139
 20
2.13523
 30
0.000000
  70
    32
  0
VERTEX
  8
AM_VIS
  5
D04
 10
14.3127
 20
2.13387
 30
0.000000
  70
    32
  0
VERTEX
  8
AM_VIS
  5
D05
 10
14.3116
 20
2.13250
 30
0.000000
  70
    32
  0
VERTEX
  8
AM_VIS
  5
D06
 10
14.3104
 20
2.13113
 30
0.000000
  70
    32
  0
VERTEX
  8
AM_VIS
  5
D07
 10
14.3092
 20
2.12976
 30
0.000000
  70
    32
  0
VERTEX
  8
AM_VIS
  5
D08
 10
14.3080
 20
2.12838
 30
0.000000
  70
    32
  0
VERTEX
  8
AM_VIS
  5
D09
 10
14.3069
 20
2.12699
 30
0.000000
  70
    32
  0
VERTEX
  8
AM_VIS
  5
D0A
 10
14.3057
 20
2.12560
 30
0.000000
  70
    32
  0
VERTEX
  8
AM_VIS
  5
D0B
 10
14.3045
 20
2.12421
 30
0.000000
  70
    32
  0
VERTEX
  8
AM_VIS
  5
D0C
 10
14.3034
 20
2.12281
 30
0.000000
  70
    32
  0
VERTEX
  8
AM_VIS
  5
D0D
 10
14.3022
 20
2.12141
 30
0.000000
  70
    32
  0
VERTEX
  8
AM_VIS
  5
D0E
 10
14.3011
 20
2.12000
 30
0.000000
  70
    32
  0
VERTEX
  8
AM_VIS
  5
D0F
 10
14.3000
 20
2.11859
 30
0.000000
  70
    32
  0
VERTEX
  8
AM_VIS
  5
D10
 10
14.2988
 20
2.11718
 30
0.000000
  70
    32
  0
VERTEX
  8
AM_VIS
  5
D11
 10
14.2977
 20
2.11576
 30
0.000000
  70
    32
  0
VERTEX
  8
AM_VIS
  5
D12
 10
14.2966
 20
2.11433
 30
0.000000
  70
    32
  0
VERTEX
  8
AM_VIS
  5
D13
 10
14.2955
 20
2.11291
 30
0.000000
  70
    32
  0
VERTEX
  8
AM_VIS
  5
D14
 10
14.2944
 20
2.11147
 30
0.000000
  70
    32
  0
VERTEX
  8
AM_VIS
  5
D15
 10
14.2933
 20
2.11004
 30
0.000000
  70
    32
  0
VERTEX
  8
AM_VIS
  5
D16
 10
14.2922
 20
2.10860
 30
0.000000
  70
    32
  0
VERTEX
  8
AM_VIS
  5
D17
 10
14.2911
 20
2.10715
 30
0.000000
  70
    32
  0
VERTEX
  8
AM_VIS
  5
D18
 10
14.2900
 20
2.10570
 30
0.000000
  70
    32
  0
VERTEX
  8
AM_VIS
  5
D19
 10
14.2889
 20
2.10425
 30
0.000000
  70
    32
  0
VERTEX
  8
AM_VIS
  5
D1A
 10
14.2878
 20
2.10279
 30
0.000000
  70
    32
  0
VERTEX
  8
AM_VIS
  5
D1B
 10
14.2867
 20
2.10133
 30
0.000000
  70
    32
  0
VERTEX
  8
AM_VIS
  5
D1C
 10
14.2857
 20
2.09987
 30
0.000000
  70
    32
  0
VERTEX
  8
AM_VIS
  5
D1D
 10
14.2846
 20
2.09840
 30
0.000000
  70
    32
  0
VERTEX
  8
AM_VIS
  5
D1E
 10
14.2835
 20
2.09692
 30
0.000000
  70
    32
  0
VERTEX
  8
AM_VIS
  5
D1F
 10
14.2825
 20
2.09545
 30
0.000000
  70
    32
  0
VERTEX
  8
AM_VIS
  5
D20
 10
14.2815
 20
2.09397
 30
0.000000
  70
    32
  0
VERTEX
  8
AM_VIS
  5
D21
 10
14.2804
 20
2.09248
 30
0.000000
  70
    32
  0
VERTEX
  8
AM_VIS
  5
D22
 10
14.2794
 20
2.09099
 30
0.000000
  70
    32
  0
VERTEX
  8
AM_VIS
  5
D23
 10
14.2783
 20
2.08950
 30
0.000000
  70
    32
  0
VERTEX
  8
AM_VIS
  5
D24
 10
14.2773
 20
2.08801
 30
0.000000
  70
    32
  0
VERTEX
  8
AM_VIS
  5
D25
 10
14.2763
 20
2.08651
 30
0.000000
  70
    32
  0
VERTEX
  8
AM_VIS
  5
D26
 10
14.2753
 20
2.08500
 30
0.000000
  70
    32
  0
VERTEX
  8
AM_VIS
  5
D27
 10
14.2743
 20
2.08350
 30
0.000000
  70
    32
  0
VERTEX
  8
AM_VIS
  5
D28
 10
14.2733
 20
2.08199
 30
0.000000
  70
    32
  0
VERTEX
  8
AM_VIS
  5
D29
 10
14.2723
 20
2.08047
 30
0.000000
  70
    32
  0
VERTEX
  8
AM_VIS
  5
D2A
 10
14.2713
 20
2.07895
 30
0.000000
  70
    32
  0
VERTEX
  8
AM_VIS
  5
D2B
 10
14.2703
 20
2.07743
 30
0.000000
  70
    32
  0
VERTEX
  8
AM_VIS
  5
D2C
 10
14.2693
 20
2.07591
 30
0.000000
  70
    32
  0
VERTEX
  8
AM_VIS
  5
D2D
 10
14.2683
 20
2.07438
 30
0.000000
  70
    32
  0
VERTEX
  8
AM_VIS
  5
D2E
 10
14.2674
 20
2.07285
 30
0.000000
  70
    32
  0
VERTEX
  8
AM_VIS
  5
D2F
 10
14.2664
 20
2.07131
 30
0.000000
  70
    32
  0
VERTEX
  8
AM_VIS
  5
D30
 10
14.2654
 20
2.06977
 30
0.000000
  70
    32
  0
VERTEX
  8
AM_VIS
  5
D31
 10
14.2645
 20
2.06823
 30
0.000000
  70
    32
  0
VERTEX
  8
AM_VIS
  5
D32
 10
14.2635
 20
2.06669
 30
0.000000
  70
    32
  0
VERTEX
  8
AM_VIS
  5
D33
 10
14.2626
 20
2.06514
 30
0.000000
  70
    32
  0
VERTEX
  8
AM_VIS
  5
D34
 10
14.2616
 20
2.06358
 30
0.000000
  70
    32
  0
VERTEX
  8
AM_VIS
  5
D35
 10
14.2607
 20
2.06203
 30
0.000000
  70
    32
  0
VERTEX
  8
AM_VIS
  5
D36
 10
14.2598
 20
2.06047
 30
0.000000
  70
    32
  0
VERTEX
  8
AM_VIS
  5
D37
 10
14.2589
 20
2.05891
 30
0.000000
  70
    32
  0
VERTEX
  8
AM_VIS
  5
D38
 10
14.2579
 20
2.05734
 30
0.000000
  70
    32
  0
VERTEX
  8
AM_VIS
  5
D39
 10
14.2570
 20
2.05577
 30
0.000000
  70
    32
  0
VERTEX
  8
AM_VIS
  5
D3A
 10
14.2561
 20
2.05420
 30
0.000000
  70
    32
  0
VERTEX
  8
AM_VIS
  5
D3B
 10
14.2552
 20
2.05262
 30
0.000000
  70
    32
  0
VERTEX
  8
AM_VIS
  5
D3C
 10
14.2543
 20
2.05103
 30
0.000000
  70
    32
  0
VERTEX
  8
AM_VIS
  5
D3D
 10
14.2534
 20
2.04944
 30
0.000000
  70
    32
  0
VERTEX
  8
AM_VIS
  5
D3E
 10
14.2525
 20
2.04785
 30
0.000000
  70
    32
  0
VERTEX
  8
AM_VIS
  5
D3F
 10
14.2517
 20
2.04625
 30
0.000000
  70
    32
  0
VERTEX
  8
AM_VIS
  5
D40
 10
14.2508
 20
2.04465
 30
0.000000
  70
    32
  0
VERTEX
  8
AM_VIS
  5
D41
 10
14.2499
 20
2.04304
 30
0.000000
  70
    32
  0
VERTEX
  8
AM_VIS
  5
D42
 10
14.2490
 20
2.04143
 30
0.000000
  70
    32
  0
VERTEX
  8
AM_VIS
  5
D43
 10
14.2482
 20
2.03982
 30
0.000000
  70
    32
  0
VERTEX
  8
AM_VIS
  5
D44
 10
14.2473
 20
2.03820
 30
0.000000
  70
    32
  0
VERTEX
  8
AM_VIS
  5
D45
 10
14.2464
 20
2.03657
 30
0.000000
  70
    32
  0
VERTEX
  8
AM_VIS
  5
D46
 10
14.2456
 20
2.03494
 30
0.000000
  70
    32
  0
VERTEX
  8
AM_VIS
  5
D47
 10
14.2448
 20
2.03331
 30
0.000000
  70
    32
  0
VERTEX
  8
AM_VIS
  5
D48
 10
14.2439
 20
2.03167
 30
0.000000
  70
    32
  0
VERTEX
  8
AM_VIS
  5
D49
 10
14.2431
 20
2.03003
 30
0.000000
  70
    32
  0
VERTEX
  8
AM_VIS
  5
D4A
 10
14.2422
 20
2.02839
 30
0.000000
  70
    32
  0
VERTEX
  8
AM_VIS
  5
D4B
 10
14.2414
 20
2.02674
 30
0.000000
  70
    32
  0
VERTEX
  8
AM_VIS
  5
D4C
 10
14.2406
 20
2.02508
 30
0.000000
  70
    32
  0
VERTEX
  8
AM_VIS
  5
D4D
 10
14.2398
 20
2.02342
 30
0.000000
  70
    32
  0
VERTEX
  8
AM_VIS
  5
D4E
 10
14.2390
 20
2.02176
 30
0.000000
  70
    32
  0
VERTEX
  8
AM_VIS
  5
D4F
 10
14.2382
 20
2.02009
 30
0.000000
  70
    32
  0
VERTEX
  8
AM_VIS
  5
D50
 10
14.2374
 20
2.01842
 30
0.000000
  70
    32
  0
VERTEX
  8
AM_VIS
  5
D51
 10
14.2366
 20
2.01674
 30
0.000000
  70
    32
  0
VERTEX
  8
AM_VIS
  5
D52
 10
14.2358
 20
2.01506
 30
0.000000
  70
    32
  0
VERTEX
  8
AM_VIS
  5
D53
 10
14.2350
 20
2.01338
 30
0.000000
  70
    32
  0
VERTEX
  8
AM_VIS
  5
D54
 10
14.2342
 20
2.01169
 30
0.000000
  70
    32
  0
VERTEX
  8
AM_VIS
  5
D55
 10
14.2334
 20
2.01000
 30
0.000000
  70
    32
  0
VERTEX
  8
AM_VIS
  5
D56
 10
14.2327
 20
2.00830
 30
0.000000
  70
    32
  0
VERTEX
  8
AM_VIS
  5
D57
 10
14.2319
 20
2.00660
 30
0.000000
  70
    32
  0
VERTEX
  8
AM_VIS
  5
D58
 10
14.2312
 20
2.00490
 30
0.000000
  70
    32
  0
VERTEX
  8
AM_VIS
  5
D59
 10
14.2304
 20
2.00319
 30
0.000000
  70
    32
  0
VERTEX
  8
AM_VIS
  5
D5A
 10
14.2297
 20
2.00147
 30
0.000000
  70
    32
  0
VERTEX
  8
AM_VIS
  5
D5B
 10
14.2289
 20
1.99976
 30
0.000000
  70
    32
  0
VERTEX
  8
AM_VIS
  5
D5C
 10
14.2282
 20
1.99804
 30
0.000000
  70
    32
  0
VERTEX
  8
AM_VIS
  5
D5D
 10
14.2274
 20
1.99631
 30
0.000000
  70
    32
  0
VERTEX
  8
AM_VIS
  5
D5E
 10
14.2267
 20
1.99458
 30
0.000000
  70
    32
  0
VERTEX
  8
AM_VIS
  5
D5F
 10
14.2260
 20
1.99285
 30
0.000000
  70
    32
  0
VERTEX
  8
AM_VIS
  5
D60
 10
14.2253
 20
1.99111
 30
0.000000
  70
    32
  0
VERTEX
  8
AM_VIS
  5
D61
 10
14.2246
 20
1.98937
 30
0.000000
  70
    32
  0
VERTEX
  8
AM_VIS
  5
D62
 10
14.2239
 20
1.98762
 30
0.000000
  70
    32
  0
VERTEX
  8
AM_VIS
  5
D63
 10
14.2232
 20
1.98587
 30
0.000000
  70
    32
  0
VERTEX
  8
AM_VIS
  5
D64
 10
14.2225
 20
1.98412
 30
0.000000
  70
    32
  0
VERTEX
  8
AM_VIS
  5
D65
 10
14.2218
 20
1.98236
 30
0.000000
  70
    32
  0
VERTEX
  8
AM_VIS
  5
D66
 10
14.2211
 20
1.98060
 30
0.000000
  70
    32
  0
VERTEX
  8
AM_VIS
  5
D67
 10
14.2204
 20
1.97884
 30
0.000000
  70
    32
  0
VERTEX
  8
AM_VIS
  5
D68
 10
14.2198
 20
1.97707
 30
0.000000
  70
    32
  0
VERTEX
  8
AM_VIS
  5
D69
 10
14.2191
 20
1.97530
 30
0.000000
  70
    32
  0
VERTEX
  8
AM_VIS
  5
D6A
 10
14.2184
 20
1.97352
 30
0.000000
  70
    32
  0
VERTEX
  8
AM_VIS
  5
D6B
 10
14.2178
 20
1.97174
 30
0.000000
  70
    32
  0
VERTEX
  8
AM_VIS
  5
D6C
 10
14.2171
 20
1.96996
 30
0.000000
  70
    32
  0
VERTEX
  8
AM_VIS
  5
D6D
 10
14.2165
 20
1.96817
 30
0.000000
  70
    32
  0
VERTEX
  8
AM_VIS
  5
D6E
 10
14.2158
 20
1.96638
 30
0.000000
  70
    32
  0
VERTEX
  8
AM_VIS
  5
D6F
 10
14.2152
 20
1.96459
 30
0.000000
  70
    32
  0
VERTEX
  8
AM_VIS
  5
D70
 10
14.2146
 20
1.96279
 30
0.000000
  70
    32
  0
VERTEX
  8
AM_VIS
  5
D71
 10
14.2140
 20
1.96098
 30
0.000000
  70
    32
  0
VERTEX
  8
AM_VIS
  5
D72
 10
14.2134
 20
1.95918
 30
0.000000
  70
    32
  0
VERTEX
  8
AM_VIS
  5
D73
 10
14.2127
 20
1.95737
 30
0.000000
  70
    32
  0
VERTEX
  8
AM_VIS
  5
D74
 10
14.2121
 20
1.95555
 30
0.000000
  70
    32
  0
VERTEX
  8
AM_VIS
  5
D75
 10
14.2115
 20
1.95374
 30
0.000000
  70
    32
  0
VERTEX
  8
AM_VIS
  5
D76
 10
14.2110
 20
1.95192
 30
0.000000
  70
    32
  0
VERTEX
  8
AM_VIS
  5
D77
 10
14.2104
 20
1.95009
 30
0.000000
  70
    32
  0
VERTEX
  8
AM_VIS
  5
D78
 10
14.2098
 20
1.94826
 30
0.000000
  70
    32
  0
VERTEX
  8
AM_VIS
  5
D79
 10
14.2092
 20
1.94643
 30
0.000000
  70
    32
  0
VERTEX
  8
AM_VIS
  5
D7A
 10
14.2087
 20
1.94460
 30
0.000000
  70
    32
  0
VERTEX
  8
AM_VIS
  5
D7B
 10
14.2081
 20
1.94276
 30
0.000000
  70
    32
  0
VERTEX
  8
AM_VIS
  5
D7C
 10
14.2075
 20
1.94092
 30
0.000000
  70
    32
  0
VERTEX
  8
AM_VIS
  5
D7D
 10
14.2070
 20
1.93907
 30
0.000000
  70
    32
  0
VERTEX
  8
AM_VIS
  5
D7E
 10
14.2064
 20
1.93722
 30
0.000000
  70
    32
  0
VERTEX
  8
AM_VIS
  5
D7F
 10
14.2059
 20
1.93537
 30
0.000000
  70
    32
  0
VERTEX
  8
AM_VIS
  5
D80
 10
14.2054
 20
1.93351
 30
0.000000
  70
    32
  0
VERTEX
  8
AM_VIS
  5
D81
 10
14.2048
 20
1.93165
 30
0.000000
  70
    32
  0
VERTEX
  8
AM_VIS
  5
D82
 10
14.2043
 20
1.92979
 30
0.000000
  70
    32
  0
VERTEX
  8
AM_VIS
  5
D83
 10
14.2038
 20
1.92792
 30
0.000000
  70
    32
  0
VERTEX
  8
AM_VIS
  5
D84
 10
14.2033
 20
1.92605
 30
0.000000
  70
    32
  0
VERTEX
  8
AM_VIS
  5
D85
 10
14.2028
 20
1.92418
 30
0.000000
  70
    32
  0
VERTEX
  8
AM_VIS
  5
D86
 10
14.2023
 20
1.92230
 30
0.000000
  70
    32
  0
VERTEX
  8
AM_VIS
  5
D87
 10
14.2018
 20
1.92042
 30
0.000000
  70
    32
  0
VERTEX
  8
AM_VIS
  5
D88
 10
14.2013
 20
1.91854
 30
0.000000
  70
    32
  0
VERTEX
  8
AM_VIS
  5
D89
 10
14.2009
 20
1.91665
 30
0.000000
  70
    32
  0
VERTEX
  8
AM_VIS
  5
D8A
 10
14.2004
 20
1.91476
 30
0.000000
  70
    32
  0
VERTEX
  8
AM_VIS
  5
D8B
 10
14.1999
 20
1.91286
 30
0.000000
  70
    32
  0
VERTEX
  8
AM_VIS
  5
D8C
 10
14.1995
 20
1.91097
 30
0.000000
  70
    32
  0
VERTEX
  8
AM_VIS
  5
D8D
 10
14.1990
 20
1.90907
 30
0.000000
  70
    32
  0
VERTEX
  8
AM_VIS
  5
D8E
 10
14.1986
 20
1.90716
 30
0.000000
  70
    32
  0
VERTEX
  8
AM_VIS
  5
D8F
 10
14.1981
 20
1.90526
 30
0.000000
  70
    32
  0
VERTEX
  8
AM_VIS
  5
D90
 10
14.1977
 20
1.90335
 30
0.000000
  70
    32
  0
VERTEX
  8
AM_VIS
  5
D91
 10
14.1973
 20
1.90143
 30
0.000000
  70
    32
  0
VERTEX
  8
AM_VIS
  5
D92
 10
14.1969
 20
1.89952
 30
0.000000
  70
    32
  0
VERTEX
  8
AM_VIS
  5
D93
 10
14.1964
 20
1.89760
 30
0.000000
  70
    32
  0
VERTEX
  8
AM_VIS
  5
D94
 10
14.1960
 20
1.89567
 30
0.000000
  70
    32
  0
VERTEX
  8
AM_VIS
  5
D95
 10
14.1956
 20
1.89375
 30
0.000000
  70
    32
  0
VERTEX
  8
AM_VIS
  5
D96
 10
14.1952
 20
1.89182
 30
0.000000
  70
    32
  0
VERTEX
  8
AM_VIS
  5
D97
 10
14.1949
 20
1.88989
 30
0.000000
  70
    32
  0
VERTEX
  8
AM_VIS
  5
D98
 10
14.1945
 20
1.88795
 30
0.000000
  70
    32
  0
VERTEX
  8
AM_VIS
  5
D99
 10
14.1941
 20
1.88601
 30
0.000000
  70
    32
  0
VERTEX
  8
AM_VIS
  5
D9A
 10
14.1937
 20
1.88407
 30
0.000000
  70
    32
  0
VERTEX
  8
AM_VIS
  5
D9B
 10
14.1934
 20
1.88213
 30
0.000000
  70
    32
  0
VERTEX
  8
AM_VIS
  5
D9C
 10
14.1930
 20
1.88018
 30
0.000000
  70
    32
  0
VERTEX
  8
AM_VIS
  5
D9D
 10
14.1927
 20
1.87823
 30
0.000000
  70
    32
  0
VERTEX
  8
AM_VIS
  5
D9E
 10
14.1923
 20
1.87628
 30
0.000000
  70
    32
  0
VERTEX
  8
AM_VIS
  5
D9F
 10
14.1920
 20
1.87432
 30
0.000000
  70
    32
  0
VERTEX
  8
AM_VIS
  5
DA0
 10
14.1917
 20
1.87236
 30
0.000000
  70
    32
  0
VERTEX
  8
AM_VIS
  5
DA1
 10
14.1913
 20
1.87040
 30
0.000000
  70
    32
  0
VERTEX
  8
AM_VIS
  5
DA2
 10
14.1910
 20
1.86843
 30
0.000000
  70
    32
  0
VERTEX
  8
AM_VIS
  5
DA3
 10
14.1907
 20
1.86646
 30
0.000000
  70
    32
  0
VERTEX
  8
AM_VIS
  5
DA4
 10
14.1904
 20
1.86449
 30
0.000000
  70
    32
  0
VERTEX
  8
AM_VIS
  5
DA5
 10
14.1901
 20
1.86252
 30
0.000000
  70
    32
  0
VERTEX
  8
AM_VIS
  5
DA6
 10
14.1898
 20
1.86055
 30
0.000000
  70
    32
  0
VERTEX
  8
AM_VIS
  5
DA7
 10
14.1896
 20
1.85857
 30
0.000000
  70
    32
  0
VERTEX
  8
AM_VIS
  5
DA8
 10
14.1893
 20
1.85660
 30
0.000000
  70
    32
  0
VERTEX
  8
AM_VIS
  5
DA9
 10
14.1890
 20
1.85462
 30
0.000000
  70
    32
  0
VERTEX
  8
AM_VIS
  5
DAA
 10
14.1888
 20
1.85264
 30
0.000000
  70
    32
  0
VERTEX
  8
AM_VIS
  5
DAB
 10
14.1885
 20
1.85067
 30
0.000000
  70
    32
  0
VERTEX
  8
AM_VIS
  5
DAC
 10
14.1883
 20
1.84869
 30
0.000000
  70
    32
  0
VERTEX
  8
AM_VIS
  5
DAD
 10
14.1880
 20
1.84671
 30
0.000000
  70
    32
  0
VERTEX
  8
AM_VIS
  5
DAE
 10
14.1878
 20
1.84473
 30
0.000000
  70
    32
  0
VERTEX
  8
AM_VIS
  5
DAF
 10
14.1876
 20
1.84275
 30
0.000000
  70
    32
  0
VERTEX
  8
AM_VIS
  5
DB0
 10
14.1874
 20
1.84076
 30
0.000000
  70
    32
  0
VERTEX
  8
AM_VIS
  5
DB1
 10
14.1871
 20
1.83878
 30
0.000000
  70
    32
  0
VERTEX
  8
AM_VIS
  5
DB2
 10
14.1869
 20
1.83680
 30
0.000000
  70
    32
  0
VERTEX
  8
AM_VIS
  5
DB3
 10
14.1867
 20
1.83481
 30
0.000000
  70
    32
  0
VERTEX
  8
AM_VIS
  5
DB4
 10
14.1866
 20
1.83283
 30
0.000000
  70
    32
  0
VERTEX
  8
AM_VIS
  5
DB5
 10
14.1864
 20
1.83084
 30
0.000000
  70
    32
  0
VERTEX
  8
AM_VIS
  5
DB6
 10
14.1862
 20
1.82886
 30
0.000000
  70
    32
  0
VERTEX
  8
AM_VIS
  5
DB7
 10
14.1860
 20
1.82687
 30
0.000000
  70
    32
  0
VERTEX
  8
AM_VIS
  5
DB8
 10
14.1859
 20
1.82488
 30
0.000000
  70
    32
  0
VERTEX
  8
AM_VIS
  5
DB9
 10
14.1857
 20
1.82289
 30
0.000000
  70
    32
  0
VERTEX
  8
AM_VIS
  5
DBA
 10
14.1856
 20
1.82091
 30
0.000000
  70
    32
  0
VERTEX
  8
AM_VIS
  5
DBB
 10
14.1854
 20
1.81892
 30
0.000000
  70
    32
  0
VERTEX
  8
AM_VIS
  5
DBC
 10
14.1853
 20
1.81693
 30
0.000000
  70
    32
  0
VERTEX
  8
AM_VIS
  5
DBD
 10
14.1852
 20
1.81494
 30
0.000000
  70
    32
  0
VERTEX
  8
AM_VIS
  5
DBE
 10
14.1851
 20
1.81294
 30
0.000000
  70
    32
  0
VERTEX
  8
AM_VIS
  5
DBF
 10
14.1850
 20
1.81095
 30
0.000000
  70
    32
  0
VERTEX
  8
AM_VIS
  5
DC0
 10
14.1848
 20
1.80896
 30
0.000000
  70
    32
  0
VERTEX
  8
AM_VIS
  5
DC1
 10
14.1848
 20
1.80697
 30
0.000000
  70
    32
  0
VERTEX
  8
AM_VIS
  5
DC2
 10
14.1847
 20
1.80497
 30
0.000000
  70
    32
  0
VERTEX
  8
AM_VIS
  5
DC3
 10
14.1846
 20
1.80298
 30
0.000000
  70
    32
  0
VERTEX
  8
AM_VIS
  5
DC4
 10
14.1845
 20
1.80099
 30
0.000000
  70
    32
  0
VERTEX
  8
AM_VIS
  5
DC5
 10
14.1844
 20
1.79899
 30
0.000000
  70
    32
  0
VERTEX
  8
AM_VIS
  5
DC6
 10
14.1844
 20
1.79700
 30
0.000000
  70
    32
  0
VERTEX
  8
AM_VIS
  5
DC7
 10
14.1843
 20
1.79500
 30
0.000000
  70
    32
  0
VERTEX
  8
AM_VIS
  5
DC8
 10
14.1843
 20
1.79300
 30
0.000000
  70
    32
  0
VERTEX
  8
AM_VIS
  5
DC9
 10
14.1842
 20
1.79101
 30
0.000000
  70
    32
  0
VERTEX
  8
AM_VIS
  5
DCA
 10
14.1842
 20
1.78901
 30
0.000000
  70
    32
  0
VERTEX
  8
AM_VIS
  5
DCB
 10
14.1842
 20
1.78701
 30
0.000000
  70
    32
  0
VERTEX
  8
AM_VIS
  5
DCC
 10
14.1842
 20
1.78502
 30
0.000000
  70
    32
  0
VERTEX
  8
AM_VIS
  5
DCD
 10
14.1842
 20
1.78302
 30
0.000000
  70
    32
  0
VERTEX
  8
AM_VIS
  5
DCE
 10
14.1842
 20
1.78102
 30
0.000000
  70
    32
  0
SEQEND
  8
AM_VIS
  5
DCF
  0
LINE
  5
37
  8
AM_VIS
 10
13.54126961762257
 20
3.9077822203493051
 30
0.0
 11
15.65626961762257
 21
3.9077822203493051
 31
0.0
  0
LINE
  5
38
  8
AM_VIS
 10
13.54126961762257
 20
0.9827822203493052
 30
0.0
 11
13.54126961762257
 21
3.9077822203493051
 31
0.0
  0
LINE
  5
39
  8
AM_VIS
 10
15.656269617622581
 20
0.9827822203493052
 30
0.0
 11
15.656269617622581
 21
3.9077822203493051
 31
0.0
  0
LINE
  5
3A
  8
AM_VIS
 10
17.439394617622568
 20
0.9827822203493052
 30
0.0
 11
11.75814461762257
 21
0.9827822203493052
 31
0.0
  0
LINE
  5
3B
  8
AM_VIS
 10
11.75814461762257
 20
0.7577822203493057
 30
0.0
 11
17.439394617622579
 21
0.7577822203493057
 31
0.0
  0
LINE
  5
3C
  8
AM_VIS
 10
17.439394617622568
 20
0.9827822203493052
 30
0.0
 11
17.439394617622568
 21
0.7577822203493057
 31
0.0
  0
LINE
  5
3D
  8
AM_VIS
 10
11.75814461762257
 20
0.9827822203493052
 30
0.0
 11
11.75814461762257
 21
0.7577822203493057
 31
0.0
  0
LINE
  5
3E
  8
AM_VIS
 10
17.439394617622568
 20
0.9827822203493052
 30
0.0
 11
17.439394617622568
 21
3.9077822203493051
 31
0.0
  0
LINE
  5
3F
  8
AM_VIS
 10
17.439394617622568
 20
3.9077822203493051
 30
0.0
 11
15.656269617622581
 21
3.9077822203493051
 31
0.0
  0
LINE
  5
40
  8
AM_VIS
 10
13.54126961762257
 20
3.9077822203493051
 30
0.0
 11
11.75814461762257
 21
3.9077822203493051
 31
0.0
  0
LINE
  5
41
  8
AM_VIS
 10
11.75814461762257
 20
0.9827822203493052
 30
0.0
 11
11.75814461762257
 21
3.9077822203493051
 31
0.0
  0
ARC
  5
42
  8
AM_VIS
 10
14.609258008167769
 20
1.777231410637736
 30
0.0
 40
0.369296759614091
 50
229.29431560951789
 51
268.37178989422
  0
ARC
  5
43
  8
AM_VIS
 10
14.588281227077379
 20
1.7772314106377409
 30
0.0
 40
0.369296759614095
 50
271.62821010578023
 51
310.70568439048191
  0
ARC
  5
44
  8
AM_VIS
 10
14.588281227077379
 20
1.7848086062735899
 30
0.0
 40
0.3692967596140982
 50
49.294315609518222
 51
88.371789894219646
  0
ARC
  5
45
  8
AM_VIS
 10
14.609258008167769
 20
1.7848086062735951
 30
0.0
 40
0.3692967596140938
 50
91.628210105780212
 51
130.70568439048199
  0
ARC
  5
46
  8
AM_VIS
 10
14.598769617622571
 20
1.7810200084556671
 30
0.0
 40
0.365625
 50
309.07230755918039
 51
50.927692440819548
  0
CIRCLE
  5
47
  8
AM_VIS
 10
14.598769617622571
 20
1.7810200084556671
 30
0.0
 40
0.28125
  0
ARC
  5
48
  8
AM_VIS
 10
14.598769617622571
 20
1.781020008455666
 30
0.0
 40
0.365625
 50
129.0723075591803
 51
230.9276924408195
  0
ARC
  5
49
  8
AM_VIS
 10
14.60925800816776
 20
3.3369936225313701
 30
0.0
 40
0.3692967596140853
 50
229.29431560951761
 51
268.37178989422023
  0
ARC
  5
4A
  8
AM_VIS
 10
14.588281227077379
 20
3.3369936225313759
 30
0.0
 40
0.3692967596140915
 50
271.62821010577989
 51
310.70568439048202
  0
ARC
  5
4B
  8
AM_VIS
 10
14.588281227077379
 20
3.344570818167234
 30
0.0
 40
0.3692967596140924
 50
49.294315609517987
 51
88.371789894220015
  0
ARC
  5
4C
  8
AM_VIS
 10
14.60925800816776
 20
3.3445708181672411
 30
0.0
 40
0.3692967596140853
 50
91.628210105779729
 51
130.70568439048239
  0
ARC
  5
4D
  8
AM_VIS
 10
14.598769617622571
 20
3.3407822203493049
 30
0.0
 40
0.365625
 50
309.0723075591805
 51
50.927692440819548
  0
CIRCLE
  5
4E
  8
AM_VIS
 10
14.598769617622571
 20
3.3407822203493049
 30
0.0
 40
0.28125
  0
ARC
  5
4F
  8
AM_VIS
 10
14.598769617622571
 20
3.3407822203493041
 30
0.0
 40
0.365625
 50
129.0723075591803
 51
230.9276924408195
  0
LINE
  5
50
  8
AM_HID
 10
16.708144617622569
 20
0.7577822203493057
 30
0.0
 11
16.708144617622569
 21
0.9827822203493052
 31
0.0
  0
LINE
  5
53
  8
AM_HID
 10
17.10189461762257
 20
0.7577822203493057
 30
0.0
 11
17.10189461762257
 21
0.9827822203493052
 31
0.0
  0
LINE
  5
54
  8
AM_HID
 10
12.48939461762258
 20
0.9827822203493052
 30
0.0
 11
12.48939461762258
 21
0.7577822203493057
 31
0.0
  0
LINE
  5
55
  8
AM_HID
 10
12.09564461762257
 20
0.9827822203493052
 30
0.0
 11
12.09564461762257
 21
0.7577822203493057
 31
0.0
  0
LINE
  5
56
  8
AM_HID
 10
13.72126961762258
 20
0.9827822203493052
 30
0.0
 11
13.72126961762258
 21
3.9077822203493051
 31
0.0
  0
LINE
  5
57
  8
AM_HID
 10
15.47626961762257
 20
0.9827822203493052
 30
0.0
 11
15.47626961762257
 21
3.9077822203493051
 31
0.0
  0
CIRCLE
  5
58
  8
AM_VIS
 10
16.905019617622571
 20
5.7733279866679172
 30
0.0
 40
0.196875
  0
CIRCLE
  5
59
  8
AM_VIS
 10
12.292519617622579
 20
5.7733279866679164
 30
0.0
 40
0.196875
  0
CIRCLE
  5
5A
  8
AM_VIS
 10
12.29251961762257
 20
7.5733279866679153
 30
0.0
 40
0.196875
  0
CIRCLE
  5
5B
  8
AM_VIS
 10
16.905019617622571
 20
7.5733279866679171
 30
0.0
 40
0.196875
  0
ARC
  5
5C
  8
AM_VIS
 10
14.598769617622571
 20
7.123327986667916
 30
0.0
 40
1.057499999999999
 50
180.0
 51
0.0
  0
LINE
  5
5D
  8
AM_VIS
 10
11.75814461762257
 20
5.2108279866679172
 30
0.0
 11
11.75814461762257
 21
8.1358279866679162
 31
0.0
  0
LINE
  5
5E
  8
AM_VIS
 10
17.439394617622568
 20
5.2108279866679172
 30
0.0
 11
11.75814461762257
 21
5.2108279866679172
 31
0.0
  0
LINE
  5
5F
  8
AM_VIS
 10
17.439394617622568
 20
8.1358279866679162
 30
0.0
 11
17.439394617622579
 21
5.2108279866679172
 31
0.0
  0
LINE
  5
60
  8
AM_VIS
 10
17.439394617622568
 20
8.1358279866679162
 30
0.0
 11
15.656269617622581
 21
8.1358279866679162
 31
0.0
  0
LINE
  5
61
  8
AM_VIS
 10
11.75814461762257
 20
8.3608279866679176
 30
0.0
 11
17.439394617622568
 21
8.3608279866679176
 31
0.0
  0
LINE
  5
62
  8
AM_VIS
 10
17.439394617622568
 20
8.3608279866679176
 30
0.0
 11
17.439394617622568
 21
8.1358279866679162
 31
0.0
  0
LINE
  5
63
  8
AM_VIS
 10
13.54126961762257
 20
8.1358279866679162
 30
0.0
 11
11.75814461762257
 21
8.1358279866679162
 31
0.0
  0
LINE
  5
64
  8
AM_VIS
 10
11.75814461762257
 20
8.1358279866679162
 30
0.0
 11
11.75814461762257
 21
8.3608279866679176
 31
0.0
  0
CIRCLE
  5
65
  8
AM_VIS
 10
14.598769617622571
 20
7.123327986667916
 30
0.0
 40
0.8774999999999998
  0
LINE
  5
66
  8
AM_VIS
 10
13.54126961762257
 20
7.123327986667916
 30
0.0
 11
13.54126961762257
 21
8.1358279866679162
 31
0.0
  0
LINE
  5
67
  8
AM_VIS
 10
15.656269617622581
 20
8.1358279866679162
 30
0.0
 11
15.656269617622581
 21
7.123327986667916
 31
0.0
  0
ARC
  5
68
  8
AM_VIS
 10
14.00814463033662
 20
6.0103310848381444
 30
0.0
 40
0.224999987240735
 50
359.99999932593272
 51
38.53305634728784
  0
ARC
  5
69
  8
AM_VIS
 10
15.18939461762259
 20
6.010331082191084
 30
0.0
 40
0.2250000000000172
 50
141.46694684374839
 51
179.99999999999889
  0
LINE
  5
6A
  8
AM_VIS
 10
14.5987696176217
 20
5.9195779866677842
 30
0.0
 11
14.82922329340729
 21
5.9195779866677842
 31
0.0
  0
LINE
  5
6B
  8
AM_VIS
 10
14.368315941837871
 20
5.9195779866677842
 30
0.0
 11
14.59876961762345
 21
5.9195779866677842
 31
0.0
  0
LINE
  5
6C
  8
AM_VIS
 10
14.82922329340728
 20
5.9195779866679148
 30
0.0
 11
14.96439461762257
 21
5.9195779866679148
 31
0.0
  0
LINE
  5
6D
  8
AM_VIS
 10
14.23314461762258
 20
5.9195779866679157
 30
0.0
 11
14.368315941837871
 21
5.9195779866679157
 31
0.0
  0
LINE
  5
6E
  8
AM_HID
 10
12.10970711762257
 20
8.3608279866679176
 30
0.0
 11
12.10970711762257
 21
8.1358279866679162
 31
0.0
  0
LINE
  5
6F
  8
AM_HID
 10
13.122207117622571
 20
8.3608279866679176
 30
0.0
 11
13.122207117622571
 21
8.1358279866679162
 31
0.0
  0
LINE
  5
70
  8
AM_HID
 10
17.087832117622568
 20
8.1358279866679162
 30
0.0
 11
17.087832117622568
 21
8.3608279866679176
 31
0.0
  0
LINE
  5
71
  8
AM_HID
 10
16.075332117622569
 20
8.1358279866679162
 30
0.0
 11
16.075332117622569
 21
8.3608279866679176
 31
0.0
  0
LINE
  5
72
  8
AM_VIS
 10
14.96439461762257
 20
6.0103310821910894
 30
0.0
 11
14.96439461762257
 21
5.9195779866679148
 31
0.0
  0
LINE
  5
73
  8
AM_VIS
 10
14.23314461762258
 20
5.9195779866679157
 30
0.0
 11
14.23314461762258
 21
6.0103310821910894
 31
0.0
  0
LINE
  5
74
  8
AM_HID
 10
14.880019617622571
 20
6.1039140925601298
 30
0.0
 11
14.880019617622571
 21
5.9195779866679157
 31
0.0
  0
LINE
  5
75
  8
AM_HID
 10
14.317519617622571
 20
6.1039140925601307
 30
0.0
 11
14.317519617622571
 21
5.9195779866679157
 31
0.0
  0
LINE
  5
178
  8
0
 10
11.75814461762257
 20
8.4170779866679162
 30
0.0
 11
11.75814461762257
 21
9.3221613403297177
 31
0.0
  0
LINE
  5
179
  8
0
 10
17.439394617622568
 20
8.4170779866679162
 30
0.0
 11
17.439394617622568
 21
9.3221613403297177
 31
0.0
  0
LINE
  5
17A
  8
0
 10
11.87064461762257
 20
9.1601613403297186
 30
0.0
 11
14.264644617622571
 21
9.1601613403297186
 31
0.0
  0
LINE
  5
17B
  8
0
 10
17.326894617622571
 20
9.1601613403297186
 30
0.0
 11
14.932894617622569
 21
9.1601613403297186
 31
0.0
  0
SOLID
  5
17C
  8
0
 10
11.87064461762257
 20
9.1789113403297193
 30
0.0
 11
11.87064461762257
 21
9.1414113403297161
 31
0.0
 12
11.75814461762257
 22
9.1601613403297186
 32
0.0
 13
11.75814461762257
 23
9.1601613403297186
 33
0.0
  0
SOLID
  5
17D
  8
0
 10
17.326894617622571
 20
9.1789113403297193
 30
0.0
 11
17.326894617622571
 21
9.1414113403297161
 31
0.0
 12
17.439394617622568
 22
9.1601613403297186
 32
0.0
 13
17.439394617622568
 23
9.1601613403297186
 33
0.0
  0
INSERT
  5
17E
  8
0
  2
*U2
 10
0.0
 20
0.0
 30
0.0
  0
ENDSEC
  0
EOF
