  0
SECTION
  2
HEADER
  9
$ACADVER
  1
AC1009
  9
$INSBASE
 10
0.0
 20
0.0
 30
0.0
  9
$EXTMIN
 10
10.66586587482608
 20
2.9451920024909288
 30
0.0
  9
$EXTMAX
 10
14.648365874826091
 20
5.851574077338058
 30
0.0
  9
$LIMMIN
 10
0.0
 20
0.0
  9
$LIMMAX
 10
12.0
 20
9.0
  9
$ORTHOMODE
 70
     1
  9
$REGENMODE
 70
     0
  9
$FILLMODE
 70
     1
  9
$QTEXTMODE
 70
     0
  9
$MIRRTEXT
 70
     0
  9
$DRAGMODE
 70
     2
  9
$LTSCALE
 40
1.0
  9
$OSMODE
 70
    55
  9
$ATTMODE
 70
     1
  9
$TEXTSIZE
 40
0.2
  9
$TRACEWID
 40
0.05
  9
$TEXTSTYLE
  7
STANDARD
  9
$CLAYER
  8
0
  9
$CELTYPE
  6
BYLAYER
  9
$CECOLOR
 62
   256
  9
$DIMSCALE
 40
1.0
  9
$DIMASZ
 40
0.125
  9
$DIMEXO
 40
0.0625
  9
$DIMDLI
 40
0.38
  9
$DIMRND
 40
0.0
  9
$DIMDLE
 40
0.0
  9
$DIMEXE
 40
0.18
  9
$DIMTP
 40
0.0
  9
$DIMTM
 40
0.0
  9
$DIMTXT
 40
0.09375
  9
$DIMCEN
 40
-0.125
  9
$DIMTSZ
 40
0.0
  9
$DIMTOL
 70
     0
  9
$DIMLIM
 70
     0
  9
$DIMTIH
 70
     0
  9
$DIMTOH
 70
     0
  9
$DIMSE1
 70
     0
  9
$DIMSE2
 70
     0
  9
$DIMTAD
 70
     0
  9
$DIMZIN
 70
     3
  9
$DIMBLK
  1

  9
$DIMASO
 70
     0
  9
$DIMSHO
 70
     1
  9
$DIMPOST
  1

  9
$DIMAPOST
  1

  9
$DIMALT
 70
     0
  9
$DIMALTD
 70
     2
  9
$DIMALTF
 40
25.399999999999999
  9
$DIMLFAC
 40
1.0
  9
$DIMTOFL
 70
     1
  9
$DIMTVP
 40
0.0
  9
$DIMTIX
 70
     0
  9
$DIMSOXD
 70
     0
  9
$DIMSAH
 70
     0
  9
$DIMBLK1
  1

  9
$DIMBLK2
  1

  9
$DIMSTYLE
  2
STANDARD
  9
$DIMCLRD
 70
     0
  9
$DIMCLRE
 70
     0
  9
$DIMCLRT
 70
     0
  9
$DIMTFAC
 40
1.0
  9
$DIMGAP
 40
0.09
  9
$LUNITS
 70
     4
  9
$LUPREC
 70
     4
  9
$SKETCHINC
 40
0.1
  9
$FILLETRAD
 40
0.025
  9
$AUNITS
 70
     0
  9
$AUPREC
 70
     4
  9
$MENU
  1
.
  9
$ELEVATION
 40
0.0
  9
$PELEVATION
 40
0.0
  9
$THICKNESS
 40
0.0
  9
$LIMCHECK
 70
     0
  9
$BLIPMODE
 70
     0
  9
$CHAMFERA
 40
0.125
  9
$CHAMFERB
 40
0.5
  9
$SKPOLY
 70
     0
  9
$TDCREATE
 40
2451086.9109346061
  9
$TDUPDATE
 40
2453913.5790470368
  9
$TDINDWG
 40
0.0620671991
  9
$TDUSRTIMER
 40
0.0620671991
  9
$USRTIMER
 70
     1
  9
$ANGBASE
 50
0.0
  9
$ANGDIR
 70
     0
  9
$PDMODE
 70
    34
  9
$PDSIZE
 40
3.0
  9
$PLINEWID
 40
0.0
  9
$COORDS
 70
     1
  9
$SPLFRAME
 70
     0
  9
$SPLINETYPE
 70
     6
  9
$SPLINESEGS
 70
     8
  9
$ATTDIA
 70
     0
  9
$ATTREQ
 70
     1
  9
$HANDLING
 70
     1
  9
$HANDSEED
  5
2C4
  9
$SURFTAB1
 70
     6
  9
$SURFTAB2
 70
     6
  9
$SURFTYPE
 70
     6
  9
$SURFU
 70
     6
  9
$SURFV
 70
     6
  9
$UCSNAME
  2

  9
$UCSORG
 10
0.0
 20
0.0
 30
0.0
  9
$UCSXDIR
 10
1.0
 20
0.0
 30
0.0
  9
$UCSYDIR
 10
0.0
 20
1.0
 30
0.0
  9
$PUCSNAME
  2

  9
$PUCSORG
 10
0.0
 20
0.0
 30
0.0
  9
$PUCSXDIR
 10
1.0
 20
0.0
 30
0.0
  9
$PUCSYDIR
 10
0.0
 20
1.0
 30
0.0
  9
$USERI1
 70
     0
  9
$USERI2
 70
     0
  9
$USERI3
 70
     0
  9
$USERI4
 70
     0
  9
$USERI5
 70
     0
  9
$USERR1
 40
0.0
  9
$USERR2
 40
0.0
  9
$USERR3
 40
0.0
  9
$USERR4
 40
0.0
  9
$USERR5
 40
0.0
  9
$WORLDVIEW
 70
     1
  9
$SHADEDGE
 70
     3
  9
$SHADEDIF
 70
    70
  9
$TILEMODE
 70
     1
  9
$MAXACTVP
 70
    48
  9
$PLIMCHECK
 70
     0
  9
$PEXTMIN
 10
10.133364582597791
 20
2.5055466625361862
 30
0.0
  9
$PEXTMAX
 10
15.400864582597791
 20
5.6869767284109427
 30
0.0
  9
$PLIMMIN
 10
-0.1579164520023376
 20
-0.2812499887361301
  9
$PLIMMAX
 10
10.84208330770177
 20
8.2187497709679782
  9
$UNITMODE
 70
     0
  9
$VISRETAIN
 70
     1
  9
$PLINEGEN
 70
     0
  9
$PSLTSCALE
 70
     1
  0
ENDSEC
  0
SECTION
  2
TABLES
  0
TABLE
  2
VPORT
 70
     2
  0
VPORT
  2
*ACTIVE
 70
     0
 10
0.0
 20
0.0
 11
1.0
 21
1.0
 12
0.9990950540963554
 22
0.3681847310028237
 13
0.0
 23
0.0
 14
0.5
 24
0.5
 15
0.5
 25
0.5
 16
0.0
 26
0.0
 36
1.0
 17
12.76711458759779
 27
4.078256940280208
 37
0.0
 40
3.2662045419808439
 41
2.38716814159292
 42
50.0
 43
0.0
 44
0.0
 50
0.0
 51
0.0
 71
     0
 72
   100
 73
     1
 74
     1
 75
     0
 76
     0
 77
     0
 78
     0
  0
ENDTAB
  0
TABLE
  2
LTYPE
 70
    18
  0
LTYPE
  2
CONTINUOUS
 70
     0
  3
Solid line
 72
    65
 73
     0
 40
0.0
  0
LTYPE
  2
HIDDEN
 70
     0
  3
__ __ __ __ __ __ __ __ __ __ __ __ __ __ __ __
 72
    65
 73
     2
 40
0.375
 49
0.25
 49
-0.125
  0
LTYPE
  2
PHANTOM2
 70
     0
  3
Phantom (.5x) ___ _ _ ___ _ _ ___ _ _ ___ _ _
 72
    65
 73
     6
 40
1.25
 49
0.625
 49
-0.125
 49
0.125
 49
-0.125
 49
0.125
 49
-0.125
  0
LTYPE
  2
CENTER
 70
     0
  3
Center ____ _ ____ _ ____ _ ____ _ ____ _ ____
 72
    65
 73
     4
 40
2.0
 49
1.25
 49
-0.25
 49
0.25
 49
-0.25
  0
LTYPE
  2
ASULTYPE
 70
     0
  3
Solid line
 72
    65
 73
     2
 40
3.0
 49
2.5
 49
0.5
  0
LTYPE
  2
ASVLTYPE
 70
     0
  3
__ __ __ __ __ __ __ __ __ __ __ __ __ __ __ __ __ __ __ __ __
 72
    65
 73
     2
 40
0.75
 49
0.5
 49
-0.25
  0
LTYPE
  2
AM_ISO02W050
 70
     0
  3
__ __ __ __ __ __ __ __ __ __ __ __ __ __ __
 72
    65
 73
     2
 40
7.5
 49
6.0
 49
-1.5
  0
LTYPE
  2
AM_ISO08W050
 70
     0
  3
____ . ____ . ____ . ____ . ____ . ____ . ____
 72
    65
 73
     4
 40
18.0
 49
12.0
 49
-1.5
 49
3.0
 49
-1.5
  0
LTYPE
  2
AM_ISO09W050
 70
     0
  3
_____ . . _____ . . _____ . . ____ .. ____
 72
    65
 73
     6
 40
22.5
 49
12.0
 49
-1.5
 49
3.0
 49
-1.5
 49
3.0
 49
-1.5
  0
LTYPE
  2
AMCONSTR
 70
     0
  3
_______________________
 72
    65
 73
     2
 40
9999.0
 49
9999.0
 49
0.0
  0
LTYPE
  2
AM_ISO08W050X2
 70
     0
  3
__ . __ . __ . __ . __ . __
 72
    65
 73
     4
 40
9.0
 49
6.0
 49
-0.75
 49
1.5
 49
-0.75
  0
LTYPE
  2
AM_ISO02W050X2
 70
     0
  3
 _ _ _ _ _ _ _ _ _ _ _ _
 72
    65
 73
     2
 40
3.75
 49
3.0
 49
-0.75
  0
LTYPE
  2
AMZIGZAG
 70
     0
  3
/\/-/\/-/\/-/\/-/\/-/\/
 72
    65
 73
     2
 40
11.0001
 49
0.0001
 49
-11.0
  0
LTYPE
  2
CENTER2
 70
     0
  3
Center (.5x) ___ _ ___ _ ___ _ ___ _ ___ _ ___
 72
    65
 73
     4
 40
1.125
 49
0.75
 49
-0.125
 49
0.125
 49
-0.125
  0
LTYPE
  2
HIDDEN2
 70
     0
  3
Hidden (.5x) _ _ _ _ _ _ _ _ _ _ _ _ _ _ _ _ _
 72
    65
 73
     2
 40
0.1875
 49
0.125
 49
-0.0625
  0
LTYPE
  2
AMZIGZAG2
 70
     0
  3
/\/-/\/-/\/-/\/-/\/-/\/
 72
    65
 73
     2
 40
0.4401
 49
0.0001
 49
-0.4400000000000001
  0
LTYPE
  2
ACANSTGB
 70
     0
  3
__ . . __ . .
 72
    65
 73
     6
 40
0.35433070866
 49
0.15748031496
 49
-0.03937007874
 49
0.03937007874
 49
-0.03937007874
 49
0.03937007874
 49
-0.03937007874
  0
LTYPE
  2
ACANSTGL
 70
     0
  3
_ _ _ _ _
 72
    65
 73
     2
 40
0.11811023622
 49
0.07874015748
 49
-0.03937007874
  0
ENDTAB
  0
TABLE
  2
LAYER
 70
     4
  0
LAYER
  2
0
 70
     0
 62
     7
  6
CONTINUOUS
  0
LAYER
  2
AM_VIS
 70
     0
 62
     7
  6
CONTINUOUS
  0
LAYER
  2
AM_HID
 70
     0
 62
     7
  6
HIDDEN
  0
LAYER
  2
KEE10
 70
     0
 62
     7
  6
CONTINUOUS
  0
ENDTAB
  0
TABLE
  2
STYLE
 70
     5
  0
STYLE
  2
STANDARD
 70
     0
 40
0.0
 41
1.0
 50
0.0
 71
     0
 42
0.2
  3
txt
  4

  0
STYLE
  2

 70
     1
 40
0.0
 41
1.0
 50
0.0
 71
     0
 42
0.2
  3
ltypeshp.shx
  4

  0
STYLE
  2
ACANSTS
 70
     0
 40
1.0
 41
1.0
 50
0.0
 71
     0
 42
0.2
  3
romans.shx
  4

  0
STYLE
  2
ACANSGDT
 70
     0
 40
0.0
 41
1.0
 50
0.0
 71
     0
 42
0.2
  3
amgdtans.shx
  4

  0
STYLE
  2
ACANSTSB
 70
     0
 40
1.0
 41
1.0
 50
0.0
 71
     0
 42
0.2
  3
romans.shx
  4

  0
ENDTAB
  0
TABLE
  2
VIEW
 70
     0
  0
ENDTAB
  0
TABLE
  2
UCS
 70
     0
  0
ENDTAB
  0
TABLE
  2
APPID
 70
    13
  0
APPID
  2
ACAD
 70
     0
  0
APPID
  2
GENIUS_GENDIM_13
 70
     0
  0
APPID
  2
GENIUS_GENDTOL_13
 70
     0
  0
APPID
  2
GENIUS_GE3DTOL_13
 70
     0
  0
APPID
  2
MCAD_NO_VIS
 70
     0
  0
APPID
  2
ACAD_TEMP_GRAPHIC
 70
     0
  0
APPID
  2
AD_DRAW
 70
     0
  0
APPID
  2
ACATTRIBSERVICES
 70
     0
  0
APPID
  2
ASURF_PCURVE_APPNAME
 70
     0
  0
APPID
  2
AMG_3D2D_5_0
 70
     0
  0
APPID
  2
DESIGNERASSEMBLIES
 70
     0
  0
APPID
  2
ACADM_DIM_EDIT
 70
     0
  0
APPID
  2
AMDT_DM_ADJ
 70
     0
  0
ENDTAB
  0
TABLE
  2
DIMSTYLE
 70
     7
  0
DIMSTYLE
  2
STANDARD
 70
     0
  3

  4

  5

  6

  7

 40
1.0
 41
0.18
 42
0.0625
 43
0.38
 44
0.18
 45
0.0
 46
0.0
 47
0.0
 48
0.0
140
0.18
141
0.09
142
0.0
143
25.399999999999999
144
1.0
145
0.0
146
1.0
147
0.09
 71
     0
 72
     0
 73
     1
 74
     1
 75
     0
 76
     0
 77
     0
 78
     0
170
     0
171
     2
172
     0
173
     0
174
     0
175
     0
176
     0
177
     0
178
     0
  0
DIMSTYLE
  2
AM_ANSI
 70
     0
  3

  4
mm
  5

  6

  7

 40
1.0
 41
0.1
 42
0.05
 43
0.5
 44
0.1
 45
0.0
 46
0.0
 47
0.1
 48
0.1
140
0.12
141
0.0
142
0.0
143
25.399999999999999
144
1.0
145
0.0
146
0.71
147
0.06
 71
     0
 72
     0
 73
     1
 74
     1
 75
     0
 76
     0
 77
     0
 78
     7
170
     0
171
     2
172
     0
173
     0
174
     0
175
     0
176
   256
177
   256
178
     2
  0
DIMSTYLE
  2
AM_ANSI$3
 70
     0
  3

  4
mm
  5

  6

  7

 40
1.0
 41
0.1
 42
0.05
 43
0.5
 44
0.1
 45
0.0
 46
0.0
 47
0.1
 48
0.1
140
0.12
141
0.0
142
0.0
143
25.399999999999999
144
1.0
145
0.0
146
0.71
147
0.06
 71
     0
 72
     0
 73
     1
 74
     1
 75
     0
 76
     0
 77
     0
 78
     7
170
     0
171
     2
172
     0
173
     0
174
     0
175
     0
176
   256
177
   256
178
     2
  0
DIMSTYLE
  2
AM_ANSI$4
 70
     0
  3

  4
mm
  5

  6

  7

 40
1.0
 41
0.1
 42
0.05
 43
0.5
 44
0.1
 45
0.0
 46
0.0
 47
0.1
 48
0.1
140
0.12
141
0.0
142
0.0
143
25.399999999999999
144
1.0
145
0.0
146
0.71
147
0.06
 71
     0
 72
     0
 73
     1
 74
     1
 75
     0
 76
     0
 77
     0
 78
     7
170
     0
171
     2
172
     0
173
     0
174
     0
175
     0
176
   256
177
   256
178
     2
  0
DIMSTYLE
  2
AM_ANSI$7
 70
     0
  3

  4
mm
  5

  6

  7

 40
1.0
 41
0.1
 42
0.05
 43
0.5
 44
0.1
 45
0.0
 46
0.0
 47
0.1
 48
0.1
140
0.24
141
0.0
142
0.0
143
25.399999999999999
144
1.0
145
0.0
146
0.71
147
0.06
 71
     0
 72
     0
 73
     1
 74
     1
 75
     0
 76
     0
 77
     0
 78
     7
170
     0
171
     2
172
     0
173
     0
174
     0
175
     0
176
   256
177
   256
178
     2
  0
DIMSTYLE
  2
AM_ANSI$SF
 70
     0
  3

  4
mm
  5

  6

  7

 40
1.0
 41
0.1
 42
0.05
 43
0.5
 44
0.1
 45
0.0
 46
0.0
 47
0.1
 48
0.1
140
0.12
141
0.0
142
0.0
143
25.399999999999999
144
1.0
145
0.0
146
0.71
147
0.06
 71
     0
 72
     0
 73
     1
 74
     1
 75
     1
 76
     1
 77
     0
 78
     7
170
     0
171
     2
172
     0
173
     0
174
     0
175
     0
176
   256
177
   256
178
     2
  0
DIMSTYLE
  2
AM_ANSI$SH
 70
     0
  3

  4
mm
  5

  6
GENAXEH
  7

 40
1.0
 41
0.1
 42
0.05
 43
0.5
 44
0.1
 45
0.0
 46
0.0
 47
0.1
 48
0.1
140
0.12
141
0.0
142
0.0
143
25.399999999999999
144
1.0
145
0.0
146
0.71
147
0.06
 71
     0
 72
     0
 73
     1
 74
     1
 75
     1
 76
     1
 77
     0
 78
     7
170
     0
171
     2
172
     0
173
     1
174
     0
175
     0
176
   256
177
   256
178
     2
  0
ENDTAB
  0
ENDSEC
  0
SECTION
  2
BLOCKS
  0
BLOCK
  8
0
  2
$MODEL_SPACE
 70
     0
 10
0.0
 20
0.0
 30
0.0
  3
$MODEL_SPACE
  1

  0
ENDBLK
  5
A
  8
0
  0
BLOCK
 67
     1
  8
0
  2
$PAPER_SPACE
 70
     0
 10
0.0
 20
0.0
 30
0.0
  3
$PAPER_SPACE
  1

  0
ENDBLK
  5
F
 67
     1
  8
0
  0
BLOCK
  8
0
  2
*U0
 70
     1
 10
0.0
 20
0.0
 30
0.0
  3
*U0
  1

  0
ENDBLK
  5
103
  8
0
  0
BLOCK
  8
0
  2
GENAXEH
 70
     0
 10
0.0
 20
0.0
 30
0.0
  3
GENAXEH
  1

  0
LINE
  5
141
  8
0
 10
-1.0
 20
0.0
 30
0.0
 11
1.0
 21
0.0
 31
0.0
  0
ENDBLK
  5
143
  8
0
  0
BLOCK
  8
0
  2
_DOT
 70
     0
 10
0.0
 20
0.0
 30
0.0
  3
_DOT
  1

  0
POLYLINE
  5
154
  8
0
  6
BYBLOCK
 62
     0
 66
     1
 10
0.0
 20
0.0
 30
0.0
 70
     1
 40
0.5
 41
0.5
  0
VERTEX
  5
155
  8
0
  6
BYBLOCK
 62
     0
 10
-0.25
 20
0.0
 30
0.0
 42
1.0
  0
VERTEX
  5
156
  8
0
  6
BYBLOCK
 62
     0
 10
0.25
 20
0.0
 30
0.0
 42
1.0
  0
SEQEND
  5
157
  8
0
  6
BYBLOCK
 62
     0
  0
LINE
  5
158
  8
0
  6
BYBLOCK
 62
     0
 10
-0.5
 20
0.0
 30
0.0
 11
-1.0
 21
0.0
 31
0.0
  0
ENDBLK
  5
15A
  8
0
  0
BLOCK
  8
0
  2
2D
 70
     0
 10
0.0
 20
0.0
 30
0.0
  3
2D
  1

  0
INSERT
  5
15E
  8
0
  2
*U5
 10
0.0
 20
0.0
 30
0.0
  0
INSERT
  5
15F
  8
0
  2
*U6
 10
0.0
 20
0.0
 30
0.0
  0
INSERT
  5
160
  8
0
  2
*U7
 10
0.0
 20
0.0
 30
0.0
  0
ENDBLK
  5
162
  8
0
  0
BLOCK
  8
0
  2
*U4
 70
     1
 10
0.0
 20
0.0
 30
0.0
  3
*U4
  1

  0
TEXT
  5
1A9
  8
0
 10
12.389928374826081
 20
5.6473865773380583
 30
0.0
 40
0.084375
  1
1-15/16"
  0
ENDBLK
  5
1AB
  8
0
  0
BLOCK
  8
0
  2
*U5
 70
     1
 10
0.0
 20
0.0
 30
0.0
  3
*U5
  1

  0
TEXT
  5
1AD
  8
KEE10
 10
-0.167740653382606
 20
0.7944046258072062
 30
0.0
 40
0.140625
  1
KEE
  0
ENDBLK
  5
1AF
  8
0
  0
BLOCK
  8
0
  2
*U6
 70
     1
 10
0.0
 20
0.0
 30
0.0
  3
*U6
  1

  0
TEXT
  5
1B1
  8
KEE10
 10
-0.308365653382606
 20
0.4858688129746218
 30
0.0
 40
0.140625
  1
KLAMP
  0
ENDBLK
  5
1B3
  8
0
  0
BLOCK
  8
0
  2
*U7
 70
     1
 10
0.0
 20
0.0
 30
0.0
  3
*U7
  1

  0
TEXT
  5
1B5
  8
KEE10
 10
-0.202896903382606
 20
0.2018753139112972
 30
0.0
 40
0.140625
  1
10-8
  0
ENDBLK
  5
1B7
  8
0
  0
BLOCK
  8
0
  2
*U8
 70
     1
 10
0.0
 20
0.0
 30
0.0
  3
*U8
  1

  0
TEXT
  5
1B9
  8
KEE10
 10
11.56175154386494
 20
3.4185222273868279
 30
0.0
 40
0.10125
  1
KEE
  0
ENDBLK
  5
1BB
  8
0
  0
BLOCK
  8
0
  2
*U9
 70
     1
 10
0.0
 20
0.0
 30
0.0
  3
*U9
  1

  0
TEXT
  5
1BD
  8
KEE10
 10
11.46050154386494
 20
3.1963764421473679
 30
0.0
 40
0.10125
  1
KLAMP
  0
ENDBLK
  5
1BF
  8
0
  0
ENDSEC
  0
SECTION
  2
ENTITIES
  0
LINE
  5
25
  8
AM_VIS
 10
10.66586587482608
 20
3.0801920024909291
 30
0.0
 11
12.73586587482608
 21
3.0801920024909291
 31
0.0
  0
LINE
  5
27
  8
AM_VIS
 10
12.735865874826089
 20
4.8801920024909302
 30
0.0
 11
10.665865874826091
 21
4.8801920024909302
 31
0.0
  0
ARC
  5
2A
  8
AM_VIS
 10
11.690377484280891
 20
3.9764034046729981
 30
0.0
 40
0.3692967596140903
 50
271.62821010577989
 51
310.70568439048219
  0
ARC
  5
2B
  8
AM_VIS
 10
11.711354265371281
 20
3.976403404672999
 30
0.0
 40
0.3692967596140909
 50
229.29431560951781
 51
268.37178989422011
  0
ARC
  5
2C
  8
AM_VIS
 10
11.70086587482608
 20
3.980192002490929
 30
0.0
 40
0.365625
 50
309.0723075591805
 51
50.927692440819548
  0
ARC
  5
2D
  8
AM_VIS
 10
11.690377484280891
 20
3.983980600308862
 30
0.0
 40
0.369296759614089
 50
49.29431560951776
 51
88.371789894220171
  0
CIRCLE
  5
2E
  8
AM_VIS
 10
11.700865874826089
 20
3.980192002490929
 30
0.0
 40
0.28125
  0
ARC
  5
2F
  8
AM_VIS
 10
11.71135426537127
 20
3.9839806003088638
 30
0.0
 40
0.3692967596140869
 50
91.628210105779715
 51
130.7056843904823
  0
ARC
  5
30
  8
AM_VIS
 10
11.700865874826089
 20
3.9801920024909299
 30
0.0
 40
0.365625
 50
129.0723075591805
 51
230.9276924408195
  0
POLYLINE
  8
AM_VIS
  5
1C0
  66
     1
 10
0.000000
 20
0.000000
 30
0.000000
  70
     8
  0
VERTEX
  8
AM_VIS
  5
1C1
 10
13.7492
 20
5.00624
 30
0.000000
  70
    32
  0
VERTEX
  8
AM_VIS
  5
1C2
 10
13.7482
 20
5.00638
 30
0.000000
  70
    32
  0
VERTEX
  8
AM_VIS
  5
1C3
 10
13.7471
 20
5.00651
 30
0.000000
  70
    32
  0
VERTEX
  8
AM_VIS
  5
1C4
 10
13.7461
 20
5.00665
 30
0.000000
  70
    32
  0
VERTEX
  8
AM_VIS
  5
1C5
 10
13.7451
 20
5.00678
 30
0.000000
  70
    32
  0
VERTEX
  8
AM_VIS
  5
1C6
 10
13.7440
 20
5.00692
 30
0.000000
  70
    32
  0
VERTEX
  8
AM_VIS
  5
1C7
 10
13.7430
 20
5.00705
 30
0.000000
  70
    32
  0
VERTEX
  8
AM_VIS
  5
1C8
 10
13.7420
 20
5.00719
 30
0.000000
  70
    32
  0
VERTEX
  8
AM_VIS
  5
1C9
 10
13.7409
 20
5.00732
 30
0.000000
  70
    32
  0
VERTEX
  8
AM_VIS
  5
1CA
 10
13.7399
 20
5.00745
 30
0.000000
  70
    32
  0
VERTEX
  8
AM_VIS
  5
1CB
 10
13.7389
 20
5.00758
 30
0.000000
  70
    32
  0
VERTEX
  8
AM_VIS
  5
1CC
 10
13.7378
 20
5.00771
 30
0.000000
  70
    32
  0
VERTEX
  8
AM_VIS
  5
1CD
 10
13.7368
 20
5.00784
 30
0.000000
  70
    32
  0
VERTEX
  8
AM_VIS
  5
1CE
 10
13.7357
 20
5.00797
 30
0.000000
  70
    32
  0
VERTEX
  8
AM_VIS
  5
1CF
 10
13.7347
 20
5.00810
 30
0.000000
  70
    32
  0
VERTEX
  8
AM_VIS
  5
1D0
 10
13.7337
 20
5.00823
 30
0.000000
  70
    32
  0
VERTEX
  8
AM_VIS
  5
1D1
 10
13.7326
 20
5.00836
 30
0.000000
  70
    32
  0
VERTEX
  8
AM_VIS
  5
1D2
 10
13.7316
 20
5.00849
 30
0.000000
  70
    32
  0
VERTEX
  8
AM_VIS
  5
1D3
 10
13.7306
 20
5.00861
 30
0.000000
  70
    32
  0
VERTEX
  8
AM_VIS
  5
1D4
 10
13.7295
 20
5.00874
 30
0.000000
  70
    32
  0
VERTEX
  8
AM_VIS
  5
1D5
 10
13.7285
 20
5.00886
 30
0.000000
  70
    32
  0
VERTEX
  8
AM_VIS
  5
1D6
 10
13.7275
 20
5.00899
 30
0.000000
  70
    32
  0
VERTEX
  8
AM_VIS
  5
1D7
 10
13.7264
 20
5.00911
 30
0.000000
  70
    32
  0
VERTEX
  8
AM_VIS
  5
1D8
 10
13.7254
 20
5.00924
 30
0.000000
  70
    32
  0
VERTEX
  8
AM_VIS
  5
1D9
 10
13.7244
 20
5.00936
 30
0.000000
  70
    32
  0
VERTEX
  8
AM_VIS
  5
1DA
 10
13.7233
 20
5.00948
 30
0.000000
  70
    32
  0
VERTEX
  8
AM_VIS
  5
1DB
 10
13.7223
 20
5.00960
 30
0.000000
  70
    32
  0
VERTEX
  8
AM_VIS
  5
1DC
 10
13.7212
 20
5.00972
 30
0.000000
  70
    32
  0
VERTEX
  8
AM_VIS
  5
1DD
 10
13.7202
 20
5.00984
 30
0.000000
  70
    32
  0
VERTEX
  8
AM_VIS
  5
1DE
 10
13.7192
 20
5.00996
 30
0.000000
  70
    32
  0
VERTEX
  8
AM_VIS
  5
1DF
 10
13.7181
 20
5.01008
 30
0.000000
  70
    32
  0
VERTEX
  8
AM_VIS
  5
1E0
 10
13.7171
 20
5.01019
 30
0.000000
  70
    32
  0
VERTEX
  8
AM_VIS
  5
1E1
 10
13.7160
 20
5.01031
 30
0.000000
  70
    32
  0
VERTEX
  8
AM_VIS
  5
1E2
 10
13.7150
 20
5.01043
 30
0.000000
  70
    32
  0
VERTEX
  8
AM_VIS
  5
1E3
 10
13.7140
 20
5.01054
 30
0.000000
  70
    32
  0
VERTEX
  8
AM_VIS
  5
1E4
 10
13.7129
 20
5.01065
 30
0.000000
  70
    32
  0
VERTEX
  8
AM_VIS
  5
1E5
 10
13.7119
 20
5.01077
 30
0.000000
  70
    32
  0
VERTEX
  8
AM_VIS
  5
1E6
 10
13.7108
 20
5.01088
 30
0.000000
  70
    32
  0
VERTEX
  8
AM_VIS
  5
1E7
 10
13.7098
 20
5.01099
 30
0.000000
  70
    32
  0
VERTEX
  8
AM_VIS
  5
1E8
 10
13.7088
 20
5.01110
 30
0.000000
  70
    32
  0
VERTEX
  8
AM_VIS
  5
1E9
 10
13.7077
 20
5.01121
 30
0.000000
  70
    32
  0
VERTEX
  8
AM_VIS
  5
1EA
 10
13.7067
 20
5.01132
 30
0.000000
  70
    32
  0
VERTEX
  8
AM_VIS
  5
1EB
 10
13.7056
 20
5.01143
 30
0.000000
  70
    32
  0
VERTEX
  8
AM_VIS
  5
1EC
 10
13.7046
 20
5.01153
 30
0.000000
  70
    32
  0
VERTEX
  8
AM_VIS
  5
1ED
 10
13.7035
 20
5.01164
 30
0.000000
  70
    32
  0
VERTEX
  8
AM_VIS
  5
1EE
 10
13.7025
 20
5.01175
 30
0.000000
  70
    32
  0
VERTEX
  8
AM_VIS
  5
1EF
 10
13.7015
 20
5.01185
 30
0.000000
  70
    32
  0
VERTEX
  8
AM_VIS
  5
1F0
 10
13.7004
 20
5.01195
 30
0.000000
  70
    32
  0
VERTEX
  8
AM_VIS
  5
1F1
 10
13.6994
 20
5.01206
 30
0.000000
  70
    32
  0
VERTEX
  8
AM_VIS
  5
1F2
 10
13.6983
 20
5.01216
 30
0.000000
  70
    32
  0
VERTEX
  8
AM_VIS
  5
1F3
 10
13.6973
 20
5.01226
 30
0.000000
  70
    32
  0
VERTEX
  8
AM_VIS
  5
1F4
 10
13.6962
 20
5.01236
 30
0.000000
  70
    32
  0
VERTEX
  8
AM_VIS
  5
1F5
 10
13.6952
 20
5.01245
 30
0.000000
  70
    32
  0
VERTEX
  8
AM_VIS
  5
1F6
 10
13.6941
 20
5.01255
 30
0.000000
  70
    32
  0
VERTEX
  8
AM_VIS
  5
1F7
 10
13.6931
 20
5.01265
 30
0.000000
  70
    32
  0
VERTEX
  8
AM_VIS
  5
1F8
 10
13.6920
 20
5.01274
 30
0.000000
  70
    32
  0
VERTEX
  8
AM_VIS
  5
1F9
 10
13.6910
 20
5.01284
 30
0.000000
  70
    32
  0
VERTEX
  8
AM_VIS
  5
1FA
 10
13.6899
 20
5.01293
 30
0.000000
  70
    32
  0
VERTEX
  8
AM_VIS
  5
1FB
 10
13.6889
 20
5.01302
 30
0.000000
  70
    32
  0
VERTEX
  8
AM_VIS
  5
1FC
 10
13.6878
 20
5.01312
 30
0.000000
  70
    32
  0
VERTEX
  8
AM_VIS
  5
1FD
 10
13.6867
 20
5.01321
 30
0.000000
  70
    32
  0
VERTEX
  8
AM_VIS
  5
1FE
 10
13.6857
 20
5.01330
 30
0.000000
  70
    32
  0
VERTEX
  8
AM_VIS
  5
1FF
 10
13.6846
 20
5.01338
 30
0.000000
  70
    32
  0
VERTEX
  8
AM_VIS
  5
200
 10
13.6836
 20
5.01347
 30
0.000000
  70
    32
  0
VERTEX
  8
AM_VIS
  5
201
 10
13.6825
 20
5.01356
 30
0.000000
  70
    32
  0
VERTEX
  8
AM_VIS
  5
202
 10
13.6815
 20
5.01364
 30
0.000000
  70
    32
  0
VERTEX
  8
AM_VIS
  5
203
 10
13.6804
 20
5.01373
 30
0.000000
  70
    32
  0
VERTEX
  8
AM_VIS
  5
204
 10
13.6793
 20
5.01381
 30
0.000000
  70
    32
  0
VERTEX
  8
AM_VIS
  5
205
 10
13.6783
 20
5.01389
 30
0.000000
  70
    32
  0
VERTEX
  8
AM_VIS
  5
206
 10
13.6772
 20
5.01397
 30
0.000000
  70
    32
  0
VERTEX
  8
AM_VIS
  5
207
 10
13.6761
 20
5.01405
 30
0.000000
  70
    32
  0
VERTEX
  8
AM_VIS
  5
208
 10
13.6751
 20
5.01413
 30
0.000000
  70
    32
  0
VERTEX
  8
AM_VIS
  5
209
 10
13.6740
 20
5.01421
 30
0.000000
  70
    32
  0
VERTEX
  8
AM_VIS
  5
20A
 10
13.6729
 20
5.01428
 30
0.000000
  70
    32
  0
VERTEX
  8
AM_VIS
  5
20B
 10
13.6719
 20
5.01436
 30
0.000000
  70
    32
  0
VERTEX
  8
AM_VIS
  5
20C
 10
13.6708
 20
5.01443
 30
0.000000
  70
    32
  0
VERTEX
  8
AM_VIS
  5
20D
 10
13.6697
 20
5.01450
 30
0.000000
  70
    32
  0
VERTEX
  8
AM_VIS
  5
20E
 10
13.6687
 20
5.01458
 30
0.000000
  70
    32
  0
VERTEX
  8
AM_VIS
  5
20F
 10
13.6676
 20
5.01465
 30
0.000000
  70
    32
  0
VERTEX
  8
AM_VIS
  5
210
 10
13.6665
 20
5.01471
 30
0.000000
  70
    32
  0
VERTEX
  8
AM_VIS
  5
211
 10
13.6654
 20
5.01478
 30
0.000000
  70
    32
  0
VERTEX
  8
AM_VIS
  5
212
 10
13.6644
 20
5.01485
 30
0.000000
  70
    32
  0
VERTEX
  8
AM_VIS
  5
213
 10
13.6633
 20
5.01491
 30
0.000000
  70
    32
  0
VERTEX
  8
AM_VIS
  5
214
 10
13.6622
 20
5.01498
 30
0.000000
  70
    32
  0
VERTEX
  8
AM_VIS
  5
215
 10
13.6611
 20
5.01504
 30
0.000000
  70
    32
  0
VERTEX
  8
AM_VIS
  5
216
 10
13.6601
 20
5.01510
 30
0.000000
  70
    32
  0
VERTEX
  8
AM_VIS
  5
217
 10
13.6590
 20
5.01516
 30
0.000000
  70
    32
  0
VERTEX
  8
AM_VIS
  5
218
 10
13.6579
 20
5.01522
 30
0.000000
  70
    32
  0
VERTEX
  8
AM_VIS
  5
219
 10
13.6568
 20
5.01528
 30
0.000000
  70
    32
  0
VERTEX
  8
AM_VIS
  5
21A
 10
13.6557
 20
5.01534
 30
0.000000
  70
    32
  0
VERTEX
  8
AM_VIS
  5
21B
 10
13.6546
 20
5.01539
 30
0.000000
  70
    32
  0
VERTEX
  8
AM_VIS
  5
21C
 10
13.6535
 20
5.01545
 30
0.000000
  70
    32
  0
VERTEX
  8
AM_VIS
  5
21D
 10
13.6525
 20
5.01550
 30
0.000000
  70
    32
  0
VERTEX
  8
AM_VIS
  5
21E
 10
13.6514
 20
5.01555
 30
0.000000
  70
    32
  0
VERTEX
  8
AM_VIS
  5
21F
 10
13.6503
 20
5.01560
 30
0.000000
  70
    32
  0
VERTEX
  8
AM_VIS
  5
220
 10
13.6492
 20
5.01565
 30
0.000000
  70
    32
  0
VERTEX
  8
AM_VIS
  5
221
 10
13.6481
 20
5.01569
 30
0.000000
  70
    32
  0
VERTEX
  8
AM_VIS
  5
222
 10
13.6470
 20
5.01574
 30
0.000000
  70
    32
  0
VERTEX
  8
AM_VIS
  5
223
 10
13.6459
 20
5.01578
 30
0.000000
  70
    32
  0
VERTEX
  8
AM_VIS
  5
224
 10
13.6448
 20
5.01583
 30
0.000000
  70
    32
  0
VERTEX
  8
AM_VIS
  5
225
 10
13.6437
 20
5.01587
 30
0.000000
  70
    32
  0
VERTEX
  8
AM_VIS
  5
226
 10
13.6426
 20
5.01591
 30
0.000000
  70
    32
  0
VERTEX
  8
AM_VIS
  5
227
 10
13.6415
 20
5.01595
 30
0.000000
  70
    32
  0
VERTEX
  8
AM_VIS
  5
228
 10
13.6404
 20
5.01599
 30
0.000000
  70
    32
  0
VERTEX
  8
AM_VIS
  5
229
 10
13.6393
 20
5.01602
 30
0.000000
  70
    32
  0
VERTEX
  8
AM_VIS
  5
22A
 10
13.6382
 20
5.01606
 30
0.000000
  70
    32
  0
VERTEX
  8
AM_VIS
  5
22B
 10
13.6371
 20
5.01609
 30
0.000000
  70
    32
  0
VERTEX
  8
AM_VIS
  5
22C
 10
13.6359
 20
5.01612
 30
0.000000
  70
    32
  0
VERTEX
  8
AM_VIS
  5
22D
 10
13.6348
 20
5.01615
 30
0.000000
  70
    32
  0
VERTEX
  8
AM_VIS
  5
22E
 10
13.6337
 20
5.01618
 30
0.000000
  70
    32
  0
VERTEX
  8
AM_VIS
  5
22F
 10
13.6326
 20
5.01621
 30
0.000000
  70
    32
  0
VERTEX
  8
AM_VIS
  5
230
 10
13.6315
 20
5.01623
 30
0.000000
  70
    32
  0
VERTEX
  8
AM_VIS
  5
231
 10
13.6304
 20
5.01626
 30
0.000000
  70
    32
  0
VERTEX
  8
AM_VIS
  5
232
 10
13.6292
 20
5.01628
 30
0.000000
  70
    32
  0
VERTEX
  8
AM_VIS
  5
233
 10
13.6281
 20
5.01630
 30
0.000000
  70
    32
  0
VERTEX
  8
AM_VIS
  5
234
 10
13.6270
 20
5.01632
 30
0.000000
  70
    32
  0
VERTEX
  8
AM_VIS
  5
235
 10
13.6259
 20
5.01634
 30
0.000000
  70
    32
  0
VERTEX
  8
AM_VIS
  5
236
 10
13.6247
 20
5.01636
 30
0.000000
  70
    32
  0
VERTEX
  8
AM_VIS
  5
237
 10
13.6236
 20
5.01637
 30
0.000000
  70
    32
  0
VERTEX
  8
AM_VIS
  5
238
 10
13.6225
 20
5.01638
 30
0.000000
  70
    32
  0
VERTEX
  8
AM_VIS
  5
239
 10
13.6213
 20
5.01640
 30
0.000000
  70
    32
  0
VERTEX
  8
AM_VIS
  5
23A
 10
13.6202
 20
5.01641
 30
0.000000
  70
    32
  0
VERTEX
  8
AM_VIS
  5
23B
 10
13.6191
 20
5.01642
 30
0.000000
  70
    32
  0
VERTEX
  8
AM_VIS
  5
23C
 10
13.6179
 20
5.01642
 30
0.000000
  70
    32
  0
VERTEX
  8
AM_VIS
  5
23D
 10
13.6168
 20
5.01643
 30
0.000000
  70
    32
  0
VERTEX
  8
AM_VIS
  5
23E
 10
13.6157
 20
5.01643
 30
0.000000
  70
    32
  0
VERTEX
  8
AM_VIS
  5
23F
 10
13.6145
 20
5.01643
 30
0.000000
  70
    32
  0
VERTEX
  8
AM_VIS
  5
240
 10
13.6134
 20
5.01644
 30
0.000000
  70
    32
  0
SEQEND
  8
AM_VIS
  5
241
  0
POLYLINE
  8
AM_VIS
  5
242
  66
     1
 10
0.000000
 20
0.000000
 30
0.000000
  70
     8
  0
VERTEX
  8
AM_VIS
  5
243
 10
13.6134
 20
5.01644
 30
0.000000
  70
    32
  0
VERTEX
  8
AM_VIS
  5
244
 10
13.6122
 20
5.01643
 30
0.000000
  70
    32
  0
VERTEX
  8
AM_VIS
  5
245
 10
13.6111
 20
5.01643
 30
0.000000
  70
    32
  0
VERTEX
  8
AM_VIS
  5
246
 10
13.6099
 20
5.01643
 30
0.000000
  70
    32
  0
VERTEX
  8
AM_VIS
  5
247
 10
13.6088
 20
5.01642
 30
0.000000
  70
    32
  0
VERTEX
  8
AM_VIS
  5
248
 10
13.6077
 20
5.01642
 30
0.000000
  70
    32
  0
VERTEX
  8
AM_VIS
  5
249
 10
13.6065
 20
5.01641
 30
0.000000
  70
    32
  0
VERTEX
  8
AM_VIS
  5
24A
 10
13.6054
 20
5.01640
 30
0.000000
  70
    32
  0
VERTEX
  8
AM_VIS
  5
24B
 10
13.6043
 20
5.01638
 30
0.000000
  70
    32
  0
VERTEX
  8
AM_VIS
  5
24C
 10
13.6031
 20
5.01637
 30
0.000000
  70
    32
  0
VERTEX
  8
AM_VIS
  5
24D
 10
13.6020
 20
5.01636
 30
0.000000
  70
    32
  0
VERTEX
  8
AM_VIS
  5
24E
 10
13.6009
 20
5.01634
 30
0.000000
  70
    32
  0
VERTEX
  8
AM_VIS
  5
24F
 10
13.5997
 20
5.01632
 30
0.000000
  70
    32
  0
VERTEX
  8
AM_VIS
  5
250
 10
13.5986
 20
5.01630
 30
0.000000
  70
    32
  0
VERTEX
  8
AM_VIS
  5
251
 10
13.5975
 20
5.01628
 30
0.000000
  70
    32
  0
VERTEX
  8
AM_VIS
  5
252
 10
13.5964
 20
5.01626
 30
0.000000
  70
    32
  0
VERTEX
  8
AM_VIS
  5
253
 10
13.5952
 20
5.01623
 30
0.000000
  70
    32
  0
VERTEX
  8
AM_VIS
  5
254
 10
13.5941
 20
5.01621
 30
0.000000
  70
    32
  0
VERTEX
  8
AM_VIS
  5
255
 10
13.5930
 20
5.01618
 30
0.000000
  70
    32
  0
VERTEX
  8
AM_VIS
  5
256
 10
13.5919
 20
5.01615
 30
0.000000
  70
    32
  0
VERTEX
  8
AM_VIS
  5
257
 10
13.5908
 20
5.01612
 30
0.000000
  70
    32
  0
VERTEX
  8
AM_VIS
  5
258
 10
13.5897
 20
5.01609
 30
0.000000
  70
    32
  0
VERTEX
  8
AM_VIS
  5
259
 10
13.5886
 20
5.01606
 30
0.000000
  70
    32
  0
VERTEX
  8
AM_VIS
  5
25A
 10
13.5875
 20
5.01602
 30
0.000000
  70
    32
  0
VERTEX
  8
AM_VIS
  5
25B
 10
13.5864
 20
5.01599
 30
0.000000
  70
    32
  0
VERTEX
  8
AM_VIS
  5
25C
 10
13.5852
 20
5.01595
 30
0.000000
  70
    32
  0
VERTEX
  8
AM_VIS
  5
25D
 10
13.5841
 20
5.01591
 30
0.000000
  70
    32
  0
VERTEX
  8
AM_VIS
  5
25E
 10
13.5830
 20
5.01587
 30
0.000000
  70
    32
  0
VERTEX
  8
AM_VIS
  5
25F
 10
13.5819
 20
5.01583
 30
0.000000
  70
    32
  0
VERTEX
  8
AM_VIS
  5
260
 10
13.5808
 20
5.01578
 30
0.000000
  70
    32
  0
VERTEX
  8
AM_VIS
  5
261
 10
13.5797
 20
5.01574
 30
0.000000
  70
    32
  0
VERTEX
  8
AM_VIS
  5
262
 10
13.5786
 20
5.01569
 30
0.000000
  70
    32
  0
VERTEX
  8
AM_VIS
  5
263
 10
13.5776
 20
5.01565
 30
0.000000
  70
    32
  0
VERTEX
  8
AM_VIS
  5
264
 10
13.5765
 20
5.01560
 30
0.000000
  70
    32
  0
VERTEX
  8
AM_VIS
  5
265
 10
13.5754
 20
5.01555
 30
0.000000
  70
    32
  0
VERTEX
  8
AM_VIS
  5
266
 10
13.5743
 20
5.01550
 30
0.000000
  70
    32
  0
VERTEX
  8
AM_VIS
  5
267
 10
13.5732
 20
5.01545
 30
0.000000
  70
    32
  0
VERTEX
  8
AM_VIS
  5
268
 10
13.5721
 20
5.01539
 30
0.000000
  70
    32
  0
VERTEX
  8
AM_VIS
  5
269
 10
13.5710
 20
5.01534
 30
0.000000
  70
    32
  0
VERTEX
  8
AM_VIS
  5
26A
 10
13.5699
 20
5.01528
 30
0.000000
  70
    32
  0
VERTEX
  8
AM_VIS
  5
26B
 10
13.5688
 20
5.01522
 30
0.000000
  70
    32
  0
VERTEX
  8
AM_VIS
  5
26C
 10
13.5678
 20
5.01516
 30
0.000000
  70
    32
  0
VERTEX
  8
AM_VIS
  5
26D
 10
13.5667
 20
5.01510
 30
0.000000
  70
    32
  0
VERTEX
  8
AM_VIS
  5
26E
 10
13.5656
 20
5.01504
 30
0.000000
  70
    32
  0
VERTEX
  8
AM_VIS
  5
26F
 10
13.5645
 20
5.01498
 30
0.000000
  70
    32
  0
VERTEX
  8
AM_VIS
  5
270
 10
13.5634
 20
5.01491
 30
0.000000
  70
    32
  0
VERTEX
  8
AM_VIS
  5
271
 10
13.5624
 20
5.01485
 30
0.000000
  70
    32
  0
VERTEX
  8
AM_VIS
  5
272
 10
13.5613
 20
5.01478
 30
0.000000
  70
    32
  0
VERTEX
  8
AM_VIS
  5
273
 10
13.5602
 20
5.01471
 30
0.000000
  70
    32
  0
VERTEX
  8
AM_VIS
  5
274
 10
13.5591
 20
5.01465
 30
0.000000
  70
    32
  0
VERTEX
  8
AM_VIS
  5
275
 10
13.5581
 20
5.01458
 30
0.000000
  70
    32
  0
VERTEX
  8
AM_VIS
  5
276
 10
13.5570
 20
5.01450
 30
0.000000
  70
    32
  0
VERTEX
  8
AM_VIS
  5
277
 10
13.5559
 20
5.01443
 30
0.000000
  70
    32
  0
VERTEX
  8
AM_VIS
  5
278
 10
13.5549
 20
5.01436
 30
0.000000
  70
    32
  0
VERTEX
  8
AM_VIS
  5
279
 10
13.5538
 20
5.01428
 30
0.000000
  70
    32
  0
VERTEX
  8
AM_VIS
  5
27A
 10
13.5527
 20
5.01421
 30
0.000000
  70
    32
  0
VERTEX
  8
AM_VIS
  5
27B
 10
13.5517
 20
5.01413
 30
0.000000
  70
    32
  0
VERTEX
  8
AM_VIS
  5
27C
 10
13.5506
 20
5.01405
 30
0.000000
  70
    32
  0
VERTEX
  8
AM_VIS
  5
27D
 10
13.5495
 20
5.01397
 30
0.000000
  70
    32
  0
VERTEX
  8
AM_VIS
  5
27E
 10
13.5485
 20
5.01389
 30
0.000000
  70
    32
  0
VERTEX
  8
AM_VIS
  5
27F
 10
13.5474
 20
5.01381
 30
0.000000
  70
    32
  0
VERTEX
  8
AM_VIS
  5
280
 10
13.5463
 20
5.01373
 30
0.000000
  70
    32
  0
VERTEX
  8
AM_VIS
  5
281
 10
13.5453
 20
5.01364
 30
0.000000
  70
    32
  0
VERTEX
  8
AM_VIS
  5
282
 10
13.5442
 20
5.01356
 30
0.000000
  70
    32
  0
VERTEX
  8
AM_VIS
  5
283
 10
13.5432
 20
5.01347
 30
0.000000
  70
    32
  0
VERTEX
  8
AM_VIS
  5
284
 10
13.5421
 20
5.01338
 30
0.000000
  70
    32
  0
VERTEX
  8
AM_VIS
  5
285
 10
13.5410
 20
5.01330
 30
0.000000
  70
    32
  0
VERTEX
  8
AM_VIS
  5
286
 10
13.5400
 20
5.01321
 30
0.000000
  70
    32
  0
VERTEX
  8
AM_VIS
  5
287
 10
13.5389
 20
5.01312
 30
0.000000
  70
    32
  0
VERTEX
  8
AM_VIS
  5
288
 10
13.5379
 20
5.01302
 30
0.000000
  70
    32
  0
VERTEX
  8
AM_VIS
  5
289
 10
13.5368
 20
5.01293
 30
0.000000
  70
    32
  0
VERTEX
  8
AM_VIS
  5
28A
 10
13.5358
 20
5.01284
 30
0.000000
  70
    32
  0
VERTEX
  8
AM_VIS
  5
28B
 10
13.5347
 20
5.01274
 30
0.000000
  70
    32
  0
VERTEX
  8
AM_VIS
  5
28C
 10
13.5337
 20
5.01265
 30
0.000000
  70
    32
  0
VERTEX
  8
AM_VIS
  5
28D
 10
13.5326
 20
5.01255
 30
0.000000
  70
    32
  0
VERTEX
  8
AM_VIS
  5
28E
 10
13.5316
 20
5.01245
 30
0.000000
  70
    32
  0
VERTEX
  8
AM_VIS
  5
28F
 10
13.5305
 20
5.01236
 30
0.000000
  70
    32
  0
VERTEX
  8
AM_VIS
  5
290
 10
13.5295
 20
5.01226
 30
0.000000
  70
    32
  0
VERTEX
  8
AM_VIS
  5
291
 10
13.5284
 20
5.01216
 30
0.000000
  70
    32
  0
VERTEX
  8
AM_VIS
  5
292
 10
13.5274
 20
5.01206
 30
0.000000
  70
    32
  0
VERTEX
  8
AM_VIS
  5
293
 10
13.5263
 20
5.01195
 30
0.000000
  70
    32
  0
VERTEX
  8
AM_VIS
  5
294
 10
13.5253
 20
5.01185
 30
0.000000
  70
    32
  0
VERTEX
  8
AM_VIS
  5
295
 10
13.5242
 20
5.01175
 30
0.000000
  70
    32
  0
VERTEX
  8
AM_VIS
  5
296
 10
13.5232
 20
5.01164
 30
0.000000
  70
    32
  0
VERTEX
  8
AM_VIS
  5
297
 10
13.5221
 20
5.01153
 30
0.000000
  70
    32
  0
VERTEX
  8
AM_VIS
  5
298
 10
13.5211
 20
5.01143
 30
0.000000
  70
    32
  0
VERTEX
  8
AM_VIS
  5
299
 10
13.5201
 20
5.01132
 30
0.000000
  70
    32
  0
VERTEX
  8
AM_VIS
  5
29A
 10
13.5190
 20
5.01121
 30
0.000000
  70
    32
  0
VERTEX
  8
AM_VIS
  5
29B
 10
13.5180
 20
5.01110
 30
0.000000
  70
    32
  0
VERTEX
  8
AM_VIS
  5
29C
 10
13.5169
 20
5.01099
 30
0.000000
  70
    32
  0
VERTEX
  8
AM_VIS
  5
29D
 10
13.5159
 20
5.01088
 30
0.000000
  70
    32
  0
VERTEX
  8
AM_VIS
  5
29E
 10
13.5148
 20
5.01077
 30
0.000000
  70
    32
  0
VERTEX
  8
AM_VIS
  5
29F
 10
13.5138
 20
5.01065
 30
0.000000
  70
    32
  0
VERTEX
  8
AM_VIS
  5
2A0
 10
13.5128
 20
5.01054
 30
0.000000
  70
    32
  0
VERTEX
  8
AM_VIS
  5
2A1
 10
13.5117
 20
5.01043
 30
0.000000
  70
    32
  0
VERTEX
  8
AM_VIS
  5
2A2
 10
13.5107
 20
5.01031
 30
0.000000
  70
    32
  0
VERTEX
  8
AM_VIS
  5
2A3
 10
13.5096
 20
5.01019
 30
0.000000
  70
    32
  0
VERTEX
  8
AM_VIS
  5
2A4
 10
13.5086
 20
5.01008
 30
0.000000
  70
    32
  0
VERTEX
  8
AM_VIS
  5
2A5
 10
13.5076
 20
5.00996
 30
0.000000
  70
    32
  0
VERTEX
  8
AM_VIS
  5
2A6
 10
13.5065
 20
5.00984
 30
0.000000
  70
    32
  0
VERTEX
  8
AM_VIS
  5
2A7
 10
13.5055
 20
5.00972
 30
0.000000
  70
    32
  0
VERTEX
  8
AM_VIS
  5
2A8
 10
13.5045
 20
5.00960
 30
0.000000
  70
    32
  0
VERTEX
  8
AM_VIS
  5
2A9
 10
13.5034
 20
5.00948
 30
0.000000
  70
    32
  0
VERTEX
  8
AM_VIS
  5
2AA
 10
13.5024
 20
5.00936
 30
0.000000
  70
    32
  0
VERTEX
  8
AM_VIS
  5
2AB
 10
13.5013
 20
5.00924
 30
0.000000
  70
    32
  0
VERTEX
  8
AM_VIS
  5
2AC
 10
13.5003
 20
5.00911
 30
0.000000
  70
    32
  0
VERTEX
  8
AM_VIS
  5
2AD
 10
13.4993
 20
5.00899
 30
0.000000
  70
    32
  0
VERTEX
  8
AM_VIS
  5
2AE
 10
13.4982
 20
5.00886
 30
0.000000
  70
    32
  0
VERTEX
  8
AM_VIS
  5
2AF
 10
13.4972
 20
5.00874
 30
0.000000
  70
    32
  0
VERTEX
  8
AM_VIS
  5
2B0
 10
13.4962
 20
5.00861
 30
0.000000
  70
    32
  0
VERTEX
  8
AM_VIS
  5
2B1
 10
13.4951
 20
5.00849
 30
0.000000
  70
    32
  0
VERTEX
  8
AM_VIS
  5
2B2
 10
13.4941
 20
5.00836
 30
0.000000
  70
    32
  0
VERTEX
  8
AM_VIS
  5
2B3
 10
13.4931
 20
5.00823
 30
0.000000
  70
    32
  0
VERTEX
  8
AM_VIS
  5
2B4
 10
13.4920
 20
5.00810
 30
0.000000
  70
    32
  0
VERTEX
  8
AM_VIS
  5
2B5
 10
13.4910
 20
5.00797
 30
0.000000
  70
    32
  0
VERTEX
  8
AM_VIS
  5
2B6
 10
13.4899
 20
5.00784
 30
0.000000
  70
    32
  0
VERTEX
  8
AM_VIS
  5
2B7
 10
13.4889
 20
5.00771
 30
0.000000
  70
    32
  0
VERTEX
  8
AM_VIS
  5
2B8
 10
13.4879
 20
5.00758
 30
0.000000
  70
    32
  0
VERTEX
  8
AM_VIS
  5
2B9
 10
13.4868
 20
5.00745
 30
0.000000
  70
    32
  0
VERTEX
  8
AM_VIS
  5
2BA
 10
13.4858
 20
5.00732
 30
0.000000
  70
    32
  0
VERTEX
  8
AM_VIS
  5
2BB
 10
13.4848
 20
5.00719
 30
0.000000
  70
    32
  0
VERTEX
  8
AM_VIS
  5
2BC
 10
13.4837
 20
5.00705
 30
0.000000
  70
    32
  0
VERTEX
  8
AM_VIS
  5
2BD
 10
13.4827
 20
5.00692
 30
0.000000
  70
    32
  0
VERTEX
  8
AM_VIS
  5
2BE
 10
13.4817
 20
5.00678
 30
0.000000
  70
    32
  0
VERTEX
  8
AM_VIS
  5
2BF
 10
13.4806
 20
5.00665
 30
0.000000
  70
    32
  0
VERTEX
  8
AM_VIS
  5
2C0
 10
13.4796
 20
5.00651
 30
0.000000
  70
    32
  0
VERTEX
  8
AM_VIS
  5
2C1
 10
13.4786
 20
5.00638
 30
0.000000
  70
    32
  0
VERTEX
  8
AM_VIS
  5
2C2
 10
13.4775
 20
5.00624
 30
0.000000
  70
    32
  0
SEQEND
  8
AM_VIS
  5
2C3
  0
ARC
  5
33
  8
AM_VIS
 10
14.203990874826079
 20
5.0931889069677556
 30
0.0
 40
0.224999999999998
 50
179.9999999999998
 51
242.04681311661921
  0
LINE
  5
34
  8
AM_VIS
 10
13.61336587482521
 20
5.1839420024910634
 30
0.0
 11
13.843819550610791
 21
5.1839420024910634
 31
0.0
  0
LINE
  5
35
  8
AM_VIS
 10
13.38291219904138
 20
5.1839420024910634
 30
0.0
 11
13.613365874826959
 21
5.1839420024910634
 31
0.0
  0
ARC
  5
36
  8
AM_VIS
 10
13.02274087482609
 20
5.0931889069677556
 30
0.0
 40
0.2249999999999981
 50
297.95318688338079
 51
0.0
  0
LINE
  5
37
  8
AM_VIS
 10
13.843819550610791
 20
5.1839420024909302
 30
0.0
 11
13.97899087482608
 21
5.1839420024909302
 31
0.0
  0
LINE
  5
38
  8
AM_VIS
 10
13.247740874826089
 20
5.1839420024909302
 30
0.0
 11
13.38291219904138
 21
5.1839420024909302
 31
0.0
  0
CIRCLE
  5
39
  8
AM_VIS
 10
13.613365874826091
 20
3.980192002490929
 30
0.0
 40
1.034999999999999
  0
CIRCLE
  5
3A
  8
AM_VIS
 10
13.613365874826091
 20
3.980192002490929
 30
0.0
 40
0.9
  0
LINE
  5
3B
  8
AM_VIS
 10
12.735865874826089
 20
4.1801763768805227
 30
0.0
 11
12.735865874826089
 21
3.7802076281013339
 31
0.0
  0
LINE
  5
3C
  8
AM_VIS
 10
12.735865874826089
 20
4.8801920024909302
 30
0.0
 11
12.735865874826089
 21
4.529025993785198
 31
0.0
  0
LINE
  5
3D
  8
AM_VIS
 10
12.735865874826089
 20
3.43135801119666
 30
0.0
 11
12.735865874826089
 21
3.0801920024909291
 31
0.0
  0
LINE
  5
3E
  8
AM_VIS
 10
10.66586587482608
 20
4.8801920024909302
 30
0.0
 11
10.66586587482608
 21
3.0801920024909291
 31
0.0
  0
LINE
  5
3F
  8
AM_HID
 10
12.600865874826081
 20
4.8801920024909302
 30
0.0
 11
12.600865874826081
 21
4.1948283228097347
 31
0.0
  0
LINE
  5
42
  8
AM_HID
 10
12.600865874826081
 20
3.7655556821721232
 30
0.0
 11
12.600865874826081
 21
3.0801920024909291
 31
0.0
  0
LINE
  5
43
  8
AM_HID
 10
10.80086587482608
 20
4.8801920024909302
 30
0.0
 11
10.80086587482608
 21
3.0801920024909291
 31
0.0
  0
LINE
  5
44
  8
AM_VIS
 10
13.97899087482608
 20
5.1839420024909302
 30
0.0
 11
13.97899087482608
 21
5.0931889069677574
 31
0.0
  0
LINE
  5
45
  8
AM_VIS
 10
13.247740874826089
 20
5.0931889069677556
 30
0.0
 11
13.247740874826089
 21
5.1839420024909302
 31
0.0
  0
LINE
  5
46
  8
AM_HID
 10
13.894615874826091
 20
5.1839420024909302
 30
0.0
 11
13.894615874826091
 21
4.835117986129279
 31
0.0
  0
LINE
  5
47
  8
AM_HID
 10
13.33211587482608
 20
5.1839420024909302
 30
0.0
 11
13.33211587482608
 21
4.835117986129279
 31
0.0
  0
LINE
  5
14A
  8
0
 10
11.70086587482608
 20
4.9364420024909288
 30
0.0
 11
11.70086587482608
 21
5.851574077338058
 31
0.0
  0
LINE
  5
14B
  8
0
 10
13.613365874826091
 20
4.0364420024909302
 30
0.0
 11
13.613365874826091
 21
5.851574077338058
 31
0.0
  0
LINE
  5
14C
  8
0
 10
11.813365874826079
 20
5.6895740773380581
 30
0.0
 11
12.322990874826081
 21
5.6895740773380581
 31
0.0
  0
LINE
  5
14D
  8
0
 10
13.50086587482609
 20
5.6895740773380581
 30
0.0
 11
12.991240874826079
 21
5.6895740773380581
 31
0.0
  0
SOLID
  5
14E
  8
0
 10
11.813365874826079
 20
5.708324077338057
 30
0.0
 11
11.813365874826079
 21
5.6708240773380583
 31
0.0
 12
11.70086587482608
 22
5.6895740773380581
 32
0.0
 13
11.70086587482608
 23
5.6895740773380581
 33
0.0
  0
SOLID
  5
14F
  8
0
 10
13.50086587482609
 20
5.708324077338057
 30
0.0
 11
13.50086587482609
 21
5.6708240773380583
 31
0.0
 12
13.613365874826091
 22
5.6895740773380581
 32
0.0
 13
13.613365874826091
 23
5.6895740773380581
 33
0.0
  0
INSERT
  5
150
  8
0
  2
*U4
 10
0.0
 20
0.0
 30
0.0
  0
INSERT
  5
167
  8
0
  2
*U8
 10
0.0
 20
0.0
 30
0.0
  0
INSERT
  5
168
  8
0
  2
*U9
 10
0.0
 20
0.0
 30
0.0
  0
ENDSEC
  0
EOF
