  0
SECTION
  2
HEADER
  9
$ACADVER
  1
AC1009
  9
$INSBASE
 10
0.0
 20
0.0
 30
0.0
  9
$EXTMIN
 10
10.80144467453402
 20
1.90634380222928
 30
0.0
  9
$EXTMAX
 10
16.50479426456706
 20
7.7764632699276923
 30
0.0
  9
$LIMMIN
 10
0.0
 20
0.0
  9
$LIMMAX
 10
12.0
 20
9.0
  9
$ORTHOMODE
 70
     1
  9
$REGENMODE
 70
     0
  9
$FILLMODE
 70
     1
  9
$QTEXTMODE
 70
     0
  9
$MIRRTEXT
 70
     0
  9
$DRAGMODE
 70
     2
  9
$LTSCALE
 40
1.0
  9
$OSMODE
 70
    55
  9
$ATTMODE
 70
     1
  9
$TEXTSIZE
 40
0.2
  9
$TRACEWID
 40
0.05
  9
$TEXTSTYLE
  7
STANDARD
  9
$CLAYER
  8
0
  9
$CELTYPE
  6
BYLAYER
  9
$CECOLOR
 62
   256
  9
$DIMSCALE
 40
1.0
  9
$DIMASZ
 40
0.125
  9
$DIMEXO
 40
0.0625
  9
$DIMDLI
 40
0.38
  9
$DIMRND
 40
0.0
  9
$DIMDLE
 40
0.0
  9
$DIMEXE
 40
0.18
  9
$DIMTP
 40
0.0
  9
$DIMTM
 40
0.0
  9
$DIMTXT
 40
0.09375
  9
$DIMCEN
 40
-0.125
  9
$DIMTSZ
 40
0.0
  9
$DIMTOL
 70
     0
  9
$DIMLIM
 70
     0
  9
$DIMTIH
 70
     0
  9
$DIMTOH
 70
     0
  9
$DIMSE1
 70
     0
  9
$DIMSE2
 70
     0
  9
$DIMTAD
 70
     0
  9
$DIMZIN
 70
     3
  9
$DIMBLK
  1

  9
$DIMASO
 70
     0
  9
$DIMSHO
 70
     1
  9
$DIMPOST
  1

  9
$DIMAPOST
  1

  9
$DIMALT
 70
     0
  9
$DIMALTD
 70
     2
  9
$DIMALTF
 40
25.399999999999999
  9
$DIMLFAC
 40
1.0
  9
$DIMTOFL
 70
     1
  9
$DIMTVP
 40
0.0
  9
$DIMTIX
 70
     0
  9
$DIMSOXD
 70
     0
  9
$DIMSAH
 70
     0
  9
$DIMBLK1
  1

  9
$DIMBLK2
  1

  9
$DIMSTYLE
  2
STANDARD
  9
$DIMCLRD
 70
     0
  9
$DIMCLRE
 70
     0
  9
$DIMCLRT
 70
     0
  9
$DIMTFAC
 40
1.0
  9
$DIMGAP
 40
0.09
  9
$LUNITS
 70
     4
  9
$LUPREC
 70
     4
  9
$SKETCHINC
 40
0.1
  9
$FILLETRAD
 40
1.125
  9
$AUNITS
 70
     0
  9
$AUPREC
 70
     4
  9
$MENU
  1
.
  9
$ELEVATION
 40
0.0
  9
$PELEVATION
 40
0.0
  9
$THICKNESS
 40
0.0
  9
$LIMCHECK
 70
     0
  9
$BLIPMODE
 70
     0
  9
$CHAMFERA
 40
0.125
  9
$CHAMFERB
 40
0.5
  9
$SKPOLY
 70
     0
  9
$TDCREATE
 40
2451086.9109346061
  9
$TDUPDATE
 40
2453913.5786453011
  9
$TDINDWG
 40
0.1142721412
  9
$TDUSRTIMER
 40
0.1142721412
  9
$USRTIMER
 70
     1
  9
$ANGBASE
 50
0.0
  9
$ANGDIR
 70
     0
  9
$PDMODE
 70
    34
  9
$PDSIZE
 40
3.0
  9
$PLINEWID
 40
0.0
  9
$COORDS
 70
     1
  9
$SPLFRAME
 70
     0
  9
$SPLINETYPE
 70
     6
  9
$SPLINESEGS
 70
     8
  9
$ATTDIA
 70
     0
  9
$ATTREQ
 70
     1
  9
$HANDLING
 70
     1
  9
$HANDSEED
  5
DDE
  9
$SURFTAB1
 70
     6
  9
$SURFTAB2
 70
     6
  9
$SURFTYPE
 70
     6
  9
$SURFU
 70
     6
  9
$SURFV
 70
     6
  9
$UCSNAME
  2

  9
$UCSORG
 10
0.0
 20
0.0
 30
0.0
  9
$UCSXDIR
 10
1.0
 20
0.0
 30
0.0
  9
$UCSYDIR
 10
0.0
 20
1.0
 30
0.0
  9
$PUCSNAME
  2

  9
$PUCSORG
 10
0.0
 20
0.0
 30
0.0
  9
$PUCSXDIR
 10
1.0
 20
0.0
 30
0.0
  9
$PUCSYDIR
 10
0.0
 20
1.0
 30
0.0
  9
$USERI1
 70
     0
  9
$USERI2
 70
     0
  9
$USERI3
 70
     0
  9
$USERI4
 70
     0
  9
$USERI5
 70
     0
  9
$USERR1
 40
0.0
  9
$USERR2
 40
0.0
  9
$USERR3
 40
0.0
  9
$USERR4
 40
0.0
  9
$USERR5
 40
0.0
  9
$WORLDVIEW
 70
     1
  9
$SHADEDGE
 70
     3
  9
$SHADEDIF
 70
    70
  9
$TILEMODE
 70
     1
  9
$MAXACTVP
 70
    48
  9
$PLIMCHECK
 70
     0
  9
$PEXTMIN
 10
10.89522836395609
 20
1.441931454310347
 30
0.0
  9
$PEXTMAX
 10
16.962392640786629
 20
7.6590031085268624
 30
0.0
  9
$PLIMMIN
 10
-0.1579164520023376
 20
-0.2812499887361301
  9
$PLIMMAX
 10
10.84208330770177
 20
8.2187497709679782
  9
$UNITMODE
 70
     0
  9
$VISRETAIN
 70
     1
  9
$PLINEGEN
 70
     0
  9
$PSLTSCALE
 70
     1
  0
ENDSEC
  0
SECTION
  2
TABLES
  0
TABLE
  2
VPORT
 70
     2
  0
VPORT
  2
*ACTIVE
 70
     0
 10
0.0
 20
0.0
 11
1.0
 21
1.0
 12
1.0315958148811819
 22
0.0
 13
0.0
 23
0.0
 14
0.5
 24
0.5
 15
0.5
 25
0.5
 16
0.0
 26
0.0
 36
1.0
 17
16.046888645927499
 27
4.5504672864186047
 37
0.0
 40
5.2882469683786493
 41
2.1654275092936799
 42
50.0
 43
0.0
 44
0.0
 50
0.0
 51
0.0
 71
     0
 72
   100
 73
     1
 74
     1
 75
     0
 76
     0
 77
     0
 78
     0
  0
ENDTAB
  0
TABLE
  2
LTYPE
 70
    18
  0
LTYPE
  2
CONTINUOUS
 70
     0
  3
Solid line
 72
    65
 73
     0
 40
0.0
  0
LTYPE
  2
HIDDEN
 70
     0
  3
__ __ __ __ __ __ __ __ __ __ __ __ __ __ __ __
 72
    65
 73
     2
 40
0.375
 49
0.25
 49
-0.125
  0
LTYPE
  2
PHANTOM2
 70
     0
  3
Phantom (.5x) ___ _ _ ___ _ _ ___ _ _ ___ _ _
 72
    65
 73
     6
 40
1.25
 49
0.625
 49
-0.125
 49
0.125
 49
-0.125
 49
0.125
 49
-0.125
  0
LTYPE
  2
CENTER
 70
     0
  3
Center ____ _ ____ _ ____ _ ____ _ ____ _ ____
 72
    65
 73
     4
 40
2.0
 49
1.25
 49
-0.25
 49
0.25
 49
-0.25
  0
LTYPE
  2
ASULTYPE
 70
     0
  3
Solid line
 72
    65
 73
     2
 40
3.0
 49
2.5
 49
0.5
  0
LTYPE
  2
ASVLTYPE
 70
     0
  3
__ __ __ __ __ __ __ __ __ __ __ __ __ __ __ __ __ __ __ __ __
 72
    65
 73
     2
 40
0.75
 49
0.5
 49
-0.25
  0
LTYPE
  2
AM_ISO02W050
 70
     0
  3
__ __ __ __ __ __ __ __ __ __ __ __ __ __ __
 72
    65
 73
     2
 40
7.5
 49
6.0
 49
-1.5
  0
LTYPE
  2
AM_ISO08W050
 70
     0
  3
____ . ____ . ____ . ____ . ____ . ____ . ____
 72
    65
 73
     4
 40
18.0
 49
12.0
 49
-1.5
 49
3.0
 49
-1.5
  0
LTYPE
  2
AM_ISO09W050
 70
     0
  3
_____ . . _____ . . _____ . . ____ .. ____
 72
    65
 73
     6
 40
22.5
 49
12.0
 49
-1.5
 49
3.0
 49
-1.5
 49
3.0
 49
-1.5
  0
LTYPE
  2
AMCONSTR
 70
     0
  3
_______________________
 72
    65
 73
     2
 40
9999.0
 49
9999.0
 49
0.0
  0
LTYPE
  2
AM_ISO08W050X2
 70
     0
  3
__ . __ . __ . __ . __ . __
 72
    65
 73
     4
 40
9.0
 49
6.0
 49
-0.75
 49
1.5
 49
-0.75
  0
LTYPE
  2
AM_ISO02W050X2
 70
     0
  3
 _ _ _ _ _ _ _ _ _ _ _ _
 72
    65
 73
     2
 40
3.75
 49
3.0
 49
-0.75
  0
LTYPE
  2
AMZIGZAG
 70
     0
  3
/\/-/\/-/\/-/\/-/\/-/\/
 72
    65
 73
     2
 40
11.0001
 49
0.0001
 49
-11.0
  0
LTYPE
  2
CENTER2
 70
     0
  3
Center (.5x) ___ _ ___ _ ___ _ ___ _ ___ _ ___
 72
    65
 73
     4
 40
1.125
 49
0.75
 49
-0.125
 49
0.125
 49
-0.125
  0
LTYPE
  2
HIDDEN2
 70
     0
  3
Hidden (.5x) _ _ _ _ _ _ _ _ _ _ _ _ _ _ _ _ _
 72
    65
 73
     2
 40
0.1875
 49
0.125
 49
-0.0625
  0
LTYPE
  2
AMZIGZAG2
 70
     0
  3
/\/-/\/-/\/-/\/-/\/-/\/
 72
    65
 73
     2
 40
0.4401
 49
0.0001
 49
-0.4400000000000001
  0
LTYPE
  2
ACANSTGB
 70
     0
  3
__ . . __ . .
 72
    65
 73
     6
 40
0.35433070866
 49
0.15748031496
 49
-0.03937007874
 49
0.03937007874
 49
-0.03937007874
 49
0.03937007874
 49
-0.03937007874
  0
LTYPE
  2
ACANSTGL
 70
     0
  3
_ _ _ _ _
 72
    65
 73
     2
 40
0.11811023622
 49
0.07874015748
 49
-0.03937007874
  0
ENDTAB
  0
TABLE
  2
LAYER
 70
     3
  0
LAYER
  2
0
 70
     0
 62
     7
  6
CONTINUOUS
  0
LAYER
  2
AM_VIS
 70
     0
 62
     7
  6
CONTINUOUS
  0
LAYER
  2
AM_HID
 70
     0
 62
     7
  6
HIDDEN
  0
ENDTAB
  0
TABLE
  2
STYLE
 70
     4
  0
STYLE
  2
STANDARD
 70
     0
 40
0.0
 41
1.0
 50
0.0
 71
     0
 42
0.2
  3
txt
  4

  0
STYLE
  2

 70
     1
 40
0.0
 41
1.0
 50
0.0
 71
     0
 42
0.2
  3
ltypeshp.shx
  4

  0
STYLE
  2
ACANSTS
 70
     0
 40
1.0
 41
1.0
 50
0.0
 71
     0
 42
0.2
  3
romans.shx
  4

  0
STYLE
  2
ACANSGDT
 70
     0
 40
0.0
 41
1.0
 50
0.0
 71
     0
 42
0.2
  3
amgdtans.shx
  4

  0
ENDTAB
  0
TABLE
  2
VIEW
 70
     0
  0
ENDTAB
  0
TABLE
  2
UCS
 70
     0
  0
ENDTAB
  0
TABLE
  2
APPID
 70
    13
  0
APPID
  2
ACAD
 70
     0
  0
APPID
  2
GENIUS_GENDIM_13
 70
     0
  0
APPID
  2
GENIUS_GENDTOL_13
 70
     0
  0
APPID
  2
GENIUS_GE3DTOL_13
 70
     0
  0
APPID
  2
MCAD_NO_VIS
 70
     0
  0
APPID
  2
ACAD_TEMP_GRAPHIC
 70
     0
  0
APPID
  2
AD_DRAW
 70
     0
  0
APPID
  2
ACATTRIBSERVICES
 70
     0
  0
APPID
  2
ASURF_PCURVE_APPNAME
 70
     0
  0
APPID
  2
AMG_3D2D_5_0
 70
     0
  0
APPID
  2
DESIGNERASSEMBLIES
 70
     0
  0
APPID
  2
ACADM_DIM_EDIT
 70
     0
  0
APPID
  2
AMDT_DM_ADJ
 70
     0
  0
ENDTAB
  0
TABLE
  2
DIMSTYLE
 70
     7
  0
DIMSTYLE
  2
STANDARD
 70
     0
  3

  4

  5

  6

  7

 40
1.0
 41
0.18
 42
0.0625
 43
0.38
 44
0.18
 45
0.0
 46
0.0
 47
0.0
 48
0.0
140
0.18
141
0.09
142
0.0
143
25.399999999999999
144
1.0
145
0.0
146
1.0
147
0.09
 71
     0
 72
     0
 73
     1
 74
     1
 75
     0
 76
     0
 77
     0
 78
     0
170
     0
171
     2
172
     0
173
     0
174
     0
175
     0
176
     0
177
     0
178
     0
  0
DIMSTYLE
  2
AM_ANSI
 70
     0
  3

  4
mm
  5

  6

  7

 40
1.0
 41
0.1
 42
0.05
 43
0.5
 44
0.1
 45
0.0
 46
0.0
 47
0.1
 48
0.1
140
0.12
141
0.0
142
0.0
143
25.399999999999999
144
1.0
145
0.0
146
0.71
147
0.06
 71
     0
 72
     0
 73
     1
 74
     1
 75
     0
 76
     0
 77
     0
 78
     7
170
     0
171
     2
172
     0
173
     0
174
     0
175
     0
176
   256
177
   256
178
     2
  0
DIMSTYLE
  2
AM_ANSI$3
 70
     0
  3

  4
mm
  5

  6

  7

 40
1.0
 41
0.1
 42
0.05
 43
0.5
 44
0.1
 45
0.0
 46
0.0
 47
0.1
 48
0.1
140
0.12
141
0.0
142
0.0
143
25.399999999999999
144
1.0
145
0.0
146
0.71
147
0.06
 71
     0
 72
     0
 73
     1
 74
     1
 75
     0
 76
     0
 77
     0
 78
     7
170
     0
171
     2
172
     0
173
     0
174
     0
175
     0
176
   256
177
   256
178
     2
  0
DIMSTYLE
  2
AM_ANSI$4
 70
     0
  3

  4
mm
  5

  6

  7

 40
1.0
 41
0.1
 42
0.05
 43
0.5
 44
0.1
 45
0.0
 46
0.0
 47
0.1
 48
0.1
140
0.12
141
0.0
142
0.0
143
25.399999999999999
144
1.0
145
0.0
146
0.71
147
0.06
 71
     0
 72
     0
 73
     1
 74
     1
 75
     0
 76
     0
 77
     0
 78
     7
170
     0
171
     2
172
     0
173
     0
174
     0
175
     0
176
   256
177
   256
178
     2
  0
DIMSTYLE
  2
AM_ANSI$7
 70
     0
  3

  4
mm
  5

  6

  7

 40
1.0
 41
0.1
 42
0.05
 43
0.5
 44
0.1
 45
0.0
 46
0.0
 47
0.1
 48
0.1
140
0.24
141
0.0
142
0.0
143
25.399999999999999
144
1.0
145
0.0
146
0.71
147
0.06
 71
     0
 72
     0
 73
     1
 74
     1
 75
     0
 76
     0
 77
     0
 78
     7
170
     0
171
     2
172
     0
173
     0
174
     0
175
     0
176
   256
177
   256
178
     2
  0
DIMSTYLE
  2
AM_ANSI$SF
 70
     0
  3

  4
mm
  5

  6

  7

 40
1.0
 41
0.1
 42
0.05
 43
0.5
 44
0.1
 45
0.0
 46
0.0
 47
0.1
 48
0.1
140
0.12
141
0.0
142
0.0
143
25.399999999999999
144
1.0
145
0.0
146
0.71
147
0.06
 71
     0
 72
     0
 73
     1
 74
     1
 75
     1
 76
     1
 77
     0
 78
     7
170
     0
171
     2
172
     0
173
     0
174
     0
175
     0
176
   256
177
   256
178
     2
  0
DIMSTYLE
  2
AM_ANSI$SH
 70
     0
  3

  4
mm
  5

  6
GENAXEH
  7

 40
1.0
 41
0.1
 42
0.05
 43
0.5
 44
0.1
 45
0.0
 46
0.0
 47
0.1
 48
0.1
140
0.12
141
0.0
142
0.0
143
25.399999999999999
144
1.0
145
0.0
146
0.71
147
0.06
 71
     0
 72
     0
 73
     1
 74
     1
 75
     1
 76
     1
 77
     0
 78
     7
170
     0
171
     2
172
     0
173
     1
174
     0
175
     0
176
   256
177
   256
178
     2
  0
ENDTAB
  0
ENDSEC
  0
SECTION
  2
BLOCKS
  0
BLOCK
  8
0
  2
$MODEL_SPACE
 70
     0
 10
0.0
 20
0.0
 30
0.0
  3
$MODEL_SPACE
  1

  0
ENDBLK
  5
A
  8
0
  0
BLOCK
 67
     1
  8
0
  2
$PAPER_SPACE
 70
     0
 10
0.0
 20
0.0
 30
0.0
  3
$PAPER_SPACE
  1

  0
ENDBLK
  5
F
 67
     1
  8
0
  0
BLOCK
  8
0
  2
*U0
 70
     1
 10
0.0
 20
0.0
 30
0.0
  3
*U0
  1

  0
ENDBLK
  5
12A
  8
0
  0
BLOCK
  8
0
  2
GENAXEH
 70
     0
 10
0.0
 20
0.0
 30
0.0
  3
GENAXEH
  1

  0
LINE
  5
168
  8
0
 10
-1.0
 20
0.0
 30
0.0
 11
1.0
 21
0.0
 31
0.0
  0
ENDBLK
  5
16A
  8
0
  0
ENDSEC
  0
SECTION
  2
ENTITIES
  0
CIRCLE
  5
25
  8
AM_VIS
 10
15.314776163952519
 20
3.6863976833384342
 30
0.0
 40
0.3428690011236678
  0
LINE
  5
27
  8
AM_HID
 10
16.252939719853071
 20
4.2765519735788331
 30
0.0
 11
14.46680007132198
 21
6.40519031659072
 31
0.0
  0
LINE
  5
2A
  8
AM_HID
 10
16.252939719853071
 20
4.2765519735788331
 30
0.0
 11
15.70366544931924
 21
3.492107018961212
 31
0.0
  0
LINE
  5
2B
  8
AM_HID
 10
12.77890136485191
 20
3.5736824342770328
 30
0.0
 11
13.10554321328801
 21
3.5736824342770328
 31
0.0
  0
LINE
  5
2C
  8
AM_HID
 10
15.70366544931923
 20
3.492107018961212
 30
0.0
 11
15.66701154299678
 21
3.4397598157074829
 31
0.0
  0
CIRCLE
  5
2D
  8
AM_VIS
 10
13.10554321328801
 20
2.536343802229279
 30
0.0
 40
0.3428690011236678
  0
LINE
  5
2E
  8
AM_HID
 10
13.20503792025398
 20
3.5736824342770328
 30
0.0
 11
13.20503792025398
 21
2.8644595671923452
 31
0.0
  0
LINE
  5
2F
  8
AM_HID
 10
13.20503792025398
 20
3.5736824342770328
 30
0.0
 11
13.105543213288
 21
3.5736824342770328
 31
0.0
  0
LINE
  5
30
  8
AM_HID
 10
14.030543213288009
 20
2.1063438022292811
 30
0.0
 11
14.030543213288
 21
3.4564107816066709
 31
0.0
  0
LINE
  5
31
  8
AM_HID
 10
13.20503792025398
 20
2.1063438022292802
 30
0.0
 11
14.030543213288009
 21
2.1063438022292802
 31
0.0
  0
LINE
  5
32
  8
AM_HID
 10
13.20503792025398
 20
2.2082280372662129
 30
0.0
 11
13.20503792025398
 21
2.1063438022292802
 31
0.0
  0
LINE
  5
33
  8
AM_HID
 10
12.82582068811792
 20
2.7346225475450892
 30
0.0
 11
12.677871791656891
 21
3.5736824342770328
 31
0.0
  0
POLYLINE
  8
AM_VIS
  5
18A
  66
     1
 10
0.000000
 20
0.000000
 30
0.000000
  70
     8
  0
VERTEX
  8
AM_VIS
  5
18B
 10
15.7552
 20
3.43070
 30
0.000000
  70
    32
  0
VERTEX
  8
AM_VIS
  5
18C
 10
15.7550
 20
3.43039
 30
0.000000
  70
    32
  0
VERTEX
  8
AM_VIS
  5
18D
 10
15.7549
 20
3.43009
 30
0.000000
  70
    32
  0
VERTEX
  8
AM_VIS
  5
18E
 10
15.7548
 20
3.42978
 30
0.000000
  70
    32
  0
VERTEX
  8
AM_VIS
  5
18F
 10
15.7546
 20
3.42947
 30
0.000000
  70
    32
  0
VERTEX
  8
AM_VIS
  5
190
 10
15.7545
 20
3.42917
 30
0.000000
  70
    32
  0
VERTEX
  8
AM_VIS
  5
191
 10
15.7543
 20
3.42886
 30
0.000000
  70
    32
  0
VERTEX
  8
AM_VIS
  5
192
 10
15.7542
 20
3.42856
 30
0.000000
  70
    32
  0
VERTEX
  8
AM_VIS
  5
193
 10
15.7540
 20
3.42825
 30
0.000000
  70
    32
  0
VERTEX
  8
AM_VIS
  5
194
 10
15.7539
 20
3.42794
 30
0.000000
  70
    32
  0
VERTEX
  8
AM_VIS
  5
195
 10
15.7537
 20
3.42764
 30
0.000000
  70
    32
  0
VERTEX
  8
AM_VIS
  5
196
 10
15.7536
 20
3.42733
 30
0.000000
  70
    32
  0
VERTEX
  8
AM_VIS
  5
197
 10
15.7534
 20
3.42703
 30
0.000000
  70
    32
  0
VERTEX
  8
AM_VIS
  5
198
 10
15.7533
 20
3.42672
 30
0.000000
  70
    32
  0
VERTEX
  8
AM_VIS
  5
199
 10
15.7531
 20
3.42642
 30
0.000000
  70
    32
  0
VERTEX
  8
AM_VIS
  5
19A
 10
15.7530
 20
3.42611
 30
0.000000
  70
    32
  0
VERTEX
  8
AM_VIS
  5
19B
 10
15.7528
 20
3.42581
 30
0.000000
  70
    32
  0
VERTEX
  8
AM_VIS
  5
19C
 10
15.7527
 20
3.42550
 30
0.000000
  70
    32
  0
VERTEX
  8
AM_VIS
  5
19D
 10
15.7525
 20
3.42520
 30
0.000000
  70
    32
  0
VERTEX
  8
AM_VIS
  5
19E
 10
15.7524
 20
3.42490
 30
0.000000
  70
    32
  0
VERTEX
  8
AM_VIS
  5
19F
 10
15.7522
 20
3.42459
 30
0.000000
  70
    32
  0
VERTEX
  8
AM_VIS
  5
1A0
 10
15.7521
 20
3.42429
 30
0.000000
  70
    32
  0
VERTEX
  8
AM_VIS
  5
1A1
 10
15.7519
 20
3.42399
 30
0.000000
  70
    32
  0
VERTEX
  8
AM_VIS
  5
1A2
 10
15.7518
 20
3.42368
 30
0.000000
  70
    32
  0
VERTEX
  8
AM_VIS
  5
1A3
 10
15.7516
 20
3.42338
 30
0.000000
  70
    32
  0
VERTEX
  8
AM_VIS
  5
1A4
 10
15.7514
 20
3.42308
 30
0.000000
  70
    32
  0
VERTEX
  8
AM_VIS
  5
1A5
 10
15.7513
 20
3.42277
 30
0.000000
  70
    32
  0
VERTEX
  8
AM_VIS
  5
1A6
 10
15.7511
 20
3.42247
 30
0.000000
  70
    32
  0
VERTEX
  8
AM_VIS
  5
1A7
 10
15.7510
 20
3.42217
 30
0.000000
  70
    32
  0
VERTEX
  8
AM_VIS
  5
1A8
 10
15.7508
 20
3.42187
 30
0.000000
  70
    32
  0
VERTEX
  8
AM_VIS
  5
1A9
 10
15.7507
 20
3.42157
 30
0.000000
  70
    32
  0
VERTEX
  8
AM_VIS
  5
1AA
 10
15.7505
 20
3.42126
 30
0.000000
  70
    32
  0
VERTEX
  8
AM_VIS
  5
1AB
 10
15.7504
 20
3.42096
 30
0.000000
  70
    32
  0
VERTEX
  8
AM_VIS
  5
1AC
 10
15.7502
 20
3.42066
 30
0.000000
  70
    32
  0
VERTEX
  8
AM_VIS
  5
1AD
 10
15.7500
 20
3.42036
 30
0.000000
  70
    32
  0
VERTEX
  8
AM_VIS
  5
1AE
 10
15.7499
 20
3.42006
 30
0.000000
  70
    32
  0
VERTEX
  8
AM_VIS
  5
1AF
 10
15.7497
 20
3.41976
 30
0.000000
  70
    32
  0
VERTEX
  8
AM_VIS
  5
1B0
 10
15.7496
 20
3.41946
 30
0.000000
  70
    32
  0
VERTEX
  8
AM_VIS
  5
1B1
 10
15.7494
 20
3.41916
 30
0.000000
  70
    32
  0
VERTEX
  8
AM_VIS
  5
1B2
 10
15.7492
 20
3.41886
 30
0.000000
  70
    32
  0
VERTEX
  8
AM_VIS
  5
1B3
 10
15.7491
 20
3.41856
 30
0.000000
  70
    32
  0
VERTEX
  8
AM_VIS
  5
1B4
 10
15.7489
 20
3.41826
 30
0.000000
  70
    32
  0
VERTEX
  8
AM_VIS
  5
1B5
 10
15.7488
 20
3.41796
 30
0.000000
  70
    32
  0
VERTEX
  8
AM_VIS
  5
1B6
 10
15.7486
 20
3.41766
 30
0.000000
  70
    32
  0
VERTEX
  8
AM_VIS
  5
1B7
 10
15.7484
 20
3.41736
 30
0.000000
  70
    32
  0
VERTEX
  8
AM_VIS
  5
1B8
 10
15.7483
 20
3.41706
 30
0.000000
  70
    32
  0
VERTEX
  8
AM_VIS
  5
1B9
 10
15.7481
 20
3.41676
 30
0.000000
  70
    32
  0
VERTEX
  8
AM_VIS
  5
1BA
 10
15.7479
 20
3.41646
 30
0.000000
  70
    32
  0
VERTEX
  8
AM_VIS
  5
1BB
 10
15.7478
 20
3.41617
 30
0.000000
  70
    32
  0
VERTEX
  8
AM_VIS
  5
1BC
 10
15.7476
 20
3.41587
 30
0.000000
  70
    32
  0
VERTEX
  8
AM_VIS
  5
1BD
 10
15.7474
 20
3.41557
 30
0.000000
  70
    32
  0
VERTEX
  8
AM_VIS
  5
1BE
 10
15.7473
 20
3.41527
 30
0.000000
  70
    32
  0
VERTEX
  8
AM_VIS
  5
1BF
 10
15.7471
 20
3.41497
 30
0.000000
  70
    32
  0
VERTEX
  8
AM_VIS
  5
1C0
 10
15.7469
 20
3.41468
 30
0.000000
  70
    32
  0
VERTEX
  8
AM_VIS
  5
1C1
 10
15.7468
 20
3.41438
 30
0.000000
  70
    32
  0
VERTEX
  8
AM_VIS
  5
1C2
 10
15.7466
 20
3.41408
 30
0.000000
  70
    32
  0
VERTEX
  8
AM_VIS
  5
1C3
 10
15.7464
 20
3.41379
 30
0.000000
  70
    32
  0
VERTEX
  8
AM_VIS
  5
1C4
 10
15.7463
 20
3.41349
 30
0.000000
  70
    32
  0
VERTEX
  8
AM_VIS
  5
1C5
 10
15.7461
 20
3.41319
 30
0.000000
  70
    32
  0
VERTEX
  8
AM_VIS
  5
1C6
 10
15.7459
 20
3.41290
 30
0.000000
  70
    32
  0
VERTEX
  8
AM_VIS
  5
1C7
 10
15.7458
 20
3.41260
 30
0.000000
  70
    32
  0
VERTEX
  8
AM_VIS
  5
1C8
 10
15.7456
 20
3.41230
 30
0.000000
  70
    32
  0
VERTEX
  8
AM_VIS
  5
1C9
 10
15.7454
 20
3.41201
 30
0.000000
  70
    32
  0
VERTEX
  8
AM_VIS
  5
1CA
 10
15.7453
 20
3.41171
 30
0.000000
  70
    32
  0
VERTEX
  8
AM_VIS
  5
1CB
 10
15.7451
 20
3.41142
 30
0.000000
  70
    32
  0
VERTEX
  8
AM_VIS
  5
1CC
 10
15.7449
 20
3.41112
 30
0.000000
  70
    32
  0
VERTEX
  8
AM_VIS
  5
1CD
 10
15.7447
 20
3.41083
 30
0.000000
  70
    32
  0
VERTEX
  8
AM_VIS
  5
1CE
 10
15.7446
 20
3.41053
 30
0.000000
  70
    32
  0
VERTEX
  8
AM_VIS
  5
1CF
 10
15.7444
 20
3.41024
 30
0.000000
  70
    32
  0
VERTEX
  8
AM_VIS
  5
1D0
 10
15.7442
 20
3.40994
 30
0.000000
  70
    32
  0
VERTEX
  8
AM_VIS
  5
1D1
 10
15.7441
 20
3.40965
 30
0.000000
  70
    32
  0
VERTEX
  8
AM_VIS
  5
1D2
 10
15.7439
 20
3.40936
 30
0.000000
  70
    32
  0
VERTEX
  8
AM_VIS
  5
1D3
 10
15.7437
 20
3.40906
 30
0.000000
  70
    32
  0
VERTEX
  8
AM_VIS
  5
1D4
 10
15.7435
 20
3.40877
 30
0.000000
  70
    32
  0
VERTEX
  8
AM_VIS
  5
1D5
 10
15.7434
 20
3.40848
 30
0.000000
  70
    32
  0
VERTEX
  8
AM_VIS
  5
1D6
 10
15.7432
 20
3.40818
 30
0.000000
  70
    32
  0
VERTEX
  8
AM_VIS
  5
1D7
 10
15.7430
 20
3.40789
 30
0.000000
  70
    32
  0
VERTEX
  8
AM_VIS
  5
1D8
 10
15.7428
 20
3.40760
 30
0.000000
  70
    32
  0
VERTEX
  8
AM_VIS
  5
1D9
 10
15.7427
 20
3.40730
 30
0.000000
  70
    32
  0
VERTEX
  8
AM_VIS
  5
1DA
 10
15.7425
 20
3.40701
 30
0.000000
  70
    32
  0
VERTEX
  8
AM_VIS
  5
1DB
 10
15.7423
 20
3.40672
 30
0.000000
  70
    32
  0
VERTEX
  8
AM_VIS
  5
1DC
 10
15.7421
 20
3.40643
 30
0.000000
  70
    32
  0
VERTEX
  8
AM_VIS
  5
1DD
 10
15.7419
 20
3.40614
 30
0.000000
  70
    32
  0
VERTEX
  8
AM_VIS
  5
1DE
 10
15.7418
 20
3.40584
 30
0.000000
  70
    32
  0
VERTEX
  8
AM_VIS
  5
1DF
 10
15.7416
 20
3.40555
 30
0.000000
  70
    32
  0
VERTEX
  8
AM_VIS
  5
1E0
 10
15.7414
 20
3.40526
 30
0.000000
  70
    32
  0
VERTEX
  8
AM_VIS
  5
1E1
 10
15.7412
 20
3.40497
 30
0.000000
  70
    32
  0
VERTEX
  8
AM_VIS
  5
1E2
 10
15.7410
 20
3.40468
 30
0.000000
  70
    32
  0
VERTEX
  8
AM_VIS
  5
1E3
 10
15.7409
 20
3.40439
 30
0.000000
  70
    32
  0
VERTEX
  8
AM_VIS
  5
1E4
 10
15.7407
 20
3.40410
 30
0.000000
  70
    32
  0
VERTEX
  8
AM_VIS
  5
1E5
 10
15.7405
 20
3.40381
 30
0.000000
  70
    32
  0
VERTEX
  8
AM_VIS
  5
1E6
 10
15.7403
 20
3.40352
 30
0.000000
  70
    32
  0
VERTEX
  8
AM_VIS
  5
1E7
 10
15.7401
 20
3.40323
 30
0.000000
  70
    32
  0
VERTEX
  8
AM_VIS
  5
1E8
 10
15.7400
 20
3.40294
 30
0.000000
  70
    32
  0
VERTEX
  8
AM_VIS
  5
1E9
 10
15.7398
 20
3.40265
 30
0.000000
  70
    32
  0
VERTEX
  8
AM_VIS
  5
1EA
 10
15.7396
 20
3.40236
 30
0.000000
  70
    32
  0
VERTEX
  8
AM_VIS
  5
1EB
 10
15.7394
 20
3.40207
 30
0.000000
  70
    32
  0
VERTEX
  8
AM_VIS
  5
1EC
 10
15.7392
 20
3.40178
 30
0.000000
  70
    32
  0
VERTEX
  8
AM_VIS
  5
1ED
 10
15.7390
 20
3.40150
 30
0.000000
  70
    32
  0
VERTEX
  8
AM_VIS
  5
1EE
 10
15.7388
 20
3.40121
 30
0.000000
  70
    32
  0
VERTEX
  8
AM_VIS
  5
1EF
 10
15.7387
 20
3.40092
 30
0.000000
  70
    32
  0
VERTEX
  8
AM_VIS
  5
1F0
 10
15.7385
 20
3.40063
 30
0.000000
  70
    32
  0
VERTEX
  8
AM_VIS
  5
1F1
 10
15.7383
 20
3.40034
 30
0.000000
  70
    32
  0
VERTEX
  8
AM_VIS
  5
1F2
 10
15.7381
 20
3.40006
 30
0.000000
  70
    32
  0
VERTEX
  8
AM_VIS
  5
1F3
 10
15.7379
 20
3.39977
 30
0.000000
  70
    32
  0
VERTEX
  8
AM_VIS
  5
1F4
 10
15.7377
 20
3.39948
 30
0.000000
  70
    32
  0
VERTEX
  8
AM_VIS
  5
1F5
 10
15.7375
 20
3.39919
 30
0.000000
  70
    32
  0
VERTEX
  8
AM_VIS
  5
1F6
 10
15.7373
 20
3.39891
 30
0.000000
  70
    32
  0
VERTEX
  8
AM_VIS
  5
1F7
 10
15.7372
 20
3.39862
 30
0.000000
  70
    32
  0
VERTEX
  8
AM_VIS
  5
1F8
 10
15.7370
 20
3.39834
 30
0.000000
  70
    32
  0
VERTEX
  8
AM_VIS
  5
1F9
 10
15.7368
 20
3.39805
 30
0.000000
  70
    32
  0
VERTEX
  8
AM_VIS
  5
1FA
 10
15.7366
 20
3.39776
 30
0.000000
  70
    32
  0
VERTEX
  8
AM_VIS
  5
1FB
 10
15.7364
 20
3.39748
 30
0.000000
  70
    32
  0
VERTEX
  8
AM_VIS
  5
1FC
 10
15.7362
 20
3.39719
 30
0.000000
  70
    32
  0
VERTEX
  8
AM_VIS
  5
1FD
 10
15.7360
 20
3.39691
 30
0.000000
  70
    32
  0
VERTEX
  8
AM_VIS
  5
1FE
 10
15.7358
 20
3.39662
 30
0.000000
  70
    32
  0
VERTEX
  8
AM_VIS
  5
1FF
 10
15.7356
 20
3.39634
 30
0.000000
  70
    32
  0
VERTEX
  8
AM_VIS
  5
200
 10
15.7354
 20
3.39605
 30
0.000000
  70
    32
  0
VERTEX
  8
AM_VIS
  5
201
 10
15.7352
 20
3.39577
 30
0.000000
  70
    32
  0
VERTEX
  8
AM_VIS
  5
202
 10
15.7350
 20
3.39548
 30
0.000000
  70
    32
  0
VERTEX
  8
AM_VIS
  5
203
 10
15.7349
 20
3.39520
 30
0.000000
  70
    32
  0
VERTEX
  8
AM_VIS
  5
204
 10
15.7347
 20
3.39492
 30
0.000000
  70
    32
  0
VERTEX
  8
AM_VIS
  5
205
 10
15.7345
 20
3.39463
 30
0.000000
  70
    32
  0
VERTEX
  8
AM_VIS
  5
206
 10
15.7343
 20
3.39435
 30
0.000000
  70
    32
  0
VERTEX
  8
AM_VIS
  5
207
 10
15.7341
 20
3.39407
 30
0.000000
  70
    32
  0
VERTEX
  8
AM_VIS
  5
208
 10
15.7339
 20
3.39378
 30
0.000000
  70
    32
  0
VERTEX
  8
AM_VIS
  5
209
 10
15.7337
 20
3.39350
 30
0.000000
  70
    32
  0
VERTEX
  8
AM_VIS
  5
20A
 10
15.7335
 20
3.39322
 30
0.000000
  70
    32
  0
SEQEND
  8
AM_VIS
  5
20B
  0
POLYLINE
  8
AM_VIS
  5
20C
  66
     1
 10
0.000000
 20
0.000000
 30
0.000000
  70
     8
  0
VERTEX
  8
AM_VIS
  5
20D
 10
15.5525
 20
4.02588
 30
0.000000
  70
    32
  0
VERTEX
  8
AM_VIS
  5
20E
 10
15.5540
 20
4.02488
 30
0.000000
  70
    32
  0
VERTEX
  8
AM_VIS
  5
20F
 10
15.5554
 20
4.02387
 30
0.000000
  70
    32
  0
VERTEX
  8
AM_VIS
  5
210
 10
15.5569
 20
4.02286
 30
0.000000
  70
    32
  0
VERTEX
  8
AM_VIS
  5
211
 10
15.5584
 20
4.02184
 30
0.000000
  70
    32
  0
VERTEX
  8
AM_VIS
  5
212
 10
15.5598
 20
4.02082
 30
0.000000
  70
    32
  0
VERTEX
  8
AM_VIS
  5
213
 10
15.5613
 20
4.01979
 30
0.000000
  70
    32
  0
VERTEX
  8
AM_VIS
  5
214
 10
15.5627
 20
4.01876
 30
0.000000
  70
    32
  0
VERTEX
  8
AM_VIS
  5
215
 10
15.5642
 20
4.01772
 30
0.000000
  70
    32
  0
VERTEX
  8
AM_VIS
  5
216
 10
15.5656
 20
4.01668
 30
0.000000
  70
    32
  0
VERTEX
  8
AM_VIS
  5
217
 10
15.5670
 20
4.01563
 30
0.000000
  70
    32
  0
VERTEX
  8
AM_VIS
  5
218
 10
15.5685
 20
4.01458
 30
0.000000
  70
    32
  0
VERTEX
  8
AM_VIS
  5
219
 10
15.5699
 20
4.01352
 30
0.000000
  70
    32
  0
VERTEX
  8
AM_VIS
  5
21A
 10
15.5713
 20
4.01246
 30
0.000000
  70
    32
  0
VERTEX
  8
AM_VIS
  5
21B
 10
15.5727
 20
4.01139
 30
0.000000
  70
    32
  0
VERTEX
  8
AM_VIS
  5
21C
 10
15.5742
 20
4.01032
 30
0.000000
  70
    32
  0
VERTEX
  8
AM_VIS
  5
21D
 10
15.5756
 20
4.00924
 30
0.000000
  70
    32
  0
VERTEX
  8
AM_VIS
  5
21E
 10
15.5770
 20
4.00816
 30
0.000000
  70
    32
  0
VERTEX
  8
AM_VIS
  5
21F
 10
15.5784
 20
4.00708
 30
0.000000
  70
    32
  0
VERTEX
  8
AM_VIS
  5
220
 10
15.5798
 20
4.00599
 30
0.000000
  70
    32
  0
VERTEX
  8
AM_VIS
  5
221
 10
15.5812
 20
4.00489
 30
0.000000
  70
    32
  0
VERTEX
  8
AM_VIS
  5
222
 10
15.5826
 20
4.00379
 30
0.000000
  70
    32
  0
VERTEX
  8
AM_VIS
  5
223
 10
15.5840
 20
4.00269
 30
0.000000
  70
    32
  0
VERTEX
  8
AM_VIS
  5
224
 10
15.5854
 20
4.00158
 30
0.000000
  70
    32
  0
VERTEX
  8
AM_VIS
  5
225
 10
15.5867
 20
4.00046
 30
0.000000
  70
    32
  0
VERTEX
  8
AM_VIS
  5
226
 10
15.5881
 20
3.99934
 30
0.000000
  70
    32
  0
VERTEX
  8
AM_VIS
  5
227
 10
15.5895
 20
3.99822
 30
0.000000
  70
    32
  0
VERTEX
  8
AM_VIS
  5
228
 10
15.5909
 20
3.99709
 30
0.000000
  70
    32
  0
VERTEX
  8
AM_VIS
  5
229
 10
15.5922
 20
3.99596
 30
0.000000
  70
    32
  0
VERTEX
  8
AM_VIS
  5
22A
 10
15.5936
 20
3.99482
 30
0.000000
  70
    32
  0
VERTEX
  8
AM_VIS
  5
22B
 10
15.5950
 20
3.99367
 30
0.000000
  70
    32
  0
VERTEX
  8
AM_VIS
  5
22C
 10
15.5963
 20
3.99253
 30
0.000000
  70
    32
  0
VERTEX
  8
AM_VIS
  5
22D
 10
15.5977
 20
3.99138
 30
0.000000
  70
    32
  0
VERTEX
  8
AM_VIS
  5
22E
 10
15.5990
 20
3.99022
 30
0.000000
  70
    32
  0
VERTEX
  8
AM_VIS
  5
22F
 10
15.6004
 20
3.98906
 30
0.000000
  70
    32
  0
VERTEX
  8
AM_VIS
  5
230
 10
15.6017
 20
3.98789
 30
0.000000
  70
    32
  0
VERTEX
  8
AM_VIS
  5
231
 10
15.6030
 20
3.98672
 30
0.000000
  70
    32
  0
VERTEX
  8
AM_VIS
  5
232
 10
15.6044
 20
3.98555
 30
0.000000
  70
    32
  0
VERTEX
  8
AM_VIS
  5
233
 10
15.6057
 20
3.98437
 30
0.000000
  70
    32
  0
VERTEX
  8
AM_VIS
  5
234
 10
15.6070
 20
3.98318
 30
0.000000
  70
    32
  0
VERTEX
  8
AM_VIS
  5
235
 10
15.6083
 20
3.98199
 30
0.000000
  70
    32
  0
VERTEX
  8
AM_VIS
  5
236
 10
15.6096
 20
3.98080
 30
0.000000
  70
    32
  0
VERTEX
  8
AM_VIS
  5
237
 10
15.6110
 20
3.97960
 30
0.000000
  70
    32
  0
VERTEX
  8
AM_VIS
  5
238
 10
15.6123
 20
3.97840
 30
0.000000
  70
    32
  0
VERTEX
  8
AM_VIS
  5
239
 10
15.6136
 20
3.97720
 30
0.000000
  70
    32
  0
VERTEX
  8
AM_VIS
  5
23A
 10
15.6149
 20
3.97598
 30
0.000000
  70
    32
  0
VERTEX
  8
AM_VIS
  5
23B
 10
15.6162
 20
3.97477
 30
0.000000
  70
    32
  0
VERTEX
  8
AM_VIS
  5
23C
 10
15.6175
 20
3.97355
 30
0.000000
  70
    32
  0
VERTEX
  8
AM_VIS
  5
23D
 10
15.6187
 20
3.97232
 30
0.000000
  70
    32
  0
VERTEX
  8
AM_VIS
  5
23E
 10
15.6200
 20
3.97110
 30
0.000000
  70
    32
  0
VERTEX
  8
AM_VIS
  5
23F
 10
15.6213
 20
3.96986
 30
0.000000
  70
    32
  0
VERTEX
  8
AM_VIS
  5
240
 10
15.6226
 20
3.96863
 30
0.000000
  70
    32
  0
VERTEX
  8
AM_VIS
  5
241
 10
15.6239
 20
3.96738
 30
0.000000
  70
    32
  0
VERTEX
  8
AM_VIS
  5
242
 10
15.6251
 20
3.96614
 30
0.000000
  70
    32
  0
VERTEX
  8
AM_VIS
  5
243
 10
15.6264
 20
3.96489
 30
0.000000
  70
    32
  0
VERTEX
  8
AM_VIS
  5
244
 10
15.6276
 20
3.96363
 30
0.000000
  70
    32
  0
VERTEX
  8
AM_VIS
  5
245
 10
15.6289
 20
3.96237
 30
0.000000
  70
    32
  0
VERTEX
  8
AM_VIS
  5
246
 10
15.6302
 20
3.96111
 30
0.000000
  70
    32
  0
VERTEX
  8
AM_VIS
  5
247
 10
15.6314
 20
3.95984
 30
0.000000
  70
    32
  0
VERTEX
  8
AM_VIS
  5
248
 10
15.6326
 20
3.95857
 30
0.000000
  70
    32
  0
VERTEX
  8
AM_VIS
  5
249
 10
15.6339
 20
3.95729
 30
0.000000
  70
    32
  0
VERTEX
  8
AM_VIS
  5
24A
 10
15.6351
 20
3.95601
 30
0.000000
  70
    32
  0
VERTEX
  8
AM_VIS
  5
24B
 10
15.6364
 20
3.95473
 30
0.000000
  70
    32
  0
VERTEX
  8
AM_VIS
  5
24C
 10
15.6376
 20
3.95344
 30
0.000000
  70
    32
  0
VERTEX
  8
AM_VIS
  5
24D
 10
15.6388
 20
3.95214
 30
0.000000
  70
    32
  0
VERTEX
  8
AM_VIS
  5
24E
 10
15.6400
 20
3.95085
 30
0.000000
  70
    32
  0
VERTEX
  8
AM_VIS
  5
24F
 10
15.6412
 20
3.94954
 30
0.000000
  70
    32
  0
VERTEX
  8
AM_VIS
  5
250
 10
15.6425
 20
3.94824
 30
0.000000
  70
    32
  0
VERTEX
  8
AM_VIS
  5
251
 10
15.6437
 20
3.94693
 30
0.000000
  70
    32
  0
VERTEX
  8
AM_VIS
  5
252
 10
15.6449
 20
3.94561
 30
0.000000
  70
    32
  0
VERTEX
  8
AM_VIS
  5
253
 10
15.6461
 20
3.94429
 30
0.000000
  70
    32
  0
VERTEX
  8
AM_VIS
  5
254
 10
15.6473
 20
3.94297
 30
0.000000
  70
    32
  0
VERTEX
  8
AM_VIS
  5
255
 10
15.6484
 20
3.94165
 30
0.000000
  70
    32
  0
VERTEX
  8
AM_VIS
  5
256
 10
15.6496
 20
3.94032
 30
0.000000
  70
    32
  0
VERTEX
  8
AM_VIS
  5
257
 10
15.6508
 20
3.93898
 30
0.000000
  70
    32
  0
VERTEX
  8
AM_VIS
  5
258
 10
15.6520
 20
3.93764
 30
0.000000
  70
    32
  0
VERTEX
  8
AM_VIS
  5
259
 10
15.6532
 20
3.93630
 30
0.000000
  70
    32
  0
VERTEX
  8
AM_VIS
  5
25A
 10
15.6543
 20
3.93495
 30
0.000000
  70
    32
  0
VERTEX
  8
AM_VIS
  5
25B
 10
15.6555
 20
3.93360
 30
0.000000
  70
    32
  0
VERTEX
  8
AM_VIS
  5
25C
 10
15.6567
 20
3.93225
 30
0.000000
  70
    32
  0
VERTEX
  8
AM_VIS
  5
25D
 10
15.6578
 20
3.93089
 30
0.000000
  70
    32
  0
VERTEX
  8
AM_VIS
  5
25E
 10
15.6590
 20
3.92953
 30
0.000000
  70
    32
  0
VERTEX
  8
AM_VIS
  5
25F
 10
15.6601
 20
3.92817
 30
0.000000
  70
    32
  0
VERTEX
  8
AM_VIS
  5
260
 10
15.6613
 20
3.92680
 30
0.000000
  70
    32
  0
VERTEX
  8
AM_VIS
  5
261
 10
15.6624
 20
3.92543
 30
0.000000
  70
    32
  0
VERTEX
  8
AM_VIS
  5
262
 10
15.6635
 20
3.92405
 30
0.000000
  70
    32
  0
VERTEX
  8
AM_VIS
  5
263
 10
15.6647
 20
3.92267
 30
0.000000
  70
    32
  0
VERTEX
  8
AM_VIS
  5
264
 10
15.6658
 20
3.92129
 30
0.000000
  70
    32
  0
VERTEX
  8
AM_VIS
  5
265
 10
15.6669
 20
3.91990
 30
0.000000
  70
    32
  0
VERTEX
  8
AM_VIS
  5
266
 10
15.6680
 20
3.91851
 30
0.000000
  70
    32
  0
VERTEX
  8
AM_VIS
  5
267
 10
15.6692
 20
3.91711
 30
0.000000
  70
    32
  0
VERTEX
  8
AM_VIS
  5
268
 10
15.6703
 20
3.91572
 30
0.000000
  70
    32
  0
VERTEX
  8
AM_VIS
  5
269
 10
15.6714
 20
3.91431
 30
0.000000
  70
    32
  0
VERTEX
  8
AM_VIS
  5
26A
 10
15.6725
 20
3.91291
 30
0.000000
  70
    32
  0
VERTEX
  8
AM_VIS
  5
26B
 10
15.6736
 20
3.91150
 30
0.000000
  70
    32
  0
VERTEX
  8
AM_VIS
  5
26C
 10
15.6747
 20
3.91009
 30
0.000000
  70
    32
  0
VERTEX
  8
AM_VIS
  5
26D
 10
15.6757
 20
3.90867
 30
0.000000
  70
    32
  0
VERTEX
  8
AM_VIS
  5
26E
 10
15.6768
 20
3.90725
 30
0.000000
  70
    32
  0
VERTEX
  8
AM_VIS
  5
26F
 10
15.6779
 20
3.90583
 30
0.000000
  70
    32
  0
VERTEX
  8
AM_VIS
  5
270
 10
15.6790
 20
3.90441
 30
0.000000
  70
    32
  0
VERTEX
  8
AM_VIS
  5
271
 10
15.6801
 20
3.90298
 30
0.000000
  70
    32
  0
VERTEX
  8
AM_VIS
  5
272
 10
15.6811
 20
3.90155
 30
0.000000
  70
    32
  0
VERTEX
  8
AM_VIS
  5
273
 10
15.6822
 20
3.90011
 30
0.000000
  70
    32
  0
VERTEX
  8
AM_VIS
  5
274
 10
15.6832
 20
3.89867
 30
0.000000
  70
    32
  0
VERTEX
  8
AM_VIS
  5
275
 10
15.6843
 20
3.89723
 30
0.000000
  70
    32
  0
VERTEX
  8
AM_VIS
  5
276
 10
15.6853
 20
3.89578
 30
0.000000
  70
    32
  0
VERTEX
  8
AM_VIS
  5
277
 10
15.6864
 20
3.89434
 30
0.000000
  70
    32
  0
VERTEX
  8
AM_VIS
  5
278
 10
15.6874
 20
3.89288
 30
0.000000
  70
    32
  0
VERTEX
  8
AM_VIS
  5
279
 10
15.6885
 20
3.89143
 30
0.000000
  70
    32
  0
VERTEX
  8
AM_VIS
  5
27A
 10
15.6895
 20
3.88997
 30
0.000000
  70
    32
  0
VERTEX
  8
AM_VIS
  5
27B
 10
15.6905
 20
3.88851
 30
0.000000
  70
    32
  0
VERTEX
  8
AM_VIS
  5
27C
 10
15.6915
 20
3.88705
 30
0.000000
  70
    32
  0
VERTEX
  8
AM_VIS
  5
27D
 10
15.6925
 20
3.88558
 30
0.000000
  70
    32
  0
VERTEX
  8
AM_VIS
  5
27E
 10
15.6936
 20
3.88411
 30
0.000000
  70
    32
  0
VERTEX
  8
AM_VIS
  5
27F
 10
15.6946
 20
3.88263
 30
0.000000
  70
    32
  0
VERTEX
  8
AM_VIS
  5
280
 10
15.6956
 20
3.88116
 30
0.000000
  70
    32
  0
VERTEX
  8
AM_VIS
  5
281
 10
15.6966
 20
3.87968
 30
0.000000
  70
    32
  0
VERTEX
  8
AM_VIS
  5
282
 10
15.6975
 20
3.87819
 30
0.000000
  70
    32
  0
VERTEX
  8
AM_VIS
  5
283
 10
15.6985
 20
3.87671
 30
0.000000
  70
    32
  0
VERTEX
  8
AM_VIS
  5
284
 10
15.6995
 20
3.87522
 30
0.000000
  70
    32
  0
VERTEX
  8
AM_VIS
  5
285
 10
15.7005
 20
3.87373
 30
0.000000
  70
    32
  0
VERTEX
  8
AM_VIS
  5
286
 10
15.7015
 20
3.87224
 30
0.000000
  70
    32
  0
VERTEX
  8
AM_VIS
  5
287
 10
15.7024
 20
3.87074
 30
0.000000
  70
    32
  0
VERTEX
  8
AM_VIS
  5
288
 10
15.7034
 20
3.86924
 30
0.000000
  70
    32
  0
VERTEX
  8
AM_VIS
  5
289
 10
15.7044
 20
3.86774
 30
0.000000
  70
    32
  0
VERTEX
  8
AM_VIS
  5
28A
 10
15.7053
 20
3.86623
 30
0.000000
  70
    32
  0
VERTEX
  8
AM_VIS
  5
28B
 10
15.7063
 20
3.86472
 30
0.000000
  70
    32
  0
VERTEX
  8
AM_VIS
  5
28C
 10
15.7072
 20
3.86321
 30
0.000000
  70
    32
  0
VERTEX
  8
AM_VIS
  5
28D
 10
15.7082
 20
3.86170
 30
0.000000
  70
    32
  0
VERTEX
  8
AM_VIS
  5
28E
 10
15.7091
 20
3.86018
 30
0.000000
  70
    32
  0
VERTEX
  8
AM_VIS
  5
28F
 10
15.7100
 20
3.85866
 30
0.000000
  70
    32
  0
VERTEX
  8
AM_VIS
  5
290
 10
15.7110
 20
3.85714
 30
0.000000
  70
    32
  0
VERTEX
  8
AM_VIS
  5
291
 10
15.7119
 20
3.85561
 30
0.000000
  70
    32
  0
VERTEX
  8
AM_VIS
  5
292
 10
15.7128
 20
3.85409
 30
0.000000
  70
    32
  0
VERTEX
  8
AM_VIS
  5
293
 10
15.7137
 20
3.85256
 30
0.000000
  70
    32
  0
VERTEX
  8
AM_VIS
  5
294
 10
15.7146
 20
3.85103
 30
0.000000
  70
    32
  0
VERTEX
  8
AM_VIS
  5
295
 10
15.7155
 20
3.84949
 30
0.000000
  70
    32
  0
VERTEX
  8
AM_VIS
  5
296
 10
15.7164
 20
3.84795
 30
0.000000
  70
    32
  0
VERTEX
  8
AM_VIS
  5
297
 10
15.7173
 20
3.84641
 30
0.000000
  70
    32
  0
VERTEX
  8
AM_VIS
  5
298
 10
15.7182
 20
3.84487
 30
0.000000
  70
    32
  0
VERTEX
  8
AM_VIS
  5
299
 10
15.7191
 20
3.84333
 30
0.000000
  70
    32
  0
VERTEX
  8
AM_VIS
  5
29A
 10
15.7200
 20
3.84178
 30
0.000000
  70
    32
  0
VERTEX
  8
AM_VIS
  5
29B
 10
15.7208
 20
3.84023
 30
0.000000
  70
    32
  0
VERTEX
  8
AM_VIS
  5
29C
 10
15.7217
 20
3.83868
 30
0.000000
  70
    32
  0
VERTEX
  8
AM_VIS
  5
29D
 10
15.7226
 20
3.83712
 30
0.000000
  70
    32
  0
VERTEX
  8
AM_VIS
  5
29E
 10
15.7234
 20
3.83557
 30
0.000000
  70
    32
  0
VERTEX
  8
AM_VIS
  5
29F
 10
15.7243
 20
3.83401
 30
0.000000
  70
    32
  0
VERTEX
  8
AM_VIS
  5
2A0
 10
15.7251
 20
3.83244
 30
0.000000
  70
    32
  0
VERTEX
  8
AM_VIS
  5
2A1
 10
15.7260
 20
3.83088
 30
0.000000
  70
    32
  0
VERTEX
  8
AM_VIS
  5
2A2
 10
15.7268
 20
3.82931
 30
0.000000
  70
    32
  0
VERTEX
  8
AM_VIS
  5
2A3
 10
15.7276
 20
3.82774
 30
0.000000
  70
    32
  0
VERTEX
  8
AM_VIS
  5
2A4
 10
15.7285
 20
3.82616
 30
0.000000
  70
    32
  0
VERTEX
  8
AM_VIS
  5
2A5
 10
15.7293
 20
3.82459
 30
0.000000
  70
    32
  0
VERTEX
  8
AM_VIS
  5
2A6
 10
15.7301
 20
3.82301
 30
0.000000
  70
    32
  0
VERTEX
  8
AM_VIS
  5
2A7
 10
15.7309
 20
3.82142
 30
0.000000
  70
    32
  0
VERTEX
  8
AM_VIS
  5
2A8
 10
15.7318
 20
3.81984
 30
0.000000
  70
    32
  0
VERTEX
  8
AM_VIS
  5
2A9
 10
15.7326
 20
3.81825
 30
0.000000
  70
    32
  0
VERTEX
  8
AM_VIS
  5
2AA
 10
15.7334
 20
3.81666
 30
0.000000
  70
    32
  0
VERTEX
  8
AM_VIS
  5
2AB
 10
15.7342
 20
3.81507
 30
0.000000
  70
    32
  0
VERTEX
  8
AM_VIS
  5
2AC
 10
15.7350
 20
3.81347
 30
0.000000
  70
    32
  0
VERTEX
  8
AM_VIS
  5
2AD
 10
15.7357
 20
3.81187
 30
0.000000
  70
    32
  0
VERTEX
  8
AM_VIS
  5
2AE
 10
15.7365
 20
3.81027
 30
0.000000
  70
    32
  0
VERTEX
  8
AM_VIS
  5
2AF
 10
15.7373
 20
3.80866
 30
0.000000
  70
    32
  0
VERTEX
  8
AM_VIS
  5
2B0
 10
15.7381
 20
3.80706
 30
0.000000
  70
    32
  0
VERTEX
  8
AM_VIS
  5
2B1
 10
15.7388
 20
3.80545
 30
0.000000
  70
    32
  0
VERTEX
  8
AM_VIS
  5
2B2
 10
15.7396
 20
3.80383
 30
0.000000
  70
    32
  0
VERTEX
  8
AM_VIS
  5
2B3
 10
15.7404
 20
3.80222
 30
0.000000
  70
    32
  0
VERTEX
  8
AM_VIS
  5
2B4
 10
15.7411
 20
3.80060
 30
0.000000
  70
    32
  0
VERTEX
  8
AM_VIS
  5
2B5
 10
15.7419
 20
3.79898
 30
0.000000
  70
    32
  0
VERTEX
  8
AM_VIS
  5
2B6
 10
15.7426
 20
3.79736
 30
0.000000
  70
    32
  0
VERTEX
  8
AM_VIS
  5
2B7
 10
15.7434
 20
3.79574
 30
0.000000
  70
    32
  0
VERTEX
  8
AM_VIS
  5
2B8
 10
15.7441
 20
3.79411
 30
0.000000
  70
    32
  0
VERTEX
  8
AM_VIS
  5
2B9
 10
15.7448
 20
3.79248
 30
0.000000
  70
    32
  0
VERTEX
  8
AM_VIS
  5
2BA
 10
15.7455
 20
3.79085
 30
0.000000
  70
    32
  0
VERTEX
  8
AM_VIS
  5
2BB
 10
15.7463
 20
3.78921
 30
0.000000
  70
    32
  0
VERTEX
  8
AM_VIS
  5
2BC
 10
15.7470
 20
3.78758
 30
0.000000
  70
    32
  0
VERTEX
  8
AM_VIS
  5
2BD
 10
15.7477
 20
3.78594
 30
0.000000
  70
    32
  0
VERTEX
  8
AM_VIS
  5
2BE
 10
15.7484
 20
3.78430
 30
0.000000
  70
    32
  0
VERTEX
  8
AM_VIS
  5
2BF
 10
15.7491
 20
3.78265
 30
0.000000
  70
    32
  0
VERTEX
  8
AM_VIS
  5
2C0
 10
15.7498
 20
3.78101
 30
0.000000
  70
    32
  0
VERTEX
  8
AM_VIS
  5
2C1
 10
15.7505
 20
3.77936
 30
0.000000
  70
    32
  0
VERTEX
  8
AM_VIS
  5
2C2
 10
15.7512
 20
3.77771
 30
0.000000
  70
    32
  0
VERTEX
  8
AM_VIS
  5
2C3
 10
15.7518
 20
3.77606
 30
0.000000
  70
    32
  0
VERTEX
  8
AM_VIS
  5
2C4
 10
15.7525
 20
3.77440
 30
0.000000
  70
    32
  0
VERTEX
  8
AM_VIS
  5
2C5
 10
15.7532
 20
3.77274
 30
0.000000
  70
    32
  0
VERTEX
  8
AM_VIS
  5
2C6
 10
15.7538
 20
3.77109
 30
0.000000
  70
    32
  0
VERTEX
  8
AM_VIS
  5
2C7
 10
15.7545
 20
3.76942
 30
0.000000
  70
    32
  0
VERTEX
  8
AM_VIS
  5
2C8
 10
15.7551
 20
3.76776
 30
0.000000
  70
    32
  0
VERTEX
  8
AM_VIS
  5
2C9
 10
15.7558
 20
3.76610
 30
0.000000
  70
    32
  0
VERTEX
  8
AM_VIS
  5
2CA
 10
15.7564
 20
3.76443
 30
0.000000
  70
    32
  0
VERTEX
  8
AM_VIS
  5
2CB
 10
15.7571
 20
3.76276
 30
0.000000
  70
    32
  0
VERTEX
  8
AM_VIS
  5
2CC
 10
15.7577
 20
3.76109
 30
0.000000
  70
    32
  0
VERTEX
  8
AM_VIS
  5
2CD
 10
15.7583
 20
3.75942
 30
0.000000
  70
    32
  0
VERTEX
  8
AM_VIS
  5
2CE
 10
15.7589
 20
3.75774
 30
0.000000
  70
    32
  0
VERTEX
  8
AM_VIS
  5
2CF
 10
15.7595
 20
3.75606
 30
0.000000
  70
    32
  0
VERTEX
  8
AM_VIS
  5
2D0
 10
15.7602
 20
3.75439
 30
0.000000
  70
    32
  0
VERTEX
  8
AM_VIS
  5
2D1
 10
15.7608
 20
3.75270
 30
0.000000
  70
    32
  0
VERTEX
  8
AM_VIS
  5
2D2
 10
15.7614
 20
3.75102
 30
0.000000
  70
    32
  0
VERTEX
  8
AM_VIS
  5
2D3
 10
15.7619
 20
3.74934
 30
0.000000
  70
    32
  0
VERTEX
  8
AM_VIS
  5
2D4
 10
15.7625
 20
3.74765
 30
0.000000
  70
    32
  0
VERTEX
  8
AM_VIS
  5
2D5
 10
15.7631
 20
3.74596
 30
0.000000
  70
    32
  0
VERTEX
  8
AM_VIS
  5
2D6
 10
15.7637
 20
3.74427
 30
0.000000
  70
    32
  0
VERTEX
  8
AM_VIS
  5
2D7
 10
15.7643
 20
3.74258
 30
0.000000
  70
    32
  0
VERTEX
  8
AM_VIS
  5
2D8
 10
15.7648
 20
3.74089
 30
0.000000
  70
    32
  0
VERTEX
  8
AM_VIS
  5
2D9
 10
15.7654
 20
3.73919
 30
0.000000
  70
    32
  0
VERTEX
  8
AM_VIS
  5
2DA
 10
15.7659
 20
3.73750
 30
0.000000
  70
    32
  0
VERTEX
  8
AM_VIS
  5
2DB
 10
15.7665
 20
3.73580
 30
0.000000
  70
    32
  0
VERTEX
  8
AM_VIS
  5
2DC
 10
15.7670
 20
3.73410
 30
0.000000
  70
    32
  0
VERTEX
  8
AM_VIS
  5
2DD
 10
15.7676
 20
3.73240
 30
0.000000
  70
    32
  0
VERTEX
  8
AM_VIS
  5
2DE
 10
15.7681
 20
3.73069
 30
0.000000
  70
    32
  0
VERTEX
  8
AM_VIS
  5
2DF
 10
15.7686
 20
3.72899
 30
0.000000
  70
    32
  0
VERTEX
  8
AM_VIS
  5
2E0
 10
15.7691
 20
3.72728
 30
0.000000
  70
    32
  0
VERTEX
  8
AM_VIS
  5
2E1
 10
15.7696
 20
3.72558
 30
0.000000
  70
    32
  0
VERTEX
  8
AM_VIS
  5
2E2
 10
15.7701
 20
3.72387
 30
0.000000
  70
    32
  0
VERTEX
  8
AM_VIS
  5
2E3
 10
15.7706
 20
3.72216
 30
0.000000
  70
    32
  0
VERTEX
  8
AM_VIS
  5
2E4
 10
15.7711
 20
3.72044
 30
0.000000
  70
    32
  0
VERTEX
  8
AM_VIS
  5
2E5
 10
15.7716
 20
3.71873
 30
0.000000
  70
    32
  0
VERTEX
  8
AM_VIS
  5
2E6
 10
15.7721
 20
3.71701
 30
0.000000
  70
    32
  0
VERTEX
  8
AM_VIS
  5
2E7
 10
15.7726
 20
3.71530
 30
0.000000
  70
    32
  0
VERTEX
  8
AM_VIS
  5
2E8
 10
15.7730
 20
3.71358
 30
0.000000
  70
    32
  0
VERTEX
  8
AM_VIS
  5
2E9
 10
15.7735
 20
3.71186
 30
0.000000
  70
    32
  0
VERTEX
  8
AM_VIS
  5
2EA
 10
15.7740
 20
3.71014
 30
0.000000
  70
    32
  0
VERTEX
  8
AM_VIS
  5
2EB
 10
15.7744
 20
3.70842
 30
0.000000
  70
    32
  0
VERTEX
  8
AM_VIS
  5
2EC
 10
15.7749
 20
3.70670
 30
0.000000
  70
    32
  0
VERTEX
  8
AM_VIS
  5
2ED
 10
15.7753
 20
3.70497
 30
0.000000
  70
    32
  0
VERTEX
  8
AM_VIS
  5
2EE
 10
15.7757
 20
3.70325
 30
0.000000
  70
    32
  0
VERTEX
  8
AM_VIS
  5
2EF
 10
15.7762
 20
3.70152
 30
0.000000
  70
    32
  0
VERTEX
  8
AM_VIS
  5
2F0
 10
15.7766
 20
3.69979
 30
0.000000
  70
    32
  0
VERTEX
  8
AM_VIS
  5
2F1
 10
15.7770
 20
3.69806
 30
0.000000
  70
    32
  0
VERTEX
  8
AM_VIS
  5
2F2
 10
15.7774
 20
3.69633
 30
0.000000
  70
    32
  0
VERTEX
  8
AM_VIS
  5
2F3
 10
15.7778
 20
3.69460
 30
0.000000
  70
    32
  0
VERTEX
  8
AM_VIS
  5
2F4
 10
15.7782
 20
3.69287
 30
0.000000
  70
    32
  0
VERTEX
  8
AM_VIS
  5
2F5
 10
15.7786
 20
3.69113
 30
0.000000
  70
    32
  0
VERTEX
  8
AM_VIS
  5
2F6
 10
15.7790
 20
3.68940
 30
0.000000
  70
    32
  0
VERTEX
  8
AM_VIS
  5
2F7
 10
15.7794
 20
3.68766
 30
0.000000
  70
    32
  0
VERTEX
  8
AM_VIS
  5
2F8
 10
15.7797
 20
3.68593
 30
0.000000
  70
    32
  0
VERTEX
  8
AM_VIS
  5
2F9
 10
15.7801
 20
3.68419
 30
0.000000
  70
    32
  0
VERTEX
  8
AM_VIS
  5
2FA
 10
15.7805
 20
3.68245
 30
0.000000
  70
    32
  0
VERTEX
  8
AM_VIS
  5
2FB
 10
15.7808
 20
3.68071
 30
0.000000
  70
    32
  0
VERTEX
  8
AM_VIS
  5
2FC
 10
15.7812
 20
3.67897
 30
0.000000
  70
    32
  0
VERTEX
  8
AM_VIS
  5
2FD
 10
15.7815
 20
3.67723
 30
0.000000
  70
    32
  0
VERTEX
  8
AM_VIS
  5
2FE
 10
15.7818
 20
3.67549
 30
0.000000
  70
    32
  0
VERTEX
  8
AM_VIS
  5
2FF
 10
15.7822
 20
3.67374
 30
0.000000
  70
    32
  0
VERTEX
  8
AM_VIS
  5
300
 10
15.7825
 20
3.67200
 30
0.000000
  70
    32
  0
VERTEX
  8
AM_VIS
  5
301
 10
15.7828
 20
3.67026
 30
0.000000
  70
    32
  0
VERTEX
  8
AM_VIS
  5
302
 10
15.7831
 20
3.66851
 30
0.000000
  70
    32
  0
VERTEX
  8
AM_VIS
  5
303
 10
15.7834
 20
3.66676
 30
0.000000
  70
    32
  0
VERTEX
  8
AM_VIS
  5
304
 10
15.7837
 20
3.66502
 30
0.000000
  70
    32
  0
VERTEX
  8
AM_VIS
  5
305
 10
15.7840
 20
3.66327
 30
0.000000
  70
    32
  0
VERTEX
  8
AM_VIS
  5
306
 10
15.7843
 20
3.66152
 30
0.000000
  70
    32
  0
VERTEX
  8
AM_VIS
  5
307
 10
15.7846
 20
3.65977
 30
0.000000
  70
    32
  0
VERTEX
  8
AM_VIS
  5
308
 10
15.7848
 20
3.65802
 30
0.000000
  70
    32
  0
VERTEX
  8
AM_VIS
  5
309
 10
15.7851
 20
3.65627
 30
0.000000
  70
    32
  0
VERTEX
  8
AM_VIS
  5
30A
 10
15.7854
 20
3.65452
 30
0.000000
  70
    32
  0
VERTEX
  8
AM_VIS
  5
30B
 10
15.7856
 20
3.65277
 30
0.000000
  70
    32
  0
VERTEX
  8
AM_VIS
  5
30C
 10
15.7858
 20
3.65101
 30
0.000000
  70
    32
  0
VERTEX
  8
AM_VIS
  5
30D
 10
15.7861
 20
3.64926
 30
0.000000
  70
    32
  0
VERTEX
  8
AM_VIS
  5
30E
 10
15.7863
 20
3.64750
 30
0.000000
  70
    32
  0
VERTEX
  8
AM_VIS
  5
30F
 10
15.7865
 20
3.64575
 30
0.000000
  70
    32
  0
VERTEX
  8
AM_VIS
  5
310
 10
15.7868
 20
3.64399
 30
0.000000
  70
    32
  0
VERTEX
  8
AM_VIS
  5
311
 10
15.7870
 20
3.64224
 30
0.000000
  70
    32
  0
VERTEX
  8
AM_VIS
  5
312
 10
15.7872
 20
3.64048
 30
0.000000
  70
    32
  0
VERTEX
  8
AM_VIS
  5
313
 10
15.7874
 20
3.63872
 30
0.000000
  70
    32
  0
VERTEX
  8
AM_VIS
  5
314
 10
15.7876
 20
3.63697
 30
0.000000
  70
    32
  0
VERTEX
  8
AM_VIS
  5
315
 10
15.7877
 20
3.63521
 30
0.000000
  70
    32
  0
VERTEX
  8
AM_VIS
  5
316
 10
15.7879
 20
3.63345
 30
0.000000
  70
    32
  0
VERTEX
  8
AM_VIS
  5
317
 10
15.7881
 20
3.63169
 30
0.000000
  70
    32
  0
VERTEX
  8
AM_VIS
  5
318
 10
15.7882
 20
3.62993
 30
0.000000
  70
    32
  0
VERTEX
  8
AM_VIS
  5
319
 10
15.7884
 20
3.62817
 30
0.000000
  70
    32
  0
VERTEX
  8
AM_VIS
  5
31A
 10
15.7885
 20
3.62641
 30
0.000000
  70
    32
  0
VERTEX
  8
AM_VIS
  5
31B
 10
15.7887
 20
3.62465
 30
0.000000
  70
    32
  0
VERTEX
  8
AM_VIS
  5
31C
 10
15.7888
 20
3.62289
 30
0.000000
  70
    32
  0
VERTEX
  8
AM_VIS
  5
31D
 10
15.7889
 20
3.62112
 30
0.000000
  70
    32
  0
VERTEX
  8
AM_VIS
  5
31E
 10
15.7891
 20
3.61936
 30
0.000000
  70
    32
  0
VERTEX
  8
AM_VIS
  5
31F
 10
15.7892
 20
3.61760
 30
0.000000
  70
    32
  0
VERTEX
  8
AM_VIS
  5
320
 10
15.7893
 20
3.61584
 30
0.000000
  70
    32
  0
VERTEX
  8
AM_VIS
  5
321
 10
15.7894
 20
3.61407
 30
0.000000
  70
    32
  0
VERTEX
  8
AM_VIS
  5
322
 10
15.7895
 20
3.61231
 30
0.000000
  70
    32
  0
VERTEX
  8
AM_VIS
  5
323
 10
15.7896
 20
3.61055
 30
0.000000
  70
    32
  0
VERTEX
  8
AM_VIS
  5
324
 10
15.7896
 20
3.60878
 30
0.000000
  70
    32
  0
VERTEX
  8
AM_VIS
  5
325
 10
15.7897
 20
3.60702
 30
0.000000
  70
    32
  0
VERTEX
  8
AM_VIS
  5
326
 10
15.7898
 20
3.60526
 30
0.000000
  70
    32
  0
VERTEX
  8
AM_VIS
  5
327
 10
15.7898
 20
3.60349
 30
0.000000
  70
    32
  0
VERTEX
  8
AM_VIS
  5
328
 10
15.7899
 20
3.60173
 30
0.000000
  70
    32
  0
VERTEX
  8
AM_VIS
  5
329
 10
15.7899
 20
3.59997
 30
0.000000
  70
    32
  0
VERTEX
  8
AM_VIS
  5
32A
 10
15.7899
 20
3.59820
 30
0.000000
  70
    32
  0
VERTEX
  8
AM_VIS
  5
32B
 10
15.7900
 20
3.59644
 30
0.000000
  70
    32
  0
VERTEX
  8
AM_VIS
  5
32C
 10
15.7900
 20
3.59467
 30
0.000000
  70
    32
  0
VERTEX
  8
AM_VIS
  5
32D
 10
15.7900
 20
3.59291
 30
0.000000
  70
    32
  0
VERTEX
  8
AM_VIS
  5
32E
 10
15.7900
 20
3.59115
 30
0.000000
  70
    32
  0
VERTEX
  8
AM_VIS
  5
32F
 10
15.7900
 20
3.58938
 30
0.000000
  70
    32
  0
VERTEX
  8
AM_VIS
  5
330
 10
15.7900
 20
3.58762
 30
0.000000
  70
    32
  0
VERTEX
  8
AM_VIS
  5
331
 10
15.7900
 20
3.58585
 30
0.000000
  70
    32
  0
VERTEX
  8
AM_VIS
  5
332
 10
15.7899
 20
3.58409
 30
0.000000
  70
    32
  0
VERTEX
  8
AM_VIS
  5
333
 10
15.7899
 20
3.58233
 30
0.000000
  70
    32
  0
VERTEX
  8
AM_VIS
  5
334
 10
15.7899
 20
3.58056
 30
0.000000
  70
    32
  0
VERTEX
  8
AM_VIS
  5
335
 10
15.7898
 20
3.57880
 30
0.000000
  70
    32
  0
VERTEX
  8
AM_VIS
  5
336
 10
15.7898
 20
3.57704
 30
0.000000
  70
    32
  0
VERTEX
  8
AM_VIS
  5
337
 10
15.7897
 20
3.57528
 30
0.000000
  70
    32
  0
VERTEX
  8
AM_VIS
  5
338
 10
15.7896
 20
3.57351
 30
0.000000
  70
    32
  0
VERTEX
  8
AM_VIS
  5
339
 10
15.7896
 20
3.57175
 30
0.000000
  70
    32
  0
VERTEX
  8
AM_VIS
  5
33A
 10
15.7895
 20
3.56999
 30
0.000000
  70
    32
  0
VERTEX
  8
AM_VIS
  5
33B
 10
15.7894
 20
3.56823
 30
0.000000
  70
    32
  0
VERTEX
  8
AM_VIS
  5
33C
 10
15.7893
 20
3.56647
 30
0.000000
  70
    32
  0
VERTEX
  8
AM_VIS
  5
33D
 10
15.7892
 20
3.56471
 30
0.000000
  70
    32
  0
VERTEX
  8
AM_VIS
  5
33E
 10
15.7890
 20
3.56295
 30
0.000000
  70
    32
  0
VERTEX
  8
AM_VIS
  5
33F
 10
15.7889
 20
3.56119
 30
0.000000
  70
    32
  0
VERTEX
  8
AM_VIS
  5
340
 10
15.7888
 20
3.55943
 30
0.000000
  70
    32
  0
VERTEX
  8
AM_VIS
  5
341
 10
15.7886
 20
3.55767
 30
0.000000
  70
    32
  0
VERTEX
  8
AM_VIS
  5
342
 10
15.7885
 20
3.55591
 30
0.000000
  70
    32
  0
VERTEX
  8
AM_VIS
  5
343
 10
15.7883
 20
3.55415
 30
0.000000
  70
    32
  0
VERTEX
  8
AM_VIS
  5
344
 10
15.7882
 20
3.55240
 30
0.000000
  70
    32
  0
VERTEX
  8
AM_VIS
  5
345
 10
15.7880
 20
3.55064
 30
0.000000
  70
    32
  0
VERTEX
  8
AM_VIS
  5
346
 10
15.7878
 20
3.54888
 30
0.000000
  70
    32
  0
VERTEX
  8
AM_VIS
  5
347
 10
15.7876
 20
3.54713
 30
0.000000
  70
    32
  0
VERTEX
  8
AM_VIS
  5
348
 10
15.7874
 20
3.54537
 30
0.000000
  70
    32
  0
VERTEX
  8
AM_VIS
  5
349
 10
15.7872
 20
3.54362
 30
0.000000
  70
    32
  0
VERTEX
  8
AM_VIS
  5
34A
 10
15.7870
 20
3.54186
 30
0.000000
  70
    32
  0
VERTEX
  8
AM_VIS
  5
34B
 10
15.7868
 20
3.54011
 30
0.000000
  70
    32
  0
VERTEX
  8
AM_VIS
  5
34C
 10
15.7866
 20
3.53836
 30
0.000000
  70
    32
  0
VERTEX
  8
AM_VIS
  5
34D
 10
15.7863
 20
3.53661
 30
0.000000
  70
    32
  0
VERTEX
  8
AM_VIS
  5
34E
 10
15.7861
 20
3.53486
 30
0.000000
  70
    32
  0
VERTEX
  8
AM_VIS
  5
34F
 10
15.7859
 20
3.53311
 30
0.000000
  70
    32
  0
VERTEX
  8
AM_VIS
  5
350
 10
15.7856
 20
3.53136
 30
0.000000
  70
    32
  0
VERTEX
  8
AM_VIS
  5
351
 10
15.7853
 20
3.52961
 30
0.000000
  70
    32
  0
VERTEX
  8
AM_VIS
  5
352
 10
15.7850
 20
3.52786
 30
0.000000
  70
    32
  0
VERTEX
  8
AM_VIS
  5
353
 10
15.7848
 20
3.52612
 30
0.000000
  70
    32
  0
VERTEX
  8
AM_VIS
  5
354
 10
15.7845
 20
3.52437
 30
0.000000
  70
    32
  0
VERTEX
  8
AM_VIS
  5
355
 10
15.7842
 20
3.52263
 30
0.000000
  70
    32
  0
VERTEX
  8
AM_VIS
  5
356
 10
15.7839
 20
3.52088
 30
0.000000
  70
    32
  0
VERTEX
  8
AM_VIS
  5
357
 10
15.7835
 20
3.51914
 30
0.000000
  70
    32
  0
VERTEX
  8
AM_VIS
  5
358
 10
15.7832
 20
3.51740
 30
0.000000
  70
    32
  0
VERTEX
  8
AM_VIS
  5
359
 10
15.7829
 20
3.51566
 30
0.000000
  70
    32
  0
VERTEX
  8
AM_VIS
  5
35A
 10
15.7825
 20
3.51392
 30
0.000000
  70
    32
  0
VERTEX
  8
AM_VIS
  5
35B
 10
15.7822
 20
3.51219
 30
0.000000
  70
    32
  0
VERTEX
  8
AM_VIS
  5
35C
 10
15.7818
 20
3.51045
 30
0.000000
  70
    32
  0
VERTEX
  8
AM_VIS
  5
35D
 10
15.7815
 20
3.50872
 30
0.000000
  70
    32
  0
VERTEX
  8
AM_VIS
  5
35E
 10
15.7811
 20
3.50700
 30
0.000000
  70
    32
  0
VERTEX
  8
AM_VIS
  5
35F
 10
15.7807
 20
3.50527
 30
0.000000
  70
    32
  0
VERTEX
  8
AM_VIS
  5
360
 10
15.7803
 20
3.50355
 30
0.000000
  70
    32
  0
VERTEX
  8
AM_VIS
  5
361
 10
15.7799
 20
3.50183
 30
0.000000
  70
    32
  0
VERTEX
  8
AM_VIS
  5
362
 10
15.7795
 20
3.50012
 30
0.000000
  70
    32
  0
VERTEX
  8
AM_VIS
  5
363
 10
15.7791
 20
3.49840
 30
0.000000
  70
    32
  0
VERTEX
  8
AM_VIS
  5
364
 10
15.7787
 20
3.49669
 30
0.000000
  70
    32
  0
VERTEX
  8
AM_VIS
  5
365
 10
15.7782
 20
3.49498
 30
0.000000
  70
    32
  0
VERTEX
  8
AM_VIS
  5
366
 10
15.7778
 20
3.49328
 30
0.000000
  70
    32
  0
VERTEX
  8
AM_VIS
  5
367
 10
15.7774
 20
3.49158
 30
0.000000
  70
    32
  0
VERTEX
  8
AM_VIS
  5
368
 10
15.7769
 20
3.48988
 30
0.000000
  70
    32
  0
VERTEX
  8
AM_VIS
  5
369
 10
15.7764
 20
3.48818
 30
0.000000
  70
    32
  0
VERTEX
  8
AM_VIS
  5
36A
 10
15.7760
 20
3.48649
 30
0.000000
  70
    32
  0
VERTEX
  8
AM_VIS
  5
36B
 10
15.7755
 20
3.48480
 30
0.000000
  70
    32
  0
VERTEX
  8
AM_VIS
  5
36C
 10
15.7750
 20
3.48311
 30
0.000000
  70
    32
  0
VERTEX
  8
AM_VIS
  5
36D
 10
15.7745
 20
3.48142
 30
0.000000
  70
    32
  0
VERTEX
  8
AM_VIS
  5
36E
 10
15.7740
 20
3.47974
 30
0.000000
  70
    32
  0
VERTEX
  8
AM_VIS
  5
36F
 10
15.7735
 20
3.47806
 30
0.000000
  70
    32
  0
VERTEX
  8
AM_VIS
  5
370
 10
15.7730
 20
3.47639
 30
0.000000
  70
    32
  0
VERTEX
  8
AM_VIS
  5
371
 10
15.7725
 20
3.47471
 30
0.000000
  70
    32
  0
VERTEX
  8
AM_VIS
  5
372
 10
15.7719
 20
3.47304
 30
0.000000
  70
    32
  0
VERTEX
  8
AM_VIS
  5
373
 10
15.7714
 20
3.47138
 30
0.000000
  70
    32
  0
VERTEX
  8
AM_VIS
  5
374
 10
15.7708
 20
3.46971
 30
0.000000
  70
    32
  0
VERTEX
  8
AM_VIS
  5
375
 10
15.7703
 20
3.46805
 30
0.000000
  70
    32
  0
VERTEX
  8
AM_VIS
  5
376
 10
15.7697
 20
3.46639
 30
0.000000
  70
    32
  0
VERTEX
  8
AM_VIS
  5
377
 10
15.7691
 20
3.46474
 30
0.000000
  70
    32
  0
VERTEX
  8
AM_VIS
  5
378
 10
15.7685
 20
3.46309
 30
0.000000
  70
    32
  0
VERTEX
  8
AM_VIS
  5
379
 10
15.7679
 20
3.46144
 30
0.000000
  70
    32
  0
VERTEX
  8
AM_VIS
  5
37A
 10
15.7673
 20
3.45979
 30
0.000000
  70
    32
  0
VERTEX
  8
AM_VIS
  5
37B
 10
15.7667
 20
3.45815
 30
0.000000
  70
    32
  0
VERTEX
  8
AM_VIS
  5
37C
 10
15.7661
 20
3.45651
 30
0.000000
  70
    32
  0
VERTEX
  8
AM_VIS
  5
37D
 10
15.7655
 20
3.45487
 30
0.000000
  70
    32
  0
VERTEX
  8
AM_VIS
  5
37E
 10
15.7649
 20
3.45324
 30
0.000000
  70
    32
  0
VERTEX
  8
AM_VIS
  5
37F
 10
15.7642
 20
3.45161
 30
0.000000
  70
    32
  0
VERTEX
  8
AM_VIS
  5
380
 10
15.7636
 20
3.44998
 30
0.000000
  70
    32
  0
VERTEX
  8
AM_VIS
  5
381
 10
15.7629
 20
3.44836
 30
0.000000
  70
    32
  0
VERTEX
  8
AM_VIS
  5
382
 10
15.7623
 20
3.44673
 30
0.000000
  70
    32
  0
VERTEX
  8
AM_VIS
  5
383
 10
15.7616
 20
3.44512
 30
0.000000
  70
    32
  0
VERTEX
  8
AM_VIS
  5
384
 10
15.7609
 20
3.44350
 30
0.000000
  70
    32
  0
VERTEX
  8
AM_VIS
  5
385
 10
15.7602
 20
3.44189
 30
0.000000
  70
    32
  0
VERTEX
  8
AM_VIS
  5
386
 10
15.7595
 20
3.44028
 30
0.000000
  70
    32
  0
VERTEX
  8
AM_VIS
  5
387
 10
15.7588
 20
3.43868
 30
0.000000
  70
    32
  0
VERTEX
  8
AM_VIS
  5
388
 10
15.7581
 20
3.43708
 30
0.000000
  70
    32
  0
VERTEX
  8
AM_VIS
  5
389
 10
15.7574
 20
3.43548
 30
0.000000
  70
    32
  0
VERTEX
  8
AM_VIS
  5
38A
 10
15.7567
 20
3.43388
 30
0.000000
  70
    32
  0
VERTEX
  8
AM_VIS
  5
38B
 10
15.7559
 20
3.43229
 30
0.000000
  70
    32
  0
VERTEX
  8
AM_VIS
  5
38C
 10
15.7552
 20
3.43070
 30
0.000000
  70
    32
  0
SEQEND
  8
AM_VIS
  5
38D
  0
ARC
  5
36
  8
AM_VIS
 10
15.31154010170316
 20
3.674436975570023
 30
0.0
 40
0.4103297329045464
 50
326.62821010577971
 51
5.7056843904817978
  0
ARC
  5
37
  8
AM_VIS
 10
15.24122537975391
 20
3.5442414302161391
 30
0.0
 40
0.5734633257196071
 50
57.127432353645183
 51
95.992567506766065
  0
POLYLINE
  8
AM_VIS
  5
38E
  66
     1
 10
0.000000
 20
0.000000
 30
0.000000
  70
     8
  0
VERTEX
  8
AM_VIS
  5
38F
 10
14.8961
 20
3.97958
 30
0.000000
  70
    32
  0
VERTEX
  8
AM_VIS
  5
390
 10
14.8967
 20
3.98041
 30
0.000000
  70
    32
  0
VERTEX
  8
AM_VIS
  5
391
 10
14.8972
 20
3.98124
 30
0.000000
  70
    32
  0
VERTEX
  8
AM_VIS
  5
392
 10
14.8978
 20
3.98206
 30
0.000000
  70
    32
  0
VERTEX
  8
AM_VIS
  5
393
 10
14.8984
 20
3.98289
 30
0.000000
  70
    32
  0
VERTEX
  8
AM_VIS
  5
394
 10
14.8990
 20
3.98371
 30
0.000000
  70
    32
  0
VERTEX
  8
AM_VIS
  5
395
 10
14.8996
 20
3.98453
 30
0.000000
  70
    32
  0
VERTEX
  8
AM_VIS
  5
396
 10
14.9002
 20
3.98534
 30
0.000000
  70
    32
  0
VERTEX
  8
AM_VIS
  5
397
 10
14.9008
 20
3.98616
 30
0.000000
  70
    32
  0
VERTEX
  8
AM_VIS
  5
398
 10
14.9014
 20
3.98697
 30
0.000000
  70
    32
  0
VERTEX
  8
AM_VIS
  5
399
 10
14.9021
 20
3.98777
 30
0.000000
  70
    32
  0
VERTEX
  8
AM_VIS
  5
39A
 10
14.9027
 20
3.98858
 30
0.000000
  70
    32
  0
VERTEX
  8
AM_VIS
  5
39B
 10
14.9033
 20
3.98938
 30
0.000000
  70
    32
  0
VERTEX
  8
AM_VIS
  5
39C
 10
14.9039
 20
3.99018
 30
0.000000
  70
    32
  0
VERTEX
  8
AM_VIS
  5
39D
 10
14.9045
 20
3.99098
 30
0.000000
  70
    32
  0
VERTEX
  8
AM_VIS
  5
39E
 10
14.9052
 20
3.99177
 30
0.000000
  70
    32
  0
VERTEX
  8
AM_VIS
  5
39F
 10
14.9058
 20
3.99256
 30
0.000000
  70
    32
  0
VERTEX
  8
AM_VIS
  5
3A0
 10
14.9064
 20
3.99335
 30
0.000000
  70
    32
  0
VERTEX
  8
AM_VIS
  5
3A1
 10
14.9071
 20
3.99414
 30
0.000000
  70
    32
  0
VERTEX
  8
AM_VIS
  5
3A2
 10
14.9077
 20
3.99492
 30
0.000000
  70
    32
  0
VERTEX
  8
AM_VIS
  5
3A3
 10
14.9084
 20
3.99570
 30
0.000000
  70
    32
  0
VERTEX
  8
AM_VIS
  5
3A4
 10
14.9090
 20
3.99648
 30
0.000000
  70
    32
  0
VERTEX
  8
AM_VIS
  5
3A5
 10
14.9097
 20
3.99725
 30
0.000000
  70
    32
  0
VERTEX
  8
AM_VIS
  5
3A6
 10
14.9103
 20
3.99803
 30
0.000000
  70
    32
  0
VERTEX
  8
AM_VIS
  5
3A7
 10
14.9110
 20
3.99880
 30
0.000000
  70
    32
  0
VERTEX
  8
AM_VIS
  5
3A8
 10
14.9116
 20
3.99956
 30
0.000000
  70
    32
  0
VERTEX
  8
AM_VIS
  5
3A9
 10
14.9123
 20
4.00033
 30
0.000000
  70
    32
  0
VERTEX
  8
AM_VIS
  5
3AA
 10
14.9129
 20
4.00109
 30
0.000000
  70
    32
  0
VERTEX
  8
AM_VIS
  5
3AB
 10
14.9136
 20
4.00185
 30
0.000000
  70
    32
  0
VERTEX
  8
AM_VIS
  5
3AC
 10
14.9143
 20
4.00260
 30
0.000000
  70
    32
  0
VERTEX
  8
AM_VIS
  5
3AD
 10
14.9150
 20
4.00336
 30
0.000000
  70
    32
  0
VERTEX
  8
AM_VIS
  5
3AE
 10
14.9156
 20
4.00411
 30
0.000000
  70
    32
  0
VERTEX
  8
AM_VIS
  5
3AF
 10
14.9163
 20
4.00486
 30
0.000000
  70
    32
  0
VERTEX
  8
AM_VIS
  5
3B0
 10
14.9170
 20
4.00560
 30
0.000000
  70
    32
  0
VERTEX
  8
AM_VIS
  5
3B1
 10
14.9177
 20
4.00635
 30
0.000000
  70
    32
  0
VERTEX
  8
AM_VIS
  5
3B2
 10
14.9184
 20
4.00709
 30
0.000000
  70
    32
  0
VERTEX
  8
AM_VIS
  5
3B3
 10
14.9191
 20
4.00783
 30
0.000000
  70
    32
  0
VERTEX
  8
AM_VIS
  5
3B4
 10
14.9198
 20
4.00856
 30
0.000000
  70
    32
  0
VERTEX
  8
AM_VIS
  5
3B5
 10
14.9205
 20
4.00929
 30
0.000000
  70
    32
  0
VERTEX
  8
AM_VIS
  5
3B6
 10
14.9212
 20
4.01002
 30
0.000000
  70
    32
  0
VERTEX
  8
AM_VIS
  5
3B7
 10
14.9219
 20
4.01075
 30
0.000000
  70
    32
  0
VERTEX
  8
AM_VIS
  5
3B8
 10
14.9226
 20
4.01148
 30
0.000000
  70
    32
  0
VERTEX
  8
AM_VIS
  5
3B9
 10
14.9233
 20
4.01220
 30
0.000000
  70
    32
  0
VERTEX
  8
AM_VIS
  5
3BA
 10
14.9240
 20
4.01292
 30
0.000000
  70
    32
  0
VERTEX
  8
AM_VIS
  5
3BB
 10
14.9247
 20
4.01363
 30
0.000000
  70
    32
  0
VERTEX
  8
AM_VIS
  5
3BC
 10
14.9254
 20
4.01435
 30
0.000000
  70
    32
  0
VERTEX
  8
AM_VIS
  5
3BD
 10
14.9261
 20
4.01506
 30
0.000000
  70
    32
  0
VERTEX
  8
AM_VIS
  5
3BE
 10
14.9269
 20
4.01577
 30
0.000000
  70
    32
  0
VERTEX
  8
AM_VIS
  5
3BF
 10
14.9276
 20
4.01648
 30
0.000000
  70
    32
  0
VERTEX
  8
AM_VIS
  5
3C0
 10
14.9283
 20
4.01718
 30
0.000000
  70
    32
  0
VERTEX
  8
AM_VIS
  5
3C1
 10
14.9291
 20
4.01788
 30
0.000000
  70
    32
  0
VERTEX
  8
AM_VIS
  5
3C2
 10
14.9298
 20
4.01858
 30
0.000000
  70
    32
  0
VERTEX
  8
AM_VIS
  5
3C3
 10
14.9305
 20
4.01927
 30
0.000000
  70
    32
  0
VERTEX
  8
AM_VIS
  5
3C4
 10
14.9313
 20
4.01997
 30
0.000000
  70
    32
  0
VERTEX
  8
AM_VIS
  5
3C5
 10
14.9320
 20
4.02066
 30
0.000000
  70
    32
  0
VERTEX
  8
AM_VIS
  5
3C6
 10
14.9328
 20
4.02135
 30
0.000000
  70
    32
  0
VERTEX
  8
AM_VIS
  5
3C7
 10
14.9335
 20
4.02203
 30
0.000000
  70
    32
  0
VERTEX
  8
AM_VIS
  5
3C8
 10
14.9343
 20
4.02272
 30
0.000000
  70
    32
  0
VERTEX
  8
AM_VIS
  5
3C9
 10
14.9350
 20
4.02340
 30
0.000000
  70
    32
  0
VERTEX
  8
AM_VIS
  5
3CA
 10
14.9358
 20
4.02407
 30
0.000000
  70
    32
  0
VERTEX
  8
AM_VIS
  5
3CB
 10
14.9365
 20
4.02475
 30
0.000000
  70
    32
  0
VERTEX
  8
AM_VIS
  5
3CC
 10
14.9373
 20
4.02542
 30
0.000000
  70
    32
  0
VERTEX
  8
AM_VIS
  5
3CD
 10
14.9381
 20
4.02609
 30
0.000000
  70
    32
  0
VERTEX
  8
AM_VIS
  5
3CE
 10
14.9388
 20
4.02676
 30
0.000000
  70
    32
  0
VERTEX
  8
AM_VIS
  5
3CF
 10
14.9396
 20
4.02742
 30
0.000000
  70
    32
  0
VERTEX
  8
AM_VIS
  5
3D0
 10
14.9404
 20
4.02808
 30
0.000000
  70
    32
  0
VERTEX
  8
AM_VIS
  5
3D1
 10
14.9411
 20
4.02874
 30
0.000000
  70
    32
  0
VERTEX
  8
AM_VIS
  5
3D2
 10
14.9419
 20
4.02939
 30
0.000000
  70
    32
  0
VERTEX
  8
AM_VIS
  5
3D3
 10
14.9427
 20
4.03005
 30
0.000000
  70
    32
  0
VERTEX
  8
AM_VIS
  5
3D4
 10
14.9435
 20
4.03069
 30
0.000000
  70
    32
  0
VERTEX
  8
AM_VIS
  5
3D5
 10
14.9443
 20
4.03134
 30
0.000000
  70
    32
  0
VERTEX
  8
AM_VIS
  5
3D6
 10
14.9451
 20
4.03198
 30
0.000000
  70
    32
  0
VERTEX
  8
AM_VIS
  5
3D7
 10
14.9458
 20
4.03262
 30
0.000000
  70
    32
  0
VERTEX
  8
AM_VIS
  5
3D8
 10
14.9466
 20
4.03326
 30
0.000000
  70
    32
  0
VERTEX
  8
AM_VIS
  5
3D9
 10
14.9474
 20
4.03389
 30
0.000000
  70
    32
  0
VERTEX
  8
AM_VIS
  5
3DA
 10
14.9482
 20
4.03452
 30
0.000000
  70
    32
  0
VERTEX
  8
AM_VIS
  5
3DB
 10
14.9490
 20
4.03515
 30
0.000000
  70
    32
  0
VERTEX
  8
AM_VIS
  5
3DC
 10
14.9498
 20
4.03578
 30
0.000000
  70
    32
  0
VERTEX
  8
AM_VIS
  5
3DD
 10
14.9506
 20
4.03640
 30
0.000000
  70
    32
  0
VERTEX
  8
AM_VIS
  5
3DE
 10
14.9514
 20
4.03702
 30
0.000000
  70
    32
  0
VERTEX
  8
AM_VIS
  5
3DF
 10
14.9522
 20
4.03764
 30
0.000000
  70
    32
  0
VERTEX
  8
AM_VIS
  5
3E0
 10
14.9530
 20
4.03825
 30
0.000000
  70
    32
  0
VERTEX
  8
AM_VIS
  5
3E1
 10
14.9539
 20
4.03886
 30
0.000000
  70
    32
  0
VERTEX
  8
AM_VIS
  5
3E2
 10
14.9547
 20
4.03947
 30
0.000000
  70
    32
  0
VERTEX
  8
AM_VIS
  5
3E3
 10
14.9555
 20
4.04007
 30
0.000000
  70
    32
  0
VERTEX
  8
AM_VIS
  5
3E4
 10
14.9563
 20
4.04067
 30
0.000000
  70
    32
  0
VERTEX
  8
AM_VIS
  5
3E5
 10
14.9571
 20
4.04127
 30
0.000000
  70
    32
  0
VERTEX
  8
AM_VIS
  5
3E6
 10
14.9579
 20
4.04187
 30
0.000000
  70
    32
  0
VERTEX
  8
AM_VIS
  5
3E7
 10
14.9588
 20
4.04246
 30
0.000000
  70
    32
  0
VERTEX
  8
AM_VIS
  5
3E8
 10
14.9596
 20
4.04305
 30
0.000000
  70
    32
  0
VERTEX
  8
AM_VIS
  5
3E9
 10
14.9604
 20
4.04364
 30
0.000000
  70
    32
  0
VERTEX
  8
AM_VIS
  5
3EA
 10
14.9612
 20
4.04423
 30
0.000000
  70
    32
  0
VERTEX
  8
AM_VIS
  5
3EB
 10
14.9621
 20
4.04481
 30
0.000000
  70
    32
  0
VERTEX
  8
AM_VIS
  5
3EC
 10
14.9629
 20
4.04539
 30
0.000000
  70
    32
  0
VERTEX
  8
AM_VIS
  5
3ED
 10
14.9637
 20
4.04597
 30
0.000000
  70
    32
  0
VERTEX
  8
AM_VIS
  5
3EE
 10
14.9646
 20
4.04654
 30
0.000000
  70
    32
  0
VERTEX
  8
AM_VIS
  5
3EF
 10
14.9654
 20
4.04711
 30
0.000000
  70
    32
  0
VERTEX
  8
AM_VIS
  5
3F0
 10
14.9663
 20
4.04768
 30
0.000000
  70
    32
  0
VERTEX
  8
AM_VIS
  5
3F1
 10
14.9671
 20
4.04824
 30
0.000000
  70
    32
  0
VERTEX
  8
AM_VIS
  5
3F2
 10
14.9679
 20
4.04881
 30
0.000000
  70
    32
  0
VERTEX
  8
AM_VIS
  5
3F3
 10
14.9688
 20
4.04937
 30
0.000000
  70
    32
  0
VERTEX
  8
AM_VIS
  5
3F4
 10
14.9696
 20
4.04992
 30
0.000000
  70
    32
  0
VERTEX
  8
AM_VIS
  5
3F5
 10
14.9705
 20
4.05048
 30
0.000000
  70
    32
  0
VERTEX
  8
AM_VIS
  5
3F6
 10
14.9713
 20
4.05103
 30
0.000000
  70
    32
  0
VERTEX
  8
AM_VIS
  5
3F7
 10
14.9722
 20
4.05158
 30
0.000000
  70
    32
  0
VERTEX
  8
AM_VIS
  5
3F8
 10
14.9730
 20
4.05212
 30
0.000000
  70
    32
  0
VERTEX
  8
AM_VIS
  5
3F9
 10
14.9739
 20
4.05267
 30
0.000000
  70
    32
  0
VERTEX
  8
AM_VIS
  5
3FA
 10
14.9748
 20
4.05321
 30
0.000000
  70
    32
  0
VERTEX
  8
AM_VIS
  5
3FB
 10
14.9756
 20
4.05374
 30
0.000000
  70
    32
  0
VERTEX
  8
AM_VIS
  5
3FC
 10
14.9765
 20
4.05428
 30
0.000000
  70
    32
  0
VERTEX
  8
AM_VIS
  5
3FD
 10
14.9774
 20
4.05481
 30
0.000000
  70
    32
  0
VERTEX
  8
AM_VIS
  5
3FE
 10
14.9782
 20
4.05534
 30
0.000000
  70
    32
  0
VERTEX
  8
AM_VIS
  5
3FF
 10
14.9791
 20
4.05587
 30
0.000000
  70
    32
  0
VERTEX
  8
AM_VIS
  5
400
 10
14.9800
 20
4.05639
 30
0.000000
  70
    32
  0
VERTEX
  8
AM_VIS
  5
401
 10
14.9808
 20
4.05691
 30
0.000000
  70
    32
  0
VERTEX
  8
AM_VIS
  5
402
 10
14.9817
 20
4.05743
 30
0.000000
  70
    32
  0
VERTEX
  8
AM_VIS
  5
403
 10
14.9826
 20
4.05795
 30
0.000000
  70
    32
  0
VERTEX
  8
AM_VIS
  5
404
 10
14.9835
 20
4.05846
 30
0.000000
  70
    32
  0
VERTEX
  8
AM_VIS
  5
405
 10
14.9843
 20
4.05897
 30
0.000000
  70
    32
  0
VERTEX
  8
AM_VIS
  5
406
 10
14.9852
 20
4.05948
 30
0.000000
  70
    32
  0
VERTEX
  8
AM_VIS
  5
407
 10
14.9861
 20
4.05998
 30
0.000000
  70
    32
  0
VERTEX
  8
AM_VIS
  5
408
 10
14.9870
 20
4.06049
 30
0.000000
  70
    32
  0
VERTEX
  8
AM_VIS
  5
409
 10
14.9879
 20
4.06098
 30
0.000000
  70
    32
  0
VERTEX
  8
AM_VIS
  5
40A
 10
14.9887
 20
4.06148
 30
0.000000
  70
    32
  0
VERTEX
  8
AM_VIS
  5
40B
 10
14.9896
 20
4.06198
 30
0.000000
  70
    32
  0
VERTEX
  8
AM_VIS
  5
40C
 10
14.9905
 20
4.06247
 30
0.000000
  70
    32
  0
VERTEX
  8
AM_VIS
  5
40D
 10
14.9914
 20
4.06296
 30
0.000000
  70
    32
  0
VERTEX
  8
AM_VIS
  5
40E
 10
14.9923
 20
4.06344
 30
0.000000
  70
    32
  0
VERTEX
  8
AM_VIS
  5
40F
 10
14.9932
 20
4.06393
 30
0.000000
  70
    32
  0
VERTEX
  8
AM_VIS
  5
410
 10
14.9941
 20
4.06441
 30
0.000000
  70
    32
  0
VERTEX
  8
AM_VIS
  5
411
 10
14.9950
 20
4.06489
 30
0.000000
  70
    32
  0
VERTEX
  8
AM_VIS
  5
412
 10
14.9959
 20
4.06536
 30
0.000000
  70
    32
  0
VERTEX
  8
AM_VIS
  5
413
 10
14.9968
 20
4.06584
 30
0.000000
  70
    32
  0
VERTEX
  8
AM_VIS
  5
414
 10
14.9977
 20
4.06631
 30
0.000000
  70
    32
  0
VERTEX
  8
AM_VIS
  5
415
 10
14.9986
 20
4.06678
 30
0.000000
  70
    32
  0
VERTEX
  8
AM_VIS
  5
416
 10
14.9995
 20
4.06724
 30
0.000000
  70
    32
  0
VERTEX
  8
AM_VIS
  5
417
 10
15.0004
 20
4.06771
 30
0.000000
  70
    32
  0
VERTEX
  8
AM_VIS
  5
418
 10
15.0013
 20
4.06817
 30
0.000000
  70
    32
  0
VERTEX
  8
AM_VIS
  5
419
 10
15.0022
 20
4.06862
 30
0.000000
  70
    32
  0
VERTEX
  8
AM_VIS
  5
41A
 10
15.0031
 20
4.06908
 30
0.000000
  70
    32
  0
VERTEX
  8
AM_VIS
  5
41B
 10
15.0041
 20
4.06953
 30
0.000000
  70
    32
  0
VERTEX
  8
AM_VIS
  5
41C
 10
15.0050
 20
4.06998
 30
0.000000
  70
    32
  0
VERTEX
  8
AM_VIS
  5
41D
 10
15.0059
 20
4.07043
 30
0.000000
  70
    32
  0
VERTEX
  8
AM_VIS
  5
41E
 10
15.0068
 20
4.07088
 30
0.000000
  70
    32
  0
VERTEX
  8
AM_VIS
  5
41F
 10
15.0077
 20
4.07132
 30
0.000000
  70
    32
  0
VERTEX
  8
AM_VIS
  5
420
 10
15.0086
 20
4.07176
 30
0.000000
  70
    32
  0
VERTEX
  8
AM_VIS
  5
421
 10
15.0096
 20
4.07220
 30
0.000000
  70
    32
  0
VERTEX
  8
AM_VIS
  5
422
 10
15.0105
 20
4.07264
 30
0.000000
  70
    32
  0
VERTEX
  8
AM_VIS
  5
423
 10
15.0114
 20
4.07307
 30
0.000000
  70
    32
  0
VERTEX
  8
AM_VIS
  5
424
 10
15.0123
 20
4.07350
 30
0.000000
  70
    32
  0
VERTEX
  8
AM_VIS
  5
425
 10
15.0133
 20
4.07393
 30
0.000000
  70
    32
  0
VERTEX
  8
AM_VIS
  5
426
 10
15.0142
 20
4.07435
 30
0.000000
  70
    32
  0
VERTEX
  8
AM_VIS
  5
427
 10
15.0151
 20
4.07478
 30
0.000000
  70
    32
  0
VERTEX
  8
AM_VIS
  5
428
 10
15.0161
 20
4.07520
 30
0.000000
  70
    32
  0
VERTEX
  8
AM_VIS
  5
429
 10
15.0170
 20
4.07562
 30
0.000000
  70
    32
  0
VERTEX
  8
AM_VIS
  5
42A
 10
15.0179
 20
4.07603
 30
0.000000
  70
    32
  0
VERTEX
  8
AM_VIS
  5
42B
 10
15.0189
 20
4.07645
 30
0.000000
  70
    32
  0
VERTEX
  8
AM_VIS
  5
42C
 10
15.0198
 20
4.07686
 30
0.000000
  70
    32
  0
VERTEX
  8
AM_VIS
  5
42D
 10
15.0207
 20
4.07727
 30
0.000000
  70
    32
  0
VERTEX
  8
AM_VIS
  5
42E
 10
15.0217
 20
4.07767
 30
0.000000
  70
    32
  0
VERTEX
  8
AM_VIS
  5
42F
 10
15.0226
 20
4.07808
 30
0.000000
  70
    32
  0
VERTEX
  8
AM_VIS
  5
430
 10
15.0236
 20
4.07848
 30
0.000000
  70
    32
  0
VERTEX
  8
AM_VIS
  5
431
 10
15.0245
 20
4.07888
 30
0.000000
  70
    32
  0
VERTEX
  8
AM_VIS
  5
432
 10
15.0254
 20
4.07927
 30
0.000000
  70
    32
  0
VERTEX
  8
AM_VIS
  5
433
 10
15.0264
 20
4.07967
 30
0.000000
  70
    32
  0
VERTEX
  8
AM_VIS
  5
434
 10
15.0273
 20
4.08006
 30
0.000000
  70
    32
  0
VERTEX
  8
AM_VIS
  5
435
 10
15.0283
 20
4.08045
 30
0.000000
  70
    32
  0
VERTEX
  8
AM_VIS
  5
436
 10
15.0292
 20
4.08084
 30
0.000000
  70
    32
  0
VERTEX
  8
AM_VIS
  5
437
 10
15.0302
 20
4.08122
 30
0.000000
  70
    32
  0
VERTEX
  8
AM_VIS
  5
438
 10
15.0311
 20
4.08160
 30
0.000000
  70
    32
  0
VERTEX
  8
AM_VIS
  5
439
 10
15.0321
 20
4.08198
 30
0.000000
  70
    32
  0
VERTEX
  8
AM_VIS
  5
43A
 10
15.0330
 20
4.08236
 30
0.000000
  70
    32
  0
VERTEX
  8
AM_VIS
  5
43B
 10
15.0340
 20
4.08274
 30
0.000000
  70
    32
  0
VERTEX
  8
AM_VIS
  5
43C
 10
15.0350
 20
4.08311
 30
0.000000
  70
    32
  0
VERTEX
  8
AM_VIS
  5
43D
 10
15.0359
 20
4.08348
 30
0.000000
  70
    32
  0
VERTEX
  8
AM_VIS
  5
43E
 10
15.0369
 20
4.08385
 30
0.000000
  70
    32
  0
VERTEX
  8
AM_VIS
  5
43F
 10
15.0378
 20
4.08421
 30
0.000000
  70
    32
  0
VERTEX
  8
AM_VIS
  5
440
 10
15.0388
 20
4.08458
 30
0.000000
  70
    32
  0
VERTEX
  8
AM_VIS
  5
441
 10
15.0398
 20
4.08494
 30
0.000000
  70
    32
  0
VERTEX
  8
AM_VIS
  5
442
 10
15.0407
 20
4.08530
 30
0.000000
  70
    32
  0
VERTEX
  8
AM_VIS
  5
443
 10
15.0417
 20
4.08565
 30
0.000000
  70
    32
  0
VERTEX
  8
AM_VIS
  5
444
 10
15.0426
 20
4.08601
 30
0.000000
  70
    32
  0
VERTEX
  8
AM_VIS
  5
445
 10
15.0436
 20
4.08636
 30
0.000000
  70
    32
  0
VERTEX
  8
AM_VIS
  5
446
 10
15.0446
 20
4.08671
 30
0.000000
  70
    32
  0
VERTEX
  8
AM_VIS
  5
447
 10
15.0456
 20
4.08706
 30
0.000000
  70
    32
  0
VERTEX
  8
AM_VIS
  5
448
 10
15.0465
 20
4.08740
 30
0.000000
  70
    32
  0
VERTEX
  8
AM_VIS
  5
449
 10
15.0475
 20
4.08774
 30
0.000000
  70
    32
  0
VERTEX
  8
AM_VIS
  5
44A
 10
15.0485
 20
4.08808
 30
0.000000
  70
    32
  0
VERTEX
  8
AM_VIS
  5
44B
 10
15.0494
 20
4.08842
 30
0.000000
  70
    32
  0
VERTEX
  8
AM_VIS
  5
44C
 10
15.0504
 20
4.08876
 30
0.000000
  70
    32
  0
VERTEX
  8
AM_VIS
  5
44D
 10
15.0514
 20
4.08909
 30
0.000000
  70
    32
  0
VERTEX
  8
AM_VIS
  5
44E
 10
15.0524
 20
4.08942
 30
0.000000
  70
    32
  0
VERTEX
  8
AM_VIS
  5
44F
 10
15.0533
 20
4.08975
 30
0.000000
  70
    32
  0
VERTEX
  8
AM_VIS
  5
450
 10
15.0543
 20
4.09008
 30
0.000000
  70
    32
  0
VERTEX
  8
AM_VIS
  5
451
 10
15.0553
 20
4.09040
 30
0.000000
  70
    32
  0
VERTEX
  8
AM_VIS
  5
452
 10
15.0563
 20
4.09072
 30
0.000000
  70
    32
  0
VERTEX
  8
AM_VIS
  5
453
 10
15.0573
 20
4.09104
 30
0.000000
  70
    32
  0
VERTEX
  8
AM_VIS
  5
454
 10
15.0582
 20
4.09136
 30
0.000000
  70
    32
  0
VERTEX
  8
AM_VIS
  5
455
 10
15.0592
 20
4.09168
 30
0.000000
  70
    32
  0
VERTEX
  8
AM_VIS
  5
456
 10
15.0602
 20
4.09199
 30
0.000000
  70
    32
  0
VERTEX
  8
AM_VIS
  5
457
 10
15.0612
 20
4.09230
 30
0.000000
  70
    32
  0
VERTEX
  8
AM_VIS
  5
458
 10
15.0622
 20
4.09261
 30
0.000000
  70
    32
  0
VERTEX
  8
AM_VIS
  5
459
 10
15.0632
 20
4.09291
 30
0.000000
  70
    32
  0
VERTEX
  8
AM_VIS
  5
45A
 10
15.0641
 20
4.09322
 30
0.000000
  70
    32
  0
VERTEX
  8
AM_VIS
  5
45B
 10
15.0651
 20
4.09352
 30
0.000000
  70
    32
  0
VERTEX
  8
AM_VIS
  5
45C
 10
15.0661
 20
4.09382
 30
0.000000
  70
    32
  0
VERTEX
  8
AM_VIS
  5
45D
 10
15.0671
 20
4.09412
 30
0.000000
  70
    32
  0
VERTEX
  8
AM_VIS
  5
45E
 10
15.0681
 20
4.09441
 30
0.000000
  70
    32
  0
VERTEX
  8
AM_VIS
  5
45F
 10
15.0691
 20
4.09471
 30
0.000000
  70
    32
  0
VERTEX
  8
AM_VIS
  5
460
 10
15.0701
 20
4.09500
 30
0.000000
  70
    32
  0
VERTEX
  8
AM_VIS
  5
461
 10
15.0711
 20
4.09528
 30
0.000000
  70
    32
  0
VERTEX
  8
AM_VIS
  5
462
 10
15.0721
 20
4.09557
 30
0.000000
  70
    32
  0
VERTEX
  8
AM_VIS
  5
463
 10
15.0731
 20
4.09586
 30
0.000000
  70
    32
  0
VERTEX
  8
AM_VIS
  5
464
 10
15.0740
 20
4.09614
 30
0.000000
  70
    32
  0
VERTEX
  8
AM_VIS
  5
465
 10
15.0750
 20
4.09642
 30
0.000000
  70
    32
  0
VERTEX
  8
AM_VIS
  5
466
 10
15.0760
 20
4.09669
 30
0.000000
  70
    32
  0
VERTEX
  8
AM_VIS
  5
467
 10
15.0770
 20
4.09697
 30
0.000000
  70
    32
  0
VERTEX
  8
AM_VIS
  5
468
 10
15.0780
 20
4.09724
 30
0.000000
  70
    32
  0
VERTEX
  8
AM_VIS
  5
469
 10
15.0790
 20
4.09751
 30
0.000000
  70
    32
  0
VERTEX
  8
AM_VIS
  5
46A
 10
15.0800
 20
4.09778
 30
0.000000
  70
    32
  0
VERTEX
  8
AM_VIS
  5
46B
 10
15.0810
 20
4.09805
 30
0.000000
  70
    32
  0
VERTEX
  8
AM_VIS
  5
46C
 10
15.0820
 20
4.09832
 30
0.000000
  70
    32
  0
VERTEX
  8
AM_VIS
  5
46D
 10
15.0830
 20
4.09858
 30
0.000000
  70
    32
  0
VERTEX
  8
AM_VIS
  5
46E
 10
15.0840
 20
4.09884
 30
0.000000
  70
    32
  0
VERTEX
  8
AM_VIS
  5
46F
 10
15.0850
 20
4.09910
 30
0.000000
  70
    32
  0
VERTEX
  8
AM_VIS
  5
470
 10
15.0860
 20
4.09935
 30
0.000000
  70
    32
  0
VERTEX
  8
AM_VIS
  5
471
 10
15.0870
 20
4.09961
 30
0.000000
  70
    32
  0
VERTEX
  8
AM_VIS
  5
472
 10
15.0880
 20
4.09986
 30
0.000000
  70
    32
  0
VERTEX
  8
AM_VIS
  5
473
 10
15.0890
 20
4.10011
 30
0.000000
  70
    32
  0
VERTEX
  8
AM_VIS
  5
474
 10
15.0900
 20
4.10036
 30
0.000000
  70
    32
  0
VERTEX
  8
AM_VIS
  5
475
 10
15.0910
 20
4.10060
 30
0.000000
  70
    32
  0
VERTEX
  8
AM_VIS
  5
476
 10
15.0920
 20
4.10085
 30
0.000000
  70
    32
  0
VERTEX
  8
AM_VIS
  5
477
 10
15.0930
 20
4.10109
 30
0.000000
  70
    32
  0
VERTEX
  8
AM_VIS
  5
478
 10
15.0940
 20
4.10133
 30
0.000000
  70
    32
  0
VERTEX
  8
AM_VIS
  5
479
 10
15.0951
 20
4.10156
 30
0.000000
  70
    32
  0
VERTEX
  8
AM_VIS
  5
47A
 10
15.0961
 20
4.10180
 30
0.000000
  70
    32
  0
VERTEX
  8
AM_VIS
  5
47B
 10
15.0971
 20
4.10203
 30
0.000000
  70
    32
  0
VERTEX
  8
AM_VIS
  5
47C
 10
15.0981
 20
4.10226
 30
0.000000
  70
    32
  0
VERTEX
  8
AM_VIS
  5
47D
 10
15.0991
 20
4.10249
 30
0.000000
  70
    32
  0
VERTEX
  8
AM_VIS
  5
47E
 10
15.1001
 20
4.10272
 30
0.000000
  70
    32
  0
VERTEX
  8
AM_VIS
  5
47F
 10
15.1011
 20
4.10294
 30
0.000000
  70
    32
  0
VERTEX
  8
AM_VIS
  5
480
 10
15.1021
 20
4.10316
 30
0.000000
  70
    32
  0
VERTEX
  8
AM_VIS
  5
481
 10
15.1031
 20
4.10339
 30
0.000000
  70
    32
  0
VERTEX
  8
AM_VIS
  5
482
 10
15.1041
 20
4.10360
 30
0.000000
  70
    32
  0
VERTEX
  8
AM_VIS
  5
483
 10
15.1051
 20
4.10382
 30
0.000000
  70
    32
  0
VERTEX
  8
AM_VIS
  5
484
 10
15.1061
 20
4.10404
 30
0.000000
  70
    32
  0
VERTEX
  8
AM_VIS
  5
485
 10
15.1072
 20
4.10425
 30
0.000000
  70
    32
  0
VERTEX
  8
AM_VIS
  5
486
 10
15.1082
 20
4.10446
 30
0.000000
  70
    32
  0
VERTEX
  8
AM_VIS
  5
487
 10
15.1092
 20
4.10467
 30
0.000000
  70
    32
  0
VERTEX
  8
AM_VIS
  5
488
 10
15.1102
 20
4.10487
 30
0.000000
  70
    32
  0
VERTEX
  8
AM_VIS
  5
489
 10
15.1112
 20
4.10508
 30
0.000000
  70
    32
  0
VERTEX
  8
AM_VIS
  5
48A
 10
15.1122
 20
4.10528
 30
0.000000
  70
    32
  0
VERTEX
  8
AM_VIS
  5
48B
 10
15.1132
 20
4.10548
 30
0.000000
  70
    32
  0
VERTEX
  8
AM_VIS
  5
48C
 10
15.1142
 20
4.10568
 30
0.000000
  70
    32
  0
VERTEX
  8
AM_VIS
  5
48D
 10
15.1153
 20
4.10587
 30
0.000000
  70
    32
  0
VERTEX
  8
AM_VIS
  5
48E
 10
15.1163
 20
4.10607
 30
0.000000
  70
    32
  0
VERTEX
  8
AM_VIS
  5
48F
 10
15.1173
 20
4.10626
 30
0.000000
  70
    32
  0
VERTEX
  8
AM_VIS
  5
490
 10
15.1183
 20
4.10645
 30
0.000000
  70
    32
  0
VERTEX
  8
AM_VIS
  5
491
 10
15.1193
 20
4.10664
 30
0.000000
  70
    32
  0
VERTEX
  8
AM_VIS
  5
492
 10
15.1203
 20
4.10683
 30
0.000000
  70
    32
  0
VERTEX
  8
AM_VIS
  5
493
 10
15.1213
 20
4.10701
 30
0.000000
  70
    32
  0
VERTEX
  8
AM_VIS
  5
494
 10
15.1223
 20
4.10719
 30
0.000000
  70
    32
  0
VERTEX
  8
AM_VIS
  5
495
 10
15.1234
 20
4.10737
 30
0.000000
  70
    32
  0
VERTEX
  8
AM_VIS
  5
496
 10
15.1244
 20
4.10755
 30
0.000000
  70
    32
  0
VERTEX
  8
AM_VIS
  5
497
 10
15.1254
 20
4.10773
 30
0.000000
  70
    32
  0
VERTEX
  8
AM_VIS
  5
498
 10
15.1264
 20
4.10790
 30
0.000000
  70
    32
  0
VERTEX
  8
AM_VIS
  5
499
 10
15.1274
 20
4.10807
 30
0.000000
  70
    32
  0
VERTEX
  8
AM_VIS
  5
49A
 10
15.1284
 20
4.10825
 30
0.000000
  70
    32
  0
VERTEX
  8
AM_VIS
  5
49B
 10
15.1295
 20
4.10841
 30
0.000000
  70
    32
  0
VERTEX
  8
AM_VIS
  5
49C
 10
15.1305
 20
4.10858
 30
0.000000
  70
    32
  0
VERTEX
  8
AM_VIS
  5
49D
 10
15.1315
 20
4.10875
 30
0.000000
  70
    32
  0
VERTEX
  8
AM_VIS
  5
49E
 10
15.1325
 20
4.10891
 30
0.000000
  70
    32
  0
VERTEX
  8
AM_VIS
  5
49F
 10
15.1335
 20
4.10907
 30
0.000000
  70
    32
  0
VERTEX
  8
AM_VIS
  5
4A0
 10
15.1345
 20
4.10923
 30
0.000000
  70
    32
  0
VERTEX
  8
AM_VIS
  5
4A1
 10
15.1355
 20
4.10939
 30
0.000000
  70
    32
  0
VERTEX
  8
AM_VIS
  5
4A2
 10
15.1366
 20
4.10954
 30
0.000000
  70
    32
  0
VERTEX
  8
AM_VIS
  5
4A3
 10
15.1376
 20
4.10969
 30
0.000000
  70
    32
  0
VERTEX
  8
AM_VIS
  5
4A4
 10
15.1386
 20
4.10985
 30
0.000000
  70
    32
  0
VERTEX
  8
AM_VIS
  5
4A5
 10
15.1396
 20
4.11000
 30
0.000000
  70
    32
  0
VERTEX
  8
AM_VIS
  5
4A6
 10
15.1406
 20
4.11014
 30
0.000000
  70
    32
  0
VERTEX
  8
AM_VIS
  5
4A7
 10
15.1416
 20
4.11029
 30
0.000000
  70
    32
  0
VERTEX
  8
AM_VIS
  5
4A8
 10
15.1426
 20
4.11043
 30
0.000000
  70
    32
  0
VERTEX
  8
AM_VIS
  5
4A9
 10
15.1437
 20
4.11057
 30
0.000000
  70
    32
  0
VERTEX
  8
AM_VIS
  5
4AA
 10
15.1447
 20
4.11071
 30
0.000000
  70
    32
  0
VERTEX
  8
AM_VIS
  5
4AB
 10
15.1457
 20
4.11085
 30
0.000000
  70
    32
  0
VERTEX
  8
AM_VIS
  5
4AC
 10
15.1467
 20
4.11099
 30
0.000000
  70
    32
  0
VERTEX
  8
AM_VIS
  5
4AD
 10
15.1477
 20
4.11112
 30
0.000000
  70
    32
  0
VERTEX
  8
AM_VIS
  5
4AE
 10
15.1487
 20
4.11126
 30
0.000000
  70
    32
  0
VERTEX
  8
AM_VIS
  5
4AF
 10
15.1498
 20
4.11139
 30
0.000000
  70
    32
  0
VERTEX
  8
AM_VIS
  5
4B0
 10
15.1508
 20
4.11152
 30
0.000000
  70
    32
  0
VERTEX
  8
AM_VIS
  5
4B1
 10
15.1518
 20
4.11164
 30
0.000000
  70
    32
  0
VERTEX
  8
AM_VIS
  5
4B2
 10
15.1528
 20
4.11177
 30
0.000000
  70
    32
  0
VERTEX
  8
AM_VIS
  5
4B3
 10
15.1538
 20
4.11189
 30
0.000000
  70
    32
  0
VERTEX
  8
AM_VIS
  5
4B4
 10
15.1548
 20
4.11201
 30
0.000000
  70
    32
  0
VERTEX
  8
AM_VIS
  5
4B5
 10
15.1558
 20
4.11213
 30
0.000000
  70
    32
  0
VERTEX
  8
AM_VIS
  5
4B6
 10
15.1568
 20
4.11225
 30
0.000000
  70
    32
  0
VERTEX
  8
AM_VIS
  5
4B7
 10
15.1579
 20
4.11237
 30
0.000000
  70
    32
  0
VERTEX
  8
AM_VIS
  5
4B8
 10
15.1589
 20
4.11248
 30
0.000000
  70
    32
  0
VERTEX
  8
AM_VIS
  5
4B9
 10
15.1599
 20
4.11259
 30
0.000000
  70
    32
  0
VERTEX
  8
AM_VIS
  5
4BA
 10
15.1609
 20
4.11271
 30
0.000000
  70
    32
  0
VERTEX
  8
AM_VIS
  5
4BB
 10
15.1619
 20
4.11281
 30
0.000000
  70
    32
  0
VERTEX
  8
AM_VIS
  5
4BC
 10
15.1629
 20
4.11292
 30
0.000000
  70
    32
  0
VERTEX
  8
AM_VIS
  5
4BD
 10
15.1639
 20
4.11303
 30
0.000000
  70
    32
  0
VERTEX
  8
AM_VIS
  5
4BE
 10
15.1650
 20
4.11313
 30
0.000000
  70
    32
  0
VERTEX
  8
AM_VIS
  5
4BF
 10
15.1660
 20
4.11323
 30
0.000000
  70
    32
  0
VERTEX
  8
AM_VIS
  5
4C0
 10
15.1670
 20
4.11334
 30
0.000000
  70
    32
  0
VERTEX
  8
AM_VIS
  5
4C1
 10
15.1680
 20
4.11343
 30
0.000000
  70
    32
  0
VERTEX
  8
AM_VIS
  5
4C2
 10
15.1690
 20
4.11353
 30
0.000000
  70
    32
  0
VERTEX
  8
AM_VIS
  5
4C3
 10
15.1701
 20
4.11363
 30
0.000000
  70
    32
  0
VERTEX
  8
AM_VIS
  5
4C4
 10
15.1711
 20
4.11372
 30
0.000000
  70
    32
  0
VERTEX
  8
AM_VIS
  5
4C5
 10
15.1721
 20
4.11381
 30
0.000000
  70
    32
  0
VERTEX
  8
AM_VIS
  5
4C6
 10
15.1731
 20
4.11391
 30
0.000000
  70
    32
  0
VERTEX
  8
AM_VIS
  5
4C7
 10
15.1742
 20
4.11399
 30
0.000000
  70
    32
  0
VERTEX
  8
AM_VIS
  5
4C8
 10
15.1752
 20
4.11408
 30
0.000000
  70
    32
  0
VERTEX
  8
AM_VIS
  5
4C9
 10
15.1762
 20
4.11417
 30
0.000000
  70
    32
  0
VERTEX
  8
AM_VIS
  5
4CA
 10
15.1772
 20
4.11425
 30
0.000000
  70
    32
  0
VERTEX
  8
AM_VIS
  5
4CB
 10
15.1783
 20
4.11433
 30
0.000000
  70
    32
  0
VERTEX
  8
AM_VIS
  5
4CC
 10
15.1793
 20
4.11441
 30
0.000000
  70
    32
  0
VERTEX
  8
AM_VIS
  5
4CD
 10
15.1803
 20
4.11449
 30
0.000000
  70
    32
  0
VERTEX
  8
AM_VIS
  5
4CE
 10
15.1814
 20
4.11457
 30
0.000000
  70
    32
  0
SEQEND
  8
AM_VIS
  5
4CF
  0
ARC
  5
39
  8
AM_VIS
 10
15.304643573597501
 20
3.679265976537077
 30
0.0
 40
0.410329732904547
 50
104.29431560951789
 51
143.37178989422
  0
POLYLINE
  8
AM_VIS
  5
4D0
  66
     1
 10
0.000000
 20
0.000000
 30
0.000000
  70
     8
  0
VERTEX
  8
AM_VIS
  5
4D1
 10
15.7335
 20
3.39322
 30
0.000000
  70
    32
  0
VERTEX
  8
AM_VIS
  5
4D2
 10
15.7323
 20
3.39161
 30
0.000000
  70
    32
  0
VERTEX
  8
AM_VIS
  5
4D3
 10
15.7312
 20
3.39001
 30
0.000000
  70
    32
  0
VERTEX
  8
AM_VIS
  5
4D4
 10
15.7301
 20
3.38841
 30
0.000000
  70
    32
  0
VERTEX
  8
AM_VIS
  5
4D5
 10
15.7289
 20
3.38682
 30
0.000000
  70
    32
  0
VERTEX
  8
AM_VIS
  5
4D6
 10
15.7277
 20
3.38524
 30
0.000000
  70
    32
  0
VERTEX
  8
AM_VIS
  5
4D7
 10
15.7266
 20
3.38367
 30
0.000000
  70
    32
  0
VERTEX
  8
AM_VIS
  5
4D8
 10
15.7254
 20
3.38210
 30
0.000000
  70
    32
  0
VERTEX
  8
AM_VIS
  5
4D9
 10
15.7242
 20
3.38054
 30
0.000000
  70
    32
  0
VERTEX
  8
AM_VIS
  5
4DA
 10
15.7230
 20
3.37899
 30
0.000000
  70
    32
  0
VERTEX
  8
AM_VIS
  5
4DB
 10
15.7218
 20
3.37744
 30
0.000000
  70
    32
  0
VERTEX
  8
AM_VIS
  5
4DC
 10
15.7206
 20
3.37590
 30
0.000000
  70
    32
  0
VERTEX
  8
AM_VIS
  5
4DD
 10
15.7194
 20
3.37437
 30
0.000000
  70
    32
  0
VERTEX
  8
AM_VIS
  5
4DE
 10
15.7181
 20
3.37285
 30
0.000000
  70
    32
  0
VERTEX
  8
AM_VIS
  5
4DF
 10
15.7169
 20
3.37133
 30
0.000000
  70
    32
  0
VERTEX
  8
AM_VIS
  5
4E0
 10
15.7157
 20
3.36982
 30
0.000000
  70
    32
  0
VERTEX
  8
AM_VIS
  5
4E1
 10
15.7144
 20
3.36832
 30
0.000000
  70
    32
  0
VERTEX
  8
AM_VIS
  5
4E2
 10
15.7131
 20
3.36682
 30
0.000000
  70
    32
  0
VERTEX
  8
AM_VIS
  5
4E3
 10
15.7119
 20
3.36534
 30
0.000000
  70
    32
  0
VERTEX
  8
AM_VIS
  5
4E4
 10
15.7106
 20
3.36386
 30
0.000000
  70
    32
  0
VERTEX
  8
AM_VIS
  5
4E5
 10
15.7093
 20
3.36238
 30
0.000000
  70
    32
  0
VERTEX
  8
AM_VIS
  5
4E6
 10
15.7080
 20
3.36092
 30
0.000000
  70
    32
  0
VERTEX
  8
AM_VIS
  5
4E7
 10
15.7067
 20
3.35946
 30
0.000000
  70
    32
  0
VERTEX
  8
AM_VIS
  5
4E8
 10
15.7054
 20
3.35801
 30
0.000000
  70
    32
  0
VERTEX
  8
AM_VIS
  5
4E9
 10
15.7041
 20
3.35656
 30
0.000000
  70
    32
  0
VERTEX
  8
AM_VIS
  5
4EA
 10
15.7028
 20
3.35512
 30
0.000000
  70
    32
  0
VERTEX
  8
AM_VIS
  5
4EB
 10
15.7015
 20
3.35369
 30
0.000000
  70
    32
  0
VERTEX
  8
AM_VIS
  5
4EC
 10
15.7002
 20
3.35227
 30
0.000000
  70
    32
  0
VERTEX
  8
AM_VIS
  5
4ED
 10
15.6988
 20
3.35086
 30
0.000000
  70
    32
  0
VERTEX
  8
AM_VIS
  5
4EE
 10
15.6975
 20
3.34945
 30
0.000000
  70
    32
  0
VERTEX
  8
AM_VIS
  5
4EF
 10
15.6961
 20
3.34805
 30
0.000000
  70
    32
  0
VERTEX
  8
AM_VIS
  5
4F0
 10
15.6948
 20
3.34665
 30
0.000000
  70
    32
  0
VERTEX
  8
AM_VIS
  5
4F1
 10
15.6934
 20
3.34527
 30
0.000000
  70
    32
  0
VERTEX
  8
AM_VIS
  5
4F2
 10
15.6920
 20
3.34389
 30
0.000000
  70
    32
  0
VERTEX
  8
AM_VIS
  5
4F3
 10
15.6906
 20
3.34252
 30
0.000000
  70
    32
  0
VERTEX
  8
AM_VIS
  5
4F4
 10
15.6893
 20
3.34115
 30
0.000000
  70
    32
  0
VERTEX
  8
AM_VIS
  5
4F5
 10
15.6879
 20
3.33980
 30
0.000000
  70
    32
  0
VERTEX
  8
AM_VIS
  5
4F6
 10
15.6865
 20
3.33845
 30
0.000000
  70
    32
  0
VERTEX
  8
AM_VIS
  5
4F7
 10
15.6850
 20
3.33711
 30
0.000000
  70
    32
  0
VERTEX
  8
AM_VIS
  5
4F8
 10
15.6836
 20
3.33577
 30
0.000000
  70
    32
  0
VERTEX
  8
AM_VIS
  5
4F9
 10
15.6822
 20
3.33444
 30
0.000000
  70
    32
  0
VERTEX
  8
AM_VIS
  5
4FA
 10
15.6808
 20
3.33312
 30
0.000000
  70
    32
  0
VERTEX
  8
AM_VIS
  5
4FB
 10
15.6793
 20
3.33181
 30
0.000000
  70
    32
  0
VERTEX
  8
AM_VIS
  5
4FC
 10
15.6779
 20
3.33051
 30
0.000000
  70
    32
  0
VERTEX
  8
AM_VIS
  5
4FD
 10
15.6764
 20
3.32921
 30
0.000000
  70
    32
  0
VERTEX
  8
AM_VIS
  5
4FE
 10
15.6750
 20
3.32792
 30
0.000000
  70
    32
  0
VERTEX
  8
AM_VIS
  5
4FF
 10
15.6735
 20
3.32664
 30
0.000000
  70
    32
  0
VERTEX
  8
AM_VIS
  5
500
 10
15.6721
 20
3.32536
 30
0.000000
  70
    32
  0
VERTEX
  8
AM_VIS
  5
501
 10
15.6706
 20
3.32409
 30
0.000000
  70
    32
  0
VERTEX
  8
AM_VIS
  5
502
 10
15.6691
 20
3.32283
 30
0.000000
  70
    32
  0
VERTEX
  8
AM_VIS
  5
503
 10
15.6676
 20
3.32158
 30
0.000000
  70
    32
  0
VERTEX
  8
AM_VIS
  5
504
 10
15.6661
 20
3.32033
 30
0.000000
  70
    32
  0
VERTEX
  8
AM_VIS
  5
505
 10
15.6646
 20
3.31909
 30
0.000000
  70
    32
  0
VERTEX
  8
AM_VIS
  5
506
 10
15.6631
 20
3.31786
 30
0.000000
  70
    32
  0
VERTEX
  8
AM_VIS
  5
507
 10
15.6616
 20
3.31664
 30
0.000000
  70
    32
  0
VERTEX
  8
AM_VIS
  5
508
 10
15.6600
 20
3.31542
 30
0.000000
  70
    32
  0
VERTEX
  8
AM_VIS
  5
509
 10
15.6585
 20
3.31421
 30
0.000000
  70
    32
  0
VERTEX
  8
AM_VIS
  5
50A
 10
15.6570
 20
3.31301
 30
0.000000
  70
    32
  0
VERTEX
  8
AM_VIS
  5
50B
 10
15.6554
 20
3.31182
 30
0.000000
  70
    32
  0
VERTEX
  8
AM_VIS
  5
50C
 10
15.6539
 20
3.31063
 30
0.000000
  70
    32
  0
VERTEX
  8
AM_VIS
  5
50D
 10
15.6523
 20
3.30945
 30
0.000000
  70
    32
  0
VERTEX
  8
AM_VIS
  5
50E
 10
15.6508
 20
3.30828
 30
0.000000
  70
    32
  0
VERTEX
  8
AM_VIS
  5
50F
 10
15.6492
 20
3.30712
 30
0.000000
  70
    32
  0
VERTEX
  8
AM_VIS
  5
510
 10
15.6476
 20
3.30596
 30
0.000000
  70
    32
  0
VERTEX
  8
AM_VIS
  5
511
 10
15.6461
 20
3.30481
 30
0.000000
  70
    32
  0
VERTEX
  8
AM_VIS
  5
512
 10
15.6445
 20
3.30367
 30
0.000000
  70
    32
  0
VERTEX
  8
AM_VIS
  5
513
 10
15.6429
 20
3.30254
 30
0.000000
  70
    32
  0
VERTEX
  8
AM_VIS
  5
514
 10
15.6413
 20
3.30141
 30
0.000000
  70
    32
  0
VERTEX
  8
AM_VIS
  5
515
 10
15.6397
 20
3.30029
 30
0.000000
  70
    32
  0
VERTEX
  8
AM_VIS
  5
516
 10
15.6381
 20
3.29918
 30
0.000000
  70
    32
  0
VERTEX
  8
AM_VIS
  5
517
 10
15.6364
 20
3.29808
 30
0.000000
  70
    32
  0
VERTEX
  8
AM_VIS
  5
518
 10
15.6348
 20
3.29698
 30
0.000000
  70
    32
  0
VERTEX
  8
AM_VIS
  5
519
 10
15.6332
 20
3.29590
 30
0.000000
  70
    32
  0
VERTEX
  8
AM_VIS
  5
51A
 10
15.6316
 20
3.29482
 30
0.000000
  70
    32
  0
VERTEX
  8
AM_VIS
  5
51B
 10
15.6299
 20
3.29375
 30
0.000000
  70
    32
  0
VERTEX
  8
AM_VIS
  5
51C
 10
15.6283
 20
3.29269
 30
0.000000
  70
    32
  0
VERTEX
  8
AM_VIS
  5
51D
 10
15.6266
 20
3.29163
 30
0.000000
  70
    32
  0
VERTEX
  8
AM_VIS
  5
51E
 10
15.6250
 20
3.29059
 30
0.000000
  70
    32
  0
VERTEX
  8
AM_VIS
  5
51F
 10
15.6233
 20
3.28955
 30
0.000000
  70
    32
  0
VERTEX
  8
AM_VIS
  5
520
 10
15.6217
 20
3.28852
 30
0.000000
  70
    32
  0
VERTEX
  8
AM_VIS
  5
521
 10
15.6200
 20
3.28750
 30
0.000000
  70
    32
  0
VERTEX
  8
AM_VIS
  5
522
 10
15.6183
 20
3.28649
 30
0.000000
  70
    32
  0
VERTEX
  8
AM_VIS
  5
523
 10
15.6167
 20
3.28549
 30
0.000000
  70
    32
  0
VERTEX
  8
AM_VIS
  5
524
 10
15.6150
 20
3.28449
 30
0.000000
  70
    32
  0
VERTEX
  8
AM_VIS
  5
525
 10
15.6133
 20
3.28350
 30
0.000000
  70
    32
  0
VERTEX
  8
AM_VIS
  5
526
 10
15.6116
 20
3.28252
 30
0.000000
  70
    32
  0
VERTEX
  8
AM_VIS
  5
527
 10
15.6099
 20
3.28155
 30
0.000000
  70
    32
  0
VERTEX
  8
AM_VIS
  5
528
 10
15.6082
 20
3.28059
 30
0.000000
  70
    32
  0
VERTEX
  8
AM_VIS
  5
529
 10
15.6066
 20
3.27964
 30
0.000000
  70
    32
  0
VERTEX
  8
AM_VIS
  5
52A
 10
15.6048
 20
3.27869
 30
0.000000
  70
    32
  0
VERTEX
  8
AM_VIS
  5
52B
 10
15.6031
 20
3.27775
 30
0.000000
  70
    32
  0
VERTEX
  8
AM_VIS
  5
52C
 10
15.6014
 20
3.27682
 30
0.000000
  70
    32
  0
VERTEX
  8
AM_VIS
  5
52D
 10
15.5997
 20
3.27590
 30
0.000000
  70
    32
  0
VERTEX
  8
AM_VIS
  5
52E
 10
15.5980
 20
3.27499
 30
0.000000
  70
    32
  0
VERTEX
  8
AM_VIS
  5
52F
 10
15.5963
 20
3.27408
 30
0.000000
  70
    32
  0
VERTEX
  8
AM_VIS
  5
530
 10
15.5946
 20
3.27318
 30
0.000000
  70
    32
  0
VERTEX
  8
AM_VIS
  5
531
 10
15.5928
 20
3.27229
 30
0.000000
  70
    32
  0
VERTEX
  8
AM_VIS
  5
532
 10
15.5911
 20
3.27141
 30
0.000000
  70
    32
  0
VERTEX
  8
AM_VIS
  5
533
 10
15.5893
 20
3.27054
 30
0.000000
  70
    32
  0
VERTEX
  8
AM_VIS
  5
534
 10
15.5876
 20
3.26968
 30
0.000000
  70
    32
  0
VERTEX
  8
AM_VIS
  5
535
 10
15.5859
 20
3.26882
 30
0.000000
  70
    32
  0
VERTEX
  8
AM_VIS
  5
536
 10
15.5841
 20
3.26797
 30
0.000000
  70
    32
  0
VERTEX
  8
AM_VIS
  5
537
 10
15.5824
 20
3.26713
 30
0.000000
  70
    32
  0
VERTEX
  8
AM_VIS
  5
538
 10
15.5806
 20
3.26630
 30
0.000000
  70
    32
  0
VERTEX
  8
AM_VIS
  5
539
 10
15.5788
 20
3.26547
 30
0.000000
  70
    32
  0
VERTEX
  8
AM_VIS
  5
53A
 10
15.5771
 20
3.26466
 30
0.000000
  70
    32
  0
VERTEX
  8
AM_VIS
  5
53B
 10
15.5753
 20
3.26385
 30
0.000000
  70
    32
  0
VERTEX
  8
AM_VIS
  5
53C
 10
15.5735
 20
3.26305
 30
0.000000
  70
    32
  0
VERTEX
  8
AM_VIS
  5
53D
 10
15.5718
 20
3.26226
 30
0.000000
  70
    32
  0
VERTEX
  8
AM_VIS
  5
53E
 10
15.5700
 20
3.26147
 30
0.000000
  70
    32
  0
VERTEX
  8
AM_VIS
  5
53F
 10
15.5682
 20
3.26070
 30
0.000000
  70
    32
  0
VERTEX
  8
AM_VIS
  5
540
 10
15.5664
 20
3.25993
 30
0.000000
  70
    32
  0
VERTEX
  8
AM_VIS
  5
541
 10
15.5646
 20
3.25917
 30
0.000000
  70
    32
  0
VERTEX
  8
AM_VIS
  5
542
 10
15.5628
 20
3.25842
 30
0.000000
  70
    32
  0
VERTEX
  8
AM_VIS
  5
543
 10
15.5611
 20
3.25767
 30
0.000000
  70
    32
  0
VERTEX
  8
AM_VIS
  5
544
 10
15.5593
 20
3.25694
 30
0.000000
  70
    32
  0
VERTEX
  8
AM_VIS
  5
545
 10
15.5575
 20
3.25621
 30
0.000000
  70
    32
  0
VERTEX
  8
AM_VIS
  5
546
 10
15.5557
 20
3.25549
 30
0.000000
  70
    32
  0
VERTEX
  8
AM_VIS
  5
547
 10
15.5538
 20
3.25478
 30
0.000000
  70
    32
  0
VERTEX
  8
AM_VIS
  5
548
 10
15.5520
 20
3.25407
 30
0.000000
  70
    32
  0
VERTEX
  8
AM_VIS
  5
549
 10
15.5502
 20
3.25338
 30
0.000000
  70
    32
  0
VERTEX
  8
AM_VIS
  5
54A
 10
15.5484
 20
3.25269
 30
0.000000
  70
    32
  0
VERTEX
  8
AM_VIS
  5
54B
 10
15.5466
 20
3.25201
 30
0.000000
  70
    32
  0
VERTEX
  8
AM_VIS
  5
54C
 10
15.5448
 20
3.25133
 30
0.000000
  70
    32
  0
VERTEX
  8
AM_VIS
  5
54D
 10
15.5429
 20
3.25067
 30
0.000000
  70
    32
  0
VERTEX
  8
AM_VIS
  5
54E
 10
15.5411
 20
3.25001
 30
0.000000
  70
    32
  0
VERTEX
  8
AM_VIS
  5
54F
 10
15.5393
 20
3.24936
 30
0.000000
  70
    32
  0
VERTEX
  8
AM_VIS
  5
550
 10
15.5375
 20
3.24872
 30
0.000000
  70
    32
  0
VERTEX
  8
AM_VIS
  5
551
 10
15.5356
 20
3.24809
 30
0.000000
  70
    32
  0
VERTEX
  8
AM_VIS
  5
552
 10
15.5338
 20
3.24747
 30
0.000000
  70
    32
  0
VERTEX
  8
AM_VIS
  5
553
 10
15.5319
 20
3.24685
 30
0.000000
  70
    32
  0
VERTEX
  8
AM_VIS
  5
554
 10
15.5301
 20
3.24624
 30
0.000000
  70
    32
  0
VERTEX
  8
AM_VIS
  5
555
 10
15.5283
 20
3.24564
 30
0.000000
  70
    32
  0
VERTEX
  8
AM_VIS
  5
556
 10
15.5264
 20
3.24504
 30
0.000000
  70
    32
  0
VERTEX
  8
AM_VIS
  5
557
 10
15.5246
 20
3.24446
 30
0.000000
  70
    32
  0
VERTEX
  8
AM_VIS
  5
558
 10
15.5227
 20
3.24388
 30
0.000000
  70
    32
  0
VERTEX
  8
AM_VIS
  5
559
 10
15.5209
 20
3.24331
 30
0.000000
  70
    32
  0
VERTEX
  8
AM_VIS
  5
55A
 10
15.5190
 20
3.24275
 30
0.000000
  70
    32
  0
VERTEX
  8
AM_VIS
  5
55B
 10
15.5171
 20
3.24219
 30
0.000000
  70
    32
  0
VERTEX
  8
AM_VIS
  5
55C
 10
15.5153
 20
3.24165
 30
0.000000
  70
    32
  0
VERTEX
  8
AM_VIS
  5
55D
 10
15.5134
 20
3.24111
 30
0.000000
  70
    32
  0
VERTEX
  8
AM_VIS
  5
55E
 10
15.5115
 20
3.24058
 30
0.000000
  70
    32
  0
VERTEX
  8
AM_VIS
  5
55F
 10
15.5097
 20
3.24006
 30
0.000000
  70
    32
  0
VERTEX
  8
AM_VIS
  5
560
 10
15.5078
 20
3.23954
 30
0.000000
  70
    32
  0
VERTEX
  8
AM_VIS
  5
561
 10
15.5059
 20
3.23903
 30
0.000000
  70
    32
  0
VERTEX
  8
AM_VIS
  5
562
 10
15.5041
 20
3.23853
 30
0.000000
  70
    32
  0
VERTEX
  8
AM_VIS
  5
563
 10
15.5022
 20
3.23804
 30
0.000000
  70
    32
  0
VERTEX
  8
AM_VIS
  5
564
 10
15.5003
 20
3.23756
 30
0.000000
  70
    32
  0
VERTEX
  8
AM_VIS
  5
565
 10
15.4984
 20
3.23708
 30
0.000000
  70
    32
  0
VERTEX
  8
AM_VIS
  5
566
 10
15.4965
 20
3.23661
 30
0.000000
  70
    32
  0
VERTEX
  8
AM_VIS
  5
567
 10
15.4947
 20
3.23615
 30
0.000000
  70
    32
  0
VERTEX
  8
AM_VIS
  5
568
 10
15.4928
 20
3.23570
 30
0.000000
  70
    32
  0
VERTEX
  8
AM_VIS
  5
569
 10
15.4909
 20
3.23525
 30
0.000000
  70
    32
  0
VERTEX
  8
AM_VIS
  5
56A
 10
15.4890
 20
3.23481
 30
0.000000
  70
    32
  0
VERTEX
  8
AM_VIS
  5
56B
 10
15.4871
 20
3.23438
 30
0.000000
  70
    32
  0
VERTEX
  8
AM_VIS
  5
56C
 10
15.4852
 20
3.23396
 30
0.000000
  70
    32
  0
VERTEX
  8
AM_VIS
  5
56D
 10
15.4833
 20
3.23354
 30
0.000000
  70
    32
  0
VERTEX
  8
AM_VIS
  5
56E
 10
15.4814
 20
3.23314
 30
0.000000
  70
    32
  0
VERTEX
  8
AM_VIS
  5
56F
 10
15.4795
 20
3.23274
 30
0.000000
  70
    32
  0
VERTEX
  8
AM_VIS
  5
570
 10
15.4776
 20
3.23234
 30
0.000000
  70
    32
  0
VERTEX
  8
AM_VIS
  5
571
 10
15.4757
 20
3.23196
 30
0.000000
  70
    32
  0
VERTEX
  8
AM_VIS
  5
572
 10
15.4738
 20
3.23158
 30
0.000000
  70
    32
  0
VERTEX
  8
AM_VIS
  5
573
 10
15.4719
 20
3.23121
 30
0.000000
  70
    32
  0
VERTEX
  8
AM_VIS
  5
574
 10
15.4700
 20
3.23085
 30
0.000000
  70
    32
  0
VERTEX
  8
AM_VIS
  5
575
 10
15.4681
 20
3.23050
 30
0.000000
  70
    32
  0
VERTEX
  8
AM_VIS
  5
576
 10
15.4662
 20
3.23015
 30
0.000000
  70
    32
  0
VERTEX
  8
AM_VIS
  5
577
 10
15.4643
 20
3.22981
 30
0.000000
  70
    32
  0
VERTEX
  8
AM_VIS
  5
578
 10
15.4624
 20
3.22948
 30
0.000000
  70
    32
  0
VERTEX
  8
AM_VIS
  5
579
 10
15.4605
 20
3.22916
 30
0.000000
  70
    32
  0
VERTEX
  8
AM_VIS
  5
57A
 10
15.4586
 20
3.22884
 30
0.000000
  70
    32
  0
VERTEX
  8
AM_VIS
  5
57B
 10
15.4566
 20
3.22853
 30
0.000000
  70
    32
  0
VERTEX
  8
AM_VIS
  5
57C
 10
15.4547
 20
3.22823
 30
0.000000
  70
    32
  0
VERTEX
  8
AM_VIS
  5
57D
 10
15.4528
 20
3.22794
 30
0.000000
  70
    32
  0
VERTEX
  8
AM_VIS
  5
57E
 10
15.4509
 20
3.22765
 30
0.000000
  70
    32
  0
VERTEX
  8
AM_VIS
  5
57F
 10
15.4490
 20
3.22737
 30
0.000000
  70
    32
  0
VERTEX
  8
AM_VIS
  5
580
 10
15.4470
 20
3.22710
 30
0.000000
  70
    32
  0
VERTEX
  8
AM_VIS
  5
581
 10
15.4451
 20
3.22684
 30
0.000000
  70
    32
  0
VERTEX
  8
AM_VIS
  5
582
 10
15.4432
 20
3.22658
 30
0.000000
  70
    32
  0
VERTEX
  8
AM_VIS
  5
583
 10
15.4413
 20
3.22633
 30
0.000000
  70
    32
  0
VERTEX
  8
AM_VIS
  5
584
 10
15.4393
 20
3.22609
 30
0.000000
  70
    32
  0
VERTEX
  8
AM_VIS
  5
585
 10
15.4374
 20
3.22585
 30
0.000000
  70
    32
  0
VERTEX
  8
AM_VIS
  5
586
 10
15.4355
 20
3.22563
 30
0.000000
  70
    32
  0
VERTEX
  8
AM_VIS
  5
587
 10
15.4336
 20
3.22541
 30
0.000000
  70
    32
  0
VERTEX
  8
AM_VIS
  5
588
 10
15.4316
 20
3.22520
 30
0.000000
  70
    32
  0
VERTEX
  8
AM_VIS
  5
589
 10
15.4297
 20
3.22499
 30
0.000000
  70
    32
  0
VERTEX
  8
AM_VIS
  5
58A
 10
15.4278
 20
3.22480
 30
0.000000
  70
    32
  0
VERTEX
  8
AM_VIS
  5
58B
 10
15.4258
 20
3.22461
 30
0.000000
  70
    32
  0
VERTEX
  8
AM_VIS
  5
58C
 10
15.4239
 20
3.22442
 30
0.000000
  70
    32
  0
VERTEX
  8
AM_VIS
  5
58D
 10
15.4220
 20
3.22425
 30
0.000000
  70
    32
  0
VERTEX
  8
AM_VIS
  5
58E
 10
15.4200
 20
3.22408
 30
0.000000
  70
    32
  0
VERTEX
  8
AM_VIS
  5
58F
 10
15.4181
 20
3.22392
 30
0.000000
  70
    32
  0
VERTEX
  8
AM_VIS
  5
590
 10
15.4162
 20
3.22377
 30
0.000000
  70
    32
  0
VERTEX
  8
AM_VIS
  5
591
 10
15.4142
 20
3.22363
 30
0.000000
  70
    32
  0
VERTEX
  8
AM_VIS
  5
592
 10
15.4123
 20
3.22349
 30
0.000000
  70
    32
  0
VERTEX
  8
AM_VIS
  5
593
 10
15.4104
 20
3.22336
 30
0.000000
  70
    32
  0
VERTEX
  8
AM_VIS
  5
594
 10
15.4084
 20
3.22323
 30
0.000000
  70
    32
  0
VERTEX
  8
AM_VIS
  5
595
 10
15.4065
 20
3.22312
 30
0.000000
  70
    32
  0
VERTEX
  8
AM_VIS
  5
596
 10
15.4045
 20
3.22301
 30
0.000000
  70
    32
  0
VERTEX
  8
AM_VIS
  5
597
 10
15.4026
 20
3.22291
 30
0.000000
  70
    32
  0
VERTEX
  8
AM_VIS
  5
598
 10
15.4007
 20
3.22282
 30
0.000000
  70
    32
  0
VERTEX
  8
AM_VIS
  5
599
 10
15.3987
 20
3.22273
 30
0.000000
  70
    32
  0
VERTEX
  8
AM_VIS
  5
59A
 10
15.3968
 20
3.22265
 30
0.000000
  70
    32
  0
VERTEX
  8
AM_VIS
  5
59B
 10
15.3948
 20
3.22258
 30
0.000000
  70
    32
  0
VERTEX
  8
AM_VIS
  5
59C
 10
15.3929
 20
3.22252
 30
0.000000
  70
    32
  0
VERTEX
  8
AM_VIS
  5
59D
 10
15.3909
 20
3.22246
 30
0.000000
  70
    32
  0
VERTEX
  8
AM_VIS
  5
59E
 10
15.3890
 20
3.22241
 30
0.000000
  70
    32
  0
VERTEX
  8
AM_VIS
  5
59F
 10
15.3870
 20
3.22237
 30
0.000000
  70
    32
  0
VERTEX
  8
AM_VIS
  5
5A0
 10
15.3851
 20
3.22233
 30
0.000000
  70
    32
  0
VERTEX
  8
AM_VIS
  5
5A1
 10
15.3832
 20
3.22230
 30
0.000000
  70
    32
  0
VERTEX
  8
AM_VIS
  5
5A2
 10
15.3812
 20
3.22228
 30
0.000000
  70
    32
  0
VERTEX
  8
AM_VIS
  5
5A3
 10
15.3793
 20
3.22227
 30
0.000000
  70
    32
  0
VERTEX
  8
AM_VIS
  5
5A4
 10
15.3773
 20
3.22226
 30
0.000000
  70
    32
  0
VERTEX
  8
AM_VIS
  5
5A5
 10
15.3754
 20
3.22226
 30
0.000000
  70
    32
  0
VERTEX
  8
AM_VIS
  5
5A6
 10
15.3734
 20
3.22227
 30
0.000000
  70
    32
  0
VERTEX
  8
AM_VIS
  5
5A7
 10
15.3715
 20
3.22229
 30
0.000000
  70
    32
  0
VERTEX
  8
AM_VIS
  5
5A8
 10
15.3695
 20
3.22231
 30
0.000000
  70
    32
  0
VERTEX
  8
AM_VIS
  5
5A9
 10
15.3676
 20
3.22234
 30
0.000000
  70
    32
  0
VERTEX
  8
AM_VIS
  5
5AA
 10
15.3656
 20
3.22238
 30
0.000000
  70
    32
  0
VERTEX
  8
AM_VIS
  5
5AB
 10
15.3637
 20
3.22242
 30
0.000000
  70
    32
  0
VERTEX
  8
AM_VIS
  5
5AC
 10
15.3617
 20
3.22247
 30
0.000000
  70
    32
  0
VERTEX
  8
AM_VIS
  5
5AD
 10
15.3598
 20
3.22253
 30
0.000000
  70
    32
  0
VERTEX
  8
AM_VIS
  5
5AE
 10
15.3579
 20
3.22260
 30
0.000000
  70
    32
  0
VERTEX
  8
AM_VIS
  5
5AF
 10
15.3559
 20
3.22267
 30
0.000000
  70
    32
  0
VERTEX
  8
AM_VIS
  5
5B0
 10
15.3540
 20
3.22275
 30
0.000000
  70
    32
  0
VERTEX
  8
AM_VIS
  5
5B1
 10
15.3520
 20
3.22284
 30
0.000000
  70
    32
  0
VERTEX
  8
AM_VIS
  5
5B2
 10
15.3501
 20
3.22293
 30
0.000000
  70
    32
  0
VERTEX
  8
AM_VIS
  5
5B3
 10
15.3481
 20
3.22303
 30
0.000000
  70
    32
  0
VERTEX
  8
AM_VIS
  5
5B4
 10
15.3462
 20
3.22314
 30
0.000000
  70
    32
  0
VERTEX
  8
AM_VIS
  5
5B5
 10
15.3442
 20
3.22326
 30
0.000000
  70
    32
  0
VERTEX
  8
AM_VIS
  5
5B6
 10
15.3423
 20
3.22338
 30
0.000000
  70
    32
  0
VERTEX
  8
AM_VIS
  5
5B7
 10
15.3403
 20
3.22351
 30
0.000000
  70
    32
  0
VERTEX
  8
AM_VIS
  5
5B8
 10
15.3384
 20
3.22365
 30
0.000000
  70
    32
  0
VERTEX
  8
AM_VIS
  5
5B9
 10
15.3364
 20
3.22379
 30
0.000000
  70
    32
  0
VERTEX
  8
AM_VIS
  5
5BA
 10
15.3345
 20
3.22395
 30
0.000000
  70
    32
  0
VERTEX
  8
AM_VIS
  5
5BB
 10
15.3326
 20
3.22410
 30
0.000000
  70
    32
  0
VERTEX
  8
AM_VIS
  5
5BC
 10
15.3306
 20
3.22427
 30
0.000000
  70
    32
  0
VERTEX
  8
AM_VIS
  5
5BD
 10
15.3287
 20
3.22444
 30
0.000000
  70
    32
  0
VERTEX
  8
AM_VIS
  5
5BE
 10
15.3267
 20
3.22462
 30
0.000000
  70
    32
  0
VERTEX
  8
AM_VIS
  5
5BF
 10
15.3248
 20
3.22481
 30
0.000000
  70
    32
  0
VERTEX
  8
AM_VIS
  5
5C0
 10
15.3228
 20
3.22500
 30
0.000000
  70
    32
  0
VERTEX
  8
AM_VIS
  5
5C1
 10
15.3209
 20
3.22520
 30
0.000000
  70
    32
  0
VERTEX
  8
AM_VIS
  5
5C2
 10
15.3190
 20
3.22541
 30
0.000000
  70
    32
  0
VERTEX
  8
AM_VIS
  5
5C3
 10
15.3170
 20
3.22563
 30
0.000000
  70
    32
  0
VERTEX
  8
AM_VIS
  5
5C4
 10
15.3151
 20
3.22585
 30
0.000000
  70
    32
  0
VERTEX
  8
AM_VIS
  5
5C5
 10
15.3131
 20
3.22608
 30
0.000000
  70
    32
  0
VERTEX
  8
AM_VIS
  5
5C6
 10
15.3112
 20
3.22631
 30
0.000000
  70
    32
  0
VERTEX
  8
AM_VIS
  5
5C7
 10
15.3093
 20
3.22656
 30
0.000000
  70
    32
  0
VERTEX
  8
AM_VIS
  5
5C8
 10
15.3073
 20
3.22681
 30
0.000000
  70
    32
  0
VERTEX
  8
AM_VIS
  5
5C9
 10
15.3054
 20
3.22706
 30
0.000000
  70
    32
  0
VERTEX
  8
AM_VIS
  5
5CA
 10
15.3034
 20
3.22733
 30
0.000000
  70
    32
  0
VERTEX
  8
AM_VIS
  5
5CB
 10
15.3015
 20
3.22760
 30
0.000000
  70
    32
  0
VERTEX
  8
AM_VIS
  5
5CC
 10
15.2996
 20
3.22788
 30
0.000000
  70
    32
  0
VERTEX
  8
AM_VIS
  5
5CD
 10
15.2976
 20
3.22816
 30
0.000000
  70
    32
  0
VERTEX
  8
AM_VIS
  5
5CE
 10
15.2957
 20
3.22845
 30
0.000000
  70
    32
  0
VERTEX
  8
AM_VIS
  5
5CF
 10
15.2938
 20
3.22875
 30
0.000000
  70
    32
  0
VERTEX
  8
AM_VIS
  5
5D0
 10
15.2919
 20
3.22906
 30
0.000000
  70
    32
  0
VERTEX
  8
AM_VIS
  5
5D1
 10
15.2899
 20
3.22937
 30
0.000000
  70
    32
  0
VERTEX
  8
AM_VIS
  5
5D2
 10
15.2880
 20
3.22969
 30
0.000000
  70
    32
  0
VERTEX
  8
AM_VIS
  5
5D3
 10
15.2861
 20
3.23002
 30
0.000000
  70
    32
  0
VERTEX
  8
AM_VIS
  5
5D4
 10
15.2841
 20
3.23035
 30
0.000000
  70
    32
  0
VERTEX
  8
AM_VIS
  5
5D5
 10
15.2822
 20
3.23069
 30
0.000000
  70
    32
  0
VERTEX
  8
AM_VIS
  5
5D6
 10
15.2803
 20
3.23104
 30
0.000000
  70
    32
  0
VERTEX
  8
AM_VIS
  5
5D7
 10
15.2784
 20
3.23139
 30
0.000000
  70
    32
  0
VERTEX
  8
AM_VIS
  5
5D8
 10
15.2764
 20
3.23175
 30
0.000000
  70
    32
  0
VERTEX
  8
AM_VIS
  5
5D9
 10
15.2745
 20
3.23212
 30
0.000000
  70
    32
  0
VERTEX
  8
AM_VIS
  5
5DA
 10
15.2726
 20
3.23250
 30
0.000000
  70
    32
  0
VERTEX
  8
AM_VIS
  5
5DB
 10
15.2707
 20
3.23288
 30
0.000000
  70
    32
  0
VERTEX
  8
AM_VIS
  5
5DC
 10
15.2688
 20
3.23327
 30
0.000000
  70
    32
  0
VERTEX
  8
AM_VIS
  5
5DD
 10
15.2668
 20
3.23366
 30
0.000000
  70
    32
  0
VERTEX
  8
AM_VIS
  5
5DE
 10
15.2649
 20
3.23406
 30
0.000000
  70
    32
  0
VERTEX
  8
AM_VIS
  5
5DF
 10
15.2630
 20
3.23447
 30
0.000000
  70
    32
  0
VERTEX
  8
AM_VIS
  5
5E0
 10
15.2611
 20
3.23489
 30
0.000000
  70
    32
  0
VERTEX
  8
AM_VIS
  5
5E1
 10
15.2592
 20
3.23531
 30
0.000000
  70
    32
  0
VERTEX
  8
AM_VIS
  5
5E2
 10
15.2573
 20
3.23574
 30
0.000000
  70
    32
  0
VERTEX
  8
AM_VIS
  5
5E3
 10
15.2554
 20
3.23618
 30
0.000000
  70
    32
  0
VERTEX
  8
AM_VIS
  5
5E4
 10
15.2535
 20
3.23662
 30
0.000000
  70
    32
  0
VERTEX
  8
AM_VIS
  5
5E5
 10
15.2516
 20
3.23707
 30
0.000000
  70
    32
  0
VERTEX
  8
AM_VIS
  5
5E6
 10
15.2497
 20
3.23753
 30
0.000000
  70
    32
  0
VERTEX
  8
AM_VIS
  5
5E7
 10
15.2477
 20
3.23799
 30
0.000000
  70
    32
  0
VERTEX
  8
AM_VIS
  5
5E8
 10
15.2458
 20
3.23846
 30
0.000000
  70
    32
  0
VERTEX
  8
AM_VIS
  5
5E9
 10
15.2439
 20
3.23894
 30
0.000000
  70
    32
  0
VERTEX
  8
AM_VIS
  5
5EA
 10
15.2420
 20
3.23942
 30
0.000000
  70
    32
  0
VERTEX
  8
AM_VIS
  5
5EB
 10
15.2401
 20
3.23991
 30
0.000000
  70
    32
  0
VERTEX
  8
AM_VIS
  5
5EC
 10
15.2382
 20
3.24041
 30
0.000000
  70
    32
  0
VERTEX
  8
AM_VIS
  5
5ED
 10
15.2364
 20
3.24092
 30
0.000000
  70
    32
  0
VERTEX
  8
AM_VIS
  5
5EE
 10
15.2345
 20
3.24143
 30
0.000000
  70
    32
  0
VERTEX
  8
AM_VIS
  5
5EF
 10
15.2326
 20
3.24195
 30
0.000000
  70
    32
  0
VERTEX
  8
AM_VIS
  5
5F0
 10
15.2307
 20
3.24247
 30
0.000000
  70
    32
  0
VERTEX
  8
AM_VIS
  5
5F1
 10
15.2288
 20
3.24300
 30
0.000000
  70
    32
  0
VERTEX
  8
AM_VIS
  5
5F2
 10
15.2269
 20
3.24354
 30
0.000000
  70
    32
  0
VERTEX
  8
AM_VIS
  5
5F3
 10
15.2250
 20
3.24408
 30
0.000000
  70
    32
  0
VERTEX
  8
AM_VIS
  5
5F4
 10
15.2231
 20
3.24464
 30
0.000000
  70
    32
  0
VERTEX
  8
AM_VIS
  5
5F5
 10
15.2213
 20
3.24519
 30
0.000000
  70
    32
  0
VERTEX
  8
AM_VIS
  5
5F6
 10
15.2194
 20
3.24576
 30
0.000000
  70
    32
  0
VERTEX
  8
AM_VIS
  5
5F7
 10
15.2175
 20
3.24633
 30
0.000000
  70
    32
  0
VERTEX
  8
AM_VIS
  5
5F8
 10
15.2156
 20
3.24691
 30
0.000000
  70
    32
  0
VERTEX
  8
AM_VIS
  5
5F9
 10
15.2137
 20
3.24750
 30
0.000000
  70
    32
  0
VERTEX
  8
AM_VIS
  5
5FA
 10
15.2119
 20
3.24809
 30
0.000000
  70
    32
  0
VERTEX
  8
AM_VIS
  5
5FB
 10
15.2100
 20
3.24869
 30
0.000000
  70
    32
  0
VERTEX
  8
AM_VIS
  5
5FC
 10
15.2081
 20
3.24929
 30
0.000000
  70
    32
  0
VERTEX
  8
AM_VIS
  5
5FD
 10
15.2063
 20
3.24990
 30
0.000000
  70
    32
  0
VERTEX
  8
AM_VIS
  5
5FE
 10
15.2044
 20
3.25052
 30
0.000000
  70
    32
  0
VERTEX
  8
AM_VIS
  5
5FF
 10
15.2025
 20
3.25115
 30
0.000000
  70
    32
  0
VERTEX
  8
AM_VIS
  5
600
 10
15.2007
 20
3.25178
 30
0.000000
  70
    32
  0
VERTEX
  8
AM_VIS
  5
601
 10
15.1988
 20
3.25242
 30
0.000000
  70
    32
  0
VERTEX
  8
AM_VIS
  5
602
 10
15.1970
 20
3.25306
 30
0.000000
  70
    32
  0
VERTEX
  8
AM_VIS
  5
603
 10
15.1951
 20
3.25372
 30
0.000000
  70
    32
  0
VERTEX
  8
AM_VIS
  5
604
 10
15.1932
 20
3.25437
 30
0.000000
  70
    32
  0
VERTEX
  8
AM_VIS
  5
605
 10
15.1914
 20
3.25504
 30
0.000000
  70
    32
  0
VERTEX
  8
AM_VIS
  5
606
 10
15.1895
 20
3.25571
 30
0.000000
  70
    32
  0
VERTEX
  8
AM_VIS
  5
607
 10
15.1877
 20
3.25639
 30
0.000000
  70
    32
  0
VERTEX
  8
AM_VIS
  5
608
 10
15.1858
 20
3.25708
 30
0.000000
  70
    32
  0
VERTEX
  8
AM_VIS
  5
609
 10
15.1840
 20
3.25777
 30
0.000000
  70
    32
  0
VERTEX
  8
AM_VIS
  5
60A
 10
15.1822
 20
3.25847
 30
0.000000
  70
    32
  0
VERTEX
  8
AM_VIS
  5
60B
 10
15.1803
 20
3.25917
 30
0.000000
  70
    32
  0
VERTEX
  8
AM_VIS
  5
60C
 10
15.1785
 20
3.25988
 30
0.000000
  70
    32
  0
VERTEX
  8
AM_VIS
  5
60D
 10
15.1766
 20
3.26060
 30
0.000000
  70
    32
  0
VERTEX
  8
AM_VIS
  5
60E
 10
15.1748
 20
3.26133
 30
0.000000
  70
    32
  0
VERTEX
  8
AM_VIS
  5
60F
 10
15.1730
 20
3.26206
 30
0.000000
  70
    32
  0
VERTEX
  8
AM_VIS
  5
610
 10
15.1712
 20
3.26280
 30
0.000000
  70
    32
  0
VERTEX
  8
AM_VIS
  5
611
 10
15.1693
 20
3.26354
 30
0.000000
  70
    32
  0
VERTEX
  8
AM_VIS
  5
612
 10
15.1675
 20
3.26429
 30
0.000000
  70
    32
  0
VERTEX
  8
AM_VIS
  5
613
 10
15.1657
 20
3.26505
 30
0.000000
  70
    32
  0
VERTEX
  8
AM_VIS
  5
614
 10
15.1639
 20
3.26582
 30
0.000000
  70
    32
  0
VERTEX
  8
AM_VIS
  5
615
 10
15.1620
 20
3.26659
 30
0.000000
  70
    32
  0
VERTEX
  8
AM_VIS
  5
616
 10
15.1602
 20
3.26736
 30
0.000000
  70
    32
  0
VERTEX
  8
AM_VIS
  5
617
 10
15.1584
 20
3.26815
 30
0.000000
  70
    32
  0
VERTEX
  8
AM_VIS
  5
618
 10
15.1566
 20
3.26894
 30
0.000000
  70
    32
  0
VERTEX
  8
AM_VIS
  5
619
 10
15.1548
 20
3.26973
 30
0.000000
  70
    32
  0
VERTEX
  8
AM_VIS
  5
61A
 10
15.1530
 20
3.27054
 30
0.000000
  70
    32
  0
VERTEX
  8
AM_VIS
  5
61B
 10
15.1512
 20
3.27134
 30
0.000000
  70
    32
  0
VERTEX
  8
AM_VIS
  5
61C
 10
15.1494
 20
3.27216
 30
0.000000
  70
    32
  0
VERTEX
  8
AM_VIS
  5
61D
 10
15.1476
 20
3.27298
 30
0.000000
  70
    32
  0
VERTEX
  8
AM_VIS
  5
61E
 10
15.1458
 20
3.27381
 30
0.000000
  70
    32
  0
VERTEX
  8
AM_VIS
  5
61F
 10
15.1440
 20
3.27464
 30
0.000000
  70
    32
  0
VERTEX
  8
AM_VIS
  5
620
 10
15.1423
 20
3.27548
 30
0.000000
  70
    32
  0
VERTEX
  8
AM_VIS
  5
621
 10
15.1405
 20
3.27633
 30
0.000000
  70
    32
  0
VERTEX
  8
AM_VIS
  5
622
 10
15.1387
 20
3.27718
 30
0.000000
  70
    32
  0
VERTEX
  8
AM_VIS
  5
623
 10
15.1369
 20
3.27804
 30
0.000000
  70
    32
  0
VERTEX
  8
AM_VIS
  5
624
 10
15.1351
 20
3.27891
 30
0.000000
  70
    32
  0
VERTEX
  8
AM_VIS
  5
625
 10
15.1334
 20
3.27978
 30
0.000000
  70
    32
  0
VERTEX
  8
AM_VIS
  5
626
 10
15.1316
 20
3.28066
 30
0.000000
  70
    32
  0
VERTEX
  8
AM_VIS
  5
627
 10
15.1298
 20
3.28154
 30
0.000000
  70
    32
  0
VERTEX
  8
AM_VIS
  5
628
 10
15.1281
 20
3.28243
 30
0.000000
  70
    32
  0
VERTEX
  8
AM_VIS
  5
629
 10
15.1263
 20
3.28333
 30
0.000000
  70
    32
  0
VERTEX
  8
AM_VIS
  5
62A
 10
15.1246
 20
3.28423
 30
0.000000
  70
    32
  0
VERTEX
  8
AM_VIS
  5
62B
 10
15.1228
 20
3.28514
 30
0.000000
  70
    32
  0
VERTEX
  8
AM_VIS
  5
62C
 10
15.1211
 20
3.28605
 30
0.000000
  70
    32
  0
VERTEX
  8
AM_VIS
  5
62D
 10
15.1193
 20
3.28697
 30
0.000000
  70
    32
  0
VERTEX
  8
AM_VIS
  5
62E
 10
15.1176
 20
3.28790
 30
0.000000
  70
    32
  0
VERTEX
  8
AM_VIS
  5
62F
 10
15.1159
 20
3.28883
 30
0.000000
  70
    32
  0
VERTEX
  8
AM_VIS
  5
630
 10
15.1141
 20
3.28977
 30
0.000000
  70
    32
  0
VERTEX
  8
AM_VIS
  5
631
 10
15.1124
 20
3.29072
 30
0.000000
  70
    32
  0
VERTEX
  8
AM_VIS
  5
632
 10
15.1107
 20
3.29167
 30
0.000000
  70
    32
  0
VERTEX
  8
AM_VIS
  5
633
 10
15.1089
 20
3.29263
 30
0.000000
  70
    32
  0
VERTEX
  8
AM_VIS
  5
634
 10
15.1072
 20
3.29360
 30
0.000000
  70
    32
  0
VERTEX
  8
AM_VIS
  5
635
 10
15.1055
 20
3.29457
 30
0.000000
  70
    32
  0
VERTEX
  8
AM_VIS
  5
636
 10
15.1038
 20
3.29554
 30
0.000000
  70
    32
  0
VERTEX
  8
AM_VIS
  5
637
 10
15.1021
 20
3.29653
 30
0.000000
  70
    32
  0
VERTEX
  8
AM_VIS
  5
638
 10
15.1004
 20
3.29751
 30
0.000000
  70
    32
  0
VERTEX
  8
AM_VIS
  5
639
 10
15.0986
 20
3.29851
 30
0.000000
  70
    32
  0
VERTEX
  8
AM_VIS
  5
63A
 10
15.0969
 20
3.29951
 30
0.000000
  70
    32
  0
VERTEX
  8
AM_VIS
  5
63B
 10
15.0952
 20
3.30052
 30
0.000000
  70
    32
  0
VERTEX
  8
AM_VIS
  5
63C
 10
15.0935
 20
3.30153
 30
0.000000
  70
    32
  0
VERTEX
  8
AM_VIS
  5
63D
 10
15.0919
 20
3.30255
 30
0.000000
  70
    32
  0
VERTEX
  8
AM_VIS
  5
63E
 10
15.0902
 20
3.30358
 30
0.000000
  70
    32
  0
VERTEX
  8
AM_VIS
  5
63F
 10
15.0885
 20
3.30461
 30
0.000000
  70
    32
  0
VERTEX
  8
AM_VIS
  5
640
 10
15.0868
 20
3.30564
 30
0.000000
  70
    32
  0
VERTEX
  8
AM_VIS
  5
641
 10
15.0851
 20
3.30669
 30
0.000000
  70
    32
  0
VERTEX
  8
AM_VIS
  5
642
 10
15.0834
 20
3.30774
 30
0.000000
  70
    32
  0
VERTEX
  8
AM_VIS
  5
643
 10
15.0818
 20
3.30879
 30
0.000000
  70
    32
  0
VERTEX
  8
AM_VIS
  5
644
 10
15.0801
 20
3.30986
 30
0.000000
  70
    32
  0
VERTEX
  8
AM_VIS
  5
645
 10
15.0784
 20
3.31092
 30
0.000000
  70
    32
  0
VERTEX
  8
AM_VIS
  5
646
 10
15.0768
 20
3.31200
 30
0.000000
  70
    32
  0
VERTEX
  8
AM_VIS
  5
647
 10
15.0751
 20
3.31308
 30
0.000000
  70
    32
  0
VERTEX
  8
AM_VIS
  5
648
 10
15.0735
 20
3.31416
 30
0.000000
  70
    32
  0
VERTEX
  8
AM_VIS
  5
649
 10
15.0718
 20
3.31525
 30
0.000000
  70
    32
  0
VERTEX
  8
AM_VIS
  5
64A
 10
15.0702
 20
3.31635
 30
0.000000
  70
    32
  0
VERTEX
  8
AM_VIS
  5
64B
 10
15.0685
 20
3.31746
 30
0.000000
  70
    32
  0
VERTEX
  8
AM_VIS
  5
64C
 10
15.0669
 20
3.31857
 30
0.000000
  70
    32
  0
VERTEX
  8
AM_VIS
  5
64D
 10
15.0653
 20
3.31968
 30
0.000000
  70
    32
  0
VERTEX
  8
AM_VIS
  5
64E
 10
15.0636
 20
3.32080
 30
0.000000
  70
    32
  0
VERTEX
  8
AM_VIS
  5
64F
 10
15.0620
 20
3.32193
 30
0.000000
  70
    32
  0
VERTEX
  8
AM_VIS
  5
650
 10
15.0604
 20
3.32306
 30
0.000000
  70
    32
  0
SEQEND
  8
AM_VIS
  5
651
  0
ARC
  5
3B
  8
AM_VIS
 10
15.324908754307531
 20
3.6935293901397941
 30
0.0
 40
0.4103297329045516
 50
284.29431560951792
 51
323.37178989421972
  0
ARC
  5
3C
  8
AM_VIS
 10
15.31477616395251
 20
3.6863976833384311
 30
0.0
 40
0.4062500000000001
 50
4.0723075591804063
 51
105.9276924408195
  0
ARC
  5
3D
  8
AM_VIS
 10
15.318012226201869
 20
3.6983583911068441
 30
0.0
 40
0.410329732904546
 50
146.62821010577991
 51
185.70568439048211
  0
ARC
  5
3E
  8
AM_VIS
 10
15.314776163952519
 20
3.6863976833384351
 30
0.0
 40
0.4062500000000001
 50
184.07230755918059
 51
285.92769244081938
  0
POLYLINE
  8
AM_VIS
  5
652
  66
     1
 10
0.000000
 20
0.000000
 30
0.000000
  70
     8
  0
VERTEX
  8
AM_VIS
  5
653
 10
15.0604
 20
3.32306
 30
0.000000
  70
    32
  0
VERTEX
  8
AM_VIS
  5
654
 10
15.0587
 20
3.32420
 30
0.000000
  70
    32
  0
VERTEX
  8
AM_VIS
  5
655
 10
15.0571
 20
3.32535
 30
0.000000
  70
    32
  0
VERTEX
  8
AM_VIS
  5
656
 10
15.0555
 20
3.32650
 30
0.000000
  70
    32
  0
VERTEX
  8
AM_VIS
  5
657
 10
15.0539
 20
3.32765
 30
0.000000
  70
    32
  0
VERTEX
  8
AM_VIS
  5
658
 10
15.0523
 20
3.32881
 30
0.000000
  70
    32
  0
VERTEX
  8
AM_VIS
  5
659
 10
15.0507
 20
3.32998
 30
0.000000
  70
    32
  0
VERTEX
  8
AM_VIS
  5
65A
 10
15.0491
 20
3.33115
 30
0.000000
  70
    32
  0
VERTEX
  8
AM_VIS
  5
65B
 10
15.0475
 20
3.33233
 30
0.000000
  70
    32
  0
VERTEX
  8
AM_VIS
  5
65C
 10
15.0459
 20
3.33351
 30
0.000000
  70
    32
  0
VERTEX
  8
AM_VIS
  5
65D
 10
15.0444
 20
3.33470
 30
0.000000
  70
    32
  0
VERTEX
  8
AM_VIS
  5
65E
 10
15.0428
 20
3.33589
 30
0.000000
  70
    32
  0
VERTEX
  8
AM_VIS
  5
65F
 10
15.0412
 20
3.33709
 30
0.000000
  70
    32
  0
VERTEX
  8
AM_VIS
  5
660
 10
15.0396
 20
3.33830
 30
0.000000
  70
    32
  0
VERTEX
  8
AM_VIS
  5
661
 10
15.0381
 20
3.33951
 30
0.000000
  70
    32
  0
VERTEX
  8
AM_VIS
  5
662
 10
15.0365
 20
3.34072
 30
0.000000
  70
    32
  0
VERTEX
  8
AM_VIS
  5
663
 10
15.0350
 20
3.34194
 30
0.000000
  70
    32
  0
VERTEX
  8
AM_VIS
  5
664
 10
15.0334
 20
3.34316
 30
0.000000
  70
    32
  0
VERTEX
  8
AM_VIS
  5
665
 10
15.0319
 20
3.34439
 30
0.000000
  70
    32
  0
VERTEX
  8
AM_VIS
  5
666
 10
15.0303
 20
3.34563
 30
0.000000
  70
    32
  0
VERTEX
  8
AM_VIS
  5
667
 10
15.0288
 20
3.34687
 30
0.000000
  70
    32
  0
VERTEX
  8
AM_VIS
  5
668
 10
15.0273
 20
3.34812
 30
0.000000
  70
    32
  0
VERTEX
  8
AM_VIS
  5
669
 10
15.0257
 20
3.34937
 30
0.000000
  70
    32
  0
VERTEX
  8
AM_VIS
  5
66A
 10
15.0242
 20
3.35063
 30
0.000000
  70
    32
  0
VERTEX
  8
AM_VIS
  5
66B
 10
15.0227
 20
3.35189
 30
0.000000
  70
    32
  0
VERTEX
  8
AM_VIS
  5
66C
 10
15.0212
 20
3.35315
 30
0.000000
  70
    32
  0
VERTEX
  8
AM_VIS
  5
66D
 10
15.0197
 20
3.35443
 30
0.000000
  70
    32
  0
VERTEX
  8
AM_VIS
  5
66E
 10
15.0182
 20
3.35570
 30
0.000000
  70
    32
  0
VERTEX
  8
AM_VIS
  5
66F
 10
15.0167
 20
3.35699
 30
0.000000
  70
    32
  0
VERTEX
  8
AM_VIS
  5
670
 10
15.0152
 20
3.35827
 30
0.000000
  70
    32
  0
VERTEX
  8
AM_VIS
  5
671
 10
15.0137
 20
3.35957
 30
0.000000
  70
    32
  0
VERTEX
  8
AM_VIS
  5
672
 10
15.0122
 20
3.36086
 30
0.000000
  70
    32
  0
VERTEX
  8
AM_VIS
  5
673
 10
15.0107
 20
3.36217
 30
0.000000
  70
    32
  0
VERTEX
  8
AM_VIS
  5
674
 10
15.0092
 20
3.36347
 30
0.000000
  70
    32
  0
VERTEX
  8
AM_VIS
  5
675
 10
15.0078
 20
3.36479
 30
0.000000
  70
    32
  0
VERTEX
  8
AM_VIS
  5
676
 10
15.0063
 20
3.36611
 30
0.000000
  70
    32
  0
VERTEX
  8
AM_VIS
  5
677
 10
15.0048
 20
3.36743
 30
0.000000
  70
    32
  0
VERTEX
  8
AM_VIS
  5
678
 10
15.0034
 20
3.36876
 30
0.000000
  70
    32
  0
VERTEX
  8
AM_VIS
  5
679
 10
15.0019
 20
3.37009
 30
0.000000
  70
    32
  0
VERTEX
  8
AM_VIS
  5
67A
 10
15.0005
 20
3.37143
 30
0.000000
  70
    32
  0
VERTEX
  8
AM_VIS
  5
67B
 10
14.9991
 20
3.37277
 30
0.000000
  70
    32
  0
VERTEX
  8
AM_VIS
  5
67C
 10
14.9976
 20
3.37412
 30
0.000000
  70
    32
  0
VERTEX
  8
AM_VIS
  5
67D
 10
14.9962
 20
3.37547
 30
0.000000
  70
    32
  0
VERTEX
  8
AM_VIS
  5
67E
 10
14.9948
 20
3.37683
 30
0.000000
  70
    32
  0
VERTEX
  8
AM_VIS
  5
67F
 10
14.9933
 20
3.37820
 30
0.000000
  70
    32
  0
VERTEX
  8
AM_VIS
  5
680
 10
14.9919
 20
3.37956
 30
0.000000
  70
    32
  0
VERTEX
  8
AM_VIS
  5
681
 10
14.9905
 20
3.38094
 30
0.000000
  70
    32
  0
VERTEX
  8
AM_VIS
  5
682
 10
14.9891
 20
3.38231
 30
0.000000
  70
    32
  0
VERTEX
  8
AM_VIS
  5
683
 10
14.9877
 20
3.38370
 30
0.000000
  70
    32
  0
VERTEX
  8
AM_VIS
  5
684
 10
14.9863
 20
3.38509
 30
0.000000
  70
    32
  0
VERTEX
  8
AM_VIS
  5
685
 10
14.9849
 20
3.38648
 30
0.000000
  70
    32
  0
VERTEX
  8
AM_VIS
  5
686
 10
14.9835
 20
3.38788
 30
0.000000
  70
    32
  0
VERTEX
  8
AM_VIS
  5
687
 10
14.9821
 20
3.38928
 30
0.000000
  70
    32
  0
VERTEX
  8
AM_VIS
  5
688
 10
14.9807
 20
3.39069
 30
0.000000
  70
    32
  0
VERTEX
  8
AM_VIS
  5
689
 10
14.9794
 20
3.39210
 30
0.000000
  70
    32
  0
VERTEX
  8
AM_VIS
  5
68A
 10
14.9780
 20
3.39352
 30
0.000000
  70
    32
  0
VERTEX
  8
AM_VIS
  5
68B
 10
14.9766
 20
3.39494
 30
0.000000
  70
    32
  0
VERTEX
  8
AM_VIS
  5
68C
 10
14.9753
 20
3.39636
 30
0.000000
  70
    32
  0
VERTEX
  8
AM_VIS
  5
68D
 10
14.9739
 20
3.39780
 30
0.000000
  70
    32
  0
VERTEX
  8
AM_VIS
  5
68E
 10
14.9726
 20
3.39923
 30
0.000000
  70
    32
  0
VERTEX
  8
AM_VIS
  5
68F
 10
14.9712
 20
3.40067
 30
0.000000
  70
    32
  0
VERTEX
  8
AM_VIS
  5
690
 10
14.9699
 20
3.40212
 30
0.000000
  70
    32
  0
VERTEX
  8
AM_VIS
  5
691
 10
14.9686
 20
3.40357
 30
0.000000
  70
    32
  0
VERTEX
  8
AM_VIS
  5
692
 10
14.9672
 20
3.40502
 30
0.000000
  70
    32
  0
VERTEX
  8
AM_VIS
  5
693
 10
14.9659
 20
3.40648
 30
0.000000
  70
    32
  0
VERTEX
  8
AM_VIS
  5
694
 10
14.9646
 20
3.40795
 30
0.000000
  70
    32
  0
VERTEX
  8
AM_VIS
  5
695
 10
14.9633
 20
3.40942
 30
0.000000
  70
    32
  0
VERTEX
  8
AM_VIS
  5
696
 10
14.9620
 20
3.41089
 30
0.000000
  70
    32
  0
VERTEX
  8
AM_VIS
  5
697
 10
14.9607
 20
3.41237
 30
0.000000
  70
    32
  0
VERTEX
  8
AM_VIS
  5
698
 10
14.9594
 20
3.41386
 30
0.000000
  70
    32
  0
VERTEX
  8
AM_VIS
  5
699
 10
14.9581
 20
3.41534
 30
0.000000
  70
    32
  0
VERTEX
  8
AM_VIS
  5
69A
 10
14.9568
 20
3.41683
 30
0.000000
  70
    32
  0
VERTEX
  8
AM_VIS
  5
69B
 10
14.9555
 20
3.41833
 30
0.000000
  70
    32
  0
VERTEX
  8
AM_VIS
  5
69C
 10
14.9542
 20
3.41983
 30
0.000000
  70
    32
  0
VERTEX
  8
AM_VIS
  5
69D
 10
14.9530
 20
3.42134
 30
0.000000
  70
    32
  0
VERTEX
  8
AM_VIS
  5
69E
 10
14.9517
 20
3.42284
 30
0.000000
  70
    32
  0
VERTEX
  8
AM_VIS
  5
69F
 10
14.9504
 20
3.42436
 30
0.000000
  70
    32
  0
VERTEX
  8
AM_VIS
  5
6A0
 10
14.9492
 20
3.42587
 30
0.000000
  70
    32
  0
VERTEX
  8
AM_VIS
  5
6A1
 10
14.9479
 20
3.42739
 30
0.000000
  70
    32
  0
VERTEX
  8
AM_VIS
  5
6A2
 10
14.9467
 20
3.42892
 30
0.000000
  70
    32
  0
VERTEX
  8
AM_VIS
  5
6A3
 10
14.9455
 20
3.43045
 30
0.000000
  70
    32
  0
VERTEX
  8
AM_VIS
  5
6A4
 10
14.9442
 20
3.43198
 30
0.000000
  70
    32
  0
VERTEX
  8
AM_VIS
  5
6A5
 10
14.9430
 20
3.43352
 30
0.000000
  70
    32
  0
VERTEX
  8
AM_VIS
  5
6A6
 10
14.9418
 20
3.43506
 30
0.000000
  70
    32
  0
VERTEX
  8
AM_VIS
  5
6A7
 10
14.9406
 20
3.43661
 30
0.000000
  70
    32
  0
VERTEX
  8
AM_VIS
  5
6A8
 10
14.9394
 20
3.43816
 30
0.000000
  70
    32
  0
VERTEX
  8
AM_VIS
  5
6A9
 10
14.9382
 20
3.43971
 30
0.000000
  70
    32
  0
VERTEX
  8
AM_VIS
  5
6AA
 10
14.9370
 20
3.44127
 30
0.000000
  70
    32
  0
VERTEX
  8
AM_VIS
  5
6AB
 10
14.9358
 20
3.44283
 30
0.000000
  70
    32
  0
VERTEX
  8
AM_VIS
  5
6AC
 10
14.9346
 20
3.44439
 30
0.000000
  70
    32
  0
VERTEX
  8
AM_VIS
  5
6AD
 10
14.9334
 20
3.44596
 30
0.000000
  70
    32
  0
VERTEX
  8
AM_VIS
  5
6AE
 10
14.9322
 20
3.44754
 30
0.000000
  70
    32
  0
VERTEX
  8
AM_VIS
  5
6AF
 10
14.9311
 20
3.44911
 30
0.000000
  70
    32
  0
VERTEX
  8
AM_VIS
  5
6B0
 10
14.9299
 20
3.45069
 30
0.000000
  70
    32
  0
VERTEX
  8
AM_VIS
  5
6B1
 10
14.9287
 20
3.45228
 30
0.000000
  70
    32
  0
VERTEX
  8
AM_VIS
  5
6B2
 10
14.9276
 20
3.45387
 30
0.000000
  70
    32
  0
VERTEX
  8
AM_VIS
  5
6B3
 10
14.9264
 20
3.45546
 30
0.000000
  70
    32
  0
VERTEX
  8
AM_VIS
  5
6B4
 10
14.9253
 20
3.45706
 30
0.000000
  70
    32
  0
VERTEX
  8
AM_VIS
  5
6B5
 10
14.9242
 20
3.45866
 30
0.000000
  70
    32
  0
VERTEX
  8
AM_VIS
  5
6B6
 10
14.9230
 20
3.46026
 30
0.000000
  70
    32
  0
VERTEX
  8
AM_VIS
  5
6B7
 10
14.9219
 20
3.46187
 30
0.000000
  70
    32
  0
VERTEX
  8
AM_VIS
  5
6B8
 10
14.9208
 20
3.46348
 30
0.000000
  70
    32
  0
VERTEX
  8
AM_VIS
  5
6B9
 10
14.9197
 20
3.46509
 30
0.000000
  70
    32
  0
VERTEX
  8
AM_VIS
  5
6BA
 10
14.9186
 20
3.46671
 30
0.000000
  70
    32
  0
VERTEX
  8
AM_VIS
  5
6BB
 10
14.9175
 20
3.46833
 30
0.000000
  70
    32
  0
VERTEX
  8
AM_VIS
  5
6BC
 10
14.9164
 20
3.46996
 30
0.000000
  70
    32
  0
VERTEX
  8
AM_VIS
  5
6BD
 10
14.9153
 20
3.47159
 30
0.000000
  70
    32
  0
VERTEX
  8
AM_VIS
  5
6BE
 10
14.9142
 20
3.47322
 30
0.000000
  70
    32
  0
VERTEX
  8
AM_VIS
  5
6BF
 10
14.9132
 20
3.47486
 30
0.000000
  70
    32
  0
VERTEX
  8
AM_VIS
  5
6C0
 10
14.9121
 20
3.47650
 30
0.000000
  70
    32
  0
VERTEX
  8
AM_VIS
  5
6C1
 10
14.9110
 20
3.47814
 30
0.000000
  70
    32
  0
VERTEX
  8
AM_VIS
  5
6C2
 10
14.9100
 20
3.47979
 30
0.000000
  70
    32
  0
VERTEX
  8
AM_VIS
  5
6C3
 10
14.9089
 20
3.48144
 30
0.000000
  70
    32
  0
VERTEX
  8
AM_VIS
  5
6C4
 10
14.9079
 20
3.48309
 30
0.000000
  70
    32
  0
VERTEX
  8
AM_VIS
  5
6C5
 10
14.9068
 20
3.48475
 30
0.000000
  70
    32
  0
VERTEX
  8
AM_VIS
  5
6C6
 10
14.9058
 20
3.48641
 30
0.000000
  70
    32
  0
VERTEX
  8
AM_VIS
  5
6C7
 10
14.9048
 20
3.48808
 30
0.000000
  70
    32
  0
VERTEX
  8
AM_VIS
  5
6C8
 10
14.9037
 20
3.48975
 30
0.000000
  70
    32
  0
VERTEX
  8
AM_VIS
  5
6C9
 10
14.9027
 20
3.49142
 30
0.000000
  70
    32
  0
VERTEX
  8
AM_VIS
  5
6CA
 10
14.9017
 20
3.49309
 30
0.000000
  70
    32
  0
VERTEX
  8
AM_VIS
  5
6CB
 10
14.9007
 20
3.49477
 30
0.000000
  70
    32
  0
VERTEX
  8
AM_VIS
  5
6CC
 10
14.8997
 20
3.49645
 30
0.000000
  70
    32
  0
VERTEX
  8
AM_VIS
  5
6CD
 10
14.8987
 20
3.49814
 30
0.000000
  70
    32
  0
VERTEX
  8
AM_VIS
  5
6CE
 10
14.8978
 20
3.49982
 30
0.000000
  70
    32
  0
VERTEX
  8
AM_VIS
  5
6CF
 10
14.8968
 20
3.50152
 30
0.000000
  70
    32
  0
VERTEX
  8
AM_VIS
  5
6D0
 10
14.8958
 20
3.50321
 30
0.000000
  70
    32
  0
VERTEX
  8
AM_VIS
  5
6D1
 10
14.8948
 20
3.50491
 30
0.000000
  70
    32
  0
VERTEX
  8
AM_VIS
  5
6D2
 10
14.8939
 20
3.50661
 30
0.000000
  70
    32
  0
VERTEX
  8
AM_VIS
  5
6D3
 10
14.8929
 20
3.50831
 30
0.000000
  70
    32
  0
VERTEX
  8
AM_VIS
  5
6D4
 10
14.8920
 20
3.51002
 30
0.000000
  70
    32
  0
VERTEX
  8
AM_VIS
  5
6D5
 10
14.8910
 20
3.51173
 30
0.000000
  70
    32
  0
VERTEX
  8
AM_VIS
  5
6D6
 10
14.8901
 20
3.51345
 30
0.000000
  70
    32
  0
VERTEX
  8
AM_VIS
  5
6D7
 10
14.8892
 20
3.51516
 30
0.000000
  70
    32
  0
VERTEX
  8
AM_VIS
  5
6D8
 10
14.8883
 20
3.51688
 30
0.000000
  70
    32
  0
VERTEX
  8
AM_VIS
  5
6D9
 10
14.8873
 20
3.51861
 30
0.000000
  70
    32
  0
VERTEX
  8
AM_VIS
  5
6DA
 10
14.8864
 20
3.52033
 30
0.000000
  70
    32
  0
VERTEX
  8
AM_VIS
  5
6DB
 10
14.8855
 20
3.52206
 30
0.000000
  70
    32
  0
VERTEX
  8
AM_VIS
  5
6DC
 10
14.8846
 20
3.52379
 30
0.000000
  70
    32
  0
VERTEX
  8
AM_VIS
  5
6DD
 10
14.8837
 20
3.52553
 30
0.000000
  70
    32
  0
VERTEX
  8
AM_VIS
  5
6DE
 10
14.8829
 20
3.52727
 30
0.000000
  70
    32
  0
VERTEX
  8
AM_VIS
  5
6DF
 10
14.8820
 20
3.52901
 30
0.000000
  70
    32
  0
VERTEX
  8
AM_VIS
  5
6E0
 10
14.8811
 20
3.53075
 30
0.000000
  70
    32
  0
VERTEX
  8
AM_VIS
  5
6E1
 10
14.8802
 20
3.53250
 30
0.000000
  70
    32
  0
VERTEX
  8
AM_VIS
  5
6E2
 10
14.8794
 20
3.53425
 30
0.000000
  70
    32
  0
VERTEX
  8
AM_VIS
  5
6E3
 10
14.8785
 20
3.53600
 30
0.000000
  70
    32
  0
VERTEX
  8
AM_VIS
  5
6E4
 10
14.8777
 20
3.53776
 30
0.000000
  70
    32
  0
VERTEX
  8
AM_VIS
  5
6E5
 10
14.8768
 20
3.53952
 30
0.000000
  70
    32
  0
VERTEX
  8
AM_VIS
  5
6E6
 10
14.8760
 20
3.54128
 30
0.000000
  70
    32
  0
VERTEX
  8
AM_VIS
  5
6E7
 10
14.8752
 20
3.54305
 30
0.000000
  70
    32
  0
VERTEX
  8
AM_VIS
  5
6E8
 10
14.8744
 20
3.54481
 30
0.000000
  70
    32
  0
VERTEX
  8
AM_VIS
  5
6E9
 10
14.8736
 20
3.54659
 30
0.000000
  70
    32
  0
VERTEX
  8
AM_VIS
  5
6EA
 10
14.8727
 20
3.54836
 30
0.000000
  70
    32
  0
VERTEX
  8
AM_VIS
  5
6EB
 10
14.8719
 20
3.55014
 30
0.000000
  70
    32
  0
VERTEX
  8
AM_VIS
  5
6EC
 10
14.8712
 20
3.55192
 30
0.000000
  70
    32
  0
VERTEX
  8
AM_VIS
  5
6ED
 10
14.8704
 20
3.55370
 30
0.000000
  70
    32
  0
VERTEX
  8
AM_VIS
  5
6EE
 10
14.8696
 20
3.55548
 30
0.000000
  70
    32
  0
VERTEX
  8
AM_VIS
  5
6EF
 10
14.8688
 20
3.55727
 30
0.000000
  70
    32
  0
VERTEX
  8
AM_VIS
  5
6F0
 10
14.8680
 20
3.55906
 30
0.000000
  70
    32
  0
VERTEX
  8
AM_VIS
  5
6F1
 10
14.8673
 20
3.56085
 30
0.000000
  70
    32
  0
VERTEX
  8
AM_VIS
  5
6F2
 10
14.8665
 20
3.56265
 30
0.000000
  70
    32
  0
VERTEX
  8
AM_VIS
  5
6F3
 10
14.8658
 20
3.56445
 30
0.000000
  70
    32
  0
VERTEX
  8
AM_VIS
  5
6F4
 10
14.8650
 20
3.56625
 30
0.000000
  70
    32
  0
VERTEX
  8
AM_VIS
  5
6F5
 10
14.8643
 20
3.56805
 30
0.000000
  70
    32
  0
VERTEX
  8
AM_VIS
  5
6F6
 10
14.8636
 20
3.56986
 30
0.000000
  70
    32
  0
VERTEX
  8
AM_VIS
  5
6F7
 10
14.8628
 20
3.57167
 30
0.000000
  70
    32
  0
VERTEX
  8
AM_VIS
  5
6F8
 10
14.8621
 20
3.57348
 30
0.000000
  70
    32
  0
VERTEX
  8
AM_VIS
  5
6F9
 10
14.8614
 20
3.57529
 30
0.000000
  70
    32
  0
VERTEX
  8
AM_VIS
  5
6FA
 10
14.8607
 20
3.57711
 30
0.000000
  70
    32
  0
VERTEX
  8
AM_VIS
  5
6FB
 10
14.8600
 20
3.57893
 30
0.000000
  70
    32
  0
VERTEX
  8
AM_VIS
  5
6FC
 10
14.8593
 20
3.58075
 30
0.000000
  70
    32
  0
VERTEX
  8
AM_VIS
  5
6FD
 10
14.8587
 20
3.58257
 30
0.000000
  70
    32
  0
VERTEX
  8
AM_VIS
  5
6FE
 10
14.8580
 20
3.58440
 30
0.000000
  70
    32
  0
VERTEX
  8
AM_VIS
  5
6FF
 10
14.8573
 20
3.58623
 30
0.000000
  70
    32
  0
VERTEX
  8
AM_VIS
  5
700
 10
14.8567
 20
3.58806
 30
0.000000
  70
    32
  0
VERTEX
  8
AM_VIS
  5
701
 10
14.8560
 20
3.58989
 30
0.000000
  70
    32
  0
VERTEX
  8
AM_VIS
  5
702
 10
14.8554
 20
3.59173
 30
0.000000
  70
    32
  0
VERTEX
  8
AM_VIS
  5
703
 10
14.8547
 20
3.59357
 30
0.000000
  70
    32
  0
VERTEX
  8
AM_VIS
  5
704
 10
14.8541
 20
3.59540
 30
0.000000
  70
    32
  0
VERTEX
  8
AM_VIS
  5
705
 10
14.8535
 20
3.59725
 30
0.000000
  70
    32
  0
VERTEX
  8
AM_VIS
  5
706
 10
14.8528
 20
3.59909
 30
0.000000
  70
    32
  0
VERTEX
  8
AM_VIS
  5
707
 10
14.8522
 20
3.60094
 30
0.000000
  70
    32
  0
VERTEX
  8
AM_VIS
  5
708
 10
14.8516
 20
3.60279
 30
0.000000
  70
    32
  0
VERTEX
  8
AM_VIS
  5
709
 10
14.8510
 20
3.60464
 30
0.000000
  70
    32
  0
VERTEX
  8
AM_VIS
  5
70A
 10
14.8504
 20
3.60649
 30
0.000000
  70
    32
  0
VERTEX
  8
AM_VIS
  5
70B
 10
14.8498
 20
3.60834
 30
0.000000
  70
    32
  0
VERTEX
  8
AM_VIS
  5
70C
 10
14.8493
 20
3.61020
 30
0.000000
  70
    32
  0
VERTEX
  8
AM_VIS
  5
70D
 10
14.8487
 20
3.61206
 30
0.000000
  70
    32
  0
VERTEX
  8
AM_VIS
  5
70E
 10
14.8481
 20
3.61392
 30
0.000000
  70
    32
  0
VERTEX
  8
AM_VIS
  5
70F
 10
14.8476
 20
3.61578
 30
0.000000
  70
    32
  0
VERTEX
  8
AM_VIS
  5
710
 10
14.8470
 20
3.61765
 30
0.000000
  70
    32
  0
VERTEX
  8
AM_VIS
  5
711
 10
14.8465
 20
3.61952
 30
0.000000
  70
    32
  0
VERTEX
  8
AM_VIS
  5
712
 10
14.8460
 20
3.62139
 30
0.000000
  70
    32
  0
VERTEX
  8
AM_VIS
  5
713
 10
14.8454
 20
3.62326
 30
0.000000
  70
    32
  0
VERTEX
  8
AM_VIS
  5
714
 10
14.8449
 20
3.62513
 30
0.000000
  70
    32
  0
VERTEX
  8
AM_VIS
  5
715
 10
14.8444
 20
3.62700
 30
0.000000
  70
    32
  0
VERTEX
  8
AM_VIS
  5
716
 10
14.8439
 20
3.62888
 30
0.000000
  70
    32
  0
VERTEX
  8
AM_VIS
  5
717
 10
14.8434
 20
3.63076
 30
0.000000
  70
    32
  0
VERTEX
  8
AM_VIS
  5
718
 10
14.8429
 20
3.63264
 30
0.000000
  70
    32
  0
VERTEX
  8
AM_VIS
  5
719
 10
14.8424
 20
3.63452
 30
0.000000
  70
    32
  0
VERTEX
  8
AM_VIS
  5
71A
 10
14.8419
 20
3.63640
 30
0.000000
  70
    32
  0
VERTEX
  8
AM_VIS
  5
71B
 10
14.8415
 20
3.63829
 30
0.000000
  70
    32
  0
VERTEX
  8
AM_VIS
  5
71C
 10
14.8410
 20
3.64017
 30
0.000000
  70
    32
  0
VERTEX
  8
AM_VIS
  5
71D
 10
14.8406
 20
3.64206
 30
0.000000
  70
    32
  0
VERTEX
  8
AM_VIS
  5
71E
 10
14.8401
 20
3.64395
 30
0.000000
  70
    32
  0
VERTEX
  8
AM_VIS
  5
71F
 10
14.8397
 20
3.64584
 30
0.000000
  70
    32
  0
VERTEX
  8
AM_VIS
  5
720
 10
14.8392
 20
3.64774
 30
0.000000
  70
    32
  0
VERTEX
  8
AM_VIS
  5
721
 10
14.8388
 20
3.64963
 30
0.000000
  70
    32
  0
VERTEX
  8
AM_VIS
  5
722
 10
14.8384
 20
3.65153
 30
0.000000
  70
    32
  0
VERTEX
  8
AM_VIS
  5
723
 10
14.8380
 20
3.65343
 30
0.000000
  70
    32
  0
VERTEX
  8
AM_VIS
  5
724
 10
14.8376
 20
3.65532
 30
0.000000
  70
    32
  0
VERTEX
  8
AM_VIS
  5
725
 10
14.8372
 20
3.65723
 30
0.000000
  70
    32
  0
VERTEX
  8
AM_VIS
  5
726
 10
14.8368
 20
3.65913
 30
0.000000
  70
    32
  0
VERTEX
  8
AM_VIS
  5
727
 10
14.8364
 20
3.66103
 30
0.000000
  70
    32
  0
VERTEX
  8
AM_VIS
  5
728
 10
14.8360
 20
3.66294
 30
0.000000
  70
    32
  0
VERTEX
  8
AM_VIS
  5
729
 10
14.8357
 20
3.66484
 30
0.000000
  70
    32
  0
VERTEX
  8
AM_VIS
  5
72A
 10
14.8353
 20
3.66675
 30
0.000000
  70
    32
  0
VERTEX
  8
AM_VIS
  5
72B
 10
14.8350
 20
3.66866
 30
0.000000
  70
    32
  0
VERTEX
  8
AM_VIS
  5
72C
 10
14.8346
 20
3.67057
 30
0.000000
  70
    32
  0
VERTEX
  8
AM_VIS
  5
72D
 10
14.8343
 20
3.67248
 30
0.000000
  70
    32
  0
VERTEX
  8
AM_VIS
  5
72E
 10
14.8340
 20
3.67439
 30
0.000000
  70
    32
  0
VERTEX
  8
AM_VIS
  5
72F
 10
14.8336
 20
3.67631
 30
0.000000
  70
    32
  0
VERTEX
  8
AM_VIS
  5
730
 10
14.8333
 20
3.67822
 30
0.000000
  70
    32
  0
VERTEX
  8
AM_VIS
  5
731
 10
14.8330
 20
3.68014
 30
0.000000
  70
    32
  0
VERTEX
  8
AM_VIS
  5
732
 10
14.8327
 20
3.68206
 30
0.000000
  70
    32
  0
VERTEX
  8
AM_VIS
  5
733
 10
14.8324
 20
3.68398
 30
0.000000
  70
    32
  0
VERTEX
  8
AM_VIS
  5
734
 10
14.8321
 20
3.68590
 30
0.000000
  70
    32
  0
VERTEX
  8
AM_VIS
  5
735
 10
14.8319
 20
3.68782
 30
0.000000
  70
    32
  0
VERTEX
  8
AM_VIS
  5
736
 10
14.8316
 20
3.68974
 30
0.000000
  70
    32
  0
VERTEX
  8
AM_VIS
  5
737
 10
14.8313
 20
3.69166
 30
0.000000
  70
    32
  0
VERTEX
  8
AM_VIS
  5
738
 10
14.8311
 20
3.69359
 30
0.000000
  70
    32
  0
VERTEX
  8
AM_VIS
  5
739
 10
14.8309
 20
3.69551
 30
0.000000
  70
    32
  0
VERTEX
  8
AM_VIS
  5
73A
 10
14.8306
 20
3.69744
 30
0.000000
  70
    32
  0
VERTEX
  8
AM_VIS
  5
73B
 10
14.8304
 20
3.69937
 30
0.000000
  70
    32
  0
VERTEX
  8
AM_VIS
  5
73C
 10
14.8302
 20
3.70129
 30
0.000000
  70
    32
  0
VERTEX
  8
AM_VIS
  5
73D
 10
14.8300
 20
3.70322
 30
0.000000
  70
    32
  0
VERTEX
  8
AM_VIS
  5
73E
 10
14.8298
 20
3.70515
 30
0.000000
  70
    32
  0
VERTEX
  8
AM_VIS
  5
73F
 10
14.8296
 20
3.70708
 30
0.000000
  70
    32
  0
VERTEX
  8
AM_VIS
  5
740
 10
14.8294
 20
3.70902
 30
0.000000
  70
    32
  0
VERTEX
  8
AM_VIS
  5
741
 10
14.8292
 20
3.71095
 30
0.000000
  70
    32
  0
VERTEX
  8
AM_VIS
  5
742
 10
14.8290
 20
3.71288
 30
0.000000
  70
    32
  0
VERTEX
  8
AM_VIS
  5
743
 10
14.8289
 20
3.71481
 30
0.000000
  70
    32
  0
VERTEX
  8
AM_VIS
  5
744
 10
14.8287
 20
3.71675
 30
0.000000
  70
    32
  0
VERTEX
  8
AM_VIS
  5
745
 10
14.8286
 20
3.71868
 30
0.000000
  70
    32
  0
VERTEX
  8
AM_VIS
  5
746
 10
14.8284
 20
3.72062
 30
0.000000
  70
    32
  0
VERTEX
  8
AM_VIS
  5
747
 10
14.8283
 20
3.72256
 30
0.000000
  70
    32
  0
VERTEX
  8
AM_VIS
  5
748
 10
14.8282
 20
3.72449
 30
0.000000
  70
    32
  0
VERTEX
  8
AM_VIS
  5
749
 10
14.8280
 20
3.72643
 30
0.000000
  70
    32
  0
VERTEX
  8
AM_VIS
  5
74A
 10
14.8279
 20
3.72837
 30
0.000000
  70
    32
  0
VERTEX
  8
AM_VIS
  5
74B
 10
14.8278
 20
3.73031
 30
0.000000
  70
    32
  0
VERTEX
  8
AM_VIS
  5
74C
 10
14.8277
 20
3.73225
 30
0.000000
  70
    32
  0
VERTEX
  8
AM_VIS
  5
74D
 10
14.8277
 20
3.73419
 30
0.000000
  70
    32
  0
VERTEX
  8
AM_VIS
  5
74E
 10
14.8276
 20
3.73613
 30
0.000000
  70
    32
  0
VERTEX
  8
AM_VIS
  5
74F
 10
14.8275
 20
3.73807
 30
0.000000
  70
    32
  0
VERTEX
  8
AM_VIS
  5
750
 10
14.8275
 20
3.74001
 30
0.000000
  70
    32
  0
VERTEX
  8
AM_VIS
  5
751
 10
14.8274
 20
3.74195
 30
0.000000
  70
    32
  0
VERTEX
  8
AM_VIS
  5
752
 10
14.8274
 20
3.74389
 30
0.000000
  70
    32
  0
VERTEX
  8
AM_VIS
  5
753
 10
14.8273
 20
3.74584
 30
0.000000
  70
    32
  0
VERTEX
  8
AM_VIS
  5
754
 10
14.8273
 20
3.74778
 30
0.000000
  70
    32
  0
VERTEX
  8
AM_VIS
  5
755
 10
14.8273
 20
3.74972
 30
0.000000
  70
    32
  0
VERTEX
  8
AM_VIS
  5
756
 10
14.8273
 20
3.75166
 30
0.000000
  70
    32
  0
VERTEX
  8
AM_VIS
  5
757
 10
14.8273
 20
3.75360
 30
0.000000
  70
    32
  0
VERTEX
  8
AM_VIS
  5
758
 10
14.8273
 20
3.75555
 30
0.000000
  70
    32
  0
VERTEX
  8
AM_VIS
  5
759
 10
14.8273
 20
3.75749
 30
0.000000
  70
    32
  0
VERTEX
  8
AM_VIS
  5
75A
 10
14.8273
 20
3.75943
 30
0.000000
  70
    32
  0
VERTEX
  8
AM_VIS
  5
75B
 10
14.8274
 20
3.76137
 30
0.000000
  70
    32
  0
VERTEX
  8
AM_VIS
  5
75C
 10
14.8274
 20
3.76332
 30
0.000000
  70
    32
  0
VERTEX
  8
AM_VIS
  5
75D
 10
14.8275
 20
3.76526
 30
0.000000
  70
    32
  0
VERTEX
  8
AM_VIS
  5
75E
 10
14.8275
 20
3.76720
 30
0.000000
  70
    32
  0
VERTEX
  8
AM_VIS
  5
75F
 10
14.8276
 20
3.76914
 30
0.000000
  70
    32
  0
VERTEX
  8
AM_VIS
  5
760
 10
14.8277
 20
3.77108
 30
0.000000
  70
    32
  0
VERTEX
  8
AM_VIS
  5
761
 10
14.8278
 20
3.77303
 30
0.000000
  70
    32
  0
VERTEX
  8
AM_VIS
  5
762
 10
14.8278
 20
3.77497
 30
0.000000
  70
    32
  0
VERTEX
  8
AM_VIS
  5
763
 10
14.8280
 20
3.77691
 30
0.000000
  70
    32
  0
VERTEX
  8
AM_VIS
  5
764
 10
14.8281
 20
3.77885
 30
0.000000
  70
    32
  0
VERTEX
  8
AM_VIS
  5
765
 10
14.8282
 20
3.78079
 30
0.000000
  70
    32
  0
VERTEX
  8
AM_VIS
  5
766
 10
14.8283
 20
3.78273
 30
0.000000
  70
    32
  0
VERTEX
  8
AM_VIS
  5
767
 10
14.8284
 20
3.78467
 30
0.000000
  70
    32
  0
VERTEX
  8
AM_VIS
  5
768
 10
14.8286
 20
3.78661
 30
0.000000
  70
    32
  0
VERTEX
  8
AM_VIS
  5
769
 10
14.8287
 20
3.78854
 30
0.000000
  70
    32
  0
VERTEX
  8
AM_VIS
  5
76A
 10
14.8289
 20
3.79048
 30
0.000000
  70
    32
  0
VERTEX
  8
AM_VIS
  5
76B
 10
14.8291
 20
3.79242
 30
0.000000
  70
    32
  0
VERTEX
  8
AM_VIS
  5
76C
 10
14.8293
 20
3.79436
 30
0.000000
  70
    32
  0
VERTEX
  8
AM_VIS
  5
76D
 10
14.8295
 20
3.79629
 30
0.000000
  70
    32
  0
VERTEX
  8
AM_VIS
  5
76E
 10
14.8297
 20
3.79823
 30
0.000000
  70
    32
  0
VERTEX
  8
AM_VIS
  5
76F
 10
14.8299
 20
3.80016
 30
0.000000
  70
    32
  0
VERTEX
  8
AM_VIS
  5
770
 10
14.8301
 20
3.80210
 30
0.000000
  70
    32
  0
VERTEX
  8
AM_VIS
  5
771
 10
14.8303
 20
3.80403
 30
0.000000
  70
    32
  0
VERTEX
  8
AM_VIS
  5
772
 10
14.8305
 20
3.80596
 30
0.000000
  70
    32
  0
VERTEX
  8
AM_VIS
  5
773
 10
14.8308
 20
3.80789
 30
0.000000
  70
    32
  0
VERTEX
  8
AM_VIS
  5
774
 10
14.8310
 20
3.80982
 30
0.000000
  70
    32
  0
VERTEX
  8
AM_VIS
  5
775
 10
14.8313
 20
3.81175
 30
0.000000
  70
    32
  0
VERTEX
  8
AM_VIS
  5
776
 10
14.8316
 20
3.81368
 30
0.000000
  70
    32
  0
VERTEX
  8
AM_VIS
  5
777
 10
14.8318
 20
3.81561
 30
0.000000
  70
    32
  0
VERTEX
  8
AM_VIS
  5
778
 10
14.8321
 20
3.81753
 30
0.000000
  70
    32
  0
VERTEX
  8
AM_VIS
  5
779
 10
14.8324
 20
3.81946
 30
0.000000
  70
    32
  0
VERTEX
  8
AM_VIS
  5
77A
 10
14.8327
 20
3.82138
 30
0.000000
  70
    32
  0
VERTEX
  8
AM_VIS
  5
77B
 10
14.8331
 20
3.82331
 30
0.000000
  70
    32
  0
VERTEX
  8
AM_VIS
  5
77C
 10
14.8334
 20
3.82523
 30
0.000000
  70
    32
  0
VERTEX
  8
AM_VIS
  5
77D
 10
14.8337
 20
3.82715
 30
0.000000
  70
    32
  0
VERTEX
  8
AM_VIS
  5
77E
 10
14.8341
 20
3.82907
 30
0.000000
  70
    32
  0
VERTEX
  8
AM_VIS
  5
77F
 10
14.8344
 20
3.83099
 30
0.000000
  70
    32
  0
VERTEX
  8
AM_VIS
  5
780
 10
14.8348
 20
3.83291
 30
0.000000
  70
    32
  0
VERTEX
  8
AM_VIS
  5
781
 10
14.8351
 20
3.83482
 30
0.000000
  70
    32
  0
VERTEX
  8
AM_VIS
  5
782
 10
14.8355
 20
3.83674
 30
0.000000
  70
    32
  0
VERTEX
  8
AM_VIS
  5
783
 10
14.8359
 20
3.83865
 30
0.000000
  70
    32
  0
VERTEX
  8
AM_VIS
  5
784
 10
14.8363
 20
3.84056
 30
0.000000
  70
    32
  0
VERTEX
  8
AM_VIS
  5
785
 10
14.8367
 20
3.84247
 30
0.000000
  70
    32
  0
VERTEX
  8
AM_VIS
  5
786
 10
14.8371
 20
3.84438
 30
0.000000
  70
    32
  0
VERTEX
  8
AM_VIS
  5
787
 10
14.8376
 20
3.84629
 30
0.000000
  70
    32
  0
VERTEX
  8
AM_VIS
  5
788
 10
14.8380
 20
3.84819
 30
0.000000
  70
    32
  0
VERTEX
  8
AM_VIS
  5
789
 10
14.8385
 20
3.85010
 30
0.000000
  70
    32
  0
VERTEX
  8
AM_VIS
  5
78A
 10
14.8389
 20
3.85200
 30
0.000000
  70
    32
  0
VERTEX
  8
AM_VIS
  5
78B
 10
14.8394
 20
3.85390
 30
0.000000
  70
    32
  0
VERTEX
  8
AM_VIS
  5
78C
 10
14.8398
 20
3.85580
 30
0.000000
  70
    32
  0
VERTEX
  8
AM_VIS
  5
78D
 10
14.8403
 20
3.85770
 30
0.000000
  70
    32
  0
VERTEX
  8
AM_VIS
  5
78E
 10
14.8408
 20
3.85959
 30
0.000000
  70
    32
  0
VERTEX
  8
AM_VIS
  5
78F
 10
14.8413
 20
3.86149
 30
0.000000
  70
    32
  0
VERTEX
  8
AM_VIS
  5
790
 10
14.8418
 20
3.86337
 30
0.000000
  70
    32
  0
VERTEX
  8
AM_VIS
  5
791
 10
14.8424
 20
3.86526
 30
0.000000
  70
    32
  0
VERTEX
  8
AM_VIS
  5
792
 10
14.8429
 20
3.86714
 30
0.000000
  70
    32
  0
VERTEX
  8
AM_VIS
  5
793
 10
14.8434
 20
3.86902
 30
0.000000
  70
    32
  0
VERTEX
  8
AM_VIS
  5
794
 10
14.8440
 20
3.87090
 30
0.000000
  70
    32
  0
VERTEX
  8
AM_VIS
  5
795
 10
14.8445
 20
3.87277
 30
0.000000
  70
    32
  0
VERTEX
  8
AM_VIS
  5
796
 10
14.8451
 20
3.87464
 30
0.000000
  70
    32
  0
VERTEX
  8
AM_VIS
  5
797
 10
14.8457
 20
3.87650
 30
0.000000
  70
    32
  0
VERTEX
  8
AM_VIS
  5
798
 10
14.8463
 20
3.87837
 30
0.000000
  70
    32
  0
VERTEX
  8
AM_VIS
  5
799
 10
14.8469
 20
3.88022
 30
0.000000
  70
    32
  0
VERTEX
  8
AM_VIS
  5
79A
 10
14.8475
 20
3.88208
 30
0.000000
  70
    32
  0
VERTEX
  8
AM_VIS
  5
79B
 10
14.8481
 20
3.88393
 30
0.000000
  70
    32
  0
VERTEX
  8
AM_VIS
  5
79C
 10
14.8487
 20
3.88578
 30
0.000000
  70
    32
  0
VERTEX
  8
AM_VIS
  5
79D
 10
14.8493
 20
3.88762
 30
0.000000
  70
    32
  0
VERTEX
  8
AM_VIS
  5
79E
 10
14.8500
 20
3.88947
 30
0.000000
  70
    32
  0
VERTEX
  8
AM_VIS
  5
79F
 10
14.8506
 20
3.89130
 30
0.000000
  70
    32
  0
VERTEX
  8
AM_VIS
  5
7A0
 10
14.8513
 20
3.89314
 30
0.000000
  70
    32
  0
VERTEX
  8
AM_VIS
  5
7A1
 10
14.8519
 20
3.89497
 30
0.000000
  70
    32
  0
VERTEX
  8
AM_VIS
  5
7A2
 10
14.8526
 20
3.89679
 30
0.000000
  70
    32
  0
VERTEX
  8
AM_VIS
  5
7A3
 10
14.8533
 20
3.89862
 30
0.000000
  70
    32
  0
VERTEX
  8
AM_VIS
  5
7A4
 10
14.8540
 20
3.90044
 30
0.000000
  70
    32
  0
VERTEX
  8
AM_VIS
  5
7A5
 10
14.8547
 20
3.90225
 30
0.000000
  70
    32
  0
VERTEX
  8
AM_VIS
  5
7A6
 10
14.8554
 20
3.90406
 30
0.000000
  70
    32
  0
VERTEX
  8
AM_VIS
  5
7A7
 10
14.8561
 20
3.90587
 30
0.000000
  70
    32
  0
VERTEX
  8
AM_VIS
  5
7A8
 10
14.8569
 20
3.90767
 30
0.000000
  70
    32
  0
VERTEX
  8
AM_VIS
  5
7A9
 10
14.8576
 20
3.90947
 30
0.000000
  70
    32
  0
VERTEX
  8
AM_VIS
  5
7AA
 10
14.8584
 20
3.91127
 30
0.000000
  70
    32
  0
VERTEX
  8
AM_VIS
  5
7AB
 10
14.8591
 20
3.91306
 30
0.000000
  70
    32
  0
VERTEX
  8
AM_VIS
  5
7AC
 10
14.8599
 20
3.91485
 30
0.000000
  70
    32
  0
VERTEX
  8
AM_VIS
  5
7AD
 10
14.8607
 20
3.91663
 30
0.000000
  70
    32
  0
VERTEX
  8
AM_VIS
  5
7AE
 10
14.8615
 20
3.91841
 30
0.000000
  70
    32
  0
VERTEX
  8
AM_VIS
  5
7AF
 10
14.8623
 20
3.92019
 30
0.000000
  70
    32
  0
VERTEX
  8
AM_VIS
  5
7B0
 10
14.8631
 20
3.92196
 30
0.000000
  70
    32
  0
VERTEX
  8
AM_VIS
  5
7B1
 10
14.8639
 20
3.92373
 30
0.000000
  70
    32
  0
VERTEX
  8
AM_VIS
  5
7B2
 10
14.8647
 20
3.92549
 30
0.000000
  70
    32
  0
VERTEX
  8
AM_VIS
  5
7B3
 10
14.8656
 20
3.92725
 30
0.000000
  70
    32
  0
VERTEX
  8
AM_VIS
  5
7B4
 10
14.8664
 20
3.92901
 30
0.000000
  70
    32
  0
VERTEX
  8
AM_VIS
  5
7B5
 10
14.8672
 20
3.93076
 30
0.000000
  70
    32
  0
VERTEX
  8
AM_VIS
  5
7B6
 10
14.8681
 20
3.93251
 30
0.000000
  70
    32
  0
VERTEX
  8
AM_VIS
  5
7B7
 10
14.8690
 20
3.93425
 30
0.000000
  70
    32
  0
VERTEX
  8
AM_VIS
  5
7B8
 10
14.8699
 20
3.93599
 30
0.000000
  70
    32
  0
VERTEX
  8
AM_VIS
  5
7B9
 10
14.8708
 20
3.93772
 30
0.000000
  70
    32
  0
VERTEX
  8
AM_VIS
  5
7BA
 10
14.8717
 20
3.93945
 30
0.000000
  70
    32
  0
VERTEX
  8
AM_VIS
  5
7BB
 10
14.8726
 20
3.94118
 30
0.000000
  70
    32
  0
VERTEX
  8
AM_VIS
  5
7BC
 10
14.8735
 20
3.94290
 30
0.000000
  70
    32
  0
VERTEX
  8
AM_VIS
  5
7BD
 10
14.8744
 20
3.94461
 30
0.000000
  70
    32
  0
VERTEX
  8
AM_VIS
  5
7BE
 10
14.8754
 20
3.94633
 30
0.000000
  70
    32
  0
VERTEX
  8
AM_VIS
  5
7BF
 10
14.8763
 20
3.94803
 30
0.000000
  70
    32
  0
VERTEX
  8
AM_VIS
  5
7C0
 10
14.8773
 20
3.94974
 30
0.000000
  70
    32
  0
VERTEX
  8
AM_VIS
  5
7C1
 10
14.8782
 20
3.95143
 30
0.000000
  70
    32
  0
VERTEX
  8
AM_VIS
  5
7C2
 10
14.8792
 20
3.95313
 30
0.000000
  70
    32
  0
VERTEX
  8
AM_VIS
  5
7C3
 10
14.8802
 20
3.95482
 30
0.000000
  70
    32
  0
VERTEX
  8
AM_VIS
  5
7C4
 10
14.8812
 20
3.95650
 30
0.000000
  70
    32
  0
VERTEX
  8
AM_VIS
  5
7C5
 10
14.8822
 20
3.95818
 30
0.000000
  70
    32
  0
VERTEX
  8
AM_VIS
  5
7C6
 10
14.8832
 20
3.95985
 30
0.000000
  70
    32
  0
VERTEX
  8
AM_VIS
  5
7C7
 10
14.8842
 20
3.96153
 30
0.000000
  70
    32
  0
VERTEX
  8
AM_VIS
  5
7C8
 10
14.8852
 20
3.96319
 30
0.000000
  70
    32
  0
VERTEX
  8
AM_VIS
  5
7C9
 10
14.8863
 20
3.96485
 30
0.000000
  70
    32
  0
VERTEX
  8
AM_VIS
  5
7CA
 10
14.8873
 20
3.96651
 30
0.000000
  70
    32
  0
VERTEX
  8
AM_VIS
  5
7CB
 10
14.8884
 20
3.96816
 30
0.000000
  70
    32
  0
VERTEX
  8
AM_VIS
  5
7CC
 10
14.8895
 20
3.96980
 30
0.000000
  70
    32
  0
VERTEX
  8
AM_VIS
  5
7CD
 10
14.8905
 20
3.97145
 30
0.000000
  70
    32
  0
VERTEX
  8
AM_VIS
  5
7CE
 10
14.8916
 20
3.97308
 30
0.000000
  70
    32
  0
VERTEX
  8
AM_VIS
  5
7CF
 10
14.8927
 20
3.97471
 30
0.000000
  70
    32
  0
VERTEX
  8
AM_VIS
  5
7D0
 10
14.8938
 20
3.97634
 30
0.000000
  70
    32
  0
VERTEX
  8
AM_VIS
  5
7D1
 10
14.8949
 20
3.97796
 30
0.000000
  70
    32
  0
VERTEX
  8
AM_VIS
  5
7D2
 10
14.8961
 20
3.97958
 30
0.000000
  70
    32
  0
SEQEND
  8
AM_VIS
  5
7D3
  0
LINE
  5
40
  8
AM_VIS
 10
14.23054321328801
 20
3.0722143562124411
 30
0.0
 11
13.105543213288
 21
5.2333192490550031
 31
0.0
  0
LINE
  5
41
  8
AM_VIS
 10
14.23054321328801
 20
3.072214356212438
 30
0.0
 11
15.185568460959651
 21
2.4034984786121578
 31
0.0
  0
LINE
  5
42
  8
AM_VIS
 10
15.83084195185458
 20
3.325044528437274
 30
0.0
 11
15.185568460959651
 21
2.4034984786121578
 31
0.0
  0
POLYLINE
  8
AM_VIS
  5
7D4
  66
     1
 10
0.000000
 20
0.000000
 30
0.000000
  70
     8
  0
VERTEX
  8
AM_VIS
  5
7D5
 10
13.1055
 20
3.03569
 30
0.000000
  70
    32
  0
VERTEX
  8
AM_VIS
  5
7D6
 10
13.1046
 20
3.03569
 30
0.000000
  70
    32
  0
VERTEX
  8
AM_VIS
  5
7D7
 10
13.1037
 20
3.03569
 30
0.000000
  70
    32
  0
VERTEX
  8
AM_VIS
  5
7D8
 10
13.1027
 20
3.03568
 30
0.000000
  70
    32
  0
VERTEX
  8
AM_VIS
  5
7D9
 10
13.1018
 20
3.03567
 30
0.000000
  70
    32
  0
VERTEX
  8
AM_VIS
  5
7DA
 10
13.1008
 20
3.03565
 30
0.000000
  70
    32
  0
VERTEX
  8
AM_VIS
  5
7DB
 10
13.0999
 20
3.03563
 30
0.000000
  70
    32
  0
VERTEX
  8
AM_VIS
  5
7DC
 10
13.0990
 20
3.03561
 30
0.000000
  70
    32
  0
VERTEX
  8
AM_VIS
  5
7DD
 10
13.0980
 20
3.03558
 30
0.000000
  70
    32
  0
VERTEX
  8
AM_VIS
  5
7DE
 10
13.0971
 20
3.03555
 30
0.000000
  70
    32
  0
VERTEX
  8
AM_VIS
  5
7DF
 10
13.0961
 20
3.03552
 30
0.000000
  70
    32
  0
VERTEX
  8
AM_VIS
  5
7E0
 10
13.0952
 20
3.03549
 30
0.000000
  70
    32
  0
VERTEX
  8
AM_VIS
  5
7E1
 10
13.0943
 20
3.03545
 30
0.000000
  70
    32
  0
VERTEX
  8
AM_VIS
  5
7E2
 10
13.0933
 20
3.03540
 30
0.000000
  70
    32
  0
VERTEX
  8
AM_VIS
  5
7E3
 10
13.0924
 20
3.03536
 30
0.000000
  70
    32
  0
VERTEX
  8
AM_VIS
  5
7E4
 10
13.0915
 20
3.03531
 30
0.000000
  70
    32
  0
VERTEX
  8
AM_VIS
  5
7E5
 10
13.0905
 20
3.03526
 30
0.000000
  70
    32
  0
VERTEX
  8
AM_VIS
  5
7E6
 10
13.0896
 20
3.03520
 30
0.000000
  70
    32
  0
VERTEX
  8
AM_VIS
  5
7E7
 10
13.0887
 20
3.03514
 30
0.000000
  70
    32
  0
VERTEX
  8
AM_VIS
  5
7E8
 10
13.0877
 20
3.03508
 30
0.000000
  70
    32
  0
VERTEX
  8
AM_VIS
  5
7E9
 10
13.0868
 20
3.03501
 30
0.000000
  70
    32
  0
VERTEX
  8
AM_VIS
  5
7EA
 10
13.0859
 20
3.03494
 30
0.000000
  70
    32
  0
VERTEX
  8
AM_VIS
  5
7EB
 10
13.0849
 20
3.03487
 30
0.000000
  70
    32
  0
VERTEX
  8
AM_VIS
  5
7EC
 10
13.0840
 20
3.03479
 30
0.000000
  70
    32
  0
VERTEX
  8
AM_VIS
  5
7ED
 10
13.0831
 20
3.03472
 30
0.000000
  70
    32
  0
VERTEX
  8
AM_VIS
  5
7EE
 10
13.0822
 20
3.03463
 30
0.000000
  70
    32
  0
VERTEX
  8
AM_VIS
  5
7EF
 10
13.0812
 20
3.03455
 30
0.000000
  70
    32
  0
VERTEX
  8
AM_VIS
  5
7F0
 10
13.0803
 20
3.03446
 30
0.000000
  70
    32
  0
VERTEX
  8
AM_VIS
  5
7F1
 10
13.0794
 20
3.03436
 30
0.000000
  70
    32
  0
VERTEX
  8
AM_VIS
  5
7F2
 10
13.0784
 20
3.03427
 30
0.000000
  70
    32
  0
VERTEX
  8
AM_VIS
  5
7F3
 10
13.0775
 20
3.03417
 30
0.000000
  70
    32
  0
VERTEX
  8
AM_VIS
  5
7F4
 10
13.0766
 20
3.03407
 30
0.000000
  70
    32
  0
VERTEX
  8
AM_VIS
  5
7F5
 10
13.0757
 20
3.03396
 30
0.000000
  70
    32
  0
VERTEX
  8
AM_VIS
  5
7F6
 10
13.0747
 20
3.03385
 30
0.000000
  70
    32
  0
VERTEX
  8
AM_VIS
  5
7F7
 10
13.0738
 20
3.03374
 30
0.000000
  70
    32
  0
VERTEX
  8
AM_VIS
  5
7F8
 10
13.0729
 20
3.03363
 30
0.000000
  70
    32
  0
VERTEX
  8
AM_VIS
  5
7F9
 10
13.0720
 20
3.03351
 30
0.000000
  70
    32
  0
VERTEX
  8
AM_VIS
  5
7FA
 10
13.0710
 20
3.03339
 30
0.000000
  70
    32
  0
VERTEX
  8
AM_VIS
  5
7FB
 10
13.0701
 20
3.03326
 30
0.000000
  70
    32
  0
VERTEX
  8
AM_VIS
  5
7FC
 10
13.0692
 20
3.03313
 30
0.000000
  70
    32
  0
VERTEX
  8
AM_VIS
  5
7FD
 10
13.0683
 20
3.03300
 30
0.000000
  70
    32
  0
VERTEX
  8
AM_VIS
  5
7FE
 10
13.0674
 20
3.03287
 30
0.000000
  70
    32
  0
VERTEX
  8
AM_VIS
  5
7FF
 10
13.0664
 20
3.03273
 30
0.000000
  70
    32
  0
VERTEX
  8
AM_VIS
  5
800
 10
13.0655
 20
3.03259
 30
0.000000
  70
    32
  0
VERTEX
  8
AM_VIS
  5
801
 10
13.0646
 20
3.03244
 30
0.000000
  70
    32
  0
VERTEX
  8
AM_VIS
  5
802
 10
13.0637
 20
3.03230
 30
0.000000
  70
    32
  0
VERTEX
  8
AM_VIS
  5
803
 10
13.0628
 20
3.03214
 30
0.000000
  70
    32
  0
VERTEX
  8
AM_VIS
  5
804
 10
13.0618
 20
3.03199
 30
0.000000
  70
    32
  0
VERTEX
  8
AM_VIS
  5
805
 10
13.0609
 20
3.03183
 30
0.000000
  70
    32
  0
VERTEX
  8
AM_VIS
  5
806
 10
13.0600
 20
3.03167
 30
0.000000
  70
    32
  0
VERTEX
  8
AM_VIS
  5
807
 10
13.0591
 20
3.03151
 30
0.000000
  70
    32
  0
VERTEX
  8
AM_VIS
  5
808
 10
13.0582
 20
3.03134
 30
0.000000
  70
    32
  0
VERTEX
  8
AM_VIS
  5
809
 10
13.0573
 20
3.03117
 30
0.000000
  70
    32
  0
VERTEX
  8
AM_VIS
  5
80A
 10
13.0564
 20
3.03100
 30
0.000000
  70
    32
  0
VERTEX
  8
AM_VIS
  5
80B
 10
13.0554
 20
3.03083
 30
0.000000
  70
    32
  0
VERTEX
  8
AM_VIS
  5
80C
 10
13.0545
 20
3.03065
 30
0.000000
  70
    32
  0
VERTEX
  8
AM_VIS
  5
80D
 10
13.0536
 20
3.03046
 30
0.000000
  70
    32
  0
VERTEX
  8
AM_VIS
  5
80E
 10
13.0527
 20
3.03028
 30
0.000000
  70
    32
  0
VERTEX
  8
AM_VIS
  5
80F
 10
13.0518
 20
3.03009
 30
0.000000
  70
    32
  0
VERTEX
  8
AM_VIS
  5
810
 10
13.0509
 20
3.02990
 30
0.000000
  70
    32
  0
VERTEX
  8
AM_VIS
  5
811
 10
13.0500
 20
3.02970
 30
0.000000
  70
    32
  0
VERTEX
  8
AM_VIS
  5
812
 10
13.0491
 20
3.02951
 30
0.000000
  70
    32
  0
VERTEX
  8
AM_VIS
  5
813
 10
13.0482
 20
3.02931
 30
0.000000
  70
    32
  0
VERTEX
  8
AM_VIS
  5
814
 10
13.0473
 20
3.02910
 30
0.000000
  70
    32
  0
VERTEX
  8
AM_VIS
  5
815
 10
13.0463
 20
3.02889
 30
0.000000
  70
    32
  0
VERTEX
  8
AM_VIS
  5
816
 10
13.0454
 20
3.02868
 30
0.000000
  70
    32
  0
VERTEX
  8
AM_VIS
  5
817
 10
13.0445
 20
3.02847
 30
0.000000
  70
    32
  0
VERTEX
  8
AM_VIS
  5
818
 10
13.0436
 20
3.02826
 30
0.000000
  70
    32
  0
VERTEX
  8
AM_VIS
  5
819
 10
13.0427
 20
3.02804
 30
0.000000
  70
    32
  0
VERTEX
  8
AM_VIS
  5
81A
 10
13.0418
 20
3.02781
 30
0.000000
  70
    32
  0
VERTEX
  8
AM_VIS
  5
81B
 10
13.0409
 20
3.02759
 30
0.000000
  70
    32
  0
VERTEX
  8
AM_VIS
  5
81C
 10
13.0400
 20
3.02736
 30
0.000000
  70
    32
  0
VERTEX
  8
AM_VIS
  5
81D
 10
13.0391
 20
3.02713
 30
0.000000
  70
    32
  0
VERTEX
  8
AM_VIS
  5
81E
 10
13.0382
 20
3.02689
 30
0.000000
  70
    32
  0
VERTEX
  8
AM_VIS
  5
81F
 10
13.0373
 20
3.02666
 30
0.000000
  70
    32
  0
VERTEX
  8
AM_VIS
  5
820
 10
13.0364
 20
3.02642
 30
0.000000
  70
    32
  0
VERTEX
  8
AM_VIS
  5
821
 10
13.0355
 20
3.02617
 30
0.000000
  70
    32
  0
VERTEX
  8
AM_VIS
  5
822
 10
13.0346
 20
3.02593
 30
0.000000
  70
    32
  0
VERTEX
  8
AM_VIS
  5
823
 10
13.0337
 20
3.02568
 30
0.000000
  70
    32
  0
VERTEX
  8
AM_VIS
  5
824
 10
13.0328
 20
3.02542
 30
0.000000
  70
    32
  0
VERTEX
  8
AM_VIS
  5
825
 10
13.0319
 20
3.02517
 30
0.000000
  70
    32
  0
VERTEX
  8
AM_VIS
  5
826
 10
13.0310
 20
3.02491
 30
0.000000
  70
    32
  0
VERTEX
  8
AM_VIS
  5
827
 10
13.0301
 20
3.02465
 30
0.000000
  70
    32
  0
VERTEX
  8
AM_VIS
  5
828
 10
13.0292
 20
3.02438
 30
0.000000
  70
    32
  0
VERTEX
  8
AM_VIS
  5
829
 10
13.0283
 20
3.02412
 30
0.000000
  70
    32
  0
VERTEX
  8
AM_VIS
  5
82A
 10
13.0274
 20
3.02385
 30
0.000000
  70
    32
  0
VERTEX
  8
AM_VIS
  5
82B
 10
13.0265
 20
3.02357
 30
0.000000
  70
    32
  0
VERTEX
  8
AM_VIS
  5
82C
 10
13.0256
 20
3.02330
 30
0.000000
  70
    32
  0
VERTEX
  8
AM_VIS
  5
82D
 10
13.0247
 20
3.02302
 30
0.000000
  70
    32
  0
VERTEX
  8
AM_VIS
  5
82E
 10
13.0239
 20
3.02274
 30
0.000000
  70
    32
  0
VERTEX
  8
AM_VIS
  5
82F
 10
13.0230
 20
3.02245
 30
0.000000
  70
    32
  0
VERTEX
  8
AM_VIS
  5
830
 10
13.0221
 20
3.02216
 30
0.000000
  70
    32
  0
VERTEX
  8
AM_VIS
  5
831
 10
13.0212
 20
3.02187
 30
0.000000
  70
    32
  0
VERTEX
  8
AM_VIS
  5
832
 10
13.0203
 20
3.02158
 30
0.000000
  70
    32
  0
VERTEX
  8
AM_VIS
  5
833
 10
13.0194
 20
3.02128
 30
0.000000
  70
    32
  0
VERTEX
  8
AM_VIS
  5
834
 10
13.0185
 20
3.02098
 30
0.000000
  70
    32
  0
VERTEX
  8
AM_VIS
  5
835
 10
13.0176
 20
3.02068
 30
0.000000
  70
    32
  0
VERTEX
  8
AM_VIS
  5
836
 10
13.0167
 20
3.02037
 30
0.000000
  70
    32
  0
VERTEX
  8
AM_VIS
  5
837
 10
13.0159
 20
3.02006
 30
0.000000
  70
    32
  0
VERTEX
  8
AM_VIS
  5
838
 10
13.0150
 20
3.01975
 30
0.000000
  70
    32
  0
VERTEX
  8
AM_VIS
  5
839
 10
13.0141
 20
3.01944
 30
0.000000
  70
    32
  0
VERTEX
  8
AM_VIS
  5
83A
 10
13.0132
 20
3.01912
 30
0.000000
  70
    32
  0
VERTEX
  8
AM_VIS
  5
83B
 10
13.0123
 20
3.01880
 30
0.000000
  70
    32
  0
VERTEX
  8
AM_VIS
  5
83C
 10
13.0114
 20
3.01848
 30
0.000000
  70
    32
  0
VERTEX
  8
AM_VIS
  5
83D
 10
13.0106
 20
3.01815
 30
0.000000
  70
    32
  0
VERTEX
  8
AM_VIS
  5
83E
 10
13.0097
 20
3.01783
 30
0.000000
  70
    32
  0
VERTEX
  8
AM_VIS
  5
83F
 10
13.0088
 20
3.01750
 30
0.000000
  70
    32
  0
VERTEX
  8
AM_VIS
  5
840
 10
13.0079
 20
3.01716
 30
0.000000
  70
    32
  0
VERTEX
  8
AM_VIS
  5
841
 10
13.0070
 20
3.01682
 30
0.000000
  70
    32
  0
VERTEX
  8
AM_VIS
  5
842
 10
13.0061
 20
3.01648
 30
0.000000
  70
    32
  0
VERTEX
  8
AM_VIS
  5
843
 10
13.0053
 20
3.01614
 30
0.000000
  70
    32
  0
VERTEX
  8
AM_VIS
  5
844
 10
13.0044
 20
3.01580
 30
0.000000
  70
    32
  0
VERTEX
  8
AM_VIS
  5
845
 10
13.0035
 20
3.01545
 30
0.000000
  70
    32
  0
VERTEX
  8
AM_VIS
  5
846
 10
13.0026
 20
3.01510
 30
0.000000
  70
    32
  0
VERTEX
  8
AM_VIS
  5
847
 10
13.0018
 20
3.01475
 30
0.000000
  70
    32
  0
VERTEX
  8
AM_VIS
  5
848
 10
13.0009
 20
3.01439
 30
0.000000
  70
    32
  0
VERTEX
  8
AM_VIS
  5
849
 10
13.0000
 20
3.01403
 30
0.000000
  70
    32
  0
VERTEX
  8
AM_VIS
  5
84A
 10
12.9992
 20
3.01367
 30
0.000000
  70
    32
  0
VERTEX
  8
AM_VIS
  5
84B
 10
12.9983
 20
3.01331
 30
0.000000
  70
    32
  0
VERTEX
  8
AM_VIS
  5
84C
 10
12.9974
 20
3.01294
 30
0.000000
  70
    32
  0
VERTEX
  8
AM_VIS
  5
84D
 10
12.9965
 20
3.01258
 30
0.000000
  70
    32
  0
VERTEX
  8
AM_VIS
  5
84E
 10
12.9957
 20
3.01221
 30
0.000000
  70
    32
  0
VERTEX
  8
AM_VIS
  5
84F
 10
12.9948
 20
3.01183
 30
0.000000
  70
    32
  0
VERTEX
  8
AM_VIS
  5
850
 10
12.9940
 20
3.01146
 30
0.000000
  70
    32
  0
VERTEX
  8
AM_VIS
  5
851
 10
12.9931
 20
3.01108
 30
0.000000
  70
    32
  0
VERTEX
  8
AM_VIS
  5
852
 10
12.9922
 20
3.01070
 30
0.000000
  70
    32
  0
VERTEX
  8
AM_VIS
  5
853
 10
12.9914
 20
3.01031
 30
0.000000
  70
    32
  0
VERTEX
  8
AM_VIS
  5
854
 10
12.9905
 20
3.00993
 30
0.000000
  70
    32
  0
VERTEX
  8
AM_VIS
  5
855
 10
12.9896
 20
3.00954
 30
0.000000
  70
    32
  0
VERTEX
  8
AM_VIS
  5
856
 10
12.9888
 20
3.00915
 30
0.000000
  70
    32
  0
VERTEX
  8
AM_VIS
  5
857
 10
12.9879
 20
3.00875
 30
0.000000
  70
    32
  0
VERTEX
  8
AM_VIS
  5
858
 10
12.9871
 20
3.00836
 30
0.000000
  70
    32
  0
VERTEX
  8
AM_VIS
  5
859
 10
12.9862
 20
3.00796
 30
0.000000
  70
    32
  0
VERTEX
  8
AM_VIS
  5
85A
 10
12.9854
 20
3.00756
 30
0.000000
  70
    32
  0
VERTEX
  8
AM_VIS
  5
85B
 10
12.9845
 20
3.00716
 30
0.000000
  70
    32
  0
VERTEX
  8
AM_VIS
  5
85C
 10
12.9837
 20
3.00675
 30
0.000000
  70
    32
  0
VERTEX
  8
AM_VIS
  5
85D
 10
12.9828
 20
3.00634
 30
0.000000
  70
    32
  0
VERTEX
  8
AM_VIS
  5
85E
 10
12.9820
 20
3.00593
 30
0.000000
  70
    32
  0
VERTEX
  8
AM_VIS
  5
85F
 10
12.9811
 20
3.00552
 30
0.000000
  70
    32
  0
VERTEX
  8
AM_VIS
  5
860
 10
12.9803
 20
3.00511
 30
0.000000
  70
    32
  0
VERTEX
  8
AM_VIS
  5
861
 10
12.9794
 20
3.00469
 30
0.000000
  70
    32
  0
VERTEX
  8
AM_VIS
  5
862
 10
12.9786
 20
3.00427
 30
0.000000
  70
    32
  0
VERTEX
  8
AM_VIS
  5
863
 10
12.9777
 20
3.00385
 30
0.000000
  70
    32
  0
VERTEX
  8
AM_VIS
  5
864
 10
12.9769
 20
3.00342
 30
0.000000
  70
    32
  0
VERTEX
  8
AM_VIS
  5
865
 10
12.9760
 20
3.00300
 30
0.000000
  70
    32
  0
VERTEX
  8
AM_VIS
  5
866
 10
12.9752
 20
3.00257
 30
0.000000
  70
    32
  0
VERTEX
  8
AM_VIS
  5
867
 10
12.9744
 20
3.00214
 30
0.000000
  70
    32
  0
VERTEX
  8
AM_VIS
  5
868
 10
12.9735
 20
3.00170
 30
0.000000
  70
    32
  0
VERTEX
  8
AM_VIS
  5
869
 10
12.9727
 20
3.00127
 30
0.000000
  70
    32
  0
VERTEX
  8
AM_VIS
  5
86A
 10
12.9719
 20
3.00083
 30
0.000000
  70
    32
  0
VERTEX
  8
AM_VIS
  5
86B
 10
12.9710
 20
3.00039
 30
0.000000
  70
    32
  0
VERTEX
  8
AM_VIS
  5
86C
 10
12.9702
 20
2.99995
 30
0.000000
  70
    32
  0
VERTEX
  8
AM_VIS
  5
86D
 10
12.9694
 20
2.99950
 30
0.000000
  70
    32
  0
VERTEX
  8
AM_VIS
  5
86E
 10
12.9685
 20
2.99905
 30
0.000000
  70
    32
  0
VERTEX
  8
AM_VIS
  5
86F
 10
12.9677
 20
2.99860
 30
0.000000
  70
    32
  0
VERTEX
  8
AM_VIS
  5
870
 10
12.9669
 20
2.99815
 30
0.000000
  70
    32
  0
VERTEX
  8
AM_VIS
  5
871
 10
12.9660
 20
2.99770
 30
0.000000
  70
    32
  0
VERTEX
  8
AM_VIS
  5
872
 10
12.9652
 20
2.99724
 30
0.000000
  70
    32
  0
VERTEX
  8
AM_VIS
  5
873
 10
12.9644
 20
2.99678
 30
0.000000
  70
    32
  0
VERTEX
  8
AM_VIS
  5
874
 10
12.9636
 20
2.99632
 30
0.000000
  70
    32
  0
VERTEX
  8
AM_VIS
  5
875
 10
12.9627
 20
2.99586
 30
0.000000
  70
    32
  0
VERTEX
  8
AM_VIS
  5
876
 10
12.9619
 20
2.99540
 30
0.000000
  70
    32
  0
VERTEX
  8
AM_VIS
  5
877
 10
12.9611
 20
2.99493
 30
0.000000
  70
    32
  0
VERTEX
  8
AM_VIS
  5
878
 10
12.9603
 20
2.99446
 30
0.000000
  70
    32
  0
VERTEX
  8
AM_VIS
  5
879
 10
12.9595
 20
2.99399
 30
0.000000
  70
    32
  0
VERTEX
  8
AM_VIS
  5
87A
 10
12.9586
 20
2.99352
 30
0.000000
  70
    32
  0
VERTEX
  8
AM_VIS
  5
87B
 10
12.9578
 20
2.99304
 30
0.000000
  70
    32
  0
VERTEX
  8
AM_VIS
  5
87C
 10
12.9570
 20
2.99257
 30
0.000000
  70
    32
  0
VERTEX
  8
AM_VIS
  5
87D
 10
12.9562
 20
2.99209
 30
0.000000
  70
    32
  0
VERTEX
  8
AM_VIS
  5
87E
 10
12.9554
 20
2.99161
 30
0.000000
  70
    32
  0
VERTEX
  8
AM_VIS
  5
87F
 10
12.9546
 20
2.99112
 30
0.000000
  70
    32
  0
VERTEX
  8
AM_VIS
  5
880
 10
12.9538
 20
2.99064
 30
0.000000
  70
    32
  0
VERTEX
  8
AM_VIS
  5
881
 10
12.9529
 20
2.99015
 30
0.000000
  70
    32
  0
VERTEX
  8
AM_VIS
  5
882
 10
12.9521
 20
2.98966
 30
0.000000
  70
    32
  0
VERTEX
  8
AM_VIS
  5
883
 10
12.9513
 20
2.98917
 30
0.000000
  70
    32
  0
VERTEX
  8
AM_VIS
  5
884
 10
12.9505
 20
2.98868
 30
0.000000
  70
    32
  0
VERTEX
  8
AM_VIS
  5
885
 10
12.9497
 20
2.98818
 30
0.000000
  70
    32
  0
VERTEX
  8
AM_VIS
  5
886
 10
12.9489
 20
2.98768
 30
0.000000
  70
    32
  0
VERTEX
  8
AM_VIS
  5
887
 10
12.9481
 20
2.98718
 30
0.000000
  70
    32
  0
VERTEX
  8
AM_VIS
  5
888
 10
12.9473
 20
2.98668
 30
0.000000
  70
    32
  0
VERTEX
  8
AM_VIS
  5
889
 10
12.9465
 20
2.98618
 30
0.000000
  70
    32
  0
VERTEX
  8
AM_VIS
  5
88A
 10
12.9457
 20
2.98567
 30
0.000000
  70
    32
  0
VERTEX
  8
AM_VIS
  5
88B
 10
12.9449
 20
2.98517
 30
0.000000
  70
    32
  0
VERTEX
  8
AM_VIS
  5
88C
 10
12.9441
 20
2.98466
 30
0.000000
  70
    32
  0
VERTEX
  8
AM_VIS
  5
88D
 10
12.9433
 20
2.98415
 30
0.000000
  70
    32
  0
VERTEX
  8
AM_VIS
  5
88E
 10
12.9425
 20
2.98363
 30
0.000000
  70
    32
  0
VERTEX
  8
AM_VIS
  5
88F
 10
12.9417
 20
2.98312
 30
0.000000
  70
    32
  0
VERTEX
  8
AM_VIS
  5
890
 10
12.9409
 20
2.98260
 30
0.000000
  70
    32
  0
VERTEX
  8
AM_VIS
  5
891
 10
12.9402
 20
2.98208
 30
0.000000
  70
    32
  0
VERTEX
  8
AM_VIS
  5
892
 10
12.9394
 20
2.98156
 30
0.000000
  70
    32
  0
VERTEX
  8
AM_VIS
  5
893
 10
12.9386
 20
2.98104
 30
0.000000
  70
    32
  0
VERTEX
  8
AM_VIS
  5
894
 10
12.9378
 20
2.98052
 30
0.000000
  70
    32
  0
VERTEX
  8
AM_VIS
  5
895
 10
12.9370
 20
2.97999
 30
0.000000
  70
    32
  0
VERTEX
  8
AM_VIS
  5
896
 10
12.9362
 20
2.97946
 30
0.000000
  70
    32
  0
VERTEX
  8
AM_VIS
  5
897
 10
12.9354
 20
2.97893
 30
0.000000
  70
    32
  0
VERTEX
  8
AM_VIS
  5
898
 10
12.9347
 20
2.97840
 30
0.000000
  70
    32
  0
VERTEX
  8
AM_VIS
  5
899
 10
12.9339
 20
2.97787
 30
0.000000
  70
    32
  0
VERTEX
  8
AM_VIS
  5
89A
 10
12.9331
 20
2.97734
 30
0.000000
  70
    32
  0
VERTEX
  8
AM_VIS
  5
89B
 10
12.9323
 20
2.97680
 30
0.000000
  70
    32
  0
VERTEX
  8
AM_VIS
  5
89C
 10
12.9315
 20
2.97626
 30
0.000000
  70
    32
  0
VERTEX
  8
AM_VIS
  5
89D
 10
12.9308
 20
2.97572
 30
0.000000
  70
    32
  0
VERTEX
  8
AM_VIS
  5
89E
 10
12.9300
 20
2.97518
 30
0.000000
  70
    32
  0
VERTEX
  8
AM_VIS
  5
89F
 10
12.9292
 20
2.97463
 30
0.000000
  70
    32
  0
VERTEX
  8
AM_VIS
  5
8A0
 10
12.9284
 20
2.97409
 30
0.000000
  70
    32
  0
VERTEX
  8
AM_VIS
  5
8A1
 10
12.9277
 20
2.97354
 30
0.000000
  70
    32
  0
VERTEX
  8
AM_VIS
  5
8A2
 10
12.9269
 20
2.97299
 30
0.000000
  70
    32
  0
VERTEX
  8
AM_VIS
  5
8A3
 10
12.9261
 20
2.97244
 30
0.000000
  70
    32
  0
VERTEX
  8
AM_VIS
  5
8A4
 10
12.9254
 20
2.97189
 30
0.000000
  70
    32
  0
VERTEX
  8
AM_VIS
  5
8A5
 10
12.9246
 20
2.97134
 30
0.000000
  70
    32
  0
VERTEX
  8
AM_VIS
  5
8A6
 10
12.9238
 20
2.97078
 30
0.000000
  70
    32
  0
VERTEX
  8
AM_VIS
  5
8A7
 10
12.9231
 20
2.97023
 30
0.000000
  70
    32
  0
VERTEX
  8
AM_VIS
  5
8A8
 10
12.9223
 20
2.96967
 30
0.000000
  70
    32
  0
VERTEX
  8
AM_VIS
  5
8A9
 10
12.9216
 20
2.96911
 30
0.000000
  70
    32
  0
VERTEX
  8
AM_VIS
  5
8AA
 10
12.9208
 20
2.96854
 30
0.000000
  70
    32
  0
VERTEX
  8
AM_VIS
  5
8AB
 10
12.9200
 20
2.96798
 30
0.000000
  70
    32
  0
VERTEX
  8
AM_VIS
  5
8AC
 10
12.9193
 20
2.96742
 30
0.000000
  70
    32
  0
VERTEX
  8
AM_VIS
  5
8AD
 10
12.9185
 20
2.96685
 30
0.000000
  70
    32
  0
VERTEX
  8
AM_VIS
  5
8AE
 10
12.9178
 20
2.96628
 30
0.000000
  70
    32
  0
VERTEX
  8
AM_VIS
  5
8AF
 10
12.9170
 20
2.96571
 30
0.000000
  70
    32
  0
VERTEX
  8
AM_VIS
  5
8B0
 10
12.9163
 20
2.96514
 30
0.000000
  70
    32
  0
VERTEX
  8
AM_VIS
  5
8B1
 10
12.9155
 20
2.96457
 30
0.000000
  70
    32
  0
VERTEX
  8
AM_VIS
  5
8B2
 10
12.9148
 20
2.96399
 30
0.000000
  70
    32
  0
VERTEX
  8
AM_VIS
  5
8B3
 10
12.9140
 20
2.96342
 30
0.000000
  70
    32
  0
VERTEX
  8
AM_VIS
  5
8B4
 10
12.9133
 20
2.96284
 30
0.000000
  70
    32
  0
VERTEX
  8
AM_VIS
  5
8B5
 10
12.9125
 20
2.96226
 30
0.000000
  70
    32
  0
VERTEX
  8
AM_VIS
  5
8B6
 10
12.9118
 20
2.96168
 30
0.000000
  70
    32
  0
VERTEX
  8
AM_VIS
  5
8B7
 10
12.9110
 20
2.96110
 30
0.000000
  70
    32
  0
VERTEX
  8
AM_VIS
  5
8B8
 10
12.9103
 20
2.96052
 30
0.000000
  70
    32
  0
VERTEX
  8
AM_VIS
  5
8B9
 10
12.9096
 20
2.95993
 30
0.000000
  70
    32
  0
VERTEX
  8
AM_VIS
  5
8BA
 10
12.9088
 20
2.95934
 30
0.000000
  70
    32
  0
VERTEX
  8
AM_VIS
  5
8BB
 10
12.9081
 20
2.95876
 30
0.000000
  70
    32
  0
VERTEX
  8
AM_VIS
  5
8BC
 10
12.9073
 20
2.95817
 30
0.000000
  70
    32
  0
VERTEX
  8
AM_VIS
  5
8BD
 10
12.9066
 20
2.95758
 30
0.000000
  70
    32
  0
VERTEX
  8
AM_VIS
  5
8BE
 10
12.9059
 20
2.95699
 30
0.000000
  70
    32
  0
VERTEX
  8
AM_VIS
  5
8BF
 10
12.9051
 20
2.95639
 30
0.000000
  70
    32
  0
VERTEX
  8
AM_VIS
  5
8C0
 10
12.9044
 20
2.95580
 30
0.000000
  70
    32
  0
VERTEX
  8
AM_VIS
  5
8C1
 10
12.9037
 20
2.95520
 30
0.000000
  70
    32
  0
VERTEX
  8
AM_VIS
  5
8C2
 10
12.9029
 20
2.95460
 30
0.000000
  70
    32
  0
VERTEX
  8
AM_VIS
  5
8C3
 10
12.9022
 20
2.95401
 30
0.000000
  70
    32
  0
VERTEX
  8
AM_VIS
  5
8C4
 10
12.9015
 20
2.95340
 30
0.000000
  70
    32
  0
VERTEX
  8
AM_VIS
  5
8C5
 10
12.9008
 20
2.95280
 30
0.000000
  70
    32
  0
VERTEX
  8
AM_VIS
  5
8C6
 10
12.9000
 20
2.95220
 30
0.000000
  70
    32
  0
VERTEX
  8
AM_VIS
  5
8C7
 10
12.8993
 20
2.95159
 30
0.000000
  70
    32
  0
VERTEX
  8
AM_VIS
  5
8C8
 10
12.8986
 20
2.95099
 30
0.000000
  70
    32
  0
VERTEX
  8
AM_VIS
  5
8C9
 10
12.8979
 20
2.95038
 30
0.000000
  70
    32
  0
VERTEX
  8
AM_VIS
  5
8CA
 10
12.8972
 20
2.94977
 30
0.000000
  70
    32
  0
VERTEX
  8
AM_VIS
  5
8CB
 10
12.8964
 20
2.94915
 30
0.000000
  70
    32
  0
VERTEX
  8
AM_VIS
  5
8CC
 10
12.8957
 20
2.94854
 30
0.000000
  70
    32
  0
VERTEX
  8
AM_VIS
  5
8CD
 10
12.8950
 20
2.94793
 30
0.000000
  70
    32
  0
VERTEX
  8
AM_VIS
  5
8CE
 10
12.8943
 20
2.94731
 30
0.000000
  70
    32
  0
VERTEX
  8
AM_VIS
  5
8CF
 10
12.8936
 20
2.94669
 30
0.000000
  70
    32
  0
VERTEX
  8
AM_VIS
  5
8D0
 10
12.8929
 20
2.94607
 30
0.000000
  70
    32
  0
VERTEX
  8
AM_VIS
  5
8D1
 10
12.8921
 20
2.94545
 30
0.000000
  70
    32
  0
VERTEX
  8
AM_VIS
  5
8D2
 10
12.8914
 20
2.94483
 30
0.000000
  70
    32
  0
VERTEX
  8
AM_VIS
  5
8D3
 10
12.8907
 20
2.94420
 30
0.000000
  70
    32
  0
VERTEX
  8
AM_VIS
  5
8D4
 10
12.8900
 20
2.94358
 30
0.000000
  70
    32
  0
SEQEND
  8
AM_VIS
  5
8D5
  0
LINE
  5
44
  8
AM_VIS
 10
15.83675798959348
 20
3.3334935059418949
 30
0.0
 11
15.83084195185458
 21
3.325044528437274
 31
0.0
  0
LINE
  5
45
  8
AM_HID
 10
12.89388455777569
 20
1.9063438022292809
 30
0.0
 11
12.89388455777569
 21
2.1954781516250952
 31
0.0
  0
LINE
  5
46
  8
AM_HID
 10
13.15516382053122
 20
2.1063438022292811
 30
0.0
 11
13.15516382053122
 21
1.9063438022292809
 31
0.0
  0
LINE
  5
47
  8
AM_HID
 10
12.628203661554499
 20
2.1063438022292811
 30
0.0
 11
13.15516382053122
 21
2.1063438022292811
 31
0.0
  0
ARC
  5
48
  8
AM_HID
 10
11.44693404831353
 20
-0.7544766774616738
 30
0.0
 40
3.0952167164563318
 50
67.563639293737722
 51
72.375228567462202
  0
LINE
  5
49
  8
AM_HID
 10
12.89388455777569
 20
2.1954781516250952
 30
0.0
 11
12.03996252379372
 21
2.1954781516250952
 31
0.0
  0
LINE
  5
4A
  8
AM_HID
 10
13.20503792025398
 20
2.1063438022292811
 30
0.0
 11
13.15516382053122
 21
2.1063438022292811
 31
0.0
  0
POLYLINE
  8
AM_VIS
  5
8D6
  66
     1
 10
0.000000
 20
0.000000
 30
0.000000
  70
     8
  0
VERTEX
  8
AM_VIS
  5
8D7
 10
12.6911
 20
2.53634
 30
0.000000
  70
    32
  0
VERTEX
  8
AM_VIS
  5
8D8
 10
12.6911
 20
2.53462
 30
0.000000
  70
    32
  0
VERTEX
  8
AM_VIS
  5
8D9
 10
12.6911
 20
2.53291
 30
0.000000
  70
    32
  0
VERTEX
  8
AM_VIS
  5
8DA
 10
12.6911
 20
2.53119
 30
0.000000
  70
    32
  0
VERTEX
  8
AM_VIS
  5
8DB
 10
12.6911
 20
2.52947
 30
0.000000
  70
    32
  0
VERTEX
  8
AM_VIS
  5
8DC
 10
12.6911
 20
2.52775
 30
0.000000
  70
    32
  0
VERTEX
  8
AM_VIS
  5
8DD
 10
12.6911
 20
2.52603
 30
0.000000
  70
    32
  0
VERTEX
  8
AM_VIS
  5
8DE
 10
12.6911
 20
2.52431
 30
0.000000
  70
    32
  0
VERTEX
  8
AM_VIS
  5
8DF
 10
12.6912
 20
2.52260
 30
0.000000
  70
    32
  0
VERTEX
  8
AM_VIS
  5
8E0
 10
12.6912
 20
2.52088
 30
0.000000
  70
    32
  0
VERTEX
  8
AM_VIS
  5
8E1
 10
12.6912
 20
2.51916
 30
0.000000
  70
    32
  0
VERTEX
  8
AM_VIS
  5
8E2
 10
12.6913
 20
2.51745
 30
0.000000
  70
    32
  0
VERTEX
  8
AM_VIS
  5
8E3
 10
12.6913
 20
2.51573
 30
0.000000
  70
    32
  0
VERTEX
  8
AM_VIS
  5
8E4
 10
12.6914
 20
2.51402
 30
0.000000
  70
    32
  0
VERTEX
  8
AM_VIS
  5
8E5
 10
12.6914
 20
2.51230
 30
0.000000
  70
    32
  0
VERTEX
  8
AM_VIS
  5
8E6
 10
12.6915
 20
2.51059
 30
0.000000
  70
    32
  0
VERTEX
  8
AM_VIS
  5
8E7
 10
12.6916
 20
2.50888
 30
0.000000
  70
    32
  0
VERTEX
  8
AM_VIS
  5
8E8
 10
12.6917
 20
2.50716
 30
0.000000
  70
    32
  0
VERTEX
  8
AM_VIS
  5
8E9
 10
12.6917
 20
2.50545
 30
0.000000
  70
    32
  0
VERTEX
  8
AM_VIS
  5
8EA
 10
12.6918
 20
2.50374
 30
0.000000
  70
    32
  0
VERTEX
  8
AM_VIS
  5
8EB
 10
12.6919
 20
2.50203
 30
0.000000
  70
    32
  0
VERTEX
  8
AM_VIS
  5
8EC
 10
12.6920
 20
2.50032
 30
0.000000
  70
    32
  0
VERTEX
  8
AM_VIS
  5
8ED
 10
12.6921
 20
2.49860
 30
0.000000
  70
    32
  0
VERTEX
  8
AM_VIS
  5
8EE
 10
12.6922
 20
2.49689
 30
0.000000
  70
    32
  0
VERTEX
  8
AM_VIS
  5
8EF
 10
12.6924
 20
2.49518
 30
0.000000
  70
    32
  0
VERTEX
  8
AM_VIS
  5
8F0
 10
12.6925
 20
2.49348
 30
0.000000
  70
    32
  0
VERTEX
  8
AM_VIS
  5
8F1
 10
12.6926
 20
2.49177
 30
0.000000
  70
    32
  0
VERTEX
  8
AM_VIS
  5
8F2
 10
12.6928
 20
2.49006
 30
0.000000
  70
    32
  0
VERTEX
  8
AM_VIS
  5
8F3
 10
12.6929
 20
2.48835
 30
0.000000
  70
    32
  0
VERTEX
  8
AM_VIS
  5
8F4
 10
12.6930
 20
2.48664
 30
0.000000
  70
    32
  0
VERTEX
  8
AM_VIS
  5
8F5
 10
12.6932
 20
2.48494
 30
0.000000
  70
    32
  0
VERTEX
  8
AM_VIS
  5
8F6
 10
12.6934
 20
2.48323
 30
0.000000
  70
    32
  0
VERTEX
  8
AM_VIS
  5
8F7
 10
12.6935
 20
2.48153
 30
0.000000
  70
    32
  0
VERTEX
  8
AM_VIS
  5
8F8
 10
12.6937
 20
2.47982
 30
0.000000
  70
    32
  0
VERTEX
  8
AM_VIS
  5
8F9
 10
12.6939
 20
2.47812
 30
0.000000
  70
    32
  0
VERTEX
  8
AM_VIS
  5
8FA
 10
12.6941
 20
2.47642
 30
0.000000
  70
    32
  0
VERTEX
  8
AM_VIS
  5
8FB
 10
12.6942
 20
2.47471
 30
0.000000
  70
    32
  0
VERTEX
  8
AM_VIS
  5
8FC
 10
12.6944
 20
2.47301
 30
0.000000
  70
    32
  0
VERTEX
  8
AM_VIS
  5
8FD
 10
12.6946
 20
2.47131
 30
0.000000
  70
    32
  0
VERTEX
  8
AM_VIS
  5
8FE
 10
12.6948
 20
2.46961
 30
0.000000
  70
    32
  0
VERTEX
  8
AM_VIS
  5
8FF
 10
12.6951
 20
2.46791
 30
0.000000
  70
    32
  0
VERTEX
  8
AM_VIS
  5
900
 10
12.6953
 20
2.46621
 30
0.000000
  70
    32
  0
VERTEX
  8
AM_VIS
  5
901
 10
12.6955
 20
2.46451
 30
0.000000
  70
    32
  0
VERTEX
  8
AM_VIS
  5
902
 10
12.6957
 20
2.46282
 30
0.000000
  70
    32
  0
VERTEX
  8
AM_VIS
  5
903
 10
12.6960
 20
2.46112
 30
0.000000
  70
    32
  0
VERTEX
  8
AM_VIS
  5
904
 10
12.6962
 20
2.45942
 30
0.000000
  70
    32
  0
VERTEX
  8
AM_VIS
  5
905
 10
12.6965
 20
2.45773
 30
0.000000
  70
    32
  0
VERTEX
  8
AM_VIS
  5
906
 10
12.6967
 20
2.45603
 30
0.000000
  70
    32
  0
VERTEX
  8
AM_VIS
  5
907
 10
12.6970
 20
2.45434
 30
0.000000
  70
    32
  0
VERTEX
  8
AM_VIS
  5
908
 10
12.6972
 20
2.45264
 30
0.000000
  70
    32
  0
VERTEX
  8
AM_VIS
  5
909
 10
12.6975
 20
2.45095
 30
0.000000
  70
    32
  0
VERTEX
  8
AM_VIS
  5
90A
 10
12.6978
 20
2.44926
 30
0.000000
  70
    32
  0
VERTEX
  8
AM_VIS
  5
90B
 10
12.6980
 20
2.44757
 30
0.000000
  70
    32
  0
VERTEX
  8
AM_VIS
  5
90C
 10
12.6983
 20
2.44588
 30
0.000000
  70
    32
  0
VERTEX
  8
AM_VIS
  5
90D
 10
12.6986
 20
2.44419
 30
0.000000
  70
    32
  0
VERTEX
  8
AM_VIS
  5
90E
 10
12.6989
 20
2.44250
 30
0.000000
  70
    32
  0
VERTEX
  8
AM_VIS
  5
90F
 10
12.6992
 20
2.44081
 30
0.000000
  70
    32
  0
VERTEX
  8
AM_VIS
  5
910
 10
12.6995
 20
2.43913
 30
0.000000
  70
    32
  0
VERTEX
  8
AM_VIS
  5
911
 10
12.6998
 20
2.43744
 30
0.000000
  70
    32
  0
VERTEX
  8
AM_VIS
  5
912
 10
12.7002
 20
2.43576
 30
0.000000
  70
    32
  0
VERTEX
  8
AM_VIS
  5
913
 10
12.7005
 20
2.43407
 30
0.000000
  70
    32
  0
VERTEX
  8
AM_VIS
  5
914
 10
12.7008
 20
2.43239
 30
0.000000
  70
    32
  0
VERTEX
  8
AM_VIS
  5
915
 10
12.7012
 20
2.43071
 30
0.000000
  70
    32
  0
VERTEX
  8
AM_VIS
  5
916
 10
12.7015
 20
2.42903
 30
0.000000
  70
    32
  0
VERTEX
  8
AM_VIS
  5
917
 10
12.7018
 20
2.42734
 30
0.000000
  70
    32
  0
VERTEX
  8
AM_VIS
  5
918
 10
12.7022
 20
2.42567
 30
0.000000
  70
    32
  0
VERTEX
  8
AM_VIS
  5
919
 10
12.7026
 20
2.42399
 30
0.000000
  70
    32
  0
VERTEX
  8
AM_VIS
  5
91A
 10
12.7029
 20
2.42231
 30
0.000000
  70
    32
  0
VERTEX
  8
AM_VIS
  5
91B
 10
12.7033
 20
2.42063
 30
0.000000
  70
    32
  0
VERTEX
  8
AM_VIS
  5
91C
 10
12.7037
 20
2.41896
 30
0.000000
  70
    32
  0
VERTEX
  8
AM_VIS
  5
91D
 10
12.7040
 20
2.41728
 30
0.000000
  70
    32
  0
VERTEX
  8
AM_VIS
  5
91E
 10
12.7044
 20
2.41561
 30
0.000000
  70
    32
  0
VERTEX
  8
AM_VIS
  5
91F
 10
12.7048
 20
2.41393
 30
0.000000
  70
    32
  0
VERTEX
  8
AM_VIS
  5
920
 10
12.7052
 20
2.41226
 30
0.000000
  70
    32
  0
VERTEX
  8
AM_VIS
  5
921
 10
12.7056
 20
2.41059
 30
0.000000
  70
    32
  0
VERTEX
  8
AM_VIS
  5
922
 10
12.7060
 20
2.40892
 30
0.000000
  70
    32
  0
VERTEX
  8
AM_VIS
  5
923
 10
12.7064
 20
2.40725
 30
0.000000
  70
    32
  0
VERTEX
  8
AM_VIS
  5
924
 10
12.7069
 20
2.40559
 30
0.000000
  70
    32
  0
VERTEX
  8
AM_VIS
  5
925
 10
12.7073
 20
2.40392
 30
0.000000
  70
    32
  0
VERTEX
  8
AM_VIS
  5
926
 10
12.7077
 20
2.40225
 30
0.000000
  70
    32
  0
VERTEX
  8
AM_VIS
  5
927
 10
12.7082
 20
2.40059
 30
0.000000
  70
    32
  0
VERTEX
  8
AM_VIS
  5
928
 10
12.7086
 20
2.39893
 30
0.000000
  70
    32
  0
VERTEX
  8
AM_VIS
  5
929
 10
12.7090
 20
2.39727
 30
0.000000
  70
    32
  0
VERTEX
  8
AM_VIS
  5
92A
 10
12.7095
 20
2.39561
 30
0.000000
  70
    32
  0
VERTEX
  8
AM_VIS
  5
92B
 10
12.7100
 20
2.39395
 30
0.000000
  70
    32
  0
VERTEX
  8
AM_VIS
  5
92C
 10
12.7104
 20
2.39230
 30
0.000000
  70
    32
  0
VERTEX
  8
AM_VIS
  5
92D
 10
12.7109
 20
2.39064
 30
0.000000
  70
    32
  0
VERTEX
  8
AM_VIS
  5
92E
 10
12.7114
 20
2.38899
 30
0.000000
  70
    32
  0
VERTEX
  8
AM_VIS
  5
92F
 10
12.7118
 20
2.38734
 30
0.000000
  70
    32
  0
VERTEX
  8
AM_VIS
  5
930
 10
12.7123
 20
2.38568
 30
0.000000
  70
    32
  0
VERTEX
  8
AM_VIS
  5
931
 10
12.7128
 20
2.38404
 30
0.000000
  70
    32
  0
VERTEX
  8
AM_VIS
  5
932
 10
12.7133
 20
2.38239
 30
0.000000
  70
    32
  0
VERTEX
  8
AM_VIS
  5
933
 10
12.7138
 20
2.38074
 30
0.000000
  70
    32
  0
VERTEX
  8
AM_VIS
  5
934
 10
12.7143
 20
2.37910
 30
0.000000
  70
    32
  0
VERTEX
  8
AM_VIS
  5
935
 10
12.7148
 20
2.37746
 30
0.000000
  70
    32
  0
VERTEX
  8
AM_VIS
  5
936
 10
12.7153
 20
2.37582
 30
0.000000
  70
    32
  0
VERTEX
  8
AM_VIS
  5
937
 10
12.7158
 20
2.37418
 30
0.000000
  70
    32
  0
VERTEX
  8
AM_VIS
  5
938
 10
12.7164
 20
2.37254
 30
0.000000
  70
    32
  0
VERTEX
  8
AM_VIS
  5
939
 10
12.7169
 20
2.37090
 30
0.000000
  70
    32
  0
VERTEX
  8
AM_VIS
  5
93A
 10
12.7174
 20
2.36927
 30
0.000000
  70
    32
  0
VERTEX
  8
AM_VIS
  5
93B
 10
12.7180
 20
2.36764
 30
0.000000
  70
    32
  0
VERTEX
  8
AM_VIS
  5
93C
 10
12.7185
 20
2.36600
 30
0.000000
  70
    32
  0
VERTEX
  8
AM_VIS
  5
93D
 10
12.7191
 20
2.36438
 30
0.000000
  70
    32
  0
VERTEX
  8
AM_VIS
  5
93E
 10
12.7196
 20
2.36275
 30
0.000000
  70
    32
  0
VERTEX
  8
AM_VIS
  5
93F
 10
12.7202
 20
2.36112
 30
0.000000
  70
    32
  0
VERTEX
  8
AM_VIS
  5
940
 10
12.7208
 20
2.35950
 30
0.000000
  70
    32
  0
VERTEX
  8
AM_VIS
  5
941
 10
12.7213
 20
2.35788
 30
0.000000
  70
    32
  0
VERTEX
  8
AM_VIS
  5
942
 10
12.7219
 20
2.35626
 30
0.000000
  70
    32
  0
VERTEX
  8
AM_VIS
  5
943
 10
12.7225
 20
2.35464
 30
0.000000
  70
    32
  0
VERTEX
  8
AM_VIS
  5
944
 10
12.7231
 20
2.35302
 30
0.000000
  70
    32
  0
VERTEX
  8
AM_VIS
  5
945
 10
12.7237
 20
2.35141
 30
0.000000
  70
    32
  0
VERTEX
  8
AM_VIS
  5
946
 10
12.7243
 20
2.34980
 30
0.000000
  70
    32
  0
VERTEX
  8
AM_VIS
  5
947
 10
12.7249
 20
2.34819
 30
0.000000
  70
    32
  0
VERTEX
  8
AM_VIS
  5
948
 10
12.7255
 20
2.34658
 30
0.000000
  70
    32
  0
VERTEX
  8
AM_VIS
  5
949
 10
12.7261
 20
2.34497
 30
0.000000
  70
    32
  0
VERTEX
  8
AM_VIS
  5
94A
 10
12.7267
 20
2.34337
 30
0.000000
  70
    32
  0
VERTEX
  8
AM_VIS
  5
94B
 10
12.7273
 20
2.34176
 30
0.000000
  70
    32
  0
VERTEX
  8
AM_VIS
  5
94C
 10
12.7280
 20
2.34016
 30
0.000000
  70
    32
  0
VERTEX
  8
AM_VIS
  5
94D
 10
12.7286
 20
2.33856
 30
0.000000
  70
    32
  0
VERTEX
  8
AM_VIS
  5
94E
 10
12.7292
 20
2.33697
 30
0.000000
  70
    32
  0
VERTEX
  8
AM_VIS
  5
94F
 10
12.7299
 20
2.33537
 30
0.000000
  70
    32
  0
VERTEX
  8
AM_VIS
  5
950
 10
12.7305
 20
2.33378
 30
0.000000
  70
    32
  0
VERTEX
  8
AM_VIS
  5
951
 10
12.7312
 20
2.33219
 30
0.000000
  70
    32
  0
VERTEX
  8
AM_VIS
  5
952
 10
12.7318
 20
2.33060
 30
0.000000
  70
    32
  0
VERTEX
  8
AM_VIS
  5
953
 10
12.7325
 20
2.32902
 30
0.000000
  70
    32
  0
VERTEX
  8
AM_VIS
  5
954
 10
12.7332
 20
2.32743
 30
0.000000
  70
    32
  0
VERTEX
  8
AM_VIS
  5
955
 10
12.7338
 20
2.32585
 30
0.000000
  70
    32
  0
VERTEX
  8
AM_VIS
  5
956
 10
12.7345
 20
2.32427
 30
0.000000
  70
    32
  0
VERTEX
  8
AM_VIS
  5
957
 10
12.7352
 20
2.32269
 30
0.000000
  70
    32
  0
VERTEX
  8
AM_VIS
  5
958
 10
12.7359
 20
2.32112
 30
0.000000
  70
    32
  0
VERTEX
  8
AM_VIS
  5
959
 10
12.7366
 20
2.31955
 30
0.000000
  70
    32
  0
VERTEX
  8
AM_VIS
  5
95A
 10
12.7373
 20
2.31798
 30
0.000000
  70
    32
  0
VERTEX
  8
AM_VIS
  5
95B
 10
12.7380
 20
2.31641
 30
0.000000
  70
    32
  0
VERTEX
  8
AM_VIS
  5
95C
 10
12.7387
 20
2.31484
 30
0.000000
  70
    32
  0
VERTEX
  8
AM_VIS
  5
95D
 10
12.7394
 20
2.31328
 30
0.000000
  70
    32
  0
VERTEX
  8
AM_VIS
  5
95E
 10
12.7401
 20
2.31172
 30
0.000000
  70
    32
  0
VERTEX
  8
AM_VIS
  5
95F
 10
12.7408
 20
2.31016
 30
0.000000
  70
    32
  0
VERTEX
  8
AM_VIS
  5
960
 10
12.7415
 20
2.30860
 30
0.000000
  70
    32
  0
VERTEX
  8
AM_VIS
  5
961
 10
12.7423
 20
2.30705
 30
0.000000
  70
    32
  0
VERTEX
  8
AM_VIS
  5
962
 10
12.7430
 20
2.30550
 30
0.000000
  70
    32
  0
VERTEX
  8
AM_VIS
  5
963
 10
12.7437
 20
2.30395
 30
0.000000
  70
    32
  0
VERTEX
  8
AM_VIS
  5
964
 10
12.7445
 20
2.30240
 30
0.000000
  70
    32
  0
VERTEX
  8
AM_VIS
  5
965
 10
12.7452
 20
2.30086
 30
0.000000
  70
    32
  0
VERTEX
  8
AM_VIS
  5
966
 10
12.7460
 20
2.29932
 30
0.000000
  70
    32
  0
VERTEX
  8
AM_VIS
  5
967
 10
12.7467
 20
2.29778
 30
0.000000
  70
    32
  0
VERTEX
  8
AM_VIS
  5
968
 10
12.7475
 20
2.29624
 30
0.000000
  70
    32
  0
VERTEX
  8
AM_VIS
  5
969
 10
12.7483
 20
2.29471
 30
0.000000
  70
    32
  0
VERTEX
  8
AM_VIS
  5
96A
 10
12.7491
 20
2.29318
 30
0.000000
  70
    32
  0
VERTEX
  8
AM_VIS
  5
96B
 10
12.7498
 20
2.29165
 30
0.000000
  70
    32
  0
VERTEX
  8
AM_VIS
  5
96C
 10
12.7506
 20
2.29012
 30
0.000000
  70
    32
  0
VERTEX
  8
AM_VIS
  5
96D
 10
12.7514
 20
2.28860
 30
0.000000
  70
    32
  0
VERTEX
  8
AM_VIS
  5
96E
 10
12.7522
 20
2.28708
 30
0.000000
  70
    32
  0
VERTEX
  8
AM_VIS
  5
96F
 10
12.7530
 20
2.28556
 30
0.000000
  70
    32
  0
VERTEX
  8
AM_VIS
  5
970
 10
12.7538
 20
2.28404
 30
0.000000
  70
    32
  0
VERTEX
  8
AM_VIS
  5
971
 10
12.7546
 20
2.28253
 30
0.000000
  70
    32
  0
VERTEX
  8
AM_VIS
  5
972
 10
12.7554
 20
2.28102
 30
0.000000
  70
    32
  0
VERTEX
  8
AM_VIS
  5
973
 10
12.7562
 20
2.27951
 30
0.000000
  70
    32
  0
VERTEX
  8
AM_VIS
  5
974
 10
12.7570
 20
2.27801
 30
0.000000
  70
    32
  0
VERTEX
  8
AM_VIS
  5
975
 10
12.7579
 20
2.27650
 30
0.000000
  70
    32
  0
VERTEX
  8
AM_VIS
  5
976
 10
12.7587
 20
2.27500
 30
0.000000
  70
    32
  0
VERTEX
  8
AM_VIS
  5
977
 10
12.7595
 20
2.27351
 30
0.000000
  70
    32
  0
VERTEX
  8
AM_VIS
  5
978
 10
12.7603
 20
2.27201
 30
0.000000
  70
    32
  0
VERTEX
  8
AM_VIS
  5
979
 10
12.7612
 20
2.27052
 30
0.000000
  70
    32
  0
VERTEX
  8
AM_VIS
  5
97A
 10
12.7620
 20
2.26903
 30
0.000000
  70
    32
  0
VERTEX
  8
AM_VIS
  5
97B
 10
12.7629
 20
2.26755
 30
0.000000
  70
    32
  0
VERTEX
  8
AM_VIS
  5
97C
 10
12.7637
 20
2.26606
 30
0.000000
  70
    32
  0
VERTEX
  8
AM_VIS
  5
97D
 10
12.7646
 20
2.26458
 30
0.000000
  70
    32
  0
VERTEX
  8
AM_VIS
  5
97E
 10
12.7655
 20
2.26311
 30
0.000000
  70
    32
  0
VERTEX
  8
AM_VIS
  5
97F
 10
12.7663
 20
2.26163
 30
0.000000
  70
    32
  0
VERTEX
  8
AM_VIS
  5
980
 10
12.7672
 20
2.26016
 30
0.000000
  70
    32
  0
VERTEX
  8
AM_VIS
  5
981
 10
12.7681
 20
2.25868
 30
0.000000
  70
    32
  0
VERTEX
  8
AM_VIS
  5
982
 10
12.7690
 20
2.25722
 30
0.000000
  70
    32
  0
VERTEX
  8
AM_VIS
  5
983
 10
12.7699
 20
2.25575
 30
0.000000
  70
    32
  0
VERTEX
  8
AM_VIS
  5
984
 10
12.7708
 20
2.25429
 30
0.000000
  70
    32
  0
VERTEX
  8
AM_VIS
  5
985
 10
12.7717
 20
2.25283
 30
0.000000
  70
    32
  0
VERTEX
  8
AM_VIS
  5
986
 10
12.7726
 20
2.25137
 30
0.000000
  70
    32
  0
VERTEX
  8
AM_VIS
  5
987
 10
12.7735
 20
2.24992
 30
0.000000
  70
    32
  0
VERTEX
  8
AM_VIS
  5
988
 10
12.7744
 20
2.24846
 30
0.000000
  70
    32
  0
VERTEX
  8
AM_VIS
  5
989
 10
12.7753
 20
2.24701
 30
0.000000
  70
    32
  0
VERTEX
  8
AM_VIS
  5
98A
 10
12.7762
 20
2.24557
 30
0.000000
  70
    32
  0
VERTEX
  8
AM_VIS
  5
98B
 10
12.7771
 20
2.24412
 30
0.000000
  70
    32
  0
VERTEX
  8
AM_VIS
  5
98C
 10
12.7781
 20
2.24268
 30
0.000000
  70
    32
  0
VERTEX
  8
AM_VIS
  5
98D
 10
12.7790
 20
2.24125
 30
0.000000
  70
    32
  0
VERTEX
  8
AM_VIS
  5
98E
 10
12.7799
 20
2.23981
 30
0.000000
  70
    32
  0
VERTEX
  8
AM_VIS
  5
98F
 10
12.7809
 20
2.23838
 30
0.000000
  70
    32
  0
VERTEX
  8
AM_VIS
  5
990
 10
12.7818
 20
2.23695
 30
0.000000
  70
    32
  0
VERTEX
  8
AM_VIS
  5
991
 10
12.7828
 20
2.23552
 30
0.000000
  70
    32
  0
VERTEX
  8
AM_VIS
  5
992
 10
12.7837
 20
2.23410
 30
0.000000
  70
    32
  0
VERTEX
  8
AM_VIS
  5
993
 10
12.7847
 20
2.23268
 30
0.000000
  70
    32
  0
VERTEX
  8
AM_VIS
  5
994
 10
12.7857
 20
2.23126
 30
0.000000
  70
    32
  0
VERTEX
  8
AM_VIS
  5
995
 10
12.7866
 20
2.22985
 30
0.000000
  70
    32
  0
VERTEX
  8
AM_VIS
  5
996
 10
12.7876
 20
2.22844
 30
0.000000
  70
    32
  0
VERTEX
  8
AM_VIS
  5
997
 10
12.7886
 20
2.22703
 30
0.000000
  70
    32
  0
VERTEX
  8
AM_VIS
  5
998
 10
12.7896
 20
2.22563
 30
0.000000
  70
    32
  0
VERTEX
  8
AM_VIS
  5
999
 10
12.7906
 20
2.22422
 30
0.000000
  70
    32
  0
VERTEX
  8
AM_VIS
  5
99A
 10
12.7916
 20
2.22283
 30
0.000000
  70
    32
  0
VERTEX
  8
AM_VIS
  5
99B
 10
12.7926
 20
2.22143
 30
0.000000
  70
    32
  0
VERTEX
  8
AM_VIS
  5
99C
 10
12.7936
 20
2.22004
 30
0.000000
  70
    32
  0
VERTEX
  8
AM_VIS
  5
99D
 10
12.7946
 20
2.21865
 30
0.000000
  70
    32
  0
VERTEX
  8
AM_VIS
  5
99E
 10
12.7956
 20
2.21727
 30
0.000000
  70
    32
  0
VERTEX
  8
AM_VIS
  5
99F
 10
12.7966
 20
2.21588
 30
0.000000
  70
    32
  0
VERTEX
  8
AM_VIS
  5
9A0
 10
12.7976
 20
2.21451
 30
0.000000
  70
    32
  0
VERTEX
  8
AM_VIS
  5
9A1
 10
12.7986
 20
2.21313
 30
0.000000
  70
    32
  0
VERTEX
  8
AM_VIS
  5
9A2
 10
12.7997
 20
2.21176
 30
0.000000
  70
    32
  0
VERTEX
  8
AM_VIS
  5
9A3
 10
12.8007
 20
2.21039
 30
0.000000
  70
    32
  0
VERTEX
  8
AM_VIS
  5
9A4
 10
12.8017
 20
2.20902
 30
0.000000
  70
    32
  0
VERTEX
  8
AM_VIS
  5
9A5
 10
12.8028
 20
2.20766
 30
0.000000
  70
    32
  0
VERTEX
  8
AM_VIS
  5
9A6
 10
12.8038
 20
2.20630
 30
0.000000
  70
    32
  0
VERTEX
  8
AM_VIS
  5
9A7
 10
12.8049
 20
2.20495
 30
0.000000
  70
    32
  0
VERTEX
  8
AM_VIS
  5
9A8
 10
12.8059
 20
2.20360
 30
0.000000
  70
    32
  0
VERTEX
  8
AM_VIS
  5
9A9
 10
12.8070
 20
2.20225
 30
0.000000
  70
    32
  0
VERTEX
  8
AM_VIS
  5
9AA
 10
12.8081
 20
2.20091
 30
0.000000
  70
    32
  0
VERTEX
  8
AM_VIS
  5
9AB
 10
12.8091
 20
2.19957
 30
0.000000
  70
    32
  0
VERTEX
  8
AM_VIS
  5
9AC
 10
12.8102
 20
2.19823
 30
0.000000
  70
    32
  0
VERTEX
  8
AM_VIS
  5
9AD
 10
12.8113
 20
2.19690
 30
0.000000
  70
    32
  0
VERTEX
  8
AM_VIS
  5
9AE
 10
12.8124
 20
2.19557
 30
0.000000
  70
    32
  0
VERTEX
  8
AM_VIS
  5
9AF
 10
12.8135
 20
2.19424
 30
0.000000
  70
    32
  0
VERTEX
  8
AM_VIS
  5
9B0
 10
12.8145
 20
2.19292
 30
0.000000
  70
    32
  0
VERTEX
  8
AM_VIS
  5
9B1
 10
12.8156
 20
2.19160
 30
0.000000
  70
    32
  0
VERTEX
  8
AM_VIS
  5
9B2
 10
12.8167
 20
2.19028
 30
0.000000
  70
    32
  0
VERTEX
  8
AM_VIS
  5
9B3
 10
12.8178
 20
2.18897
 30
0.000000
  70
    32
  0
VERTEX
  8
AM_VIS
  5
9B4
 10
12.8189
 20
2.18767
 30
0.000000
  70
    32
  0
VERTEX
  8
AM_VIS
  5
9B5
 10
12.8201
 20
2.18636
 30
0.000000
  70
    32
  0
VERTEX
  8
AM_VIS
  5
9B6
 10
12.8212
 20
2.18506
 30
0.000000
  70
    32
  0
VERTEX
  8
AM_VIS
  5
9B7
 10
12.8223
 20
2.18377
 30
0.000000
  70
    32
  0
VERTEX
  8
AM_VIS
  5
9B8
 10
12.8234
 20
2.18247
 30
0.000000
  70
    32
  0
VERTEX
  8
AM_VIS
  5
9B9
 10
12.8246
 20
2.18119
 30
0.000000
  70
    32
  0
VERTEX
  8
AM_VIS
  5
9BA
 10
12.8257
 20
2.17990
 30
0.000000
  70
    32
  0
VERTEX
  8
AM_VIS
  5
9BB
 10
12.8268
 20
2.17862
 30
0.000000
  70
    32
  0
VERTEX
  8
AM_VIS
  5
9BC
 10
12.8280
 20
2.17735
 30
0.000000
  70
    32
  0
VERTEX
  8
AM_VIS
  5
9BD
 10
12.8291
 20
2.17607
 30
0.000000
  70
    32
  0
VERTEX
  8
AM_VIS
  5
9BE
 10
12.8303
 20
2.17481
 30
0.000000
  70
    32
  0
VERTEX
  8
AM_VIS
  5
9BF
 10
12.8314
 20
2.17354
 30
0.000000
  70
    32
  0
VERTEX
  8
AM_VIS
  5
9C0
 10
12.8326
 20
2.17228
 30
0.000000
  70
    32
  0
VERTEX
  8
AM_VIS
  5
9C1
 10
12.8337
 20
2.17103
 30
0.000000
  70
    32
  0
VERTEX
  8
AM_VIS
  5
9C2
 10
12.8349
 20
2.16977
 30
0.000000
  70
    32
  0
VERTEX
  8
AM_VIS
  5
9C3
 10
12.8361
 20
2.16853
 30
0.000000
  70
    32
  0
VERTEX
  8
AM_VIS
  5
9C4
 10
12.8373
 20
2.16728
 30
0.000000
  70
    32
  0
VERTEX
  8
AM_VIS
  5
9C5
 10
12.8384
 20
2.16604
 30
0.000000
  70
    32
  0
VERTEX
  8
AM_VIS
  5
9C6
 10
12.8396
 20
2.16481
 30
0.000000
  70
    32
  0
VERTEX
  8
AM_VIS
  5
9C7
 10
12.8408
 20
2.16358
 30
0.000000
  70
    32
  0
VERTEX
  8
AM_VIS
  5
9C8
 10
12.8420
 20
2.16235
 30
0.000000
  70
    32
  0
VERTEX
  8
AM_VIS
  5
9C9
 10
12.8432
 20
2.16113
 30
0.000000
  70
    32
  0
VERTEX
  8
AM_VIS
  5
9CA
 10
12.8444
 20
2.15991
 30
0.000000
  70
    32
  0
VERTEX
  8
AM_VIS
  5
9CB
 10
12.8456
 20
2.15869
 30
0.000000
  70
    32
  0
VERTEX
  8
AM_VIS
  5
9CC
 10
12.8468
 20
2.15749
 30
0.000000
  70
    32
  0
VERTEX
  8
AM_VIS
  5
9CD
 10
12.8480
 20
2.15628
 30
0.000000
  70
    32
  0
VERTEX
  8
AM_VIS
  5
9CE
 10
12.8492
 20
2.15508
 30
0.000000
  70
    32
  0
VERTEX
  8
AM_VIS
  5
9CF
 10
12.8505
 20
2.15388
 30
0.000000
  70
    32
  0
VERTEX
  8
AM_VIS
  5
9D0
 10
12.8517
 20
2.15269
 30
0.000000
  70
    32
  0
VERTEX
  8
AM_VIS
  5
9D1
 10
12.8529
 20
2.15150
 30
0.000000
  70
    32
  0
VERTEX
  8
AM_VIS
  5
9D2
 10
12.8541
 20
2.15032
 30
0.000000
  70
    32
  0
VERTEX
  8
AM_VIS
  5
9D3
 10
12.8554
 20
2.14914
 30
0.000000
  70
    32
  0
VERTEX
  8
AM_VIS
  5
9D4
 10
12.8566
 20
2.14797
 30
0.000000
  70
    32
  0
VERTEX
  8
AM_VIS
  5
9D5
 10
12.8579
 20
2.14680
 30
0.000000
  70
    32
  0
VERTEX
  8
AM_VIS
  5
9D6
 10
12.8591
 20
2.14563
 30
0.000000
  70
    32
  0
VERTEX
  8
AM_VIS
  5
9D7
 10
12.8604
 20
2.14447
 30
0.000000
  70
    32
  0
VERTEX
  8
AM_VIS
  5
9D8
 10
12.8616
 20
2.14332
 30
0.000000
  70
    32
  0
VERTEX
  8
AM_VIS
  5
9D9
 10
12.8629
 20
2.14217
 30
0.000000
  70
    32
  0
VERTEX
  8
AM_VIS
  5
9DA
 10
12.8642
 20
2.14102
 30
0.000000
  70
    32
  0
VERTEX
  8
AM_VIS
  5
9DB
 10
12.8654
 20
2.13988
 30
0.000000
  70
    32
  0
VERTEX
  8
AM_VIS
  5
9DC
 10
12.8667
 20
2.13874
 30
0.000000
  70
    32
  0
VERTEX
  8
AM_VIS
  5
9DD
 10
12.8680
 20
2.13761
 30
0.000000
  70
    32
  0
VERTEX
  8
AM_VIS
  5
9DE
 10
12.8693
 20
2.13648
 30
0.000000
  70
    32
  0
VERTEX
  8
AM_VIS
  5
9DF
 10
12.8705
 20
2.13536
 30
0.000000
  70
    32
  0
VERTEX
  8
AM_VIS
  5
9E0
 10
12.8718
 20
2.13424
 30
0.000000
  70
    32
  0
VERTEX
  8
AM_VIS
  5
9E1
 10
12.8731
 20
2.13313
 30
0.000000
  70
    32
  0
VERTEX
  8
AM_VIS
  5
9E2
 10
12.8744
 20
2.13202
 30
0.000000
  70
    32
  0
VERTEX
  8
AM_VIS
  5
9E3
 10
12.8757
 20
2.13092
 30
0.000000
  70
    32
  0
VERTEX
  8
AM_VIS
  5
9E4
 10
12.8770
 20
2.12982
 30
0.000000
  70
    32
  0
VERTEX
  8
AM_VIS
  5
9E5
 10
12.8783
 20
2.12872
 30
0.000000
  70
    32
  0
VERTEX
  8
AM_VIS
  5
9E6
 10
12.8797
 20
2.12763
 30
0.000000
  70
    32
  0
VERTEX
  8
AM_VIS
  5
9E7
 10
12.8810
 20
2.12655
 30
0.000000
  70
    32
  0
VERTEX
  8
AM_VIS
  5
9E8
 10
12.8823
 20
2.12547
 30
0.000000
  70
    32
  0
VERTEX
  8
AM_VIS
  5
9E9
 10
12.8836
 20
2.12440
 30
0.000000
  70
    32
  0
VERTEX
  8
AM_VIS
  5
9EA
 10
12.8849
 20
2.12333
 30
0.000000
  70
    32
  0
VERTEX
  8
AM_VIS
  5
9EB
 10
12.8863
 20
2.12227
 30
0.000000
  70
    32
  0
VERTEX
  8
AM_VIS
  5
9EC
 10
12.8876
 20
2.12121
 30
0.000000
  70
    32
  0
VERTEX
  8
AM_VIS
  5
9ED
 10
12.8890
 20
2.12015
 30
0.000000
  70
    32
  0
VERTEX
  8
AM_VIS
  5
9EE
 10
12.8903
 20
2.11911
 30
0.000000
  70
    32
  0
VERTEX
  8
AM_VIS
  5
9EF
 10
12.8917
 20
2.11806
 30
0.000000
  70
    32
  0
VERTEX
  8
AM_VIS
  5
9F0
 10
12.8930
 20
2.11702
 30
0.000000
  70
    32
  0
VERTEX
  8
AM_VIS
  5
9F1
 10
12.8944
 20
2.11599
 30
0.000000
  70
    32
  0
VERTEX
  8
AM_VIS
  5
9F2
 10
12.8957
 20
2.11496
 30
0.000000
  70
    32
  0
VERTEX
  8
AM_VIS
  5
9F3
 10
12.8971
 20
2.11394
 30
0.000000
  70
    32
  0
VERTEX
  8
AM_VIS
  5
9F4
 10
12.8985
 20
2.11292
 30
0.000000
  70
    32
  0
VERTEX
  8
AM_VIS
  5
9F5
 10
12.8998
 20
2.11191
 30
0.000000
  70
    32
  0
VERTEX
  8
AM_VIS
  5
9F6
 10
12.9012
 20
2.11091
 30
0.000000
  70
    32
  0
VERTEX
  8
AM_VIS
  5
9F7
 10
12.9026
 20
2.10991
 30
0.000000
  70
    32
  0
VERTEX
  8
AM_VIS
  5
9F8
 10
12.9040
 20
2.10891
 30
0.000000
  70
    32
  0
VERTEX
  8
AM_VIS
  5
9F9
 10
12.9053
 20
2.10792
 30
0.000000
  70
    32
  0
VERTEX
  8
AM_VIS
  5
9FA
 10
12.9067
 20
2.10694
 30
0.000000
  70
    32
  0
VERTEX
  8
AM_VIS
  5
9FB
 10
12.9081
 20
2.10596
 30
0.000000
  70
    32
  0
VERTEX
  8
AM_VIS
  5
9FC
 10
12.9095
 20
2.10498
 30
0.000000
  70
    32
  0
VERTEX
  8
AM_VIS
  5
9FD
 10
12.9109
 20
2.10401
 30
0.000000
  70
    32
  0
VERTEX
  8
AM_VIS
  5
9FE
 10
12.9123
 20
2.10305
 30
0.000000
  70
    32
  0
VERTEX
  8
AM_VIS
  5
9FF
 10
12.9137
 20
2.10209
 30
0.000000
  70
    32
  0
VERTEX
  8
AM_VIS
  5
A00
 10
12.9152
 20
2.10114
 30
0.000000
  70
    32
  0
VERTEX
  8
AM_VIS
  5
A01
 10
12.9166
 20
2.10020
 30
0.000000
  70
    32
  0
VERTEX
  8
AM_VIS
  5
A02
 10
12.9180
 20
2.09926
 30
0.000000
  70
    32
  0
VERTEX
  8
AM_VIS
  5
A03
 10
12.9194
 20
2.09832
 30
0.000000
  70
    32
  0
VERTEX
  8
AM_VIS
  5
A04
 10
12.9209
 20
2.09739
 30
0.000000
  70
    32
  0
VERTEX
  8
AM_VIS
  5
A05
 10
12.9223
 20
2.09647
 30
0.000000
  70
    32
  0
VERTEX
  8
AM_VIS
  5
A06
 10
12.9237
 20
2.09555
 30
0.000000
  70
    32
  0
VERTEX
  8
AM_VIS
  5
A07
 10
12.9252
 20
2.09464
 30
0.000000
  70
    32
  0
VERTEX
  8
AM_VIS
  5
A08
 10
12.9266
 20
2.09374
 30
0.000000
  70
    32
  0
VERTEX
  8
AM_VIS
  5
A09
 10
12.9280
 20
2.09284
 30
0.000000
  70
    32
  0
VERTEX
  8
AM_VIS
  5
A0A
 10
12.9295
 20
2.09194
 30
0.000000
  70
    32
  0
VERTEX
  8
AM_VIS
  5
A0B
 10
12.9310
 20
2.09105
 30
0.000000
  70
    32
  0
VERTEX
  8
AM_VIS
  5
A0C
 10
12.9324
 20
2.09017
 30
0.000000
  70
    32
  0
VERTEX
  8
AM_VIS
  5
A0D
 10
12.9339
 20
2.08929
 30
0.000000
  70
    32
  0
VERTEX
  8
AM_VIS
  5
A0E
 10
12.9353
 20
2.08842
 30
0.000000
  70
    32
  0
VERTEX
  8
AM_VIS
  5
A0F
 10
12.9368
 20
2.08756
 30
0.000000
  70
    32
  0
VERTEX
  8
AM_VIS
  5
A10
 10
12.9383
 20
2.08670
 30
0.000000
  70
    32
  0
VERTEX
  8
AM_VIS
  5
A11
 10
12.9397
 20
2.08585
 30
0.000000
  70
    32
  0
VERTEX
  8
AM_VIS
  5
A12
 10
12.9412
 20
2.08500
 30
0.000000
  70
    32
  0
VERTEX
  8
AM_VIS
  5
A13
 10
12.9427
 20
2.08416
 30
0.000000
  70
    32
  0
VERTEX
  8
AM_VIS
  5
A14
 10
12.9442
 20
2.08333
 30
0.000000
  70
    32
  0
VERTEX
  8
AM_VIS
  5
A15
 10
12.9457
 20
2.08250
 30
0.000000
  70
    32
  0
VERTEX
  8
AM_VIS
  5
A16
 10
12.9472
 20
2.08168
 30
0.000000
  70
    32
  0
VERTEX
  8
AM_VIS
  5
A17
 10
12.9487
 20
2.08086
 30
0.000000
  70
    32
  0
VERTEX
  8
AM_VIS
  5
A18
 10
12.9502
 20
2.08005
 30
0.000000
  70
    32
  0
VERTEX
  8
AM_VIS
  5
A19
 10
12.9517
 20
2.07925
 30
0.000000
  70
    32
  0
VERTEX
  8
AM_VIS
  5
A1A
 10
12.9532
 20
2.07845
 30
0.000000
  70
    32
  0
VERTEX
  8
AM_VIS
  5
A1B
 10
12.9547
 20
2.07766
 30
0.000000
  70
    32
  0
VERTEX
  8
AM_VIS
  5
A1C
 10
12.9562
 20
2.07688
 30
0.000000
  70
    32
  0
VERTEX
  8
AM_VIS
  5
A1D
 10
12.9577
 20
2.07610
 30
0.000000
  70
    32
  0
VERTEX
  8
AM_VIS
  5
A1E
 10
12.9592
 20
2.07533
 30
0.000000
  70
    32
  0
VERTEX
  8
AM_VIS
  5
A1F
 10
12.9608
 20
2.07456
 30
0.000000
  70
    32
  0
VERTEX
  8
AM_VIS
  5
A20
 10
12.9623
 20
2.07380
 30
0.000000
  70
    32
  0
VERTEX
  8
AM_VIS
  5
A21
 10
12.9638
 20
2.07305
 30
0.000000
  70
    32
  0
VERTEX
  8
AM_VIS
  5
A22
 10
12.9654
 20
2.07230
 30
0.000000
  70
    32
  0
VERTEX
  8
AM_VIS
  5
A23
 10
12.9669
 20
2.07156
 30
0.000000
  70
    32
  0
VERTEX
  8
AM_VIS
  5
A24
 10
12.9684
 20
2.07083
 30
0.000000
  70
    32
  0
VERTEX
  8
AM_VIS
  5
A25
 10
12.9700
 20
2.07010
 30
0.000000
  70
    32
  0
VERTEX
  8
AM_VIS
  5
A26
 10
12.9715
 20
2.06938
 30
0.000000
  70
    32
  0
VERTEX
  8
AM_VIS
  5
A27
 10
12.9731
 20
2.06867
 30
0.000000
  70
    32
  0
VERTEX
  8
AM_VIS
  5
A28
 10
12.9746
 20
2.06796
 30
0.000000
  70
    32
  0
VERTEX
  8
AM_VIS
  5
A29
 10
12.9762
 20
2.06726
 30
0.000000
  70
    32
  0
VERTEX
  8
AM_VIS
  5
A2A
 10
12.9778
 20
2.06657
 30
0.000000
  70
    32
  0
VERTEX
  8
AM_VIS
  5
A2B
 10
12.9793
 20
2.06588
 30
0.000000
  70
    32
  0
VERTEX
  8
AM_VIS
  5
A2C
 10
12.9809
 20
2.06520
 30
0.000000
  70
    32
  0
VERTEX
  8
AM_VIS
  5
A2D
 10
12.9825
 20
2.06453
 30
0.000000
  70
    32
  0
VERTEX
  8
AM_VIS
  5
A2E
 10
12.9841
 20
2.06386
 30
0.000000
  70
    32
  0
VERTEX
  8
AM_VIS
  5
A2F
 10
12.9856
 20
2.06320
 30
0.000000
  70
    32
  0
VERTEX
  8
AM_VIS
  5
A30
 10
12.9872
 20
2.06255
 30
0.000000
  70
    32
  0
VERTEX
  8
AM_VIS
  5
A31
 10
12.9888
 20
2.06191
 30
0.000000
  70
    32
  0
VERTEX
  8
AM_VIS
  5
A32
 10
12.9904
 20
2.06127
 30
0.000000
  70
    32
  0
VERTEX
  8
AM_VIS
  5
A33
 10
12.9920
 20
2.06064
 30
0.000000
  70
    32
  0
VERTEX
  8
AM_VIS
  5
A34
 10
12.9936
 20
2.06001
 30
0.000000
  70
    32
  0
VERTEX
  8
AM_VIS
  5
A35
 10
12.9951
 20
2.05940
 30
0.000000
  70
    32
  0
VERTEX
  8
AM_VIS
  5
A36
 10
12.9967
 20
2.05879
 30
0.000000
  70
    32
  0
VERTEX
  8
AM_VIS
  5
A37
 10
12.9983
 20
2.05819
 30
0.000000
  70
    32
  0
VERTEX
  8
AM_VIS
  5
A38
 10
12.9999
 20
2.05760
 30
0.000000
  70
    32
  0
VERTEX
  8
AM_VIS
  5
A39
 10
13.0015
 20
2.05701
 30
0.000000
  70
    32
  0
VERTEX
  8
AM_VIS
  5
A3A
 10
13.0031
 20
2.05643
 30
0.000000
  70
    32
  0
VERTEX
  8
AM_VIS
  5
A3B
 10
13.0047
 20
2.05586
 30
0.000000
  70
    32
  0
VERTEX
  8
AM_VIS
  5
A3C
 10
13.0063
 20
2.05530
 30
0.000000
  70
    32
  0
VERTEX
  8
AM_VIS
  5
A3D
 10
13.0079
 20
2.05474
 30
0.000000
  70
    32
  0
VERTEX
  8
AM_VIS
  5
A3E
 10
13.0096
 20
2.05419
 30
0.000000
  70
    32
  0
VERTEX
  8
AM_VIS
  5
A3F
 10
13.0112
 20
2.05365
 30
0.000000
  70
    32
  0
VERTEX
  8
AM_VIS
  5
A40
 10
13.0128
 20
2.05311
 30
0.000000
  70
    32
  0
VERTEX
  8
AM_VIS
  5
A41
 10
13.0144
 20
2.05259
 30
0.000000
  70
    32
  0
VERTEX
  8
AM_VIS
  5
A42
 10
13.0160
 20
2.05207
 30
0.000000
  70
    32
  0
VERTEX
  8
AM_VIS
  5
A43
 10
13.0176
 20
2.05155
 30
0.000000
  70
    32
  0
VERTEX
  8
AM_VIS
  5
A44
 10
13.0193
 20
2.05105
 30
0.000000
  70
    32
  0
VERTEX
  8
AM_VIS
  5
A45
 10
13.0209
 20
2.05055
 30
0.000000
  70
    32
  0
VERTEX
  8
AM_VIS
  5
A46
 10
13.0225
 20
2.05006
 30
0.000000
  70
    32
  0
VERTEX
  8
AM_VIS
  5
A47
 10
13.0241
 20
2.04958
 30
0.000000
  70
    32
  0
VERTEX
  8
AM_VIS
  5
A48
 10
13.0258
 20
2.04910
 30
0.000000
  70
    32
  0
VERTEX
  8
AM_VIS
  5
A49
 10
13.0274
 20
2.04864
 30
0.000000
  70
    32
  0
VERTEX
  8
AM_VIS
  5
A4A
 10
13.0290
 20
2.04818
 30
0.000000
  70
    32
  0
VERTEX
  8
AM_VIS
  5
A4B
 10
13.0307
 20
2.04772
 30
0.000000
  70
    32
  0
VERTEX
  8
AM_VIS
  5
A4C
 10
13.0323
 20
2.04728
 30
0.000000
  70
    32
  0
VERTEX
  8
AM_VIS
  5
A4D
 10
13.0339
 20
2.04684
 30
0.000000
  70
    32
  0
VERTEX
  8
AM_VIS
  5
A4E
 10
13.0356
 20
2.04641
 30
0.000000
  70
    32
  0
VERTEX
  8
AM_VIS
  5
A4F
 10
13.0372
 20
2.04599
 30
0.000000
  70
    32
  0
VERTEX
  8
AM_VIS
  5
A50
 10
13.0389
 20
2.04558
 30
0.000000
  70
    32
  0
VERTEX
  8
AM_VIS
  5
A51
 10
13.0405
 20
2.04517
 30
0.000000
  70
    32
  0
VERTEX
  8
AM_VIS
  5
A52
 10
13.0422
 20
2.04477
 30
0.000000
  70
    32
  0
VERTEX
  8
AM_VIS
  5
A53
 10
13.0438
 20
2.04438
 30
0.000000
  70
    32
  0
VERTEX
  8
AM_VIS
  5
A54
 10
13.0455
 20
2.04399
 30
0.000000
  70
    32
  0
VERTEX
  8
AM_VIS
  5
A55
 10
13.0471
 20
2.04362
 30
0.000000
  70
    32
  0
VERTEX
  8
AM_VIS
  5
A56
 10
13.0488
 20
2.04325
 30
0.000000
  70
    32
  0
SEQEND
  8
AM_VIS
  5
A57
  0
ARC
  5
4C
  8
AM_VIS
 10
13.24465151798695
 20
2.5178968693786739
 30
0.0
 40
0.5539929692523744
 50
129.79866826003371
 51
178.09121108647051
  0
LINE
  5
4D
  8
AM_VIS
 10
11.380932397103081
 20
5.0233416319241071
 30
0.0
 11
11.930543213288001
 21
1.90634380222928
 31
0.0
  0
LINE
  5
4E
  8
AM_VIS
 10
13.072898151659469
 20
1.9063438022292809
 30
0.0
 11
11.930543213288001
 21
1.9063438022292809
 31
0.0
  0
LINE
  5
4F
  8
AM_HID
 10
12.89388455777569
 20
2.1954781516250952
 30
0.0
 11
12.92088639161638
 21
2.1954781516250952
 31
0.0
  0
LINE
  5
50
  8
AM_HID
 10
12.92088639161638
 20
2.1954781516250952
 30
0.0
 11
12.910505345409421
 21
2.2543519902472329
 31
0.0
  0
LINE
  5
51
  8
AM_HID
 10
11.577893947705521
 20
5.0580712674574944
 30
0.0
 11
12.082646348817081
 21
2.1954781516250952
 31
0.0
  0
LINE
  5
52
  8
AM_HID
 10
12.77890136485191
 20
3.5736824342770328
 30
0.0
 11
12.677871791656891
 21
3.5736824342770328
 31
0.0
  0
ARC
  5
53
  8
AM_HID
 10
15.72097790171715
 20
5.0577370359208826
 30
0.0
 40
1.03117612889011
 50
287.56180279889469
 51
293.99314972534319
  0
LINE
  5
54
  8
AM_HID
 10
15.04133991755125
 20
2.6596425067158882
 30
0.0
 11
15.16670668087
 21
2.838684799861261
 31
0.0
  0
LINE
  5
55
  8
AM_HID
 10
15.22000340379422
 20
2.8013660327078478
 30
0.0
 11
15.16670668087
 21
2.8386847998612641
 31
0.0
  0
LINE
  5
56
  8
AM_HID
 10
15.6603682599163
 20
3.5437065999813959
 30
0.0
 11
16.032119174019272
 21
4.0746219269621138
 31
0.0
  0
LINE
  5
57
  8
AM_HID
 10
15.613714820072561
 20
3.477078582860897
 30
0.0
 11
15.6603682599163
 21
3.5437065999813959
 31
0.0
  0
LINE
  5
58
  8
AM_HID
 10
15.16670668087
 20
2.8386847998612601
 30
0.0
 11
15.613714820072561
 21
3.477078582860897
 31
0.0
  0
LINE
  5
59
  8
AM_HID
 10
15.66701154299678
 20
3.439759815707482
 30
0.0
 11
15.22000340379422
 21
2.8013660327078478
 31
0.0
  0
LINE
  5
5A
  8
AM_HID
 10
14.030543213288009
 20
3.4564107816066709
 30
0.0
 11
15.083156616447839
 21
2.7193629418935799
 31
0.0
  0
ARC
  5
5B
  8
AM_HID
 10
13.20282674017567
 20
5.3445907606079297
 30
0.0
 40
1.649999999999999
 50
40.000000000000007
 51
190.0
  0
ARC
  5
5C
  8
AM_VIS
 10
13.20282674017567
 20
5.3445907606079297
 30
0.0
 40
1.849999999999999
 50
40.000000000000021
 51
190.0
  0
POLYLINE
  8
AM_VIS
  5
A58
  66
     1
 10
0.000000
 20
0.000000
 30
0.000000
  70
     8
  0
VERTEX
  8
AM_VIS
  5
A59
 10
13.0488
 20
2.04325
 30
0.000000
  70
    32
  0
VERTEX
  8
AM_VIS
  5
A5A
 10
13.0492
 20
2.04315
 30
0.000000
  70
    32
  0
VERTEX
  8
AM_VIS
  5
A5B
 10
13.0496
 20
2.04306
 30
0.000000
  70
    32
  0
VERTEX
  8
AM_VIS
  5
A5C
 10
13.0501
 20
2.04296
 30
0.000000
  70
    32
  0
VERTEX
  8
AM_VIS
  5
A5D
 10
13.0505
 20
2.04287
 30
0.000000
  70
    32
  0
VERTEX
  8
AM_VIS
  5
A5E
 10
13.0510
 20
2.04277
 30
0.000000
  70
    32
  0
VERTEX
  8
AM_VIS
  5
A5F
 10
13.0514
 20
2.04268
 30
0.000000
  70
    32
  0
VERTEX
  8
AM_VIS
  5
A60
 10
13.0519
 20
2.04259
 30
0.000000
  70
    32
  0
VERTEX
  8
AM_VIS
  5
A61
 10
13.0523
 20
2.04249
 30
0.000000
  70
    32
  0
VERTEX
  8
AM_VIS
  5
A62
 10
13.0527
 20
2.04240
 30
0.000000
  70
    32
  0
VERTEX
  8
AM_VIS
  5
A63
 10
13.0532
 20
2.04231
 30
0.000000
  70
    32
  0
VERTEX
  8
AM_VIS
  5
A64
 10
13.0536
 20
2.04222
 30
0.000000
  70
    32
  0
VERTEX
  8
AM_VIS
  5
A65
 10
13.0541
 20
2.04213
 30
0.000000
  70
    32
  0
VERTEX
  8
AM_VIS
  5
A66
 10
13.0545
 20
2.04205
 30
0.000000
  70
    32
  0
VERTEX
  8
AM_VIS
  5
A67
 10
13.0549
 20
2.04196
 30
0.000000
  70
    32
  0
VERTEX
  8
AM_VIS
  5
A68
 10
13.0554
 20
2.04187
 30
0.000000
  70
    32
  0
VERTEX
  8
AM_VIS
  5
A69
 10
13.0558
 20
2.04179
 30
0.000000
  70
    32
  0
VERTEX
  8
AM_VIS
  5
A6A
 10
13.0563
 20
2.04170
 30
0.000000
  70
    32
  0
VERTEX
  8
AM_VIS
  5
A6B
 10
13.0567
 20
2.04162
 30
0.000000
  70
    32
  0
VERTEX
  8
AM_VIS
  5
A6C
 10
13.0572
 20
2.04153
 30
0.000000
  70
    32
  0
VERTEX
  8
AM_VIS
  5
A6D
 10
13.0576
 20
2.04145
 30
0.000000
  70
    32
  0
VERTEX
  8
AM_VIS
  5
A6E
 10
13.0581
 20
2.04137
 30
0.000000
  70
    32
  0
VERTEX
  8
AM_VIS
  5
A6F
 10
13.0585
 20
2.04129
 30
0.000000
  70
    32
  0
VERTEX
  8
AM_VIS
  5
A70
 10
13.0589
 20
2.04121
 30
0.000000
  70
    32
  0
VERTEX
  8
AM_VIS
  5
A71
 10
13.0594
 20
2.04113
 30
0.000000
  70
    32
  0
VERTEX
  8
AM_VIS
  5
A72
 10
13.0598
 20
2.04105
 30
0.000000
  70
    32
  0
VERTEX
  8
AM_VIS
  5
A73
 10
13.0603
 20
2.04097
 30
0.000000
  70
    32
  0
VERTEX
  8
AM_VIS
  5
A74
 10
13.0607
 20
2.04089
 30
0.000000
  70
    32
  0
VERTEX
  8
AM_VIS
  5
A75
 10
13.0612
 20
2.04081
 30
0.000000
  70
    32
  0
VERTEX
  8
AM_VIS
  5
A76
 10
13.0616
 20
2.04074
 30
0.000000
  70
    32
  0
VERTEX
  8
AM_VIS
  5
A77
 10
13.0620
 20
2.04066
 30
0.000000
  70
    32
  0
VERTEX
  8
AM_VIS
  5
A78
 10
13.0625
 20
2.04059
 30
0.000000
  70
    32
  0
VERTEX
  8
AM_VIS
  5
A79
 10
13.0629
 20
2.04051
 30
0.000000
  70
    32
  0
VERTEX
  8
AM_VIS
  5
A7A
 10
13.0634
 20
2.04044
 30
0.000000
  70
    32
  0
VERTEX
  8
AM_VIS
  5
A7B
 10
13.0638
 20
2.04037
 30
0.000000
  70
    32
  0
VERTEX
  8
AM_VIS
  5
A7C
 10
13.0643
 20
2.04030
 30
0.000000
  70
    32
  0
VERTEX
  8
AM_VIS
  5
A7D
 10
13.0647
 20
2.04023
 30
0.000000
  70
    32
  0
VERTEX
  8
AM_VIS
  5
A7E
 10
13.0652
 20
2.04016
 30
0.000000
  70
    32
  0
VERTEX
  8
AM_VIS
  5
A7F
 10
13.0656
 20
2.04009
 30
0.000000
  70
    32
  0
VERTEX
  8
AM_VIS
  5
A80
 10
13.0660
 20
2.04002
 30
0.000000
  70
    32
  0
VERTEX
  8
AM_VIS
  5
A81
 10
13.0665
 20
2.03995
 30
0.000000
  70
    32
  0
VERTEX
  8
AM_VIS
  5
A82
 10
13.0669
 20
2.03988
 30
0.000000
  70
    32
  0
VERTEX
  8
AM_VIS
  5
A83
 10
13.0674
 20
2.03982
 30
0.000000
  70
    32
  0
VERTEX
  8
AM_VIS
  5
A84
 10
13.0678
 20
2.03975
 30
0.000000
  70
    32
  0
VERTEX
  8
AM_VIS
  5
A85
 10
13.0683
 20
2.03969
 30
0.000000
  70
    32
  0
VERTEX
  8
AM_VIS
  5
A86
 10
13.0687
 20
2.03962
 30
0.000000
  70
    32
  0
VERTEX
  8
AM_VIS
  5
A87
 10
13.0692
 20
2.03956
 30
0.000000
  70
    32
  0
VERTEX
  8
AM_VIS
  5
A88
 10
13.0696
 20
2.03950
 30
0.000000
  70
    32
  0
VERTEX
  8
AM_VIS
  5
A89
 10
13.0701
 20
2.03944
 30
0.000000
  70
    32
  0
VERTEX
  8
AM_VIS
  5
A8A
 10
13.0705
 20
2.03937
 30
0.000000
  70
    32
  0
VERTEX
  8
AM_VIS
  5
A8B
 10
13.0710
 20
2.03931
 30
0.000000
  70
    32
  0
VERTEX
  8
AM_VIS
  5
A8C
 10
13.0714
 20
2.03925
 30
0.000000
  70
    32
  0
VERTEX
  8
AM_VIS
  5
A8D
 10
13.0718
 20
2.03920
 30
0.000000
  70
    32
  0
VERTEX
  8
AM_VIS
  5
A8E
 10
13.0723
 20
2.03914
 30
0.000000
  70
    32
  0
VERTEX
  8
AM_VIS
  5
A8F
 10
13.0727
 20
2.03908
 30
0.000000
  70
    32
  0
VERTEX
  8
AM_VIS
  5
A90
 10
13.0732
 20
2.03902
 30
0.000000
  70
    32
  0
VERTEX
  8
AM_VIS
  5
A91
 10
13.0736
 20
2.03897
 30
0.000000
  70
    32
  0
VERTEX
  8
AM_VIS
  5
A92
 10
13.0741
 20
2.03891
 30
0.000000
  70
    32
  0
VERTEX
  8
AM_VIS
  5
A93
 10
13.0745
 20
2.03886
 30
0.000000
  70
    32
  0
VERTEX
  8
AM_VIS
  5
A94
 10
13.0750
 20
2.03881
 30
0.000000
  70
    32
  0
VERTEX
  8
AM_VIS
  5
A95
 10
13.0754
 20
2.03875
 30
0.000000
  70
    32
  0
VERTEX
  8
AM_VIS
  5
A96
 10
13.0759
 20
2.03870
 30
0.000000
  70
    32
  0
VERTEX
  8
AM_VIS
  5
A97
 10
13.0763
 20
2.03865
 30
0.000000
  70
    32
  0
VERTEX
  8
AM_VIS
  5
A98
 10
13.0768
 20
2.03860
 30
0.000000
  70
    32
  0
VERTEX
  8
AM_VIS
  5
A99
 10
13.0772
 20
2.03855
 30
0.000000
  70
    32
  0
VERTEX
  8
AM_VIS
  5
A9A
 10
13.0777
 20
2.03850
 30
0.000000
  70
    32
  0
VERTEX
  8
AM_VIS
  5
A9B
 10
13.0781
 20
2.03845
 30
0.000000
  70
    32
  0
VERTEX
  8
AM_VIS
  5
A9C
 10
13.0785
 20
2.03841
 30
0.000000
  70
    32
  0
VERTEX
  8
AM_VIS
  5
A9D
 10
13.0790
 20
2.03836
 30
0.000000
  70
    32
  0
VERTEX
  8
AM_VIS
  5
A9E
 10
13.0794
 20
2.03831
 30
0.000000
  70
    32
  0
VERTEX
  8
AM_VIS
  5
A9F
 10
13.0799
 20
2.03827
 30
0.000000
  70
    32
  0
VERTEX
  8
AM_VIS
  5
AA0
 10
13.0803
 20
2.03823
 30
0.000000
  70
    32
  0
VERTEX
  8
AM_VIS
  5
AA1
 10
13.0808
 20
2.03818
 30
0.000000
  70
    32
  0
VERTEX
  8
AM_VIS
  5
AA2
 10
13.0812
 20
2.03814
 30
0.000000
  70
    32
  0
VERTEX
  8
AM_VIS
  5
AA3
 10
13.0817
 20
2.03810
 30
0.000000
  70
    32
  0
VERTEX
  8
AM_VIS
  5
AA4
 10
13.0821
 20
2.03806
 30
0.000000
  70
    32
  0
VERTEX
  8
AM_VIS
  5
AA5
 10
13.0826
 20
2.03802
 30
0.000000
  70
    32
  0
VERTEX
  8
AM_VIS
  5
AA6
 10
13.0830
 20
2.03798
 30
0.000000
  70
    32
  0
VERTEX
  8
AM_VIS
  5
AA7
 10
13.0835
 20
2.03794
 30
0.000000
  70
    32
  0
VERTEX
  8
AM_VIS
  5
AA8
 10
13.0839
 20
2.03790
 30
0.000000
  70
    32
  0
VERTEX
  8
AM_VIS
  5
AA9
 10
13.0844
 20
2.03786
 30
0.000000
  70
    32
  0
VERTEX
  8
AM_VIS
  5
AAA
 10
13.0848
 20
2.03783
 30
0.000000
  70
    32
  0
VERTEX
  8
AM_VIS
  5
AAB
 10
13.0853
 20
2.03779
 30
0.000000
  70
    32
  0
VERTEX
  8
AM_VIS
  5
AAC
 10
13.0857
 20
2.03776
 30
0.000000
  70
    32
  0
VERTEX
  8
AM_VIS
  5
AAD
 10
13.0862
 20
2.03772
 30
0.000000
  70
    32
  0
VERTEX
  8
AM_VIS
  5
AAE
 10
13.0866
 20
2.03769
 30
0.000000
  70
    32
  0
VERTEX
  8
AM_VIS
  5
AAF
 10
13.0871
 20
2.03766
 30
0.000000
  70
    32
  0
VERTEX
  8
AM_VIS
  5
AB0
 10
13.0875
 20
2.03762
 30
0.000000
  70
    32
  0
VERTEX
  8
AM_VIS
  5
AB1
 10
13.0880
 20
2.03759
 30
0.000000
  70
    32
  0
VERTEX
  8
AM_VIS
  5
AB2
 10
13.0884
 20
2.03756
 30
0.000000
  70
    32
  0
VERTEX
  8
AM_VIS
  5
AB3
 10
13.0889
 20
2.03753
 30
0.000000
  70
    32
  0
VERTEX
  8
AM_VIS
  5
AB4
 10
13.0893
 20
2.03751
 30
0.000000
  70
    32
  0
VERTEX
  8
AM_VIS
  5
AB5
 10
13.0898
 20
2.03748
 30
0.000000
  70
    32
  0
VERTEX
  8
AM_VIS
  5
AB6
 10
13.0902
 20
2.03745
 30
0.000000
  70
    32
  0
VERTEX
  8
AM_VIS
  5
AB7
 10
13.0907
 20
2.03742
 30
0.000000
  70
    32
  0
VERTEX
  8
AM_VIS
  5
AB8
 10
13.0911
 20
2.03740
 30
0.000000
  70
    32
  0
VERTEX
  8
AM_VIS
  5
AB9
 10
13.0916
 20
2.03737
 30
0.000000
  70
    32
  0
VERTEX
  8
AM_VIS
  5
ABA
 10
13.0920
 20
2.03735
 30
0.000000
  70
    32
  0
VERTEX
  8
AM_VIS
  5
ABB
 10
13.0925
 20
2.03733
 30
0.000000
  70
    32
  0
VERTEX
  8
AM_VIS
  5
ABC
 10
13.0929
 20
2.03730
 30
0.000000
  70
    32
  0
VERTEX
  8
AM_VIS
  5
ABD
 10
13.0934
 20
2.03728
 30
0.000000
  70
    32
  0
VERTEX
  8
AM_VIS
  5
ABE
 10
13.0938
 20
2.03726
 30
0.000000
  70
    32
  0
VERTEX
  8
AM_VIS
  5
ABF
 10
13.0943
 20
2.03724
 30
0.000000
  70
    32
  0
VERTEX
  8
AM_VIS
  5
AC0
 10
13.0947
 20
2.03722
 30
0.000000
  70
    32
  0
VERTEX
  8
AM_VIS
  5
AC1
 10
13.0952
 20
2.03720
 30
0.000000
  70
    32
  0
VERTEX
  8
AM_VIS
  5
AC2
 10
13.0956
 20
2.03719
 30
0.000000
  70
    32
  0
VERTEX
  8
AM_VIS
  5
AC3
 10
13.0961
 20
2.03717
 30
0.000000
  70
    32
  0
VERTEX
  8
AM_VIS
  5
AC4
 10
13.0965
 20
2.03715
 30
0.000000
  70
    32
  0
VERTEX
  8
AM_VIS
  5
AC5
 10
13.0970
 20
2.03714
 30
0.000000
  70
    32
  0
VERTEX
  8
AM_VIS
  5
AC6
 10
13.0974
 20
2.03712
 30
0.000000
  70
    32
  0
VERTEX
  8
AM_VIS
  5
AC7
 10
13.0979
 20
2.03711
 30
0.000000
  70
    32
  0
VERTEX
  8
AM_VIS
  5
AC8
 10
13.0983
 20
2.03710
 30
0.000000
  70
    32
  0
VERTEX
  8
AM_VIS
  5
AC9
 10
13.0988
 20
2.03708
 30
0.000000
  70
    32
  0
VERTEX
  8
AM_VIS
  5
ACA
 10
13.0992
 20
2.03707
 30
0.000000
  70
    32
  0
VERTEX
  8
AM_VIS
  5
ACB
 10
13.0997
 20
2.03706
 30
0.000000
  70
    32
  0
VERTEX
  8
AM_VIS
  5
ACC
 10
13.1001
 20
2.03705
 30
0.000000
  70
    32
  0
VERTEX
  8
AM_VIS
  5
ACD
 10
13.1006
 20
2.03704
 30
0.000000
  70
    32
  0
VERTEX
  8
AM_VIS
  5
ACE
 10
13.1010
 20
2.03703
 30
0.000000
  70
    32
  0
VERTEX
  8
AM_VIS
  5
ACF
 10
13.1015
 20
2.03703
 30
0.000000
  70
    32
  0
VERTEX
  8
AM_VIS
  5
AD0
 10
13.1019
 20
2.03702
 30
0.000000
  70
    32
  0
VERTEX
  8
AM_VIS
  5
AD1
 10
13.1024
 20
2.03701
 30
0.000000
  70
    32
  0
VERTEX
  8
AM_VIS
  5
AD2
 10
13.1028
 20
2.03701
 30
0.000000
  70
    32
  0
VERTEX
  8
AM_VIS
  5
AD3
 10
13.1033
 20
2.03700
 30
0.000000
  70
    32
  0
VERTEX
  8
AM_VIS
  5
AD4
 10
13.1037
 20
2.03700
 30
0.000000
  70
    32
  0
VERTEX
  8
AM_VIS
  5
AD5
 10
13.1042
 20
2.03700
 30
0.000000
  70
    32
  0
VERTEX
  8
AM_VIS
  5
AD6
 10
13.1046
 20
2.03700
 30
0.000000
  70
    32
  0
VERTEX
  8
AM_VIS
  5
AD7
 10
13.1051
 20
2.03699
 30
0.000000
  70
    32
  0
VERTEX
  8
AM_VIS
  5
AD8
 10
13.1055
 20
2.03699
 30
0.000000
  70
    32
  0
SEQEND
  8
AM_VIS
  5
AD9
  0
LINE
  5
5E
  8
AM_VIS
 10
13.10554321328801
 20
1.9063438022292809
 30
0.0
 11
13.072898151659469
 21
1.9063438022292809
 31
0.0
  0
POLYLINE
  8
AM_VIS
  5
ADA
  66
     1
 10
0.000000
 20
0.000000
 30
0.000000
  70
     8
  0
VERTEX
  8
AM_VIS
  5
ADB
 10
13.1055
 20
2.03699
 30
0.000000
  70
    32
  0
VERTEX
  8
AM_VIS
  5
ADC
 10
13.1075
 20
2.03700
 30
0.000000
  70
    32
  0
VERTEX
  8
AM_VIS
  5
ADD
 10
13.1094
 20
2.03702
 30
0.000000
  70
    32
  0
VERTEX
  8
AM_VIS
  5
ADE
 10
13.1113
 20
2.03704
 30
0.000000
  70
    32
  0
VERTEX
  8
AM_VIS
  5
ADF
 10
13.1133
 20
2.03708
 30
0.000000
  70
    32
  0
VERTEX
  8
AM_VIS
  5
AE0
 10
13.1152
 20
2.03712
 30
0.000000
  70
    32
  0
VERTEX
  8
AM_VIS
  5
AE1
 10
13.1171
 20
2.03718
 30
0.000000
  70
    32
  0
VERTEX
  8
AM_VIS
  5
AE2
 10
13.1190
 20
2.03725
 30
0.000000
  70
    32
  0
VERTEX
  8
AM_VIS
  5
AE3
 10
13.1209
 20
2.03732
 30
0.000000
  70
    32
  0
VERTEX
  8
AM_VIS
  5
AE4
 10
13.1229
 20
2.03741
 30
0.000000
  70
    32
  0
VERTEX
  8
AM_VIS
  5
AE5
 10
13.1248
 20
2.03751
 30
0.000000
  70
    32
  0
VERTEX
  8
AM_VIS
  5
AE6
 10
13.1267
 20
2.03761
 30
0.000000
  70
    32
  0
VERTEX
  8
AM_VIS
  5
AE7
 10
13.1286
 20
2.03773
 30
0.000000
  70
    32
  0
VERTEX
  8
AM_VIS
  5
AE8
 10
13.1305
 20
2.03786
 30
0.000000
  70
    32
  0
VERTEX
  8
AM_VIS
  5
AE9
 10
13.1324
 20
2.03800
 30
0.000000
  70
    32
  0
VERTEX
  8
AM_VIS
  5
AEA
 10
13.1343
 20
2.03814
 30
0.000000
  70
    32
  0
VERTEX
  8
AM_VIS
  5
AEB
 10
13.1363
 20
2.03830
 30
0.000000
  70
    32
  0
VERTEX
  8
AM_VIS
  5
AEC
 10
13.1382
 20
2.03847
 30
0.000000
  70
    32
  0
VERTEX
  8
AM_VIS
  5
AED
 10
13.1401
 20
2.03865
 30
0.000000
  70
    32
  0
VERTEX
  8
AM_VIS
  5
AEE
 10
13.1420
 20
2.03884
 30
0.000000
  70
    32
  0
VERTEX
  8
AM_VIS
  5
AEF
 10
13.1439
 20
2.03903
 30
0.000000
  70
    32
  0
VERTEX
  8
AM_VIS
  5
AF0
 10
13.1458
 20
2.03924
 30
0.000000
  70
    32
  0
VERTEX
  8
AM_VIS
  5
AF1
 10
13.1477
 20
2.03946
 30
0.000000
  70
    32
  0
VERTEX
  8
AM_VIS
  5
AF2
 10
13.1496
 20
2.03969
 30
0.000000
  70
    32
  0
VERTEX
  8
AM_VIS
  5
AF3
 10
13.1515
 20
2.03992
 30
0.000000
  70
    32
  0
VERTEX
  8
AM_VIS
  5
AF4
 10
13.1534
 20
2.04017
 30
0.000000
  70
    32
  0
VERTEX
  8
AM_VIS
  5
AF5
 10
13.1553
 20
2.04043
 30
0.000000
  70
    32
  0
VERTEX
  8
AM_VIS
  5
AF6
 10
13.1571
 20
2.04069
 30
0.000000
  70
    32
  0
VERTEX
  8
AM_VIS
  5
AF7
 10
13.1590
 20
2.04097
 30
0.000000
  70
    32
  0
VERTEX
  8
AM_VIS
  5
AF8
 10
13.1609
 20
2.04126
 30
0.000000
  70
    32
  0
VERTEX
  8
AM_VIS
  5
AF9
 10
13.1628
 20
2.04155
 30
0.000000
  70
    32
  0
VERTEX
  8
AM_VIS
  5
AFA
 10
13.1647
 20
2.04186
 30
0.000000
  70
    32
  0
VERTEX
  8
AM_VIS
  5
AFB
 10
13.1666
 20
2.04218
 30
0.000000
  70
    32
  0
VERTEX
  8
AM_VIS
  5
AFC
 10
13.1685
 20
2.04250
 30
0.000000
  70
    32
  0
VERTEX
  8
AM_VIS
  5
AFD
 10
13.1703
 20
2.04284
 30
0.000000
  70
    32
  0
VERTEX
  8
AM_VIS
  5
AFE
 10
13.1722
 20
2.04318
 30
0.000000
  70
    32
  0
VERTEX
  8
AM_VIS
  5
AFF
 10
13.1741
 20
2.04354
 30
0.000000
  70
    32
  0
VERTEX
  8
AM_VIS
  5
B00
 10
13.1760
 20
2.04390
 30
0.000000
  70
    32
  0
VERTEX
  8
AM_VIS
  5
B01
 10
13.1778
 20
2.04427
 30
0.000000
  70
    32
  0
VERTEX
  8
AM_VIS
  5
B02
 10
13.1797
 20
2.04466
 30
0.000000
  70
    32
  0
VERTEX
  8
AM_VIS
  5
B03
 10
13.1816
 20
2.04505
 30
0.000000
  70
    32
  0
VERTEX
  8
AM_VIS
  5
B04
 10
13.1834
 20
2.04545
 30
0.000000
  70
    32
  0
VERTEX
  8
AM_VIS
  5
B05
 10
13.1853
 20
2.04586
 30
0.000000
  70
    32
  0
VERTEX
  8
AM_VIS
  5
B06
 10
13.1871
 20
2.04629
 30
0.000000
  70
    32
  0
VERTEX
  8
AM_VIS
  5
B07
 10
13.1890
 20
2.04672
 30
0.000000
  70
    32
  0
VERTEX
  8
AM_VIS
  5
B08
 10
13.1909
 20
2.04716
 30
0.000000
  70
    32
  0
VERTEX
  8
AM_VIS
  5
B09
 10
13.1927
 20
2.04761
 30
0.000000
  70
    32
  0
VERTEX
  8
AM_VIS
  5
B0A
 10
13.1946
 20
2.04807
 30
0.000000
  70
    32
  0
VERTEX
  8
AM_VIS
  5
B0B
 10
13.1964
 20
2.04854
 30
0.000000
  70
    32
  0
VERTEX
  8
AM_VIS
  5
B0C
 10
13.1983
 20
2.04902
 30
0.000000
  70
    32
  0
VERTEX
  8
AM_VIS
  5
B0D
 10
13.2001
 20
2.04950
 30
0.000000
  70
    32
  0
VERTEX
  8
AM_VIS
  5
B0E
 10
13.2019
 20
2.05000
 30
0.000000
  70
    32
  0
VERTEX
  8
AM_VIS
  5
B0F
 10
13.2038
 20
2.05051
 30
0.000000
  70
    32
  0
VERTEX
  8
AM_VIS
  5
B10
 10
13.2056
 20
2.05102
 30
0.000000
  70
    32
  0
VERTEX
  8
AM_VIS
  5
B11
 10
13.2075
 20
2.05155
 30
0.000000
  70
    32
  0
VERTEX
  8
AM_VIS
  5
B12
 10
13.2093
 20
2.05208
 30
0.000000
  70
    32
  0
VERTEX
  8
AM_VIS
  5
B13
 10
13.2111
 20
2.05263
 30
0.000000
  70
    32
  0
VERTEX
  8
AM_VIS
  5
B14
 10
13.2129
 20
2.05318
 30
0.000000
  70
    32
  0
VERTEX
  8
AM_VIS
  5
B15
 10
13.2148
 20
2.05374
 30
0.000000
  70
    32
  0
VERTEX
  8
AM_VIS
  5
B16
 10
13.2166
 20
2.05431
 30
0.000000
  70
    32
  0
VERTEX
  8
AM_VIS
  5
B17
 10
13.2184
 20
2.05489
 30
0.000000
  70
    32
  0
VERTEX
  8
AM_VIS
  5
B18
 10
13.2202
 20
2.05548
 30
0.000000
  70
    32
  0
VERTEX
  8
AM_VIS
  5
B19
 10
13.2221
 20
2.05608
 30
0.000000
  70
    32
  0
VERTEX
  8
AM_VIS
  5
B1A
 10
13.2239
 20
2.05669
 30
0.000000
  70
    32
  0
VERTEX
  8
AM_VIS
  5
B1B
 10
13.2257
 20
2.05731
 30
0.000000
  70
    32
  0
VERTEX
  8
AM_VIS
  5
B1C
 10
13.2275
 20
2.05794
 30
0.000000
  70
    32
  0
VERTEX
  8
AM_VIS
  5
B1D
 10
13.2293
 20
2.05857
 30
0.000000
  70
    32
  0
VERTEX
  8
AM_VIS
  5
B1E
 10
13.2311
 20
2.05922
 30
0.000000
  70
    32
  0
VERTEX
  8
AM_VIS
  5
B1F
 10
13.2329
 20
2.05987
 30
0.000000
  70
    32
  0
VERTEX
  8
AM_VIS
  5
B20
 10
13.2347
 20
2.06053
 30
0.000000
  70
    32
  0
VERTEX
  8
AM_VIS
  5
B21
 10
13.2365
 20
2.06120
 30
0.000000
  70
    32
  0
VERTEX
  8
AM_VIS
  5
B22
 10
13.2383
 20
2.06188
 30
0.000000
  70
    32
  0
VERTEX
  8
AM_VIS
  5
B23
 10
13.2401
 20
2.06257
 30
0.000000
  70
    32
  0
VERTEX
  8
AM_VIS
  5
B24
 10
13.2419
 20
2.06327
 30
0.000000
  70
    32
  0
VERTEX
  8
AM_VIS
  5
B25
 10
13.2436
 20
2.06398
 30
0.000000
  70
    32
  0
VERTEX
  8
AM_VIS
  5
B26
 10
13.2454
 20
2.06469
 30
0.000000
  70
    32
  0
VERTEX
  8
AM_VIS
  5
B27
 10
13.2472
 20
2.06542
 30
0.000000
  70
    32
  0
VERTEX
  8
AM_VIS
  5
B28
 10
13.2490
 20
2.06615
 30
0.000000
  70
    32
  0
VERTEX
  8
AM_VIS
  5
B29
 10
13.2507
 20
2.06689
 30
0.000000
  70
    32
  0
VERTEX
  8
AM_VIS
  5
B2A
 10
13.2525
 20
2.06764
 30
0.000000
  70
    32
  0
VERTEX
  8
AM_VIS
  5
B2B
 10
13.2542
 20
2.06839
 30
0.000000
  70
    32
  0
VERTEX
  8
AM_VIS
  5
B2C
 10
13.2560
 20
2.06916
 30
0.000000
  70
    32
  0
VERTEX
  8
AM_VIS
  5
B2D
 10
13.2577
 20
2.06993
 30
0.000000
  70
    32
  0
VERTEX
  8
AM_VIS
  5
B2E
 10
13.2595
 20
2.07071
 30
0.000000
  70
    32
  0
VERTEX
  8
AM_VIS
  5
B2F
 10
13.2612
 20
2.07150
 30
0.000000
  70
    32
  0
VERTEX
  8
AM_VIS
  5
B30
 10
13.2630
 20
2.07230
 30
0.000000
  70
    32
  0
VERTEX
  8
AM_VIS
  5
B31
 10
13.2647
 20
2.07310
 30
0.000000
  70
    32
  0
VERTEX
  8
AM_VIS
  5
B32
 10
13.2664
 20
2.07391
 30
0.000000
  70
    32
  0
VERTEX
  8
AM_VIS
  5
B33
 10
13.2682
 20
2.07473
 30
0.000000
  70
    32
  0
VERTEX
  8
AM_VIS
  5
B34
 10
13.2699
 20
2.07556
 30
0.000000
  70
    32
  0
VERTEX
  8
AM_VIS
  5
B35
 10
13.2716
 20
2.07640
 30
0.000000
  70
    32
  0
VERTEX
  8
AM_VIS
  5
B36
 10
13.2733
 20
2.07724
 30
0.000000
  70
    32
  0
VERTEX
  8
AM_VIS
  5
B37
 10
13.2750
 20
2.07810
 30
0.000000
  70
    32
  0
VERTEX
  8
AM_VIS
  5
B38
 10
13.2767
 20
2.07896
 30
0.000000
  70
    32
  0
VERTEX
  8
AM_VIS
  5
B39
 10
13.2784
 20
2.07982
 30
0.000000
  70
    32
  0
VERTEX
  8
AM_VIS
  5
B3A
 10
13.2801
 20
2.08070
 30
0.000000
  70
    32
  0
VERTEX
  8
AM_VIS
  5
B3B
 10
13.2818
 20
2.08158
 30
0.000000
  70
    32
  0
VERTEX
  8
AM_VIS
  5
B3C
 10
13.2835
 20
2.08247
 30
0.000000
  70
    32
  0
VERTEX
  8
AM_VIS
  5
B3D
 10
13.2852
 20
2.08337
 30
0.000000
  70
    32
  0
VERTEX
  8
AM_VIS
  5
B3E
 10
13.2869
 20
2.08428
 30
0.000000
  70
    32
  0
VERTEX
  8
AM_VIS
  5
B3F
 10
13.2885
 20
2.08519
 30
0.000000
  70
    32
  0
VERTEX
  8
AM_VIS
  5
B40
 10
13.2902
 20
2.08611
 30
0.000000
  70
    32
  0
VERTEX
  8
AM_VIS
  5
B41
 10
13.2919
 20
2.08704
 30
0.000000
  70
    32
  0
VERTEX
  8
AM_VIS
  5
B42
 10
13.2935
 20
2.08798
 30
0.000000
  70
    32
  0
VERTEX
  8
AM_VIS
  5
B43
 10
13.2952
 20
2.08892
 30
0.000000
  70
    32
  0
VERTEX
  8
AM_VIS
  5
B44
 10
13.2968
 20
2.08987
 30
0.000000
  70
    32
  0
VERTEX
  8
AM_VIS
  5
B45
 10
13.2985
 20
2.09083
 30
0.000000
  70
    32
  0
VERTEX
  8
AM_VIS
  5
B46
 10
13.3001
 20
2.09179
 30
0.000000
  70
    32
  0
VERTEX
  8
AM_VIS
  5
B47
 10
13.3018
 20
2.09277
 30
0.000000
  70
    32
  0
VERTEX
  8
AM_VIS
  5
B48
 10
13.3034
 20
2.09375
 30
0.000000
  70
    32
  0
VERTEX
  8
AM_VIS
  5
B49
 10
13.3050
 20
2.09473
 30
0.000000
  70
    32
  0
VERTEX
  8
AM_VIS
  5
B4A
 10
13.3066
 20
2.09573
 30
0.000000
  70
    32
  0
VERTEX
  8
AM_VIS
  5
B4B
 10
13.3083
 20
2.09673
 30
0.000000
  70
    32
  0
VERTEX
  8
AM_VIS
  5
B4C
 10
13.3099
 20
2.09774
 30
0.000000
  70
    32
  0
VERTEX
  8
AM_VIS
  5
B4D
 10
13.3115
 20
2.09875
 30
0.000000
  70
    32
  0
VERTEX
  8
AM_VIS
  5
B4E
 10
13.3131
 20
2.09977
 30
0.000000
  70
    32
  0
VERTEX
  8
AM_VIS
  5
B4F
 10
13.3147
 20
2.10080
 30
0.000000
  70
    32
  0
VERTEX
  8
AM_VIS
  5
B50
 10
13.3163
 20
2.10184
 30
0.000000
  70
    32
  0
VERTEX
  8
AM_VIS
  5
B51
 10
13.3179
 20
2.10288
 30
0.000000
  70
    32
  0
VERTEX
  8
AM_VIS
  5
B52
 10
13.3195
 20
2.10393
 30
0.000000
  70
    32
  0
VERTEX
  8
AM_VIS
  5
B53
 10
13.3211
 20
2.10499
 30
0.000000
  70
    32
  0
VERTEX
  8
AM_VIS
  5
B54
 10
13.3226
 20
2.10605
 30
0.000000
  70
    32
  0
VERTEX
  8
AM_VIS
  5
B55
 10
13.3242
 20
2.10713
 30
0.000000
  70
    32
  0
VERTEX
  8
AM_VIS
  5
B56
 10
13.3258
 20
2.10820
 30
0.000000
  70
    32
  0
VERTEX
  8
AM_VIS
  5
B57
 10
13.3274
 20
2.10929
 30
0.000000
  70
    32
  0
VERTEX
  8
AM_VIS
  5
B58
 10
13.3289
 20
2.11038
 30
0.000000
  70
    32
  0
VERTEX
  8
AM_VIS
  5
B59
 10
13.3305
 20
2.11147
 30
0.000000
  70
    32
  0
VERTEX
  8
AM_VIS
  5
B5A
 10
13.3320
 20
2.11258
 30
0.000000
  70
    32
  0
VERTEX
  8
AM_VIS
  5
B5B
 10
13.3336
 20
2.11369
 30
0.000000
  70
    32
  0
VERTEX
  8
AM_VIS
  5
B5C
 10
13.3351
 20
2.11481
 30
0.000000
  70
    32
  0
VERTEX
  8
AM_VIS
  5
B5D
 10
13.3366
 20
2.11593
 30
0.000000
  70
    32
  0
VERTEX
  8
AM_VIS
  5
B5E
 10
13.3382
 20
2.11706
 30
0.000000
  70
    32
  0
VERTEX
  8
AM_VIS
  5
B5F
 10
13.3397
 20
2.11820
 30
0.000000
  70
    32
  0
VERTEX
  8
AM_VIS
  5
B60
 10
13.3412
 20
2.11934
 30
0.000000
  70
    32
  0
VERTEX
  8
AM_VIS
  5
B61
 10
13.3427
 20
2.12049
 30
0.000000
  70
    32
  0
VERTEX
  8
AM_VIS
  5
B62
 10
13.3442
 20
2.12164
 30
0.000000
  70
    32
  0
VERTEX
  8
AM_VIS
  5
B63
 10
13.3458
 20
2.12280
 30
0.000000
  70
    32
  0
VERTEX
  8
AM_VIS
  5
B64
 10
13.3473
 20
2.12397
 30
0.000000
  70
    32
  0
VERTEX
  8
AM_VIS
  5
B65
 10
13.3487
 20
2.12515
 30
0.000000
  70
    32
  0
VERTEX
  8
AM_VIS
  5
B66
 10
13.3502
 20
2.12633
 30
0.000000
  70
    32
  0
VERTEX
  8
AM_VIS
  5
B67
 10
13.3517
 20
2.12751
 30
0.000000
  70
    32
  0
VERTEX
  8
AM_VIS
  5
B68
 10
13.3532
 20
2.12871
 30
0.000000
  70
    32
  0
VERTEX
  8
AM_VIS
  5
B69
 10
13.3547
 20
2.12991
 30
0.000000
  70
    32
  0
VERTEX
  8
AM_VIS
  5
B6A
 10
13.3562
 20
2.13111
 30
0.000000
  70
    32
  0
VERTEX
  8
AM_VIS
  5
B6B
 10
13.3576
 20
2.13232
 30
0.000000
  70
    32
  0
VERTEX
  8
AM_VIS
  5
B6C
 10
13.3591
 20
2.13354
 30
0.000000
  70
    32
  0
VERTEX
  8
AM_VIS
  5
B6D
 10
13.3605
 20
2.13476
 30
0.000000
  70
    32
  0
VERTEX
  8
AM_VIS
  5
B6E
 10
13.3620
 20
2.13599
 30
0.000000
  70
    32
  0
VERTEX
  8
AM_VIS
  5
B6F
 10
13.3634
 20
2.13722
 30
0.000000
  70
    32
  0
VERTEX
  8
AM_VIS
  5
B70
 10
13.3649
 20
2.13847
 30
0.000000
  70
    32
  0
VERTEX
  8
AM_VIS
  5
B71
 10
13.3663
 20
2.13971
 30
0.000000
  70
    32
  0
VERTEX
  8
AM_VIS
  5
B72
 10
13.3678
 20
2.14096
 30
0.000000
  70
    32
  0
VERTEX
  8
AM_VIS
  5
B73
 10
13.3692
 20
2.14222
 30
0.000000
  70
    32
  0
VERTEX
  8
AM_VIS
  5
B74
 10
13.3706
 20
2.14349
 30
0.000000
  70
    32
  0
VERTEX
  8
AM_VIS
  5
B75
 10
13.3720
 20
2.14475
 30
0.000000
  70
    32
  0
VERTEX
  8
AM_VIS
  5
B76
 10
13.3734
 20
2.14603
 30
0.000000
  70
    32
  0
VERTEX
  8
AM_VIS
  5
B77
 10
13.3748
 20
2.14731
 30
0.000000
  70
    32
  0
VERTEX
  8
AM_VIS
  5
B78
 10
13.3762
 20
2.14860
 30
0.000000
  70
    32
  0
VERTEX
  8
AM_VIS
  5
B79
 10
13.3776
 20
2.14989
 30
0.000000
  70
    32
  0
VERTEX
  8
AM_VIS
  5
B7A
 10
13.3790
 20
2.15118
 30
0.000000
  70
    32
  0
VERTEX
  8
AM_VIS
  5
B7B
 10
13.3804
 20
2.15249
 30
0.000000
  70
    32
  0
VERTEX
  8
AM_VIS
  5
B7C
 10
13.3818
 20
2.15380
 30
0.000000
  70
    32
  0
VERTEX
  8
AM_VIS
  5
B7D
 10
13.3832
 20
2.15511
 30
0.000000
  70
    32
  0
VERTEX
  8
AM_VIS
  5
B7E
 10
13.3845
 20
2.15643
 30
0.000000
  70
    32
  0
VERTEX
  8
AM_VIS
  5
B7F
 10
13.3859
 20
2.15775
 30
0.000000
  70
    32
  0
VERTEX
  8
AM_VIS
  5
B80
 10
13.3872
 20
2.15908
 30
0.000000
  70
    32
  0
VERTEX
  8
AM_VIS
  5
B81
 10
13.3886
 20
2.16042
 30
0.000000
  70
    32
  0
VERTEX
  8
AM_VIS
  5
B82
 10
13.3899
 20
2.16176
 30
0.000000
  70
    32
  0
VERTEX
  8
AM_VIS
  5
B83
 10
13.3913
 20
2.16311
 30
0.000000
  70
    32
  0
VERTEX
  8
AM_VIS
  5
B84
 10
13.3926
 20
2.16446
 30
0.000000
  70
    32
  0
VERTEX
  8
AM_VIS
  5
B85
 10
13.3940
 20
2.16582
 30
0.000000
  70
    32
  0
VERTEX
  8
AM_VIS
  5
B86
 10
13.3953
 20
2.16718
 30
0.000000
  70
    32
  0
VERTEX
  8
AM_VIS
  5
B87
 10
13.3966
 20
2.16855
 30
0.000000
  70
    32
  0
VERTEX
  8
AM_VIS
  5
B88
 10
13.3979
 20
2.16992
 30
0.000000
  70
    32
  0
VERTEX
  8
AM_VIS
  5
B89
 10
13.3992
 20
2.17130
 30
0.000000
  70
    32
  0
VERTEX
  8
AM_VIS
  5
B8A
 10
13.4005
 20
2.17268
 30
0.000000
  70
    32
  0
VERTEX
  8
AM_VIS
  5
B8B
 10
13.4018
 20
2.17407
 30
0.000000
  70
    32
  0
VERTEX
  8
AM_VIS
  5
B8C
 10
13.4031
 20
2.17546
 30
0.000000
  70
    32
  0
VERTEX
  8
AM_VIS
  5
B8D
 10
13.4044
 20
2.17686
 30
0.000000
  70
    32
  0
VERTEX
  8
AM_VIS
  5
B8E
 10
13.4057
 20
2.17826
 30
0.000000
  70
    32
  0
VERTEX
  8
AM_VIS
  5
B8F
 10
13.4070
 20
2.17967
 30
0.000000
  70
    32
  0
VERTEX
  8
AM_VIS
  5
B90
 10
13.4083
 20
2.18109
 30
0.000000
  70
    32
  0
VERTEX
  8
AM_VIS
  5
B91
 10
13.4095
 20
2.18250
 30
0.000000
  70
    32
  0
VERTEX
  8
AM_VIS
  5
B92
 10
13.4108
 20
2.18393
 30
0.000000
  70
    32
  0
VERTEX
  8
AM_VIS
  5
B93
 10
13.4120
 20
2.18536
 30
0.000000
  70
    32
  0
VERTEX
  8
AM_VIS
  5
B94
 10
13.4133
 20
2.18679
 30
0.000000
  70
    32
  0
VERTEX
  8
AM_VIS
  5
B95
 10
13.4145
 20
2.18823
 30
0.000000
  70
    32
  0
VERTEX
  8
AM_VIS
  5
B96
 10
13.4158
 20
2.18967
 30
0.000000
  70
    32
  0
VERTEX
  8
AM_VIS
  5
B97
 10
13.4170
 20
2.19112
 30
0.000000
  70
    32
  0
VERTEX
  8
AM_VIS
  5
B98
 10
13.4183
 20
2.19257
 30
0.000000
  70
    32
  0
VERTEX
  8
AM_VIS
  5
B99
 10
13.4195
 20
2.19403
 30
0.000000
  70
    32
  0
VERTEX
  8
AM_VIS
  5
B9A
 10
13.4207
 20
2.19549
 30
0.000000
  70
    32
  0
VERTEX
  8
AM_VIS
  5
B9B
 10
13.4219
 20
2.19696
 30
0.000000
  70
    32
  0
VERTEX
  8
AM_VIS
  5
B9C
 10
13.4231
 20
2.19843
 30
0.000000
  70
    32
  0
VERTEX
  8
AM_VIS
  5
B9D
 10
13.4243
 20
2.19991
 30
0.000000
  70
    32
  0
VERTEX
  8
AM_VIS
  5
B9E
 10
13.4255
 20
2.20139
 30
0.000000
  70
    32
  0
VERTEX
  8
AM_VIS
  5
B9F
 10
13.4267
 20
2.20288
 30
0.000000
  70
    32
  0
VERTEX
  8
AM_VIS
  5
BA0
 10
13.4279
 20
2.20437
 30
0.000000
  70
    32
  0
VERTEX
  8
AM_VIS
  5
BA1
 10
13.4291
 20
2.20586
 30
0.000000
  70
    32
  0
VERTEX
  8
AM_VIS
  5
BA2
 10
13.4303
 20
2.20736
 30
0.000000
  70
    32
  0
VERTEX
  8
AM_VIS
  5
BA3
 10
13.4314
 20
2.20887
 30
0.000000
  70
    32
  0
VERTEX
  8
AM_VIS
  5
BA4
 10
13.4326
 20
2.21038
 30
0.000000
  70
    32
  0
VERTEX
  8
AM_VIS
  5
BA5
 10
13.4337
 20
2.21189
 30
0.000000
  70
    32
  0
VERTEX
  8
AM_VIS
  5
BA6
 10
13.4349
 20
2.21341
 30
0.000000
  70
    32
  0
VERTEX
  8
AM_VIS
  5
BA7
 10
13.4360
 20
2.21493
 30
0.000000
  70
    32
  0
VERTEX
  8
AM_VIS
  5
BA8
 10
13.4372
 20
2.21646
 30
0.000000
  70
    32
  0
VERTEX
  8
AM_VIS
  5
BA9
 10
13.4383
 20
2.21799
 30
0.000000
  70
    32
  0
VERTEX
  8
AM_VIS
  5
BAA
 10
13.4395
 20
2.21953
 30
0.000000
  70
    32
  0
VERTEX
  8
AM_VIS
  5
BAB
 10
13.4406
 20
2.22107
 30
0.000000
  70
    32
  0
VERTEX
  8
AM_VIS
  5
BAC
 10
13.4417
 20
2.22261
 30
0.000000
  70
    32
  0
VERTEX
  8
AM_VIS
  5
BAD
 10
13.4428
 20
2.22416
 30
0.000000
  70
    32
  0
VERTEX
  8
AM_VIS
  5
BAE
 10
13.4439
 20
2.22571
 30
0.000000
  70
    32
  0
VERTEX
  8
AM_VIS
  5
BAF
 10
13.4450
 20
2.22727
 30
0.000000
  70
    32
  0
VERTEX
  8
AM_VIS
  5
BB0
 10
13.4461
 20
2.22883
 30
0.000000
  70
    32
  0
VERTEX
  8
AM_VIS
  5
BB1
 10
13.4472
 20
2.23040
 30
0.000000
  70
    32
  0
VERTEX
  8
AM_VIS
  5
BB2
 10
13.4483
 20
2.23197
 30
0.000000
  70
    32
  0
VERTEX
  8
AM_VIS
  5
BB3
 10
13.4494
 20
2.23354
 30
0.000000
  70
    32
  0
VERTEX
  8
AM_VIS
  5
BB4
 10
13.4504
 20
2.23512
 30
0.000000
  70
    32
  0
VERTEX
  8
AM_VIS
  5
BB5
 10
13.4515
 20
2.23670
 30
0.000000
  70
    32
  0
VERTEX
  8
AM_VIS
  5
BB6
 10
13.4526
 20
2.23829
 30
0.000000
  70
    32
  0
VERTEX
  8
AM_VIS
  5
BB7
 10
13.4536
 20
2.23988
 30
0.000000
  70
    32
  0
VERTEX
  8
AM_VIS
  5
BB8
 10
13.4547
 20
2.24147
 30
0.000000
  70
    32
  0
VERTEX
  8
AM_VIS
  5
BB9
 10
13.4557
 20
2.24307
 30
0.000000
  70
    32
  0
VERTEX
  8
AM_VIS
  5
BBA
 10
13.4568
 20
2.24468
 30
0.000000
  70
    32
  0
VERTEX
  8
AM_VIS
  5
BBB
 10
13.4578
 20
2.24628
 30
0.000000
  70
    32
  0
VERTEX
  8
AM_VIS
  5
BBC
 10
13.4588
 20
2.24789
 30
0.000000
  70
    32
  0
VERTEX
  8
AM_VIS
  5
BBD
 10
13.4598
 20
2.24951
 30
0.000000
  70
    32
  0
VERTEX
  8
AM_VIS
  5
BBE
 10
13.4609
 20
2.25113
 30
0.000000
  70
    32
  0
VERTEX
  8
AM_VIS
  5
BBF
 10
13.4619
 20
2.25275
 30
0.000000
  70
    32
  0
VERTEX
  8
AM_VIS
  5
BC0
 10
13.4629
 20
2.25437
 30
0.000000
  70
    32
  0
VERTEX
  8
AM_VIS
  5
BC1
 10
13.4639
 20
2.25600
 30
0.000000
  70
    32
  0
VERTEX
  8
AM_VIS
  5
BC2
 10
13.4649
 20
2.25764
 30
0.000000
  70
    32
  0
VERTEX
  8
AM_VIS
  5
BC3
 10
13.4658
 20
2.25927
 30
0.000000
  70
    32
  0
VERTEX
  8
AM_VIS
  5
BC4
 10
13.4668
 20
2.26092
 30
0.000000
  70
    32
  0
VERTEX
  8
AM_VIS
  5
BC5
 10
13.4678
 20
2.26256
 30
0.000000
  70
    32
  0
VERTEX
  8
AM_VIS
  5
BC6
 10
13.4688
 20
2.26421
 30
0.000000
  70
    32
  0
VERTEX
  8
AM_VIS
  5
BC7
 10
13.4697
 20
2.26586
 30
0.000000
  70
    32
  0
VERTEX
  8
AM_VIS
  5
BC8
 10
13.4707
 20
2.26752
 30
0.000000
  70
    32
  0
VERTEX
  8
AM_VIS
  5
BC9
 10
13.4716
 20
2.26918
 30
0.000000
  70
    32
  0
VERTEX
  8
AM_VIS
  5
BCA
 10
13.4726
 20
2.27084
 30
0.000000
  70
    32
  0
VERTEX
  8
AM_VIS
  5
BCB
 10
13.4735
 20
2.27251
 30
0.000000
  70
    32
  0
VERTEX
  8
AM_VIS
  5
BCC
 10
13.4745
 20
2.27418
 30
0.000000
  70
    32
  0
VERTEX
  8
AM_VIS
  5
BCD
 10
13.4754
 20
2.27585
 30
0.000000
  70
    32
  0
VERTEX
  8
AM_VIS
  5
BCE
 10
13.4763
 20
2.27753
 30
0.000000
  70
    32
  0
VERTEX
  8
AM_VIS
  5
BCF
 10
13.4772
 20
2.27921
 30
0.000000
  70
    32
  0
VERTEX
  8
AM_VIS
  5
BD0
 10
13.4781
 20
2.28089
 30
0.000000
  70
    32
  0
VERTEX
  8
AM_VIS
  5
BD1
 10
13.4790
 20
2.28258
 30
0.000000
  70
    32
  0
VERTEX
  8
AM_VIS
  5
BD2
 10
13.4799
 20
2.28427
 30
0.000000
  70
    32
  0
VERTEX
  8
AM_VIS
  5
BD3
 10
13.4808
 20
2.28596
 30
0.000000
  70
    32
  0
VERTEX
  8
AM_VIS
  5
BD4
 10
13.4817
 20
2.28766
 30
0.000000
  70
    32
  0
VERTEX
  8
AM_VIS
  5
BD5
 10
13.4826
 20
2.28936
 30
0.000000
  70
    32
  0
VERTEX
  8
AM_VIS
  5
BD6
 10
13.4835
 20
2.29107
 30
0.000000
  70
    32
  0
VERTEX
  8
AM_VIS
  5
BD7
 10
13.4843
 20
2.29278
 30
0.000000
  70
    32
  0
VERTEX
  8
AM_VIS
  5
BD8
 10
13.4852
 20
2.29449
 30
0.000000
  70
    32
  0
VERTEX
  8
AM_VIS
  5
BD9
 10
13.4860
 20
2.29620
 30
0.000000
  70
    32
  0
VERTEX
  8
AM_VIS
  5
BDA
 10
13.4869
 20
2.29792
 30
0.000000
  70
    32
  0
VERTEX
  8
AM_VIS
  5
BDB
 10
13.4877
 20
2.29964
 30
0.000000
  70
    32
  0
VERTEX
  8
AM_VIS
  5
BDC
 10
13.4886
 20
2.30136
 30
0.000000
  70
    32
  0
VERTEX
  8
AM_VIS
  5
BDD
 10
13.4894
 20
2.30309
 30
0.000000
  70
    32
  0
VERTEX
  8
AM_VIS
  5
BDE
 10
13.4902
 20
2.30482
 30
0.000000
  70
    32
  0
VERTEX
  8
AM_VIS
  5
BDF
 10
13.4910
 20
2.30655
 30
0.000000
  70
    32
  0
VERTEX
  8
AM_VIS
  5
BE0
 10
13.4918
 20
2.30829
 30
0.000000
  70
    32
  0
VERTEX
  8
AM_VIS
  5
BE1
 10
13.4927
 20
2.31003
 30
0.000000
  70
    32
  0
VERTEX
  8
AM_VIS
  5
BE2
 10
13.4935
 20
2.31177
 30
0.000000
  70
    32
  0
VERTEX
  8
AM_VIS
  5
BE3
 10
13.4942
 20
2.31351
 30
0.000000
  70
    32
  0
VERTEX
  8
AM_VIS
  5
BE4
 10
13.4950
 20
2.31526
 30
0.000000
  70
    32
  0
VERTEX
  8
AM_VIS
  5
BE5
 10
13.4958
 20
2.31701
 30
0.000000
  70
    32
  0
VERTEX
  8
AM_VIS
  5
BE6
 10
13.4966
 20
2.31877
 30
0.000000
  70
    32
  0
VERTEX
  8
AM_VIS
  5
BE7
 10
13.4974
 20
2.32052
 30
0.000000
  70
    32
  0
VERTEX
  8
AM_VIS
  5
BE8
 10
13.4981
 20
2.32228
 30
0.000000
  70
    32
  0
VERTEX
  8
AM_VIS
  5
BE9
 10
13.4989
 20
2.32404
 30
0.000000
  70
    32
  0
VERTEX
  8
AM_VIS
  5
BEA
 10
13.4996
 20
2.32581
 30
0.000000
  70
    32
  0
VERTEX
  8
AM_VIS
  5
BEB
 10
13.5004
 20
2.32758
 30
0.000000
  70
    32
  0
VERTEX
  8
AM_VIS
  5
BEC
 10
13.5011
 20
2.32935
 30
0.000000
  70
    32
  0
VERTEX
  8
AM_VIS
  5
BED
 10
13.5018
 20
2.33112
 30
0.000000
  70
    32
  0
VERTEX
  8
AM_VIS
  5
BEE
 10
13.5026
 20
2.33290
 30
0.000000
  70
    32
  0
VERTEX
  8
AM_VIS
  5
BEF
 10
13.5033
 20
2.33468
 30
0.000000
  70
    32
  0
VERTEX
  8
AM_VIS
  5
BF0
 10
13.5040
 20
2.33646
 30
0.000000
  70
    32
  0
VERTEX
  8
AM_VIS
  5
BF1
 10
13.5047
 20
2.33825
 30
0.000000
  70
    32
  0
VERTEX
  8
AM_VIS
  5
BF2
 10
13.5054
 20
2.34003
 30
0.000000
  70
    32
  0
VERTEX
  8
AM_VIS
  5
BF3
 10
13.5061
 20
2.34182
 30
0.000000
  70
    32
  0
VERTEX
  8
AM_VIS
  5
BF4
 10
13.5068
 20
2.34362
 30
0.000000
  70
    32
  0
VERTEX
  8
AM_VIS
  5
BF5
 10
13.5075
 20
2.34541
 30
0.000000
  70
    32
  0
VERTEX
  8
AM_VIS
  5
BF6
 10
13.5081
 20
2.34721
 30
0.000000
  70
    32
  0
VERTEX
  8
AM_VIS
  5
BF7
 10
13.5088
 20
2.34901
 30
0.000000
  70
    32
  0
VERTEX
  8
AM_VIS
  5
BF8
 10
13.5095
 20
2.35081
 30
0.000000
  70
    32
  0
VERTEX
  8
AM_VIS
  5
BF9
 10
13.5101
 20
2.35262
 30
0.000000
  70
    32
  0
VERTEX
  8
AM_VIS
  5
BFA
 10
13.5108
 20
2.35443
 30
0.000000
  70
    32
  0
VERTEX
  8
AM_VIS
  5
BFB
 10
13.5114
 20
2.35624
 30
0.000000
  70
    32
  0
VERTEX
  8
AM_VIS
  5
BFC
 10
13.5120
 20
2.35805
 30
0.000000
  70
    32
  0
VERTEX
  8
AM_VIS
  5
BFD
 10
13.5127
 20
2.35987
 30
0.000000
  70
    32
  0
VERTEX
  8
AM_VIS
  5
BFE
 10
13.5133
 20
2.36169
 30
0.000000
  70
    32
  0
VERTEX
  8
AM_VIS
  5
BFF
 10
13.5139
 20
2.36351
 30
0.000000
  70
    32
  0
VERTEX
  8
AM_VIS
  5
C00
 10
13.5145
 20
2.36533
 30
0.000000
  70
    32
  0
VERTEX
  8
AM_VIS
  5
C01
 10
13.5151
 20
2.36716
 30
0.000000
  70
    32
  0
VERTEX
  8
AM_VIS
  5
C02
 10
13.5157
 20
2.36899
 30
0.000000
  70
    32
  0
VERTEX
  8
AM_VIS
  5
C03
 10
13.5163
 20
2.37082
 30
0.000000
  70
    32
  0
VERTEX
  8
AM_VIS
  5
C04
 10
13.5169
 20
2.37265
 30
0.000000
  70
    32
  0
VERTEX
  8
AM_VIS
  5
C05
 10
13.5175
 20
2.37449
 30
0.000000
  70
    32
  0
VERTEX
  8
AM_VIS
  5
C06
 10
13.5180
 20
2.37632
 30
0.000000
  70
    32
  0
VERTEX
  8
AM_VIS
  5
C07
 10
13.5186
 20
2.37816
 30
0.000000
  70
    32
  0
VERTEX
  8
AM_VIS
  5
C08
 10
13.5192
 20
2.38001
 30
0.000000
  70
    32
  0
VERTEX
  8
AM_VIS
  5
C09
 10
13.5197
 20
2.38185
 30
0.000000
  70
    32
  0
VERTEX
  8
AM_VIS
  5
C0A
 10
13.5203
 20
2.38370
 30
0.000000
  70
    32
  0
VERTEX
  8
AM_VIS
  5
C0B
 10
13.5208
 20
2.38555
 30
0.000000
  70
    32
  0
VERTEX
  8
AM_VIS
  5
C0C
 10
13.5213
 20
2.38740
 30
0.000000
  70
    32
  0
VERTEX
  8
AM_VIS
  5
C0D
 10
13.5219
 20
2.38925
 30
0.000000
  70
    32
  0
VERTEX
  8
AM_VIS
  5
C0E
 10
13.5224
 20
2.39111
 30
0.000000
  70
    32
  0
VERTEX
  8
AM_VIS
  5
C0F
 10
13.5229
 20
2.39296
 30
0.000000
  70
    32
  0
VERTEX
  8
AM_VIS
  5
C10
 10
13.5234
 20
2.39482
 30
0.000000
  70
    32
  0
VERTEX
  8
AM_VIS
  5
C11
 10
13.5239
 20
2.39668
 30
0.000000
  70
    32
  0
VERTEX
  8
AM_VIS
  5
C12
 10
13.5244
 20
2.39855
 30
0.000000
  70
    32
  0
VERTEX
  8
AM_VIS
  5
C13
 10
13.5249
 20
2.40041
 30
0.000000
  70
    32
  0
VERTEX
  8
AM_VIS
  5
C14
 10
13.5254
 20
2.40228
 30
0.000000
  70
    32
  0
VERTEX
  8
AM_VIS
  5
C15
 10
13.5258
 20
2.40415
 30
0.000000
  70
    32
  0
VERTEX
  8
AM_VIS
  5
C16
 10
13.5263
 20
2.40603
 30
0.000000
  70
    32
  0
VERTEX
  8
AM_VIS
  5
C17
 10
13.5268
 20
2.40790
 30
0.000000
  70
    32
  0
VERTEX
  8
AM_VIS
  5
C18
 10
13.5272
 20
2.40978
 30
0.000000
  70
    32
  0
VERTEX
  8
AM_VIS
  5
C19
 10
13.5277
 20
2.41165
 30
0.000000
  70
    32
  0
VERTEX
  8
AM_VIS
  5
C1A
 10
13.5281
 20
2.41353
 30
0.000000
  70
    32
  0
VERTEX
  8
AM_VIS
  5
C1B
 10
13.5285
 20
2.41542
 30
0.000000
  70
    32
  0
VERTEX
  8
AM_VIS
  5
C1C
 10
13.5290
 20
2.41730
 30
0.000000
  70
    32
  0
VERTEX
  8
AM_VIS
  5
C1D
 10
13.5294
 20
2.41919
 30
0.000000
  70
    32
  0
VERTEX
  8
AM_VIS
  5
C1E
 10
13.5298
 20
2.42107
 30
0.000000
  70
    32
  0
VERTEX
  8
AM_VIS
  5
C1F
 10
13.5302
 20
2.42296
 30
0.000000
  70
    32
  0
VERTEX
  8
AM_VIS
  5
C20
 10
13.5306
 20
2.42485
 30
0.000000
  70
    32
  0
VERTEX
  8
AM_VIS
  5
C21
 10
13.5310
 20
2.42675
 30
0.000000
  70
    32
  0
VERTEX
  8
AM_VIS
  5
C22
 10
13.5314
 20
2.42864
 30
0.000000
  70
    32
  0
VERTEX
  8
AM_VIS
  5
C23
 10
13.5318
 20
2.43054
 30
0.000000
  70
    32
  0
VERTEX
  8
AM_VIS
  5
C24
 10
13.5321
 20
2.43244
 30
0.000000
  70
    32
  0
VERTEX
  8
AM_VIS
  5
C25
 10
13.5325
 20
2.43434
 30
0.000000
  70
    32
  0
VERTEX
  8
AM_VIS
  5
C26
 10
13.5329
 20
2.43624
 30
0.000000
  70
    32
  0
VERTEX
  8
AM_VIS
  5
C27
 10
13.5332
 20
2.43814
 30
0.000000
  70
    32
  0
VERTEX
  8
AM_VIS
  5
C28
 10
13.5336
 20
2.44004
 30
0.000000
  70
    32
  0
VERTEX
  8
AM_VIS
  5
C29
 10
13.5339
 20
2.44195
 30
0.000000
  70
    32
  0
VERTEX
  8
AM_VIS
  5
C2A
 10
13.5343
 20
2.44385
 30
0.000000
  70
    32
  0
VERTEX
  8
AM_VIS
  5
C2B
 10
13.5346
 20
2.44576
 30
0.000000
  70
    32
  0
VERTEX
  8
AM_VIS
  5
C2C
 10
13.5349
 20
2.44767
 30
0.000000
  70
    32
  0
VERTEX
  8
AM_VIS
  5
C2D
 10
13.5352
 20
2.44958
 30
0.000000
  70
    32
  0
VERTEX
  8
AM_VIS
  5
C2E
 10
13.5355
 20
2.45149
 30
0.000000
  70
    32
  0
VERTEX
  8
AM_VIS
  5
C2F
 10
13.5358
 20
2.45340
 30
0.000000
  70
    32
  0
VERTEX
  8
AM_VIS
  5
C30
 10
13.5361
 20
2.45531
 30
0.000000
  70
    32
  0
VERTEX
  8
AM_VIS
  5
C31
 10
13.5364
 20
2.45723
 30
0.000000
  70
    32
  0
VERTEX
  8
AM_VIS
  5
C32
 10
13.5367
 20
2.45914
 30
0.000000
  70
    32
  0
VERTEX
  8
AM_VIS
  5
C33
 10
13.5369
 20
2.46105
 30
0.000000
  70
    32
  0
VERTEX
  8
AM_VIS
  5
C34
 10
13.5372
 20
2.46297
 30
0.000000
  70
    32
  0
VERTEX
  8
AM_VIS
  5
C35
 10
13.5375
 20
2.46489
 30
0.000000
  70
    32
  0
VERTEX
  8
AM_VIS
  5
C36
 10
13.5377
 20
2.46681
 30
0.000000
  70
    32
  0
VERTEX
  8
AM_VIS
  5
C37
 10
13.5380
 20
2.46872
 30
0.000000
  70
    32
  0
VERTEX
  8
AM_VIS
  5
C38
 10
13.5382
 20
2.47064
 30
0.000000
  70
    32
  0
VERTEX
  8
AM_VIS
  5
C39
 10
13.5384
 20
2.47257
 30
0.000000
  70
    32
  0
VERTEX
  8
AM_VIS
  5
C3A
 10
13.5387
 20
2.47449
 30
0.000000
  70
    32
  0
VERTEX
  8
AM_VIS
  5
C3B
 10
13.5389
 20
2.47641
 30
0.000000
  70
    32
  0
VERTEX
  8
AM_VIS
  5
C3C
 10
13.5391
 20
2.47833
 30
0.000000
  70
    32
  0
VERTEX
  8
AM_VIS
  5
C3D
 10
13.5393
 20
2.48026
 30
0.000000
  70
    32
  0
VERTEX
  8
AM_VIS
  5
C3E
 10
13.5395
 20
2.48218
 30
0.000000
  70
    32
  0
VERTEX
  8
AM_VIS
  5
C3F
 10
13.5397
 20
2.48411
 30
0.000000
  70
    32
  0
VERTEX
  8
AM_VIS
  5
C40
 10
13.5399
 20
2.48603
 30
0.000000
  70
    32
  0
VERTEX
  8
AM_VIS
  5
C41
 10
13.5400
 20
2.48796
 30
0.000000
  70
    32
  0
VERTEX
  8
AM_VIS
  5
C42
 10
13.5402
 20
2.48989
 30
0.000000
  70
    32
  0
VERTEX
  8
AM_VIS
  5
C43
 10
13.5404
 20
2.49182
 30
0.000000
  70
    32
  0
VERTEX
  8
AM_VIS
  5
C44
 10
13.5405
 20
2.49375
 30
0.000000
  70
    32
  0
VERTEX
  8
AM_VIS
  5
C45
 10
13.5407
 20
2.49568
 30
0.000000
  70
    32
  0
VERTEX
  8
AM_VIS
  5
C46
 10
13.5408
 20
2.49761
 30
0.000000
  70
    32
  0
VERTEX
  8
AM_VIS
  5
C47
 10
13.5410
 20
2.49954
 30
0.000000
  70
    32
  0
VERTEX
  8
AM_VIS
  5
C48
 10
13.5411
 20
2.50147
 30
0.000000
  70
    32
  0
VERTEX
  8
AM_VIS
  5
C49
 10
13.5412
 20
2.50340
 30
0.000000
  70
    32
  0
VERTEX
  8
AM_VIS
  5
C4A
 10
13.5413
 20
2.50534
 30
0.000000
  70
    32
  0
VERTEX
  8
AM_VIS
  5
C4B
 10
13.5414
 20
2.50727
 30
0.000000
  70
    32
  0
VERTEX
  8
AM_VIS
  5
C4C
 10
13.5415
 20
2.50921
 30
0.000000
  70
    32
  0
VERTEX
  8
AM_VIS
  5
C4D
 10
13.5416
 20
2.51114
 30
0.000000
  70
    32
  0
VERTEX
  8
AM_VIS
  5
C4E
 10
13.5417
 20
2.51308
 30
0.000000
  70
    32
  0
VERTEX
  8
AM_VIS
  5
C4F
 10
13.5418
 20
2.51501
 30
0.000000
  70
    32
  0
VERTEX
  8
AM_VIS
  5
C50
 10
13.5419
 20
2.51695
 30
0.000000
  70
    32
  0
VERTEX
  8
AM_VIS
  5
C51
 10
13.5419
 20
2.51889
 30
0.000000
  70
    32
  0
VERTEX
  8
AM_VIS
  5
C52
 10
13.5420
 20
2.52083
 30
0.000000
  70
    32
  0
VERTEX
  8
AM_VIS
  5
C53
 10
13.5420
 20
2.52276
 30
0.000000
  70
    32
  0
VERTEX
  8
AM_VIS
  5
C54
 10
13.5421
 20
2.52470
 30
0.000000
  70
    32
  0
VERTEX
  8
AM_VIS
  5
C55
 10
13.5421
 20
2.52664
 30
0.000000
  70
    32
  0
VERTEX
  8
AM_VIS
  5
C56
 10
13.5421
 20
2.52858
 30
0.000000
  70
    32
  0
VERTEX
  8
AM_VIS
  5
C57
 10
13.5422
 20
2.53052
 30
0.000000
  70
    32
  0
VERTEX
  8
AM_VIS
  5
C58
 10
13.5422
 20
2.53246
 30
0.000000
  70
    32
  0
VERTEX
  8
AM_VIS
  5
C59
 10
13.5422
 20
2.53440
 30
0.000000
  70
    32
  0
VERTEX
  8
AM_VIS
  5
C5A
 10
13.5422
 20
2.53634
 30
0.000000
  70
    32
  0
SEQEND
  8
AM_VIS
  5
C5B
  0
LINE
  5
60
  8
AM_VIS
 10
14.23054321328801
 20
1.90634380222928
 30
0.0
 11
13.10554321328801
 21
1.90634380222928
 31
0.0
  0
LINE
  5
61
  8
AM_VIS
 10
14.23054321328801
 20
1.9063438022292809
 30
0.0
 11
14.23054321328801
 21
3.072214356212438
 31
0.0
  0
POLYLINE
  8
AM_VIS
  5
C5C
  66
     1
 10
0.000000
 20
0.000000
 30
0.000000
  70
     8
  0
VERTEX
  8
AM_VIS
  5
C5D
 10
13.5422
 20
2.53634
 30
0.000000
  70
    32
  0
VERTEX
  8
AM_VIS
  5
C5E
 10
13.5422
 20
2.53829
 30
0.000000
  70
    32
  0
VERTEX
  8
AM_VIS
  5
C5F
 10
13.5422
 20
2.54023
 30
0.000000
  70
    32
  0
VERTEX
  8
AM_VIS
  5
C60
 10
13.5422
 20
2.54217
 30
0.000000
  70
    32
  0
VERTEX
  8
AM_VIS
  5
C61
 10
13.5421
 20
2.54411
 30
0.000000
  70
    32
  0
VERTEX
  8
AM_VIS
  5
C62
 10
13.5421
 20
2.54605
 30
0.000000
  70
    32
  0
VERTEX
  8
AM_VIS
  5
C63
 10
13.5421
 20
2.54799
 30
0.000000
  70
    32
  0
VERTEX
  8
AM_VIS
  5
C64
 10
13.5420
 20
2.54993
 30
0.000000
  70
    32
  0
VERTEX
  8
AM_VIS
  5
C65
 10
13.5420
 20
2.55186
 30
0.000000
  70
    32
  0
VERTEX
  8
AM_VIS
  5
C66
 10
13.5419
 20
2.55380
 30
0.000000
  70
    32
  0
VERTEX
  8
AM_VIS
  5
C67
 10
13.5419
 20
2.55574
 30
0.000000
  70
    32
  0
VERTEX
  8
AM_VIS
  5
C68
 10
13.5418
 20
2.55768
 30
0.000000
  70
    32
  0
VERTEX
  8
AM_VIS
  5
C69
 10
13.5417
 20
2.55961
 30
0.000000
  70
    32
  0
VERTEX
  8
AM_VIS
  5
C6A
 10
13.5416
 20
2.56155
 30
0.000000
  70
    32
  0
VERTEX
  8
AM_VIS
  5
C6B
 10
13.5415
 20
2.56348
 30
0.000000
  70
    32
  0
VERTEX
  8
AM_VIS
  5
C6C
 10
13.5414
 20
2.56542
 30
0.000000
  70
    32
  0
VERTEX
  8
AM_VIS
  5
C6D
 10
13.5413
 20
2.56735
 30
0.000000
  70
    32
  0
VERTEX
  8
AM_VIS
  5
C6E
 10
13.5412
 20
2.56928
 30
0.000000
  70
    32
  0
VERTEX
  8
AM_VIS
  5
C6F
 10
13.5411
 20
2.57122
 30
0.000000
  70
    32
  0
VERTEX
  8
AM_VIS
  5
C70
 10
13.5410
 20
2.57315
 30
0.000000
  70
    32
  0
VERTEX
  8
AM_VIS
  5
C71
 10
13.5408
 20
2.57508
 30
0.000000
  70
    32
  0
VERTEX
  8
AM_VIS
  5
C72
 10
13.5407
 20
2.57701
 30
0.000000
  70
    32
  0
VERTEX
  8
AM_VIS
  5
C73
 10
13.5405
 20
2.57894
 30
0.000000
  70
    32
  0
VERTEX
  8
AM_VIS
  5
C74
 10
13.5404
 20
2.58087
 30
0.000000
  70
    32
  0
VERTEX
  8
AM_VIS
  5
C75
 10
13.5402
 20
2.58280
 30
0.000000
  70
    32
  0
VERTEX
  8
AM_VIS
  5
C76
 10
13.5400
 20
2.58473
 30
0.000000
  70
    32
  0
VERTEX
  8
AM_VIS
  5
C77
 10
13.5399
 20
2.58666
 30
0.000000
  70
    32
  0
VERTEX
  8
AM_VIS
  5
C78
 10
13.5397
 20
2.58858
 30
0.000000
  70
    32
  0
VERTEX
  8
AM_VIS
  5
C79
 10
13.5395
 20
2.59051
 30
0.000000
  70
    32
  0
VERTEX
  8
AM_VIS
  5
C7A
 10
13.5393
 20
2.59243
 30
0.000000
  70
    32
  0
VERTEX
  8
AM_VIS
  5
C7B
 10
13.5391
 20
2.59436
 30
0.000000
  70
    32
  0
VERTEX
  8
AM_VIS
  5
C7C
 10
13.5389
 20
2.59628
 30
0.000000
  70
    32
  0
VERTEX
  8
AM_VIS
  5
C7D
 10
13.5387
 20
2.59820
 30
0.000000
  70
    32
  0
VERTEX
  8
AM_VIS
  5
C7E
 10
13.5384
 20
2.60012
 30
0.000000
  70
    32
  0
VERTEX
  8
AM_VIS
  5
C7F
 10
13.5382
 20
2.60204
 30
0.000000
  70
    32
  0
VERTEX
  8
AM_VIS
  5
C80
 10
13.5380
 20
2.60396
 30
0.000000
  70
    32
  0
VERTEX
  8
AM_VIS
  5
C81
 10
13.5377
 20
2.60588
 30
0.000000
  70
    32
  0
VERTEX
  8
AM_VIS
  5
C82
 10
13.5375
 20
2.60780
 30
0.000000
  70
    32
  0
VERTEX
  8
AM_VIS
  5
C83
 10
13.5372
 20
2.60972
 30
0.000000
  70
    32
  0
VERTEX
  8
AM_VIS
  5
C84
 10
13.5369
 20
2.61163
 30
0.000000
  70
    32
  0
VERTEX
  8
AM_VIS
  5
C85
 10
13.5367
 20
2.61355
 30
0.000000
  70
    32
  0
VERTEX
  8
AM_VIS
  5
C86
 10
13.5364
 20
2.61546
 30
0.000000
  70
    32
  0
VERTEX
  8
AM_VIS
  5
C87
 10
13.5361
 20
2.61738
 30
0.000000
  70
    32
  0
VERTEX
  8
AM_VIS
  5
C88
 10
13.5358
 20
2.61929
 30
0.000000
  70
    32
  0
VERTEX
  8
AM_VIS
  5
C89
 10
13.5355
 20
2.62120
 30
0.000000
  70
    32
  0
VERTEX
  8
AM_VIS
  5
C8A
 10
13.5352
 20
2.62311
 30
0.000000
  70
    32
  0
VERTEX
  8
AM_VIS
  5
C8B
 10
13.5349
 20
2.62502
 30
0.000000
  70
    32
  0
VERTEX
  8
AM_VIS
  5
C8C
 10
13.5346
 20
2.62693
 30
0.000000
  70
    32
  0
VERTEX
  8
AM_VIS
  5
C8D
 10
13.5343
 20
2.62883
 30
0.000000
  70
    32
  0
VERTEX
  8
AM_VIS
  5
C8E
 10
13.5339
 20
2.63074
 30
0.000000
  70
    32
  0
VERTEX
  8
AM_VIS
  5
C8F
 10
13.5336
 20
2.63264
 30
0.000000
  70
    32
  0
VERTEX
  8
AM_VIS
  5
C90
 10
13.5332
 20
2.63455
 30
0.000000
  70
    32
  0
VERTEX
  8
AM_VIS
  5
C91
 10
13.5329
 20
2.63645
 30
0.000000
  70
    32
  0
VERTEX
  8
AM_VIS
  5
C92
 10
13.5325
 20
2.63835
 30
0.000000
  70
    32
  0
VERTEX
  8
AM_VIS
  5
C93
 10
13.5321
 20
2.64025
 30
0.000000
  70
    32
  0
VERTEX
  8
AM_VIS
  5
C94
 10
13.5318
 20
2.64215
 30
0.000000
  70
    32
  0
VERTEX
  8
AM_VIS
  5
C95
 10
13.5314
 20
2.64405
 30
0.000000
  70
    32
  0
VERTEX
  8
AM_VIS
  5
C96
 10
13.5310
 20
2.64594
 30
0.000000
  70
    32
  0
VERTEX
  8
AM_VIS
  5
C97
 10
13.5306
 20
2.64783
 30
0.000000
  70
    32
  0
VERTEX
  8
AM_VIS
  5
C98
 10
13.5302
 20
2.64973
 30
0.000000
  70
    32
  0
VERTEX
  8
AM_VIS
  5
C99
 10
13.5298
 20
2.65162
 30
0.000000
  70
    32
  0
VERTEX
  8
AM_VIS
  5
C9A
 10
13.5294
 20
2.65350
 30
0.000000
  70
    32
  0
VERTEX
  8
AM_VIS
  5
C9B
 10
13.5290
 20
2.65539
 30
0.000000
  70
    32
  0
VERTEX
  8
AM_VIS
  5
C9C
 10
13.5285
 20
2.65727
 30
0.000000
  70
    32
  0
VERTEX
  8
AM_VIS
  5
C9D
 10
13.5281
 20
2.65916
 30
0.000000
  70
    32
  0
VERTEX
  8
AM_VIS
  5
C9E
 10
13.5277
 20
2.66104
 30
0.000000
  70
    32
  0
VERTEX
  8
AM_VIS
  5
C9F
 10
13.5272
 20
2.66291
 30
0.000000
  70
    32
  0
VERTEX
  8
AM_VIS
  5
CA0
 10
13.5268
 20
2.66479
 30
0.000000
  70
    32
  0
VERTEX
  8
AM_VIS
  5
CA1
 10
13.5263
 20
2.66666
 30
0.000000
  70
    32
  0
VERTEX
  8
AM_VIS
  5
CA2
 10
13.5258
 20
2.66854
 30
0.000000
  70
    32
  0
VERTEX
  8
AM_VIS
  5
CA3
 10
13.5254
 20
2.67041
 30
0.000000
  70
    32
  0
VERTEX
  8
AM_VIS
  5
CA4
 10
13.5249
 20
2.67228
 30
0.000000
  70
    32
  0
VERTEX
  8
AM_VIS
  5
CA5
 10
13.5244
 20
2.67414
 30
0.000000
  70
    32
  0
VERTEX
  8
AM_VIS
  5
CA6
 10
13.5239
 20
2.67601
 30
0.000000
  70
    32
  0
VERTEX
  8
AM_VIS
  5
CA7
 10
13.5234
 20
2.67787
 30
0.000000
  70
    32
  0
VERTEX
  8
AM_VIS
  5
CA8
 10
13.5229
 20
2.67973
 30
0.000000
  70
    32
  0
VERTEX
  8
AM_VIS
  5
CA9
 10
13.5224
 20
2.68159
 30
0.000000
  70
    32
  0
VERTEX
  8
AM_VIS
  5
CAA
 10
13.5219
 20
2.68344
 30
0.000000
  70
    32
  0
VERTEX
  8
AM_VIS
  5
CAB
 10
13.5213
 20
2.68529
 30
0.000000
  70
    32
  0
VERTEX
  8
AM_VIS
  5
CAC
 10
13.5208
 20
2.68715
 30
0.000000
  70
    32
  0
VERTEX
  8
AM_VIS
  5
CAD
 10
13.5203
 20
2.68899
 30
0.000000
  70
    32
  0
VERTEX
  8
AM_VIS
  5
CAE
 10
13.5197
 20
2.69084
 30
0.000000
  70
    32
  0
VERTEX
  8
AM_VIS
  5
CAF
 10
13.5192
 20
2.69269
 30
0.000000
  70
    32
  0
VERTEX
  8
AM_VIS
  5
CB0
 10
13.5186
 20
2.69453
 30
0.000000
  70
    32
  0
VERTEX
  8
AM_VIS
  5
CB1
 10
13.5180
 20
2.69637
 30
0.000000
  70
    32
  0
VERTEX
  8
AM_VIS
  5
CB2
 10
13.5175
 20
2.69821
 30
0.000000
  70
    32
  0
VERTEX
  8
AM_VIS
  5
CB3
 10
13.5169
 20
2.70004
 30
0.000000
  70
    32
  0
VERTEX
  8
AM_VIS
  5
CB4
 10
13.5163
 20
2.70187
 30
0.000000
  70
    32
  0
VERTEX
  8
AM_VIS
  5
CB5
 10
13.5157
 20
2.70371
 30
0.000000
  70
    32
  0
VERTEX
  8
AM_VIS
  5
CB6
 10
13.5151
 20
2.70553
 30
0.000000
  70
    32
  0
VERTEX
  8
AM_VIS
  5
CB7
 10
13.5145
 20
2.70736
 30
0.000000
  70
    32
  0
VERTEX
  8
AM_VIS
  5
CB8
 10
13.5139
 20
2.70918
 30
0.000000
  70
    32
  0
VERTEX
  8
AM_VIS
  5
CB9
 10
13.5133
 20
2.71100
 30
0.000000
  70
    32
  0
VERTEX
  8
AM_VIS
  5
CBA
 10
13.5127
 20
2.71282
 30
0.000000
  70
    32
  0
VERTEX
  8
AM_VIS
  5
CBB
 10
13.5120
 20
2.71464
 30
0.000000
  70
    32
  0
VERTEX
  8
AM_VIS
  5
CBC
 10
13.5114
 20
2.71645
 30
0.000000
  70
    32
  0
VERTEX
  8
AM_VIS
  5
CBD
 10
13.5108
 20
2.71826
 30
0.000000
  70
    32
  0
VERTEX
  8
AM_VIS
  5
CBE
 10
13.5101
 20
2.72007
 30
0.000000
  70
    32
  0
VERTEX
  8
AM_VIS
  5
CBF
 10
13.5095
 20
2.72188
 30
0.000000
  70
    32
  0
VERTEX
  8
AM_VIS
  5
CC0
 10
13.5088
 20
2.72368
 30
0.000000
  70
    32
  0
VERTEX
  8
AM_VIS
  5
CC1
 10
13.5081
 20
2.72548
 30
0.000000
  70
    32
  0
VERTEX
  8
AM_VIS
  5
CC2
 10
13.5074
 20
2.72728
 30
0.000000
  70
    32
  0
VERTEX
  8
AM_VIS
  5
CC3
 10
13.5068
 20
2.72907
 30
0.000000
  70
    32
  0
VERTEX
  8
AM_VIS
  5
CC4
 10
13.5061
 20
2.73087
 30
0.000000
  70
    32
  0
VERTEX
  8
AM_VIS
  5
CC5
 10
13.5054
 20
2.73266
 30
0.000000
  70
    32
  0
VERTEX
  8
AM_VIS
  5
CC6
 10
13.5047
 20
2.73444
 30
0.000000
  70
    32
  0
VERTEX
  8
AM_VIS
  5
CC7
 10
13.5040
 20
2.73623
 30
0.000000
  70
    32
  0
VERTEX
  8
AM_VIS
  5
CC8
 10
13.5033
 20
2.73801
 30
0.000000
  70
    32
  0
VERTEX
  8
AM_VIS
  5
CC9
 10
13.5026
 20
2.73979
 30
0.000000
  70
    32
  0
VERTEX
  8
AM_VIS
  5
CCA
 10
13.5018
 20
2.74157
 30
0.000000
  70
    32
  0
VERTEX
  8
AM_VIS
  5
CCB
 10
13.5011
 20
2.74334
 30
0.000000
  70
    32
  0
VERTEX
  8
AM_VIS
  5
CCC
 10
13.5004
 20
2.74511
 30
0.000000
  70
    32
  0
VERTEX
  8
AM_VIS
  5
CCD
 10
13.4996
 20
2.74688
 30
0.000000
  70
    32
  0
VERTEX
  8
AM_VIS
  5
CCE
 10
13.4989
 20
2.74864
 30
0.000000
  70
    32
  0
VERTEX
  8
AM_VIS
  5
CCF
 10
13.4981
 20
2.75041
 30
0.000000
  70
    32
  0
VERTEX
  8
AM_VIS
  5
CD0
 10
13.4974
 20
2.75217
 30
0.000000
  70
    32
  0
VERTEX
  8
AM_VIS
  5
CD1
 10
13.4966
 20
2.75392
 30
0.000000
  70
    32
  0
VERTEX
  8
AM_VIS
  5
CD2
 10
13.4958
 20
2.75567
 30
0.000000
  70
    32
  0
VERTEX
  8
AM_VIS
  5
CD3
 10
13.4950
 20
2.75743
 30
0.000000
  70
    32
  0
VERTEX
  8
AM_VIS
  5
CD4
 10
13.4942
 20
2.75917
 30
0.000000
  70
    32
  0
VERTEX
  8
AM_VIS
  5
CD5
 10
13.4935
 20
2.76092
 30
0.000000
  70
    32
  0
VERTEX
  8
AM_VIS
  5
CD6
 10
13.4927
 20
2.76266
 30
0.000000
  70
    32
  0
VERTEX
  8
AM_VIS
  5
CD7
 10
13.4918
 20
2.76440
 30
0.000000
  70
    32
  0
VERTEX
  8
AM_VIS
  5
CD8
 10
13.4910
 20
2.76613
 30
0.000000
  70
    32
  0
VERTEX
  8
AM_VIS
  5
CD9
 10
13.4902
 20
2.76787
 30
0.000000
  70
    32
  0
VERTEX
  8
AM_VIS
  5
CDA
 10
13.4894
 20
2.76959
 30
0.000000
  70
    32
  0
VERTEX
  8
AM_VIS
  5
CDB
 10
13.4886
 20
2.77132
 30
0.000000
  70
    32
  0
VERTEX
  8
AM_VIS
  5
CDC
 10
13.4877
 20
2.77304
 30
0.000000
  70
    32
  0
VERTEX
  8
AM_VIS
  5
CDD
 10
13.4869
 20
2.77476
 30
0.000000
  70
    32
  0
VERTEX
  8
AM_VIS
  5
CDE
 10
13.4860
 20
2.77648
 30
0.000000
  70
    32
  0
VERTEX
  8
AM_VIS
  5
CDF
 10
13.4852
 20
2.77819
 30
0.000000
  70
    32
  0
VERTEX
  8
AM_VIS
  5
CE0
 10
13.4843
 20
2.77990
 30
0.000000
  70
    32
  0
VERTEX
  8
AM_VIS
  5
CE1
 10
13.4835
 20
2.78161
 30
0.000000
  70
    32
  0
VERTEX
  8
AM_VIS
  5
CE2
 10
13.4826
 20
2.78332
 30
0.000000
  70
    32
  0
VERTEX
  8
AM_VIS
  5
CE3
 10
13.4817
 20
2.78502
 30
0.000000
  70
    32
  0
VERTEX
  8
AM_VIS
  5
CE4
 10
13.4808
 20
2.78671
 30
0.000000
  70
    32
  0
VERTEX
  8
AM_VIS
  5
CE5
 10
13.4799
 20
2.78841
 30
0.000000
  70
    32
  0
VERTEX
  8
AM_VIS
  5
CE6
 10
13.4790
 20
2.79010
 30
0.000000
  70
    32
  0
VERTEX
  8
AM_VIS
  5
CE7
 10
13.4781
 20
2.79179
 30
0.000000
  70
    32
  0
VERTEX
  8
AM_VIS
  5
CE8
 10
13.4772
 20
2.79347
 30
0.000000
  70
    32
  0
VERTEX
  8
AM_VIS
  5
CE9
 10
13.4763
 20
2.79515
 30
0.000000
  70
    32
  0
VERTEX
  8
AM_VIS
  5
CEA
 10
13.4754
 20
2.79683
 30
0.000000
  70
    32
  0
VERTEX
  8
AM_VIS
  5
CEB
 10
13.4745
 20
2.79850
 30
0.000000
  70
    32
  0
VERTEX
  8
AM_VIS
  5
CEC
 10
13.4735
 20
2.80017
 30
0.000000
  70
    32
  0
VERTEX
  8
AM_VIS
  5
CED
 10
13.4726
 20
2.80184
 30
0.000000
  70
    32
  0
VERTEX
  8
AM_VIS
  5
CEE
 10
13.4716
 20
2.80350
 30
0.000000
  70
    32
  0
VERTEX
  8
AM_VIS
  5
CEF
 10
13.4707
 20
2.80516
 30
0.000000
  70
    32
  0
VERTEX
  8
AM_VIS
  5
CF0
 10
13.4697
 20
2.80681
 30
0.000000
  70
    32
  0
VERTEX
  8
AM_VIS
  5
CF1
 10
13.4688
 20
2.80847
 30
0.000000
  70
    32
  0
VERTEX
  8
AM_VIS
  5
CF2
 10
13.4678
 20
2.81012
 30
0.000000
  70
    32
  0
VERTEX
  8
AM_VIS
  5
CF3
 10
13.4668
 20
2.81176
 30
0.000000
  70
    32
  0
VERTEX
  8
AM_VIS
  5
CF4
 10
13.4659
 20
2.81340
 30
0.000000
  70
    32
  0
VERTEX
  8
AM_VIS
  5
CF5
 10
13.4649
 20
2.81504
 30
0.000000
  70
    32
  0
VERTEX
  8
AM_VIS
  5
CF6
 10
13.4639
 20
2.81667
 30
0.000000
  70
    32
  0
VERTEX
  8
AM_VIS
  5
CF7
 10
13.4629
 20
2.81830
 30
0.000000
  70
    32
  0
VERTEX
  8
AM_VIS
  5
CF8
 10
13.4619
 20
2.81993
 30
0.000000
  70
    32
  0
VERTEX
  8
AM_VIS
  5
CF9
 10
13.4609
 20
2.82155
 30
0.000000
  70
    32
  0
VERTEX
  8
AM_VIS
  5
CFA
 10
13.4598
 20
2.82317
 30
0.000000
  70
    32
  0
VERTEX
  8
AM_VIS
  5
CFB
 10
13.4588
 20
2.82478
 30
0.000000
  70
    32
  0
VERTEX
  8
AM_VIS
  5
CFC
 10
13.4578
 20
2.82640
 30
0.000000
  70
    32
  0
VERTEX
  8
AM_VIS
  5
CFD
 10
13.4568
 20
2.82800
 30
0.000000
  70
    32
  0
VERTEX
  8
AM_VIS
  5
CFE
 10
13.4557
 20
2.82960
 30
0.000000
  70
    32
  0
VERTEX
  8
AM_VIS
  5
CFF
 10
13.4547
 20
2.83120
 30
0.000000
  70
    32
  0
VERTEX
  8
AM_VIS
  5
D00
 10
13.4536
 20
2.83280
 30
0.000000
  70
    32
  0
VERTEX
  8
AM_VIS
  5
D01
 10
13.4526
 20
2.83439
 30
0.000000
  70
    32
  0
VERTEX
  8
AM_VIS
  5
D02
 10
13.4515
 20
2.83598
 30
0.000000
  70
    32
  0
VERTEX
  8
AM_VIS
  5
D03
 10
13.4504
 20
2.83756
 30
0.000000
  70
    32
  0
VERTEX
  8
AM_VIS
  5
D04
 10
13.4494
 20
2.83914
 30
0.000000
  70
    32
  0
VERTEX
  8
AM_VIS
  5
D05
 10
13.4483
 20
2.84071
 30
0.000000
  70
    32
  0
VERTEX
  8
AM_VIS
  5
D06
 10
13.4472
 20
2.84228
 30
0.000000
  70
    32
  0
VERTEX
  8
AM_VIS
  5
D07
 10
13.4461
 20
2.84385
 30
0.000000
  70
    32
  0
VERTEX
  8
AM_VIS
  5
D08
 10
13.4450
 20
2.84541
 30
0.000000
  70
    32
  0
VERTEX
  8
AM_VIS
  5
D09
 10
13.4439
 20
2.84697
 30
0.000000
  70
    32
  0
VERTEX
  8
AM_VIS
  5
D0A
 10
13.4428
 20
2.84852
 30
0.000000
  70
    32
  0
VERTEX
  8
AM_VIS
  5
D0B
 10
13.4417
 20
2.85007
 30
0.000000
  70
    32
  0
VERTEX
  8
AM_VIS
  5
D0C
 10
13.4406
 20
2.85161
 30
0.000000
  70
    32
  0
VERTEX
  8
AM_VIS
  5
D0D
 10
13.4395
 20
2.85316
 30
0.000000
  70
    32
  0
VERTEX
  8
AM_VIS
  5
D0E
 10
13.4383
 20
2.85469
 30
0.000000
  70
    32
  0
VERTEX
  8
AM_VIS
  5
D0F
 10
13.4372
 20
2.85622
 30
0.000000
  70
    32
  0
VERTEX
  8
AM_VIS
  5
D10
 10
13.4360
 20
2.85775
 30
0.000000
  70
    32
  0
VERTEX
  8
AM_VIS
  5
D11
 10
13.4349
 20
2.85927
 30
0.000000
  70
    32
  0
VERTEX
  8
AM_VIS
  5
D12
 10
13.4337
 20
2.86079
 30
0.000000
  70
    32
  0
VERTEX
  8
AM_VIS
  5
D13
 10
13.4326
 20
2.86231
 30
0.000000
  70
    32
  0
VERTEX
  8
AM_VIS
  5
D14
 10
13.4314
 20
2.86382
 30
0.000000
  70
    32
  0
VERTEX
  8
AM_VIS
  5
D15
 10
13.4303
 20
2.86532
 30
0.000000
  70
    32
  0
VERTEX
  8
AM_VIS
  5
D16
 10
13.4291
 20
2.86682
 30
0.000000
  70
    32
  0
VERTEX
  8
AM_VIS
  5
D17
 10
13.4279
 20
2.86832
 30
0.000000
  70
    32
  0
VERTEX
  8
AM_VIS
  5
D18
 10
13.4267
 20
2.86981
 30
0.000000
  70
    32
  0
VERTEX
  8
AM_VIS
  5
D19
 10
13.4255
 20
2.87129
 30
0.000000
  70
    32
  0
VERTEX
  8
AM_VIS
  5
D1A
 10
13.4243
 20
2.87278
 30
0.000000
  70
    32
  0
VERTEX
  8
AM_VIS
  5
D1B
 10
13.4231
 20
2.87425
 30
0.000000
  70
    32
  0
VERTEX
  8
AM_VIS
  5
D1C
 10
13.4219
 20
2.87573
 30
0.000000
  70
    32
  0
VERTEX
  8
AM_VIS
  5
D1D
 10
13.4207
 20
2.87719
 30
0.000000
  70
    32
  0
VERTEX
  8
AM_VIS
  5
D1E
 10
13.4195
 20
2.87866
 30
0.000000
  70
    32
  0
VERTEX
  8
AM_VIS
  5
D1F
 10
13.4183
 20
2.88011
 30
0.000000
  70
    32
  0
VERTEX
  8
AM_VIS
  5
D20
 10
13.4170
 20
2.88157
 30
0.000000
  70
    32
  0
VERTEX
  8
AM_VIS
  5
D21
 10
13.4158
 20
2.88302
 30
0.000000
  70
    32
  0
VERTEX
  8
AM_VIS
  5
D22
 10
13.4145
 20
2.88446
 30
0.000000
  70
    32
  0
VERTEX
  8
AM_VIS
  5
D23
 10
13.4133
 20
2.88590
 30
0.000000
  70
    32
  0
VERTEX
  8
AM_VIS
  5
D24
 10
13.4120
 20
2.88733
 30
0.000000
  70
    32
  0
VERTEX
  8
AM_VIS
  5
D25
 10
13.4108
 20
2.88876
 30
0.000000
  70
    32
  0
VERTEX
  8
AM_VIS
  5
D26
 10
13.4095
 20
2.89019
 30
0.000000
  70
    32
  0
VERTEX
  8
AM_VIS
  5
D27
 10
13.4083
 20
2.89161
 30
0.000000
  70
    32
  0
VERTEX
  8
AM_VIS
  5
D28
 10
13.4070
 20
2.89302
 30
0.000000
  70
    32
  0
VERTEX
  8
AM_VIS
  5
D29
 10
13.4057
 20
2.89443
 30
0.000000
  70
    32
  0
VERTEX
  8
AM_VIS
  5
D2A
 10
13.4044
 20
2.89583
 30
0.000000
  70
    32
  0
VERTEX
  8
AM_VIS
  5
D2B
 10
13.4031
 20
2.89723
 30
0.000000
  70
    32
  0
VERTEX
  8
AM_VIS
  5
D2C
 10
13.4018
 20
2.89863
 30
0.000000
  70
    32
  0
VERTEX
  8
AM_VIS
  5
D2D
 10
13.4005
 20
2.90001
 30
0.000000
  70
    32
  0
VERTEX
  8
AM_VIS
  5
D2E
 10
13.3992
 20
2.90140
 30
0.000000
  70
    32
  0
VERTEX
  8
AM_VIS
  5
D2F
 10
13.3979
 20
2.90278
 30
0.000000
  70
    32
  0
VERTEX
  8
AM_VIS
  5
D30
 10
13.3966
 20
2.90415
 30
0.000000
  70
    32
  0
VERTEX
  8
AM_VIS
  5
D31
 10
13.3953
 20
2.90552
 30
0.000000
  70
    32
  0
VERTEX
  8
AM_VIS
  5
D32
 10
13.3939
 20
2.90688
 30
0.000000
  70
    32
  0
VERTEX
  8
AM_VIS
  5
D33
 10
13.3926
 20
2.90824
 30
0.000000
  70
    32
  0
VERTEX
  8
AM_VIS
  5
D34
 10
13.3913
 20
2.90959
 30
0.000000
  70
    32
  0
VERTEX
  8
AM_VIS
  5
D35
 10
13.3899
 20
2.91093
 30
0.000000
  70
    32
  0
VERTEX
  8
AM_VIS
  5
D36
 10
13.3886
 20
2.91228
 30
0.000000
  70
    32
  0
VERTEX
  8
AM_VIS
  5
D37
 10
13.3872
 20
2.91361
 30
0.000000
  70
    32
  0
VERTEX
  8
AM_VIS
  5
D38
 10
13.3859
 20
2.91494
 30
0.000000
  70
    32
  0
VERTEX
  8
AM_VIS
  5
D39
 10
13.3845
 20
2.91627
 30
0.000000
  70
    32
  0
VERTEX
  8
AM_VIS
  5
D3A
 10
13.3831
 20
2.91759
 30
0.000000
  70
    32
  0
VERTEX
  8
AM_VIS
  5
D3B
 10
13.3818
 20
2.91890
 30
0.000000
  70
    32
  0
VERTEX
  8
AM_VIS
  5
D3C
 10
13.3804
 20
2.92021
 30
0.000000
  70
    32
  0
VERTEX
  8
AM_VIS
  5
D3D
 10
13.3790
 20
2.92151
 30
0.000000
  70
    32
  0
VERTEX
  8
AM_VIS
  5
D3E
 10
13.3776
 20
2.92281
 30
0.000000
  70
    32
  0
VERTEX
  8
AM_VIS
  5
D3F
 10
13.3762
 20
2.92410
 30
0.000000
  70
    32
  0
VERTEX
  8
AM_VIS
  5
D40
 10
13.3748
 20
2.92539
 30
0.000000
  70
    32
  0
VERTEX
  8
AM_VIS
  5
D41
 10
13.3734
 20
2.92667
 30
0.000000
  70
    32
  0
VERTEX
  8
AM_VIS
  5
D42
 10
13.3720
 20
2.92794
 30
0.000000
  70
    32
  0
VERTEX
  8
AM_VIS
  5
D43
 10
13.3706
 20
2.92921
 30
0.000000
  70
    32
  0
VERTEX
  8
AM_VIS
  5
D44
 10
13.3692
 20
2.93048
 30
0.000000
  70
    32
  0
VERTEX
  8
AM_VIS
  5
D45
 10
13.3677
 20
2.93173
 30
0.000000
  70
    32
  0
VERTEX
  8
AM_VIS
  5
D46
 10
13.3663
 20
2.93299
 30
0.000000
  70
    32
  0
VERTEX
  8
AM_VIS
  5
D47
 10
13.3649
 20
2.93423
 30
0.000000
  70
    32
  0
VERTEX
  8
AM_VIS
  5
D48
 10
13.3634
 20
2.93547
 30
0.000000
  70
    32
  0
VERTEX
  8
AM_VIS
  5
D49
 10
13.3620
 20
2.93671
 30
0.000000
  70
    32
  0
VERTEX
  8
AM_VIS
  5
D4A
 10
13.3605
 20
2.93794
 30
0.000000
  70
    32
  0
VERTEX
  8
AM_VIS
  5
D4B
 10
13.3591
 20
2.93916
 30
0.000000
  70
    32
  0
VERTEX
  8
AM_VIS
  5
D4C
 10
13.3576
 20
2.94038
 30
0.000000
  70
    32
  0
VERTEX
  8
AM_VIS
  5
D4D
 10
13.3561
 20
2.94159
 30
0.000000
  70
    32
  0
VERTEX
  8
AM_VIS
  5
D4E
 10
13.3547
 20
2.94279
 30
0.000000
  70
    32
  0
VERTEX
  8
AM_VIS
  5
D4F
 10
13.3532
 20
2.94399
 30
0.000000
  70
    32
  0
VERTEX
  8
AM_VIS
  5
D50
 10
13.3517
 20
2.94518
 30
0.000000
  70
    32
  0
VERTEX
  8
AM_VIS
  5
D51
 10
13.3502
 20
2.94637
 30
0.000000
  70
    32
  0
VERTEX
  8
AM_VIS
  5
D52
 10
13.3487
 20
2.94755
 30
0.000000
  70
    32
  0
VERTEX
  8
AM_VIS
  5
D53
 10
13.3472
 20
2.94872
 30
0.000000
  70
    32
  0
VERTEX
  8
AM_VIS
  5
D54
 10
13.3457
 20
2.94989
 30
0.000000
  70
    32
  0
VERTEX
  8
AM_VIS
  5
D55
 10
13.3442
 20
2.95105
 30
0.000000
  70
    32
  0
VERTEX
  8
AM_VIS
  5
D56
 10
13.3427
 20
2.95221
 30
0.000000
  70
    32
  0
VERTEX
  8
AM_VIS
  5
D57
 10
13.3412
 20
2.95336
 30
0.000000
  70
    32
  0
VERTEX
  8
AM_VIS
  5
D58
 10
13.3397
 20
2.95450
 30
0.000000
  70
    32
  0
VERTEX
  8
AM_VIS
  5
D59
 10
13.3382
 20
2.95564
 30
0.000000
  70
    32
  0
VERTEX
  8
AM_VIS
  5
D5A
 10
13.3366
 20
2.95677
 30
0.000000
  70
    32
  0
VERTEX
  8
AM_VIS
  5
D5B
 10
13.3351
 20
2.95789
 30
0.000000
  70
    32
  0
VERTEX
  8
AM_VIS
  5
D5C
 10
13.3335
 20
2.95901
 30
0.000000
  70
    32
  0
VERTEX
  8
AM_VIS
  5
D5D
 10
13.3320
 20
2.96012
 30
0.000000
  70
    32
  0
VERTEX
  8
AM_VIS
  5
D5E
 10
13.3305
 20
2.96122
 30
0.000000
  70
    32
  0
VERTEX
  8
AM_VIS
  5
D5F
 10
13.3289
 20
2.96232
 30
0.000000
  70
    32
  0
VERTEX
  8
AM_VIS
  5
D60
 10
13.3273
 20
2.96341
 30
0.000000
  70
    32
  0
VERTEX
  8
AM_VIS
  5
D61
 10
13.3258
 20
2.96450
 30
0.000000
  70
    32
  0
VERTEX
  8
AM_VIS
  5
D62
 10
13.3242
 20
2.96557
 30
0.000000
  70
    32
  0
VERTEX
  8
AM_VIS
  5
D63
 10
13.3226
 20
2.96664
 30
0.000000
  70
    32
  0
VERTEX
  8
AM_VIS
  5
D64
 10
13.3210
 20
2.96771
 30
0.000000
  70
    32
  0
VERTEX
  8
AM_VIS
  5
D65
 10
13.3195
 20
2.96876
 30
0.000000
  70
    32
  0
VERTEX
  8
AM_VIS
  5
D66
 10
13.3179
 20
2.96981
 30
0.000000
  70
    32
  0
VERTEX
  8
AM_VIS
  5
D67
 10
13.3163
 20
2.97086
 30
0.000000
  70
    32
  0
VERTEX
  8
AM_VIS
  5
D68
 10
13.3147
 20
2.97189
 30
0.000000
  70
    32
  0
VERTEX
  8
AM_VIS
  5
D69
 10
13.3131
 20
2.97292
 30
0.000000
  70
    32
  0
VERTEX
  8
AM_VIS
  5
D6A
 10
13.3115
 20
2.97395
 30
0.000000
  70
    32
  0
VERTEX
  8
AM_VIS
  5
D6B
 10
13.3099
 20
2.97496
 30
0.000000
  70
    32
  0
VERTEX
  8
AM_VIS
  5
D6C
 10
13.3082
 20
2.97597
 30
0.000000
  70
    32
  0
VERTEX
  8
AM_VIS
  5
D6D
 10
13.3066
 20
2.97697
 30
0.000000
  70
    32
  0
VERTEX
  8
AM_VIS
  5
D6E
 10
13.3050
 20
2.97797
 30
0.000000
  70
    32
  0
VERTEX
  8
AM_VIS
  5
D6F
 10
13.3034
 20
2.97895
 30
0.000000
  70
    32
  0
VERTEX
  8
AM_VIS
  5
D70
 10
13.3017
 20
2.97993
 30
0.000000
  70
    32
  0
VERTEX
  8
AM_VIS
  5
D71
 10
13.3001
 20
2.98091
 30
0.000000
  70
    32
  0
VERTEX
  8
AM_VIS
  5
D72
 10
13.2985
 20
2.98187
 30
0.000000
  70
    32
  0
VERTEX
  8
AM_VIS
  5
D73
 10
13.2968
 20
2.98283
 30
0.000000
  70
    32
  0
VERTEX
  8
AM_VIS
  5
D74
 10
13.2952
 20
2.98378
 30
0.000000
  70
    32
  0
VERTEX
  8
AM_VIS
  5
D75
 10
13.2935
 20
2.98472
 30
0.000000
  70
    32
  0
VERTEX
  8
AM_VIS
  5
D76
 10
13.2918
 20
2.98566
 30
0.000000
  70
    32
  0
VERTEX
  8
AM_VIS
  5
D77
 10
13.2902
 20
2.98659
 30
0.000000
  70
    32
  0
VERTEX
  8
AM_VIS
  5
D78
 10
13.2885
 20
2.98751
 30
0.000000
  70
    32
  0
VERTEX
  8
AM_VIS
  5
D79
 10
13.2868
 20
2.98842
 30
0.000000
  70
    32
  0
VERTEX
  8
AM_VIS
  5
D7A
 10
13.2851
 20
2.98933
 30
0.000000
  70
    32
  0
VERTEX
  8
AM_VIS
  5
D7B
 10
13.2835
 20
2.99023
 30
0.000000
  70
    32
  0
VERTEX
  8
AM_VIS
  5
D7C
 10
13.2818
 20
2.99112
 30
0.000000
  70
    32
  0
VERTEX
  8
AM_VIS
  5
D7D
 10
13.2801
 20
2.99200
 30
0.000000
  70
    32
  0
VERTEX
  8
AM_VIS
  5
D7E
 10
13.2784
 20
2.99288
 30
0.000000
  70
    32
  0
VERTEX
  8
AM_VIS
  5
D7F
 10
13.2767
 20
2.99375
 30
0.000000
  70
    32
  0
VERTEX
  8
AM_VIS
  5
D80
 10
13.2750
 20
2.99461
 30
0.000000
  70
    32
  0
VERTEX
  8
AM_VIS
  5
D81
 10
13.2733
 20
2.99546
 30
0.000000
  70
    32
  0
VERTEX
  8
AM_VIS
  5
D82
 10
13.2716
 20
2.99630
 30
0.000000
  70
    32
  0
VERTEX
  8
AM_VIS
  5
D83
 10
13.2698
 20
2.99714
 30
0.000000
  70
    32
  0
VERTEX
  8
AM_VIS
  5
D84
 10
13.2681
 20
2.99797
 30
0.000000
  70
    32
  0
VERTEX
  8
AM_VIS
  5
D85
 10
13.2664
 20
2.99879
 30
0.000000
  70
    32
  0
VERTEX
  8
AM_VIS
  5
D86
 10
13.2647
 20
2.99960
 30
0.000000
  70
    32
  0
VERTEX
  8
AM_VIS
  5
D87
 10
13.2629
 20
3.00041
 30
0.000000
  70
    32
  0
VERTEX
  8
AM_VIS
  5
D88
 10
13.2612
 20
3.00121
 30
0.000000
  70
    32
  0
VERTEX
  8
AM_VIS
  5
D89
 10
13.2595
 20
3.00199
 30
0.000000
  70
    32
  0
VERTEX
  8
AM_VIS
  5
D8A
 10
13.2577
 20
3.00278
 30
0.000000
  70
    32
  0
VERTEX
  8
AM_VIS
  5
D8B
 10
13.2560
 20
3.00355
 30
0.000000
  70
    32
  0
VERTEX
  8
AM_VIS
  5
D8C
 10
13.2542
 20
3.00431
 30
0.000000
  70
    32
  0
VERTEX
  8
AM_VIS
  5
D8D
 10
13.2524
 20
3.00507
 30
0.000000
  70
    32
  0
VERTEX
  8
AM_VIS
  5
D8E
 10
13.2507
 20
3.00582
 30
0.000000
  70
    32
  0
VERTEX
  8
AM_VIS
  5
D8F
 10
13.2489
 20
3.00656
 30
0.000000
  70
    32
  0
VERTEX
  8
AM_VIS
  5
D90
 10
13.2471
 20
3.00729
 30
0.000000
  70
    32
  0
VERTEX
  8
AM_VIS
  5
D91
 10
13.2454
 20
3.00801
 30
0.000000
  70
    32
  0
VERTEX
  8
AM_VIS
  5
D92
 10
13.2436
 20
3.00873
 30
0.000000
  70
    32
  0
VERTEX
  8
AM_VIS
  5
D93
 10
13.2418
 20
3.00943
 30
0.000000
  70
    32
  0
VERTEX
  8
AM_VIS
  5
D94
 10
13.2400
 20
3.01013
 30
0.000000
  70
    32
  0
VERTEX
  8
AM_VIS
  5
D95
 10
13.2382
 20
3.01082
 30
0.000000
  70
    32
  0
VERTEX
  8
AM_VIS
  5
D96
 10
13.2364
 20
3.01150
 30
0.000000
  70
    32
  0
VERTEX
  8
AM_VIS
  5
D97
 10
13.2346
 20
3.01217
 30
0.000000
  70
    32
  0
VERTEX
  8
AM_VIS
  5
D98
 10
13.2329
 20
3.01283
 30
0.000000
  70
    32
  0
VERTEX
  8
AM_VIS
  5
D99
 10
13.2311
 20
3.01349
 30
0.000000
  70
    32
  0
VERTEX
  8
AM_VIS
  5
D9A
 10
13.2293
 20
3.01413
 30
0.000000
  70
    32
  0
VERTEX
  8
AM_VIS
  5
D9B
 10
13.2274
 20
3.01477
 30
0.000000
  70
    32
  0
VERTEX
  8
AM_VIS
  5
D9C
 10
13.2256
 20
3.01539
 30
0.000000
  70
    32
  0
VERTEX
  8
AM_VIS
  5
D9D
 10
13.2238
 20
3.01601
 30
0.000000
  70
    32
  0
VERTEX
  8
AM_VIS
  5
D9E
 10
13.2220
 20
3.01662
 30
0.000000
  70
    32
  0
VERTEX
  8
AM_VIS
  5
D9F
 10
13.2202
 20
3.01721
 30
0.000000
  70
    32
  0
VERTEX
  8
AM_VIS
  5
DA0
 10
13.2184
 20
3.01780
 30
0.000000
  70
    32
  0
VERTEX
  8
AM_VIS
  5
DA1
 10
13.2166
 20
3.01838
 30
0.000000
  70
    32
  0
VERTEX
  8
AM_VIS
  5
DA2
 10
13.2147
 20
3.01896
 30
0.000000
  70
    32
  0
VERTEX
  8
AM_VIS
  5
DA3
 10
13.2129
 20
3.01952
 30
0.000000
  70
    32
  0
VERTEX
  8
AM_VIS
  5
DA4
 10
13.2111
 20
3.02007
 30
0.000000
  70
    32
  0
VERTEX
  8
AM_VIS
  5
DA5
 10
13.2093
 20
3.02061
 30
0.000000
  70
    32
  0
VERTEX
  8
AM_VIS
  5
DA6
 10
13.2074
 20
3.02115
 30
0.000000
  70
    32
  0
VERTEX
  8
AM_VIS
  5
DA7
 10
13.2056
 20
3.02167
 30
0.000000
  70
    32
  0
VERTEX
  8
AM_VIS
  5
DA8
 10
13.2038
 20
3.02219
 30
0.000000
  70
    32
  0
VERTEX
  8
AM_VIS
  5
DA9
 10
13.2019
 20
3.02269
 30
0.000000
  70
    32
  0
VERTEX
  8
AM_VIS
  5
DAA
 10
13.2001
 20
3.02319
 30
0.000000
  70
    32
  0
VERTEX
  8
AM_VIS
  5
DAB
 10
13.1982
 20
3.02368
 30
0.000000
  70
    32
  0
VERTEX
  8
AM_VIS
  5
DAC
 10
13.1964
 20
3.02416
 30
0.000000
  70
    32
  0
VERTEX
  8
AM_VIS
  5
DAD
 10
13.1945
 20
3.02462
 30
0.000000
  70
    32
  0
VERTEX
  8
AM_VIS
  5
DAE
 10
13.1927
 20
3.02508
 30
0.000000
  70
    32
  0
VERTEX
  8
AM_VIS
  5
DAF
 10
13.1908
 20
3.02553
 30
0.000000
  70
    32
  0
VERTEX
  8
AM_VIS
  5
DB0
 10
13.1890
 20
3.02597
 30
0.000000
  70
    32
  0
VERTEX
  8
AM_VIS
  5
DB1
 10
13.1871
 20
3.02640
 30
0.000000
  70
    32
  0
VERTEX
  8
AM_VIS
  5
DB2
 10
13.1853
 20
3.02683
 30
0.000000
  70
    32
  0
VERTEX
  8
AM_VIS
  5
DB3
 10
13.1834
 20
3.02724
 30
0.000000
  70
    32
  0
VERTEX
  8
AM_VIS
  5
DB4
 10
13.1815
 20
3.02764
 30
0.000000
  70
    32
  0
VERTEX
  8
AM_VIS
  5
DB5
 10
13.1797
 20
3.02803
 30
0.000000
  70
    32
  0
VERTEX
  8
AM_VIS
  5
DB6
 10
13.1778
 20
3.02842
 30
0.000000
  70
    32
  0
VERTEX
  8
AM_VIS
  5
DB7
 10
13.1759
 20
3.02879
 30
0.000000
  70
    32
  0
VERTEX
  8
AM_VIS
  5
DB8
 10
13.1741
 20
3.02915
 30
0.000000
  70
    32
  0
VERTEX
  8
AM_VIS
  5
DB9
 10
13.1722
 20
3.02951
 30
0.000000
  70
    32
  0
VERTEX
  8
AM_VIS
  5
DBA
 10
13.1703
 20
3.02985
 30
0.000000
  70
    32
  0
VERTEX
  8
AM_VIS
  5
DBB
 10
13.1684
 20
3.03019
 30
0.000000
  70
    32
  0
VERTEX
  8
AM_VIS
  5
DBC
 10
13.1666
 20
3.03051
 30
0.000000
  70
    32
  0
VERTEX
  8
AM_VIS
  5
DBD
 10
13.1647
 20
3.03083
 30
0.000000
  70
    32
  0
VERTEX
  8
AM_VIS
  5
DBE
 10
13.1628
 20
3.03113
 30
0.000000
  70
    32
  0
VERTEX
  8
AM_VIS
  5
DBF
 10
13.1609
 20
3.03143
 30
0.000000
  70
    32
  0
VERTEX
  8
AM_VIS
  5
DC0
 10
13.1590
 20
3.03172
 30
0.000000
  70
    32
  0
VERTEX
  8
AM_VIS
  5
DC1
 10
13.1571
 20
3.03199
 30
0.000000
  70
    32
  0
VERTEX
  8
AM_VIS
  5
DC2
 10
13.1553
 20
3.03226
 30
0.000000
  70
    32
  0
VERTEX
  8
AM_VIS
  5
DC3
 10
13.1534
 20
3.03252
 30
0.000000
  70
    32
  0
VERTEX
  8
AM_VIS
  5
DC4
 10
13.1515
 20
3.03276
 30
0.000000
  70
    32
  0
VERTEX
  8
AM_VIS
  5
DC5
 10
13.1496
 20
3.03300
 30
0.000000
  70
    32
  0
VERTEX
  8
AM_VIS
  5
DC6
 10
13.1477
 20
3.03323
 30
0.000000
  70
    32
  0
VERTEX
  8
AM_VIS
  5
DC7
 10
13.1458
 20
3.03345
 30
0.000000
  70
    32
  0
VERTEX
  8
AM_VIS
  5
DC8
 10
13.1439
 20
3.03365
 30
0.000000
  70
    32
  0
VERTEX
  8
AM_VIS
  5
DC9
 10
13.1420
 20
3.03385
 30
0.000000
  70
    32
  0
VERTEX
  8
AM_VIS
  5
DCA
 10
13.1401
 20
3.03404
 30
0.000000
  70
    32
  0
VERTEX
  8
AM_VIS
  5
DCB
 10
13.1382
 20
3.03422
 30
0.000000
  70
    32
  0
VERTEX
  8
AM_VIS
  5
DCC
 10
13.1363
 20
3.03439
 30
0.000000
  70
    32
  0
VERTEX
  8
AM_VIS
  5
DCD
 10
13.1343
 20
3.03454
 30
0.000000
  70
    32
  0
VERTEX
  8
AM_VIS
  5
DCE
 10
13.1324
 20
3.03469
 30
0.000000
  70
    32
  0
VERTEX
  8
AM_VIS
  5
DCF
 10
13.1305
 20
3.03483
 30
0.000000
  70
    32
  0
VERTEX
  8
AM_VIS
  5
DD0
 10
13.1286
 20
3.03496
 30
0.000000
  70
    32
  0
VERTEX
  8
AM_VIS
  5
DD1
 10
13.1267
 20
3.03507
 30
0.000000
  70
    32
  0
VERTEX
  8
AM_VIS
  5
DD2
 10
13.1248
 20
3.03518
 30
0.000000
  70
    32
  0
VERTEX
  8
AM_VIS
  5
DD3
 10
13.1229
 20
3.03528
 30
0.000000
  70
    32
  0
VERTEX
  8
AM_VIS
  5
DD4
 10
13.1209
 20
3.03536
 30
0.000000
  70
    32
  0
VERTEX
  8
AM_VIS
  5
DD5
 10
13.1190
 20
3.03544
 30
0.000000
  70
    32
  0
VERTEX
  8
AM_VIS
  5
DD6
 10
13.1171
 20
3.03551
 30
0.000000
  70
    32
  0
VERTEX
  8
AM_VIS
  5
DD7
 10
13.1152
 20
3.03556
 30
0.000000
  70
    32
  0
VERTEX
  8
AM_VIS
  5
DD8
 10
13.1133
 20
3.03561
 30
0.000000
  70
    32
  0
VERTEX
  8
AM_VIS
  5
DD9
 10
13.1113
 20
3.03565
 30
0.000000
  70
    32
  0
VERTEX
  8
AM_VIS
  5
DDA
 10
13.1094
 20
3.03567
 30
0.000000
  70
    32
  0
VERTEX
  8
AM_VIS
  5
DDB
 10
13.1075
 20
3.03569
 30
0.000000
  70
    32
  0
VERTEX
  8
AM_VIS
  5
DDC
 10
13.1055
 20
3.03569
 30
0.000000
  70
    32
  0
SEQEND
  8
AM_VIS
  5
DDD
  0
LINE
  5
63
  8
AM_VIS
 10
16.50479426456706
 20
4.2875481804768389
 30
0.0
 11
14.62000895994578
 21
6.5337478385280274
 31
0.0
  0
LINE
  5
64
  8
AM_VIS
 10
16.50479426456706
 20
4.2875481804768389
 30
0.0
 11
15.83675798959348
 21
3.333493505941894
 31
0.0
  0
ARC
  5
65
  8
AM_VIS
 10
13.09388944601557
 20
2.532134249098243
 30
0.0
 40
0.4103297329045432
 50
271.62821010577971
 51
310.70568439048219
  0
ARC
  5
66
  8
AM_VIS
 10
13.093889446015581
 20
2.540553355360323
 30
0.0
 40
0.4103297329045358
 50
49.294315609517497
 51
88.371789894220655
  0
ARC
  5
67
  8
AM_VIS
 10
13.11719698056044
 20
2.532134249098243
 30
0.0
 40
0.4103297329045433
 50
229.29431560951781
 51
268.37178989422023
  0
ARC
  5
68
  8
AM_VIS
 10
13.105543213288
 20
2.536343802229279
 30
0.0
 40
0.40625
 50
309.07230755918062
 51
50.927692440819548
  0
ARC
  5
69
  8
AM_VIS
 10
13.11719698056044
 20
2.540553355360323
 30
0.0
 40
0.4103297329045349
 50
91.628210105779303
 51
130.7056843904825
  0
ARC
  5
6A
  8
AM_VIS
 10
13.10554321328801
 20
2.5363438022292799
 30
0.0
 40
0.40625
 50
129.0723075591805
 51
230.9276924408195
  0
LINE
  5
6B
  8
AM_HID
 10
14.00908585451319
 20
2.1063438022292811
 30
0.0
 11
14.00908585451319
 21
1.90634380222928
 31
0.0
  0
LINE
  5
6C
  8
AM_HID
 10
12.03996252379372
 20
2.1954781516250952
 30
0.0
 11
12.03996252379372
 21
1.90634380222928
 31
0.0
  0
LINE
  5
6D
  8
AM_HID
 10
15.25846704933328
 20
2.5076084522922639
 30
0.0
 11
15.04133991755125
 21
2.6596425067158882
 31
0.0
  0
LINE
  5
6E
  8
AM_HID
 10
16.403216854375881
 20
4.1424806045822811
 30
0.0
 11
16.239386445518079
 21
4.2571958918524899
 31
0.0
  0
ENDSEC
  0
EOF
