  0
SECTION
  2
HEADER
  9
$ACADVER
  1
AC1009
  9
$INSBASE
 10
0.0
 20
0.0
 30
0.0
  9
$EXTMIN
 10
4.2526335332669998
 20
4.7860238598025564
 30
0.0
  9
$EXTMAX
 10
13.20054786862751
 20
9.6503005550991912
 30
0.0
  9
$LIMMIN
 10
0.0
 20
0.0
  9
$LIMMAX
 10
0.0
 20
0.0
  9
$ORTHOMODE
 70
     0
  9
$REGENMODE
 70
     1
  9
$FILLMODE
 70
     1
  9
$QTEXTMODE
 70
     0
  9
$MIRRTEXT
 70
     1
  9
$DRAGMODE
 70
     2
  9
$LTSCALE
 40
1.0
  9
$OSMODE
 70
   291
  9
$ATTMODE
 70
     1
  9
$TEXTSIZE
 40
0.2
  9
$TRACEWID
 40
0.05
  9
$TEXTSTYLE
  7
STANDARD
  9
$CLAYER
  8
0
  9
$CELTYPE
  6
BYLAYER
  9
$CECOLOR
 62
   256
  9
$DIMSCALE
 40
1.0
  9
$DIMASZ
 40
0.18
  9
$DIMEXO
 40
0.0625
  9
$DIMDLI
 40
0.38
  9
$DIMRND
 40
0.0
  9
$DIMDLE
 40
0.0
  9
$DIMEXE
 40
0.18
  9
$DIMTP
 40
0.0
  9
$DIMTM
 40
0.0
  9
$DIMTXT
 40
0.18
  9
$DIMCEN
 40
0.09
  9
$DIMTSZ
 40
0.0
  9
$DIMTOL
 70
     0
  9
$DIMLIM
 70
     0
  9
$DIMTIH
 70
     1
  9
$DIMTOH
 70
     1
  9
$DIMSE1
 70
     0
  9
$DIMSE2
 70
     0
  9
$DIMTAD
 70
     0
  9
$DIMZIN
 70
     0
  9
$DIMBLK
  1

  9
$DIMASO
 70
     1
  9
$DIMSHO
 70
     1
  9
$DIMPOST
  1

  9
$DIMAPOST
  1

  9
$DIMALT
 70
     0
  9
$DIMALTD
 70
     2
  9
$DIMALTF
 40
25.399999999999999
  9
$DIMLFAC
 40
1.0
  9
$DIMTOFL
 70
     0
  9
$DIMTVP
 40
0.0
  9
$DIMTIX
 70
     0
  9
$DIMSOXD
 70
     0
  9
$DIMSAH
 70
     0
  9
$DIMBLK1
  1

  9
$DIMBLK2
  1

  9
$DIMSTYLE
  2
STANDARD
  9
$DIMCLRD
 70
     0
  9
$DIMCLRE
 70
     0
  9
$DIMCLRT
 70
     0
  9
$DIMTFAC
 40
1.0
  9
$DIMGAP
 40
0.09
  9
$LUNITS
 70
     2
  9
$LUPREC
 70
     4
  9
$SKETCHINC
 40
0.1
  9
$FILLETRAD
 40
0.0
  9
$AUNITS
 70
     0
  9
$AUPREC
 70
     0
  9
$MENU
  1
acad
  9
$ELEVATION
 40
0.0
  9
$PELEVATION
 40
0.0
  9
$THICKNESS
 40
0.0
  9
$LIMCHECK
 70
     0
  9
$BLIPMODE
 70
     0
  9
$CHAMFERA
 40
0.0
  9
$CHAMFERB
 40
0.0
  9
$SKPOLY
 70
     0
  9
$TDCREATE
 40
2444974.75
  9
$TDUPDATE
 40
2452979.9059793982
  9
$TDINDWG
 40
0.0002167824
  9
$TDUSRTIMER
 40
0.0002167824
  9
$USRTIMER
 70
     1
  9
$ANGBASE
 50
0.0
  9
$ANGDIR
 70
     0
  9
$PDMODE
 70
     0
  9
$PDSIZE
 40
0.0
  9
$PLINEWID
 40
0.0
  9
$COORDS
 70
     1
  9
$SPLFRAME
 70
     0
  9
$SPLINETYPE
 70
     6
  9
$SPLINESEGS
 70
     8
  9
$ATTDIA
 70
     0
  9
$ATTREQ
 70
     1
  9
$HANDLING
 70
 22529
  9
$HANDSEED
  5
C6
  9
$SURFTAB1
 70
     6
  9
$SURFTAB2
 70
     6
  9
$SURFTYPE
 70
     6
  9
$SURFU
 70
     6
  9
$SURFV
 70
     6
  9
$UCSNAME
  2

  9
$UCSORG
 10
0.0
 20
0.0
 30
0.0
  9
$UCSXDIR
 10
1.0
 20
0.0
 30
0.0
  9
$UCSYDIR
 10
0.0
 20
1.0
 30
0.0
  9
$PUCSNAME
  2

  9
$PUCSORG
 10
0.0
 20
0.0
 30
0.0
  9
$PUCSXDIR
 10
1.0
 20
0.0
 30
0.0
  9
$PUCSYDIR
 10
0.0
 20
1.0
 30
0.0
  9
$USERI1
 70
     0
  9
$USERI2
 70
     0
  9
$USERI3
 70
     0
  9
$USERI4
 70
     0
  9
$USERI5
 70
     0
  9
$USERR1
 40
0.0
  9
$USERR2
 40
0.0
  9
$USERR3
 40
0.0
  9
$USERR4
 40
0.0
  9
$USERR5
 40
0.0
  9
$WORLDVIEW
 70
     1
  9
$SHADEDGE
 70
     3
  9
$SHADEDIF
 70
    70
  9
$TILEMODE
 70
     1
  9
$MAXACTVP
 70
    64
  9
$PLIMCHECK
 70
     0
  9
$PEXTMIN
 10
1.0000000000000000E+020
 20
1.0000000000000000E+020
 30
1.0000000000000000E+020
  9
$PEXTMAX
 10
-1.0000000000000000E+020
 20
-1.0000000000000000E+020
 30
-1.0000000000000000E+020
  9
$PLIMMIN
 10
0.0
 20
0.0
  9
$PLIMMAX
 10
12.0
 20
9.0
  9
$UNITMODE
 70
     0
  9
$VISRETAIN
 70
     1
  9
$PLINEGEN
 70
     0
  9
$PSLTSCALE
 70
     0
  0
ENDSEC
  0
SECTION
  2
TABLES
  0
TABLE
  2
VPORT
 70
     2
  0
VPORT
  2
*ACTIVE
 70
     0
 10
0.0
 20
0.0
 11
1.0
 21
1.0
 12
6.5912879999999987
 22
4.5791839999999988
 13
0.0
 23
0.0
 14
1.0
 24
1.0
 15
0.0
 25
0.0
 16
0.0
 26
0.0
 36
1.0
 17
0.0
 27
0.0
 37
0.0
 40
9.1583690000000004
 41
1.4077102803738311
 42
50.0
 43
0.0
 44
0.0
 50
0.0
 51
0.0
 71
     0
 72
   100
 73
     1
 74
     3
 75
     0
 76
     0
 77
     0
 78
     0
  0
ENDTAB
  0
TABLE
  2
LTYPE
 70
     9
  0
LTYPE
  2
CONTINUOUS
 70
     0
  3
Solid line
 72
    65
 73
     0
 40
0.0
  0
LTYPE
  2
CENTER
 70
     0
  3
____ _ ____ _ ____ _ ____ _ ____ _ ____ _ ____ 
 72
    65
 73
     4
 40
2.0
 49
1.25
 49
-0.25
 49
0.25
 49
-0.25
  0
LTYPE
  2
HIDDEN
 70
     0
  3
__ __ __ __ __ __ __ __ __ __ __ __ __ __ __ __
 72
    65
 73
     2
 40
0.375
 49
0.25
 49
-0.125
  0
LTYPE
  2
CENTER2
 70
     0
  3
___ _ ___ _ ___ _ ___ _ ___ _ ___ _ ___ _ ___ _
 72
    65
 73
     4
 40
1.125
 49
0.75
 49
-0.125
 49
0.125
 49
-0.125
  0
LTYPE
  2
HIDDEN2
 70
     0
  3
_ _ _ _ _ _ _ _ _ _ _ _ _ _ _ _ _ _ _ _ _ _ _ _
 72
    65
 73
     2
 40
0.1875
 49
0.125
 49
-0.0625
  0
ENDTAB
  0
TABLE
  2
LAYER
 70
    15
  0
LAYER
  2
0
 70
     0
 62
     7
  6
CONTINUOUS
  0
LAYER
  2
OBJ
 70
     0
 62
     3
  6
CONTINUOUS
  0
LAYER
  2
CENTER
 70
     0
 62
     2
  6
CENTER
  0
LAYER
  2
DIM
 70
     0
 62
     1
  6
CONTINUOUS
  0
LAYER
  2
HIDDEN
 70
     0
 62
     5
  6
HIDDEN
  0
LAYER
  2
ASHADE
 70
     0
 62
     7
  6
CONTINUOUS
  0
LAYER
  2
METAL1
 70
     0
 62
     3
  6
CONTINUOUS
  0
LAYER
  2
C-LINE
 70
     0
 62
     1
  6
CENTER2
  0
LAYER
  2
DEFPOINTS
 70
     0
 62
    -7
  6
CONTINUOUS
  0
ENDTAB
  0
TABLE
  2
STYLE
 70
     3
  0
STYLE
  2
STANDARD
 70
     0
 40
0.0
 41
1.0
 50
0.0
 71
     0
 42
0.2
  3
txt
  4

  0
STYLE
  2
STD
 70
     0
 40
0.0
 41
1.0
 50
0.0
 71
     0
 42
0.0888179241086533
  3
txt
  4

  0
ENDTAB
  0
TABLE
  2
VIEW
 70
     0
  0
ENDTAB
  0
TABLE
  2
UCS
 70
     0
  0
ENDTAB
  0
TABLE
  2
APPID
 70
     1
  0
APPID
  2
ACAD
 70
     0
  0
ENDTAB
  0
TABLE
  2
DIMSTYLE
 70
     1
  0
DIMSTYLE
  2
STANDARD
 70
     0
  3

  4

  5

  6

  7

 40
1.0
 41
0.18
 42
0.0625
 43
0.38
 44
0.18
 45
0.0
 46
0.0
 47
0.0
 48
0.0
140
0.18
141
0.09
142
0.0
143
25.399999999999999
144
1.0
145
0.0
146
1.0
147
0.09
 71
     0
 72
     0
 73
     1
 74
     1
 75
     0
 76
     0
 77
     0
 78
     0
170
     0
171
     2
172
     0
173
     0
174
     0
175
     0
176
     0
177
     0
178
     0
  0
ENDTAB
  0
ENDSEC
  0
SECTION
  2
BLOCKS
  0
BLOCK
  8
0
  2
$MODEL_SPACE
 70
     0
 10
0.0
 20
0.0
 30
0.0
  3
$MODEL_SPACE
  1

  0
ENDBLK
  5
3E
  8
0
  0
BLOCK
 67
     1
  8
0
  2
$PAPER_SPACE
 70
     0
 10
0.0
 20
0.0
 30
0.0
  3
$PAPER_SPACE
  1

  0
ENDBLK
  5
3C
 67
     1
  8
0
  0
BLOCK
  8
0
  2
AVE_RENDER
 70
     0
 10
0.0
 20
0.0
 30
0.0
  3
AVE_RENDER
  1

  0
ENDBLK
  5
41
  8
0
  0
ENDSEC
  0
SECTION
  2
ENTITIES
  0
INSERT
  5
42
  8
ASHADE
 62
     1
  2
AVE_RENDER
 10
0.0
 20
0.0
 30
0.0
  0
INSERT
  5
43
  8
ASHADE
 62
     3
  2
AVE_RENDER
 10
0.0
 20
0.0
 30
0.0
  0
INSERT
  5
44
  8
ASHADE
 62
     4
  2
AVE_RENDER
 10
0.0
 20
0.0
 30
0.0
  0
LINE
  5
45
  8
0
  6
HIDDEN
 10
10.19979786862751
 20
9.4856882393628368
 30
0.0
 11
12.45129786862751
 21
9.4856882393628368
 31
0.0
  0
INSERT
  5
46
  8
ASHADE
 62
     1
  2
AVE_RENDER
 10
1.6972342742420641
 20
2.3889698176082121
 30
0.0
  0
INSERT
  5
47
  8
ASHADE
 62
     3
  2
AVE_RENDER
 10
1.6972342742420641
 20
2.3889698176082121
 30
0.0
  0
INSERT
  5
48
  8
ASHADE
 62
     4
  2
AVE_RENDER
 10
1.6972342742420641
 20
2.3889698176082121
 30
0.0
  0
LINE
  5
49
  8
0
 10
4.3776335332669998
 20
4.837800555099192
 30
0.0
 11
4.2526335332669998
 21
4.837800555099192
 31
0.0
  0
LINE
  5
4A
  8
0
 10
4.3776335332669998
 20
4.837800555099192
 30
0.0
 11
4.2526335332669998
 21
4.837800555099192
 31
0.0
  0
LINE
  5
4B
  8
0
 10
4.2526335332669998
 20
8.5878005550991912
 30
0.0
 11
4.2526335332669998
 21
4.837800555099192
 31
0.0
  0
ARC
  5
4C
  8
0
 10
11.32554786862751
 20
6.712800555099192
 30
0.0
 40
1.875
 50
98.578283556232847
 51
81.421716443767139
  0
LINE
  5
4D
  8
0
 10
4.3776335332669998
 20
8.5878005550991912
 30
0.0
 11
4.2526335332669998
 21
8.5878005550991912
 31
0.0
  0
LINE
  5
4E
  8
0
 10
4.6276335332669998
 20
5.087800555099192
 30
0.0
 11
4.6276335332669998
 21
5.900300555099192
 31
0.0
  0
ARC
  5
4F
  8
0
 10
4.3776335332669998
 20
8.3378005550991912
 30
0.0
 40
0.25
 50
0.0
 51
90.0
  0
ARC
  5
50
  8
0
 10
4.3776335332669998
 20
5.087800555099192
 30
0.0
 40
0.25
 50
270.0
 51
0.0
  0
ARC
  5
51
  8
0
 10
7.2526335332669989
 20
10.299102525077121
 30
0.0
 40
0.8125
 50
243.15852484789789
 51
296.84147515210202
  0
LINE
  5
52
  8
0
 10
6.8351335332670002
 20
9.3378005550991912
 30
0.0
 11
7.6701335332670002
 21
9.3378005550991912
 31
0.0
  0
LINE
  5
53
  8
0
 10
7.2526335332669989
 20
9.4499193836309026
 30
0.0
 11
7.2526335332669989
 21
9.3771354926248378
 31
0.0
  0
LINE
  5
54
  8
0
  6
HIDDEN
 10
4.4401335332669998
 20
8.3378005550991912
 30
0.0
 11
4.4401335332669998
 21
5.087800555099192
 31
0.0
  0
LINE
  5
55
  8
0
  6
HIDDEN
 10
4.2526335332669998
 20
8.4003005550991912
 30
0.0
 11
4.3776335332669998
 21
8.4003005550991912
 31
0.0
  0
LINE
  5
56
  8
0
  6
HIDDEN
 10
4.2526335332669998
 20
5.025300555099192
 30
0.0
 11
4.3776335332669998
 21
5.025300555099192
 31
0.0
  0
ARC
  5
57
  8
0
  6
HIDDEN
 10
4.3776335332669998
 20
8.3378005550991912
 30
0.0
 40
0.0625
 50
0.0
 51
90.0
  0
ARC
  5
58
  8
0
  6
HIDDEN
 10
4.3776335332669998
 20
5.087800555099192
 30
0.0
 40
0.0625
 50
270.0
 51
0.0
  0
ARC
  5
59
  8
0
 10
4.9401335332669998
 20
7.525300555099192
 30
0.0
 40
0.3125
 50
180.0
 51
270.0
  0
ARC
  5
5A
  8
0
 10
4.9401335332669998
 20
5.900300555099192
 30
0.0
 40
0.3125
 50
90.0
 51
180.0
  0
LINE
  5
5B
  8
0
 10
4.6276335332669998
 20
5.900300555099192
 30
0.0
 11
4.6276335332669998
 21
8.3378005550991912
 31
0.0
  0
CIRCLE
  5
5C
  8
0
  6
HIDDEN
 10
11.32554786862751
 20
6.712800555099192
 30
0.0
 40
1.6875
  0
LINE
  5
5D
  8
0
 10
7.3776335332670007
 20
9.4962754889105518
 30
0.0
 11
7.3776335332669989
 21
9.4628005550991912
 31
0.0
  0
LINE
  5
5E
  8
0
 10
10.19979786862751
 20
9.338714840813477
 30
0.0
 11
11.325547868627529
 21
9.3065505550991894
 31
0.0
  0
LINE
  5
5F
  8
0
 10
11.325547868627529
 20
9.3065505550991894
 30
0.0
 11
12.45129786862751
 21
9.338714840813477
 31
0.0
  0
LINE
  5
60
  8
0
 10
7.3776335332669989
 20
9.4628005550991912
 30
0.0
 11
7.4080302107013649
 21
9.4324038776648251
 31
0.0
  0
ARC
  5
61
  8
0
 10
5.050392291775041
 20
9.2097589938685793
 30
0.0
 40
2.0
 50
266.83971704673598
 51
317.19350471187198
  0
ARC
  5
62
  8
0
 10
4.758629815958443
 20
8.9568042724077461
 30
0.0
 40
2.75
 50
273.78434984666171
 51
356.21565015333829
  0
LINE
  5
63
  8
0
 10
10.19979786862751
 20
9.5838385931889523
 30
0.0
 11
10.19979786862751
 21
9.3378005550991912
 31
0.0
  0
LINE
  5
64
  8
0
 10
12.45129786862751
 20
9.5838385931889523
 30
0.0
 11
12.45129786862751
 21
9.3378005550991912
 31
0.0
  0
LINE
  5
65
  8
0
 10
5.9953740068478361
 20
6.712800555099192
 30
0.0
 11
5.962063511661821
 21
6.7598869593477628
 31
0.0
  0
LINE
  5
66
  8
0
 10
5.9953740068478361
 20
6.712800555099192
 30
0.0
 11
5.9701159272001503
 21
6.6770967283565348
 31
0.0
  0
LINE
  5
67
  8
0
 10
7.459070891556677
 20
9.3813631968095148
 30
0.0
 11
7.5026335332669989
 21
9.3378005550991912
 31
0.0
  0
LINE
  5
68
  8
0
 10
7.1276335332669989
 20
9.4628005550991912
 30
0.0
 11
7.0972368558326346
 21
9.4324038776648251
 31
0.0
  0
LINE
  5
69
  8
0
 10
7.1276335332669989
 20
9.4962754889105518
 30
0.0
 11
7.1276335332669989
 21
9.4628005550991912
 31
0.0
  0
LINE
  5
6A
  8
0
 10
7.0461961749773234
 20
9.3813631968095148
 30
0.0
 11
7.0026335332669989
 21
9.3378005550991912
 31
0.0
  0
LINE
  5
6B
  8
0
 10
10.36911051033783
 20
9.3715417682380853
 30
0.0
 11
10.332492313071951
 21
9.334923570972208
 31
0.0
  0
LINE
  5
6C
  8
0
 10
10.45054786862751
 20
9.4529791265277652
 30
0.0
 11
10.42015119119314
 21
9.4225824490933974
 31
0.0
  0
LINE
  5
6D
  8
0
 10
10.45054786862751
 20
9.4856882393628368
 30
0.0
 11
10.45054786862751
 21
9.4529791265277652
 31
0.0
  0
LINE
  5
6E
  8
0
 10
10.57554786862751
 20
9.4400979550594748
 30
0.0
 11
10.57554786862751
 21
9.3810633573416347
 31
0.0
  0
LINE
  5
6F
  8
0
 10
10.78198522691719
 20
9.3715417682380853
 30
0.0
 11
10.832900809803981
 21
9.3206261853512942
 31
0.0
  0
LINE
  5
70
  8
0
 10
10.70054786862751
 20
9.4529791265277652
 30
0.0
 11
10.730944546061879
 21
9.4225824490933974
 31
0.0
  0
LINE
  5
71
  8
0
 10
10.70054786862751
 20
9.4856882393628368
 30
0.0
 11
10.70054786862751
 21
9.4529791265277652
 31
0.0
  0
LINE
  5
72
  8
0
 10
11.86911051033783
 20
9.3715417682380853
 30
0.0
 11
11.81819492745104
 21
9.3206261853512942
 31
0.0
  0
LINE
  5
73
  8
0
 10
11.95054786862751
 20
9.4529791265277652
 30
0.0
 11
11.92015119119314
 21
9.4225824490933974
 31
0.0
  0
LINE
  5
74
  8
0
 10
11.95054786862751
 20
9.4856882393628368
 30
0.0
 11
11.95054786862751
 21
9.4529791265277652
 31
0.0
  0
LINE
  5
75
  8
0
 10
12.07554786862751
 20
9.4400979550594748
 30
0.0
 11
12.07554786862751
 21
9.3784130490952826
 31
0.0
  0
LINE
  5
76
  8
0
 10
12.28198522691719
 20
9.3715417682380853
 30
0.0
 11
12.31860342418306
 21
9.334923570972208
 31
0.0
  0
LINE
  5
77
  8
0
 10
12.20054786862751
 20
9.4529791265277652
 30
0.0
 11
12.23094454606187
 21
9.4225824490933974
 31
0.0
  0
LINE
  5
78
  8
0
 10
12.20054786862751
 20
9.4856882393628368
 30
0.0
 11
12.20054786862751
 21
9.4529791265277652
 31
0.0
  0
LINE
  5
79
  8
0
 10
10.57554786862751
 20
9.2952596278659581
 30
0.0
 11
10.57554786862751
 21
9.1851510552056226
 31
0.0
  0
LINE
  5
7A
  8
0
 10
10.57554786862751
 20
9.5112597499437257
 30
0.0
 11
10.57554786862751
 21
9.6404791265277634
 31
0.0
  0
LINE
  5
7B
  8
0
 10
12.07554786862751
 20
9.5149039237824606
 30
0.0
 11
12.07554786862751
 21
9.6404791265277634
 31
0.0
  0
LINE
  5
7C
  8
0
 10
12.07554786862751
 20
9.3008915328894588
 30
0.0
 11
12.07554786862751
 21
9.1851510552056226
 31
0.0
  0
LINE
  5
7D
  8
0
  6
HIDDEN
 10
4.9951335332670013
 20
7.025300555099192
 30
0.0
 11
4.4401335332669998
 21
7.212800555099192
 31
0.0
  0
LINE
  5
7E
  8
0
  6
HIDDEN
 10
4.9951335332670013
 20
6.400300555099192
 30
0.0
 11
4.4401335332669998
 21
6.212800555099192
 31
0.0
  0
LINE
  5
7F
  8
0
 10
7.2526335332669989
 20
9.5216018145763321
 30
0.0
 11
7.2526335332669989
 21
9.6503005550991912
 31
0.0
  0
LINE
  5
80
  8
0
 10
7.2526335332669989
 20
9.3027069167303686
 30
0.0
 11
7.2526335332669989
 21
9.1851510552056226
 31
0.0
  0
LINE
  5
81
  8
0
 10
5.9142570486799242
 20
6.8274642928304861
 30
0.0
 11
5.882626808267001
 21
6.872175555099191
 31
0.0
  0
LINE
  5
82
  8
0
 10
5.9119587540078502
 20
6.5948880385248536
 30
0.0
 11
5.882626808267001
 21
6.5534255550991922
 31
0.0
  0
LINE
  5
83
  8
0
  6
HIDDEN
 10
4.9951335332670013
 20
6.872175555099183
 30
0.0
 11
5.882626808267001
 21
6.872175555099191
 31
0.0
  0
LINE
  5
84
  8
0
  6
HIDDEN
 10
4.9951335332670013
 20
6.5534255550992011
 30
0.0
 11
5.882626808267001
 21
6.5534255550991922
 31
0.0
  0
ARC
  5
85
  8
0
 10
11.32554786862751
 20
6.712800555099192
 30
0.0
 40
0.5
 50
162.01753270670221
 51
17.187329312299319
  0
LINE
  5
86
  8
0
 10
11.09997165101136
 20
8.9738029397805512
 30
0.0
 11
10.82929015680692
 21
6.7738602263936647
 31
0.0
  0
LINE
  5
87
  8
0
 10
11.551124086243661
 20
8.9738029397805512
 30
0.0
 11
11.8218055804481
 21
6.7738602263936647
 31
0.0
  0
ARC
  5
88
  8
0
 10
11.85880386757243
 20
9.0116599359831255
 30
0.0
 40
0.31
 50
91.636577041616619
 51
187.01443169140549
  0
ARC
  5
89
  8
0
 10
10.79229186968259
 20
9.0116599359831255
 30
0.0
 40
0.31
 50
352.9855683085944
 51
88.363422958383353
  0
ARC
  5
8A
  8
0
  6
HIDDEN
 10
11.32554786862751
 20
6.712800555099192
 30
0.0
 40
0.5
 50
28.824625527322919
 51
150.73083524160089
  0
ARC
  5
8B
  8
0
  6
HIDDEN
 10
11.32554786862751
 20
6.712800555099192
 30
0.0
 40
1.875
 50
83.122164176265699
 51
97.469021952897037
  0
CIRCLE
  5
8C
  8
0
  6
HIDDEN
 10
11.32554786862751
 20
6.712800555099192
 30
0.0
 40
0.18
  0
CIRCLE
  5
8D
  8
0
  6
HIDDEN
 10
11.32554786862751
 20
6.712800555099192
 30
0.0
 40
0.15
  0
LINE
  5
8E
  8
0
 10
6.7551335332670002
 20
9.4938385931889524
 30
0.0
 11
6.7551335332670002
 21
9.4178005550991912
 31
0.0
  0
LINE
  5
8F
  8
0
 10
7.7501335332670003
 20
9.4938385931889524
 30
0.0
 11
7.7501335332670003
 21
9.417800555099193
 31
0.0
  0
ARC
  5
90
  8
0
 10
6.8351335332670002
 20
9.4178005550991912
 30
0.0
 40
0.08
 50
180.0
 51
270.00000000000023
  0
ARC
  5
91
  8
0
 10
7.6701335332670002
 20
9.417800555099193
 30
0.0
 40
0.08
 50
270.00000000000011
 51
359.9999999999996
  0
ARC
  5
92
  8
0
 10
6.8490338136275382
 20
9.2678005550991909
 30
0.0
 40
0.07
 50
19.26775881276598
 51
90.0
  0
ARC
  5
93
  8
0
 10
7.6562332529064614
 20
9.2678005550991909
 30
0.0
 40
0.07
 50
90.0
 51
160.732241187234
  0
POLYLINE
  5
94
  8
0
 66
     1
 10
0.0
 20
0.0
 30
0.0
  0
VERTEX
  5
C0
  8
0
 10
7.5026335332669989
 20
8.7753005550991912
 30
0.0
 42
-0.0842700919236428
  0
VERTEX
  5
C1
  8
0
 10
7.5901541777806791
 20
9.2908993825698758
 30
0.0
 42
-0.0984914033571647
  0
SEQEND
  5
C2
  8
0
  0
ARC
  5
98
  8
0
 10
7.6601335332669986
 20
9.4938385931889524
 30
0.0
 40
0.09
 50
0.0
 51
116.84147515210179
  0
ARC
  5
99
  8
0
 10
6.845133533267
 20
9.4938385931889524
 30
0.0
 40
0.09
 50
63.158524847898143
 51
180.0
  0
LINE
  5
9A
  8
0
 10
10.19979786862751
 20
9.5838385931889523
 30
0.0
 11
12.45129786862751
 21
9.5838385931889523
 31
0.0
  0
LINE
  5
9B
  8
0
  6
HIDDEN
 10
4.9951335332670013
 20
6.9021755550991841
 30
0.0
 11
5.7589319598051913
 21
6.9021755550991912
 31
0.0
  0
LINE
  5
9C
  8
0
  6
HIDDEN
 10
4.9951335332670013
 20
6.5234255550992
 30
0.0
 11
5.7589319598051913
 21
6.5234255550991911
 31
0.0
  0
ARC
  5
9D
  8
0
 10
5.2264689722933664
 20
9.0466731190122882
 30
0.0
 40
1.7599999999999989
 50
317.19350471187198
 51
358.58309904671393
  0
POLYLINE
  5
9E
  8
0
 66
     1
 10
0.0
 20
0.0
 30
0.0
  0
VERTEX
  5
C3
  8
0
 10
6.9859308335510946
 20
9.0031534823009363
 30
0.0
 42
0.047520249367191
  0
VERTEX
  5
C4
  8
0
 10
6.9151128887533249
 20
9.2908993825698776
 30
0.0
 42
0.0862518846689265
  0
SEQEND
  5
C5
  8
0
  0
INSERT
  5
A2
  8
ASHADE
 62
     1
  2
AVE_RENDER
 10
-0.1077295931363338
 20
-0.4422776828080189
 30
0.0
  0
INSERT
  5
A3
  8
ASHADE
 62
     3
  2
AVE_RENDER
 10
-0.1077295931363338
 20
-0.4422776828080189
 30
0.0
  0
INSERT
  5
A4
  8
ASHADE
 62
     4
  2
AVE_RENDER
 10
-0.1077295931363338
 20
-0.4422776828080189
 30
0.0
  0
INSERT
  5
A5
  8
ASHADE
 62
     1
  2
AVE_RENDER
 10
1.5895046811057301
 20
1.9466921348001931
 30
0.0
  0
INSERT
  5
A6
  8
ASHADE
 62
     3
  2
AVE_RENDER
 10
1.5895046811057301
 20
1.9466921348001931
 30
0.0
  0
INSERT
  5
A7
  8
ASHADE
 62
     4
  2
AVE_RENDER
 10
1.5895046811057301
 20
1.9466921348001931
 30
0.0
  0
INSERT
  5
A8
  8
ASHADE
 62
     1
  2
AVE_RENDER
 10
-0.2631689887369295
 20
11.613422162174899
 30
0.0
  0
INSERT
  5
A9
  8
ASHADE
 62
     3
  2
AVE_RENDER
 10
-0.2631689887369295
 20
11.613422162174899
 30
0.0
  0
INSERT
  5
AA
  8
ASHADE
 62
     4
  2
AVE_RENDER
 10
-0.2631689887369295
 20
11.613422162174899
 30
0.0
  0
INSERT
  5
AB
  8
ASHADE
 62
     1
  2
AVE_RENDER
 10
1.4340652855051339
 20
14.002391979783109
 30
0.0
  0
INSERT
  5
AC
  8
ASHADE
 62
     3
  2
AVE_RENDER
 10
1.4340652855051339
 20
14.002391979783109
 30
0.0
  0
INSERT
  5
AD
  8
ASHADE
 62
     4
  2
AVE_RENDER
 10
1.4340652855051339
 20
14.002391979783109
 30
0.0
  0
INSERT
  5
AE
  8
ASHADE
 62
     1
  2
AVE_RENDER
 10
-0.1077295931363338
 20
-0.4422776828080189
 30
0.0
  0
INSERT
  5
AF
  8
ASHADE
 62
     3
  2
AVE_RENDER
 10
-0.1077295931363338
 20
-0.4422776828080189
 30
0.0
  0
INSERT
  5
B0
  8
ASHADE
 62
     4
  2
AVE_RENDER
 10
-0.1077295931363338
 20
-0.4422776828080189
 30
0.0
  0
INSERT
  5
B1
  8
ASHADE
 62
     1
  2
AVE_RENDER
 10
1.5895046811057301
 20
1.9466921348001931
 30
0.0
  0
INSERT
  5
B2
  8
ASHADE
 62
     3
  2
AVE_RENDER
 10
1.5895046811057301
 20
1.9466921348001931
 30
0.0
  0
INSERT
  5
B3
  8
ASHADE
 62
     4
  2
AVE_RENDER
 10
1.5895046811057301
 20
1.9466921348001931
 30
0.0
  0
LINE
  5
B4
  8
0
  6
HIDDEN
 10
4.9951335332670013
 20
6.400300555099192
 30
0.0
 11
4.9951335332670013
 21
7.025300555099192
 31
0.0
  0
ENDSEC
  0
EOF
