  0
SECTION
  2
HEADER
  9
$ACADVER
  1
AC1009
  9
$INSBASE
 10
0.0
 20
0.0
 30
0.0
  9
$EXTMIN
 10
13.291679164958399
 20
1.3473257379504571
 30
0.0
  9
$EXTMAX
 10
16.59597606795818
 20
6.1533257379504578
 30
0.0
  9
$LIMMIN
 10
0.0
 20
0.0
  9
$LIMMAX
 10
12.0
 20
9.0
  9
$ORTHOMODE
 70
     1
  9
$REGENMODE
 70
     0
  9
$FILLMODE
 70
     1
  9
$QTEXTMODE
 70
     0
  9
$MIRRTEXT
 70
     0
  9
$DRAGMODE
 70
     2
  9
$LTSCALE
 40
1.0
  9
$OSMODE
 70
    55
  9
$ATTMODE
 70
     1
  9
$TEXTSIZE
 40
0.2
  9
$TRACEWID
 40
0.05
  9
$TEXTSTYLE
  7
STANDARD
  9
$CLAYER
  8
0
  9
$CELTYPE
  6
BYLAYER
  9
$CECOLOR
 62
   256
  9
$DIMSCALE
 40
1.0
  9
$DIMASZ
 40
0.125
  9
$DIMEXO
 40
0.0625
  9
$DIMDLI
 40
0.38
  9
$DIMRND
 40
0.0
  9
$DIMDLE
 40
0.0
  9
$DIMEXE
 40
0.18
  9
$DIMTP
 40
0.0
  9
$DIMTM
 40
0.0
  9
$DIMTXT
 40
0.09375
  9
$DIMCEN
 40
-0.125
  9
$DIMTSZ
 40
0.0
  9
$DIMTOL
 70
     0
  9
$DIMLIM
 70
     0
  9
$DIMTIH
 70
     0
  9
$DIMTOH
 70
     0
  9
$DIMSE1
 70
     0
  9
$DIMSE2
 70
     0
  9
$DIMTAD
 70
     0
  9
$DIMZIN
 70
     3
  9
$DIMBLK
  1

  9
$DIMASO
 70
     0
  9
$DIMSHO
 70
     1
  9
$DIMPOST
  1

  9
$DIMAPOST
  1

  9
$DIMALT
 70
     0
  9
$DIMALTD
 70
     2
  9
$DIMALTF
 40
25.399999999999999
  9
$DIMLFAC
 40
1.0
  9
$DIMTOFL
 70
     1
  9
$DIMTVP
 40
0.0
  9
$DIMTIX
 70
     0
  9
$DIMSOXD
 70
     0
  9
$DIMSAH
 70
     0
  9
$DIMBLK1
  1

  9
$DIMBLK2
  1

  9
$DIMSTYLE
  2
STANDARD
  9
$DIMCLRD
 70
     0
  9
$DIMCLRE
 70
     0
  9
$DIMCLRT
 70
     0
  9
$DIMTFAC
 40
1.0
  9
$DIMGAP
 40
0.09
  9
$LUNITS
 70
     4
  9
$LUPREC
 70
     4
  9
$SKETCHINC
 40
0.1
  9
$FILLETRAD
 40
0.025
  9
$AUNITS
 70
     0
  9
$AUPREC
 70
     4
  9
$MENU
  1
.
  9
$ELEVATION
 40
0.0
  9
$PELEVATION
 40
0.0
  9
$THICKNESS
 40
0.0
  9
$LIMCHECK
 70
     0
  9
$BLIPMODE
 70
     0
  9
$CHAMFERA
 40
0.125
  9
$CHAMFERB
 40
0.5
  9
$SKPOLY
 70
     0
  9
$TDCREATE
 40
2451086.9109346061
  9
$TDUPDATE
 40
2453913.580482454
  9
$TDINDWG
 40
0.0685272685
  9
$TDUSRTIMER
 40
0.0685272685
  9
$USRTIMER
 70
     1
  9
$ANGBASE
 50
0.0
  9
$ANGDIR
 70
     0
  9
$PDMODE
 70
    34
  9
$PDSIZE
 40
3.0
  9
$PLINEWID
 40
0.0
  9
$COORDS
 70
     1
  9
$SPLFRAME
 70
     0
  9
$SPLINETYPE
 70
     6
  9
$SPLINESEGS
 70
     8
  9
$ATTDIA
 70
     0
  9
$ATTREQ
 70
     1
  9
$HANDLING
 70
     1
  9
$HANDSEED
  5
95C
  9
$SURFTAB1
 70
     6
  9
$SURFTAB2
 70
     6
  9
$SURFTYPE
 70
     6
  9
$SURFU
 70
     6
  9
$SURFV
 70
     6
  9
$UCSNAME
  2

  9
$UCSORG
 10
0.0
 20
0.0
 30
0.0
  9
$UCSXDIR
 10
1.0
 20
0.0
 30
0.0
  9
$UCSYDIR
 10
0.0
 20
1.0
 30
0.0
  9
$PUCSNAME
  2

  9
$PUCSORG
 10
0.0
 20
0.0
 30
0.0
  9
$PUCSXDIR
 10
1.0
 20
0.0
 30
0.0
  9
$PUCSYDIR
 10
0.0
 20
1.0
 30
0.0
  9
$USERI1
 70
     0
  9
$USERI2
 70
     0
  9
$USERI3
 70
     0
  9
$USERI4
 70
     0
  9
$USERI5
 70
     0
  9
$USERR1
 40
0.0
  9
$USERR2
 40
0.0
  9
$USERR3
 40
0.0
  9
$USERR4
 40
0.0
  9
$USERR5
 40
0.0
  9
$WORLDVIEW
 70
     1
  9
$SHADEDGE
 70
     3
  9
$SHADEDIF
 70
    70
  9
$TILEMODE
 70
     1
  9
$MAXACTVP
 70
    48
  9
$PLIMCHECK
 70
     0
  9
$PEXTMIN
 10
14.07222128591884
 20
0.5967910317883991
 30
0.0
  9
$PEXTMAX
 10
17.2536513517936
 20
6.9228351280028662
 30
0.0
  9
$PLIMMIN
 10
-0.1579164520023376
 20
-0.2812499887361301
  9
$PLIMMAX
 10
10.84208330770177
 20
8.2187497709679782
  9
$UNITMODE
 70
     0
  9
$VISRETAIN
 70
     1
  9
$PLINEGEN
 70
     0
  9
$PSLTSCALE
 70
     1
  0
ENDSEC
  0
SECTION
  2
TABLES
  0
TABLE
  2
VPORT
 70
     2
  0
VPORT
  2
*ACTIVE
 70
     0
 10
0.0
 20
0.0
 11
1.0
 21
1.0
 12
-8.0368645447747564
 22
0.7401869201043674
 13
0.0
 23
0.0
 14
0.5
 24
0.5
 15
0.5
 25
0.5
 16
0.0
 26
0.0
 36
1.0
 17
19.138649933021721
 27
3.7598130798956322
 37
0.0
 40
9.7121148213808581
 41
2.3227848101265818
 42
50.0
 43
0.0
 44
0.0
 50
0.0
 51
0.0
 71
     0
 72
   100
 73
     1
 74
     1
 75
     0
 76
     0
 77
     0
 78
     0
  0
ENDTAB
  0
TABLE
  2
LTYPE
 70
    18
  0
LTYPE
  2
CONTINUOUS
 70
     0
  3
Solid line
 72
    65
 73
     0
 40
0.0
  0
LTYPE
  2
HIDDEN
 70
     0
  3
__ __ __ __ __ __ __ __ __ __ __ __ __ __ __ __
 72
    65
 73
     2
 40
0.375
 49
0.25
 49
-0.125
  0
LTYPE
  2
PHANTOM2
 70
     0
  3
Phantom (.5x) ___ _ _ ___ _ _ ___ _ _ ___ _ _
 72
    65
 73
     6
 40
1.25
 49
0.625
 49
-0.125
 49
0.125
 49
-0.125
 49
0.125
 49
-0.125
  0
LTYPE
  2
CENTER
 70
     0
  3
Center ____ _ ____ _ ____ _ ____ _ ____ _ ____
 72
    65
 73
     4
 40
2.0
 49
1.25
 49
-0.25
 49
0.25
 49
-0.25
  0
LTYPE
  2
ASULTYPE
 70
     0
  3
Solid line
 72
    65
 73
     2
 40
3.0
 49
2.5
 49
0.5
  0
LTYPE
  2
ASVLTYPE
 70
     0
  3
__ __ __ __ __ __ __ __ __ __ __ __ __ __ __ __ __ __ __ __ __
 72
    65
 73
     2
 40
0.75
 49
0.5
 49
-0.25
  0
LTYPE
  2
AM_ISO02W050
 70
     0
  3
__ __ __ __ __ __ __ __ __ __ __ __ __ __ __
 72
    65
 73
     2
 40
7.5
 49
6.0
 49
-1.5
  0
LTYPE
  2
AM_ISO08W050
 70
     0
  3
____ . ____ . ____ . ____ . ____ . ____ . ____
 72
    65
 73
     4
 40
18.0
 49
12.0
 49
-1.5
 49
3.0
 49
-1.5
  0
LTYPE
  2
AM_ISO09W050
 70
     0
  3
_____ . . _____ . . _____ . . ____ .. ____
 72
    65
 73
     6
 40
22.5
 49
12.0
 49
-1.5
 49
3.0
 49
-1.5
 49
3.0
 49
-1.5
  0
LTYPE
  2
AMCONSTR
 70
     0
  3
_______________________
 72
    65
 73
     2
 40
9999.0
 49
9999.0
 49
0.0
  0
LTYPE
  2
AM_ISO08W050X2
 70
     0
  3
__ . __ . __ . __ . __ . __
 72
    65
 73
     4
 40
9.0
 49
6.0
 49
-0.75
 49
1.5
 49
-0.75
  0
LTYPE
  2
AM_ISO02W050X2
 70
     0
  3
 _ _ _ _ _ _ _ _ _ _ _ _
 72
    65
 73
     2
 40
3.75
 49
3.0
 49
-0.75
  0
LTYPE
  2
AMZIGZAG
 70
     0
  3
/\/-/\/-/\/-/\/-/\/-/\/
 72
    65
 73
     2
 40
11.0001
 49
0.0001
 49
-11.0
  0
LTYPE
  2
CENTER2
 70
     0
  3
Center (.5x) ___ _ ___ _ ___ _ ___ _ ___ _ ___
 72
    65
 73
     4
 40
1.125
 49
0.75
 49
-0.125
 49
0.125
 49
-0.125
  0
LTYPE
  2
HIDDEN2
 70
     0
  3
Hidden (.5x) _ _ _ _ _ _ _ _ _ _ _ _ _ _ _ _ _
 72
    65
 73
     2
 40
0.1875
 49
0.125
 49
-0.0625
  0
LTYPE
  2
AMZIGZAG2
 70
     0
  3
/\/-/\/-/\/-/\/-/\/-/\/
 72
    65
 73
     2
 40
0.4401
 49
0.0001
 49
-0.4400000000000001
  0
LTYPE
  2
ACANSTGB
 70
     0
  3
__ . . __ . .
 72
    65
 73
     6
 40
0.35433070866
 49
0.15748031496
 49
-0.03937007874
 49
0.03937007874
 49
-0.03937007874
 49
0.03937007874
 49
-0.03937007874
  0
LTYPE
  2
ACANSTGL
 70
     0
  3
_ _ _ _ _
 72
    65
 73
     2
 40
0.11811023622
 49
0.07874015748
 49
-0.03937007874
  0
ENDTAB
  0
TABLE
  2
LAYER
 70
     4
  0
LAYER
  2
0
 70
     0
 62
     7
  6
CONTINUOUS
  0
LAYER
  2
AM_VIS
 70
     0
 62
     7
  6
CONTINUOUS
  0
LAYER
  2
AM_HID
 70
     0
 62
     7
  6
HIDDEN
  0
LAYER
  2
KEE10
 70
     0
 62
     7
  6
CONTINUOUS
  0
ENDTAB
  0
TABLE
  2
STYLE
 70
     5
  0
STYLE
  2
STANDARD
 70
     0
 40
0.0
 41
1.0
 50
0.0
 71
     0
 42
0.2
  3
txt
  4

  0
STYLE
  2

 70
     1
 40
0.0
 41
1.0
 50
0.0
 71
     0
 42
0.2
  3
ltypeshp.shx
  4

  0
STYLE
  2
ACANSTS
 70
     0
 40
1.0
 41
1.0
 50
0.0
 71
     0
 42
0.2
  3
romans.shx
  4

  0
STYLE
  2
ACANSGDT
 70
     0
 40
0.0
 41
1.0
 50
0.0
 71
     0
 42
0.2
  3
amgdtans.shx
  4

  0
STYLE
  2
ACANSTSB
 70
     0
 40
1.0
 41
1.0
 50
0.0
 71
     0
 42
0.2
  3
romans.shx
  4

  0
ENDTAB
  0
TABLE
  2
VIEW
 70
     0
  0
ENDTAB
  0
TABLE
  2
UCS
 70
     0
  0
ENDTAB
  0
TABLE
  2
APPID
 70
    13
  0
APPID
  2
ACAD
 70
     0
  0
APPID
  2
GENIUS_GENDIM_13
 70
     0
  0
APPID
  2
GENIUS_GENDTOL_13
 70
     0
  0
APPID
  2
GENIUS_GE3DTOL_13
 70
     0
  0
APPID
  2
MCAD_NO_VIS
 70
     0
  0
APPID
  2
ACAD_TEMP_GRAPHIC
 70
     0
  0
APPID
  2
AD_DRAW
 70
     0
  0
APPID
  2
ACATTRIBSERVICES
 70
     0
  0
APPID
  2
ASURF_PCURVE_APPNAME
 70
     0
  0
APPID
  2
AMG_3D2D_5_0
 70
     0
  0
APPID
  2
DESIGNERASSEMBLIES
 70
     0
  0
APPID
  2
ACADM_DIM_EDIT
 70
     0
  0
APPID
  2
AMDT_DM_ADJ
 70
     0
  0
ENDTAB
  0
TABLE
  2
DIMSTYLE
 70
     7
  0
DIMSTYLE
  2
STANDARD
 70
     0
  3

  4

  5

  6

  7

 40
1.0
 41
0.18
 42
0.0625
 43
0.38
 44
0.18
 45
0.0
 46
0.0
 47
0.0
 48
0.0
140
0.18
141
0.09
142
0.0
143
25.399999999999999
144
1.0
145
0.0
146
1.0
147
0.09
 71
     0
 72
     0
 73
     1
 74
     1
 75
     0
 76
     0
 77
     0
 78
     0
170
     0
171
     2
172
     0
173
     0
174
     0
175
     0
176
     0
177
     0
178
     0
  0
DIMSTYLE
  2
AM_ANSI
 70
     0
  3

  4
mm
  5

  6

  7

 40
1.0
 41
0.1
 42
0.05
 43
0.5
 44
0.1
 45
0.0
 46
0.0
 47
0.1
 48
0.1
140
0.12
141
0.0
142
0.0
143
25.399999999999999
144
1.0
145
0.0
146
0.71
147
0.06
 71
     0
 72
     0
 73
     1
 74
     1
 75
     0
 76
     0
 77
     0
 78
     7
170
     0
171
     2
172
     0
173
     0
174
     0
175
     0
176
   256
177
   256
178
     2
  0
DIMSTYLE
  2
AM_ANSI$3
 70
     0
  3

  4
mm
  5

  6

  7

 40
1.0
 41
0.1
 42
0.05
 43
0.5
 44
0.1
 45
0.0
 46
0.0
 47
0.1
 48
0.1
140
0.12
141
0.0
142
0.0
143
25.399999999999999
144
1.0
145
0.0
146
0.71
147
0.06
 71
     0
 72
     0
 73
     1
 74
     1
 75
     0
 76
     0
 77
     0
 78
     7
170
     0
171
     2
172
     0
173
     0
174
     0
175
     0
176
   256
177
   256
178
     2
  0
DIMSTYLE
  2
AM_ANSI$4
 70
     0
  3

  4
mm
  5

  6

  7

 40
1.0
 41
0.1
 42
0.05
 43
0.5
 44
0.1
 45
0.0
 46
0.0
 47
0.1
 48
0.1
140
0.12
141
0.0
142
0.0
143
25.399999999999999
144
1.0
145
0.0
146
0.71
147
0.06
 71
     0
 72
     0
 73
     1
 74
     1
 75
     0
 76
     0
 77
     0
 78
     7
170
     0
171
     2
172
     0
173
     0
174
     0
175
     0
176
   256
177
   256
178
     2
  0
DIMSTYLE
  2
AM_ANSI$7
 70
     0
  3

  4
mm
  5

  6

  7

 40
1.0
 41
0.1
 42
0.05
 43
0.5
 44
0.1
 45
0.0
 46
0.0
 47
0.1
 48
0.1
140
0.24
141
0.0
142
0.0
143
25.399999999999999
144
1.0
145
0.0
146
0.71
147
0.06
 71
     0
 72
     0
 73
     1
 74
     1
 75
     0
 76
     0
 77
     0
 78
     7
170
     0
171
     2
172
     0
173
     0
174
     0
175
     0
176
   256
177
   256
178
     2
  0
DIMSTYLE
  2
AM_ANSI$SF
 70
     0
  3

  4
mm
  5

  6

  7

 40
1.0
 41
0.1
 42
0.05
 43
0.5
 44
0.1
 45
0.0
 46
0.0
 47
0.1
 48
0.1
140
0.12
141
0.0
142
0.0
143
25.399999999999999
144
1.0
145
0.0
146
0.71
147
0.06
 71
     0
 72
     0
 73
     1
 74
     1
 75
     1
 76
     1
 77
     0
 78
     7
170
     0
171
     2
172
     0
173
     0
174
     0
175
     0
176
   256
177
   256
178
     2
  0
DIMSTYLE
  2
AM_ANSI$SH
 70
     0
  3

  4
mm
  5

  6
GENAXEH
  7

 40
1.0
 41
0.1
 42
0.05
 43
0.5
 44
0.1
 45
0.0
 46
0.0
 47
0.1
 48
0.1
140
0.12
141
0.0
142
0.0
143
25.399999999999999
144
1.0
145
0.0
146
0.71
147
0.06
 71
     0
 72
     0
 73
     1
 74
     1
 75
     1
 76
     1
 77
     0
 78
     7
170
     0
171
     2
172
     0
173
     1
174
     0
175
     0
176
   256
177
   256
178
     2
  0
ENDTAB
  0
ENDSEC
  0
SECTION
  2
BLOCKS
  0
BLOCK
  8
0
  2
$MODEL_SPACE
 70
     0
 10
0.0
 20
0.0
 30
0.0
  3
$MODEL_SPACE
  1

  0
ENDBLK
  5
A
  8
0
  0
BLOCK
 67
     1
  8
0
  2
$PAPER_SPACE
 70
     0
 10
0.0
 20
0.0
 30
0.0
  3
$PAPER_SPACE
  1

  0
ENDBLK
  5
F
 67
     1
  8
0
  0
BLOCK
  8
0
  2
*U0
 70
     1
 10
0.0
 20
0.0
 30
0.0
  3
*U0
  1

  0
ENDBLK
  5
117
  8
0
  0
BLOCK
  8
0
  2
GENAXEH
 70
     0
 10
0.0
 20
0.0
 30
0.0
  3
GENAXEH
  1

  0
LINE
  5
155
  8
0
 10
-1.0
 20
0.0
 30
0.0
 11
1.0
 21
0.0
 31
0.0
  0
ENDBLK
  5
157
  8
0
  0
BLOCK
  8
0
  2
_DOT
 70
     0
 10
0.0
 20
0.0
 30
0.0
  3
_DOT
  1

  0
POLYLINE
  5
15E
  8
0
  6
BYBLOCK
 62
     0
 66
     1
 10
0.0
 20
0.0
 30
0.0
 70
     1
 40
0.5
 41
0.5
  0
VERTEX
  5
15F
  8
0
  6
BYBLOCK
 62
     0
 10
-0.25
 20
0.0
 30
0.0
 42
1.0
  0
VERTEX
  5
160
  8
0
  6
BYBLOCK
 62
     0
 10
0.25
 20
0.0
 30
0.0
 42
1.0
  0
SEQEND
  5
161
  8
0
  6
BYBLOCK
 62
     0
  0
LINE
  5
162
  8
0
  6
BYBLOCK
 62
     0
 10
-0.5
 20
0.0
 30
0.0
 11
-1.0
 21
0.0
 31
0.0
  0
ENDBLK
  5
164
  8
0
  0
BLOCK
  8
0
  2
2D
 70
     0
 10
0.0
 20
0.0
 30
0.0
  3
2D
  1

  0
INSERT
  5
168
  8
0
  2
*U4
 10
0.0
 20
0.0
 30
0.0
  0
INSERT
  5
169
  8
0
  2
*U5
 10
0.0
 20
0.0
 30
0.0
  0
INSERT
  5
16A
  8
0
  2
*U6
 10
0.0
 20
0.0
 30
0.0
  0
ENDBLK
  5
16C
  8
0
  0
BLOCK
  8
0
  2
*U4
 70
     1
 10
0.0
 20
0.0
 30
0.0
  3
*U4
  1

  0
TEXT
  5
1BD
  8
KEE10
 10
-0.167740653382606
 20
0.7944046258072062
 30
0.0
 40
0.140625
  1
KEE
  0
ENDBLK
  5
1BF
  8
0
  0
BLOCK
  8
0
  2
*U5
 70
     1
 10
0.0
 20
0.0
 30
0.0
  3
*U5
  1

  0
TEXT
  5
1C1
  8
KEE10
 10
-0.308365653382606
 20
0.4858688129746218
 30
0.0
 40
0.140625
  1
KLAMP
  0
ENDBLK
  5
1C3
  8
0
  0
BLOCK
  8
0
  2
*U6
 70
     1
 10
0.0
 20
0.0
 30
0.0
  3
*U6
  1

  0
TEXT
  5
1C5
  8
KEE10
 10
-0.202896903382606
 20
0.2018753139112972
 30
0.0
 40
0.140625
  1
10-8
  0
ENDBLK
  5
1C7
  8
0
  0
BLOCK
  8
0
  2
*U7
 70
     1
 10
0.0
 20
0.0
 30
0.0
  3
*U7
  1

  0
TEXT
  5
1C9
  8
KEE10
 10
15.208702040939571
 20
5.75886748223511
 30
0.0
 40
0.1265625
  1
KEE
  0
ENDBLK
  5
1CB
  8
0
  0
BLOCK
  8
0
  2
*U8
 70
     1
 10
0.0
 20
0.0
 30
0.0
  3
*U8
  1

  0
TEXT
  5
1CD
  8
KEE10
 10
15.08213954093957
 20
5.4811852506857841
 30
0.0
 40
0.1265625
  1
KLAMP
  0
ENDBLK
  5
1CF
  8
0
  0
BLOCK
  8
0
  2
*U9
 70
     1
 10
0.0
 20
0.0
 30
0.0
  3
*U9
  1

  0
TEXT
  5
1D1
  8
0
 10
13.495866664958401
 20
3.525325737950459
 30
0.0
 40
0.084375
  1
4-3/4"
 50
90.0
  0
ENDBLK
  5
1D3
  8
0
  0
ENDSEC
  0
SECTION
  2
ENTITIES
  0
POLYLINE
  8
AM_VIS
  5
1D4
  66
     1
 10
0.000000
 20
0.000000
 30
0.000000
  70
     8
  0
VERTEX
  8
AM_VIS
  5
1D5
 10
16.4272
 20
4.12990
 30
0.000000
  70
    32
  0
VERTEX
  8
AM_VIS
  5
1D6
 10
16.4272
 20
4.12990
 30
0.000000
  70
    32
  0
VERTEX
  8
AM_VIS
  5
1D7
 10
16.4272
 20
4.12990
 30
0.000000
  70
    32
  0
VERTEX
  8
AM_VIS
  5
1D8
 10
16.4272
 20
4.12990
 30
0.000000
  70
    32
  0
VERTEX
  8
AM_VIS
  5
1D9
 10
16.4272
 20
4.12990
 30
0.000000
  70
    32
  0
VERTEX
  8
AM_VIS
  5
1DA
 10
16.4272
 20
4.12990
 30
0.000000
  70
    32
  0
VERTEX
  8
AM_VIS
  5
1DB
 10
16.4272
 20
4.12990
 30
0.000000
  70
    32
  0
VERTEX
  8
AM_VIS
  5
1DC
 10
16.4272
 20
4.12989
 30
0.000000
  70
    32
  0
VERTEX
  8
AM_VIS
  5
1DD
 10
16.4272
 20
4.12989
 30
0.000000
  70
    32
  0
VERTEX
  8
AM_VIS
  5
1DE
 10
16.4272
 20
4.12989
 30
0.000000
  70
    32
  0
VERTEX
  8
AM_VIS
  5
1DF
 10
16.4272
 20
4.12988
 30
0.000000
  70
    32
  0
VERTEX
  8
AM_VIS
  5
1E0
 10
16.4272
 20
4.12988
 30
0.000000
  70
    32
  0
VERTEX
  8
AM_VIS
  5
1E1
 10
16.4272
 20
4.12988
 30
0.000000
  70
    32
  0
VERTEX
  8
AM_VIS
  5
1E2
 10
16.4272
 20
4.12987
 30
0.000000
  70
    32
  0
VERTEX
  8
AM_VIS
  5
1E3
 10
16.4272
 20
4.12987
 30
0.000000
  70
    32
  0
VERTEX
  8
AM_VIS
  5
1E4
 10
16.4272
 20
4.12986
 30
0.000000
  70
    32
  0
VERTEX
  8
AM_VIS
  5
1E5
 10
16.4272
 20
4.12985
 30
0.000000
  70
    32
  0
VERTEX
  8
AM_VIS
  5
1E6
 10
16.4272
 20
4.12985
 30
0.000000
  70
    32
  0
VERTEX
  8
AM_VIS
  5
1E7
 10
16.4272
 20
4.12984
 30
0.000000
  70
    32
  0
VERTEX
  8
AM_VIS
  5
1E8
 10
16.4272
 20
4.12983
 30
0.000000
  70
    32
  0
VERTEX
  8
AM_VIS
  5
1E9
 10
16.4272
 20
4.12983
 30
0.000000
  70
    32
  0
VERTEX
  8
AM_VIS
  5
1EA
 10
16.4272
 20
4.12982
 30
0.000000
  70
    32
  0
VERTEX
  8
AM_VIS
  5
1EB
 10
16.4272
 20
4.12981
 30
0.000000
  70
    32
  0
VERTEX
  8
AM_VIS
  5
1EC
 10
16.4272
 20
4.12980
 30
0.000000
  70
    32
  0
VERTEX
  8
AM_VIS
  5
1ED
 10
16.4272
 20
4.12979
 30
0.000000
  70
    32
  0
VERTEX
  8
AM_VIS
  5
1EE
 10
16.4272
 20
4.12979
 30
0.000000
  70
    32
  0
VERTEX
  8
AM_VIS
  5
1EF
 10
16.4271
 20
4.12978
 30
0.000000
  70
    32
  0
VERTEX
  8
AM_VIS
  5
1F0
 10
16.4271
 20
4.12977
 30
0.000000
  70
    32
  0
VERTEX
  8
AM_VIS
  5
1F1
 10
16.4271
 20
4.12976
 30
0.000000
  70
    32
  0
VERTEX
  8
AM_VIS
  5
1F2
 10
16.4271
 20
4.12975
 30
0.000000
  70
    32
  0
VERTEX
  8
AM_VIS
  5
1F3
 10
16.4271
 20
4.12973
 30
0.000000
  70
    32
  0
VERTEX
  8
AM_VIS
  5
1F4
 10
16.4271
 20
4.12972
 30
0.000000
  70
    32
  0
VERTEX
  8
AM_VIS
  5
1F5
 10
16.4271
 20
4.12971
 30
0.000000
  70
    32
  0
VERTEX
  8
AM_VIS
  5
1F6
 10
16.4271
 20
4.12970
 30
0.000000
  70
    32
  0
VERTEX
  8
AM_VIS
  5
1F7
 10
16.4271
 20
4.12969
 30
0.000000
  70
    32
  0
VERTEX
  8
AM_VIS
  5
1F8
 10
16.4271
 20
4.12967
 30
0.000000
  70
    32
  0
VERTEX
  8
AM_VIS
  5
1F9
 10
16.4271
 20
4.12966
 30
0.000000
  70
    32
  0
VERTEX
  8
AM_VIS
  5
1FA
 10
16.4271
 20
4.12965
 30
0.000000
  70
    32
  0
VERTEX
  8
AM_VIS
  5
1FB
 10
16.4271
 20
4.12963
 30
0.000000
  70
    32
  0
VERTEX
  8
AM_VIS
  5
1FC
 10
16.4270
 20
4.12962
 30
0.000000
  70
    32
  0
VERTEX
  8
AM_VIS
  5
1FD
 10
16.4270
 20
4.12960
 30
0.000000
  70
    32
  0
VERTEX
  8
AM_VIS
  5
1FE
 10
16.4270
 20
4.12959
 30
0.000000
  70
    32
  0
VERTEX
  8
AM_VIS
  5
1FF
 10
16.4270
 20
4.12957
 30
0.000000
  70
    32
  0
VERTEX
  8
AM_VIS
  5
200
 10
16.4270
 20
4.12956
 30
0.000000
  70
    32
  0
VERTEX
  8
AM_VIS
  5
201
 10
16.4270
 20
4.12954
 30
0.000000
  70
    32
  0
VERTEX
  8
AM_VIS
  5
202
 10
16.4270
 20
4.12952
 30
0.000000
  70
    32
  0
VERTEX
  8
AM_VIS
  5
203
 10
16.4270
 20
4.12951
 30
0.000000
  70
    32
  0
VERTEX
  8
AM_VIS
  5
204
 10
16.4270
 20
4.12949
 30
0.000000
  70
    32
  0
VERTEX
  8
AM_VIS
  5
205
 10
16.4270
 20
4.12947
 30
0.000000
  70
    32
  0
VERTEX
  8
AM_VIS
  5
206
 10
16.4269
 20
4.12945
 30
0.000000
  70
    32
  0
VERTEX
  8
AM_VIS
  5
207
 10
16.4269
 20
4.12944
 30
0.000000
  70
    32
  0
VERTEX
  8
AM_VIS
  5
208
 10
16.4269
 20
4.12942
 30
0.000000
  70
    32
  0
VERTEX
  8
AM_VIS
  5
209
 10
16.4269
 20
4.12940
 30
0.000000
  70
    32
  0
VERTEX
  8
AM_VIS
  5
20A
 10
16.4269
 20
4.12938
 30
0.000000
  70
    32
  0
VERTEX
  8
AM_VIS
  5
20B
 10
16.4269
 20
4.12936
 30
0.000000
  70
    32
  0
VERTEX
  8
AM_VIS
  5
20C
 10
16.4269
 20
4.12934
 30
0.000000
  70
    32
  0
VERTEX
  8
AM_VIS
  5
20D
 10
16.4269
 20
4.12932
 30
0.000000
  70
    32
  0
VERTEX
  8
AM_VIS
  5
20E
 10
16.4268
 20
4.12930
 30
0.000000
  70
    32
  0
VERTEX
  8
AM_VIS
  5
20F
 10
16.4268
 20
4.12928
 30
0.000000
  70
    32
  0
VERTEX
  8
AM_VIS
  5
210
 10
16.4268
 20
4.12925
 30
0.000000
  70
    32
  0
VERTEX
  8
AM_VIS
  5
211
 10
16.4268
 20
4.12923
 30
0.000000
  70
    32
  0
VERTEX
  8
AM_VIS
  5
212
 10
16.4268
 20
4.12921
 30
0.000000
  70
    32
  0
VERTEX
  8
AM_VIS
  5
213
 10
16.4268
 20
4.12919
 30
0.000000
  70
    32
  0
VERTEX
  8
AM_VIS
  5
214
 10
16.4268
 20
4.12916
 30
0.000000
  70
    32
  0
VERTEX
  8
AM_VIS
  5
215
 10
16.4267
 20
4.12914
 30
0.000000
  70
    32
  0
VERTEX
  8
AM_VIS
  5
216
 10
16.4267
 20
4.12912
 30
0.000000
  70
    32
  0
VERTEX
  8
AM_VIS
  5
217
 10
16.4267
 20
4.12909
 30
0.000000
  70
    32
  0
VERTEX
  8
AM_VIS
  5
218
 10
16.4267
 20
4.12907
 30
0.000000
  70
    32
  0
VERTEX
  8
AM_VIS
  5
219
 10
16.4267
 20
4.12904
 30
0.000000
  70
    32
  0
VERTEX
  8
AM_VIS
  5
21A
 10
16.4267
 20
4.12902
 30
0.000000
  70
    32
  0
VERTEX
  8
AM_VIS
  5
21B
 10
16.4267
 20
4.12899
 30
0.000000
  70
    32
  0
VERTEX
  8
AM_VIS
  5
21C
 10
16.4266
 20
4.12897
 30
0.000000
  70
    32
  0
VERTEX
  8
AM_VIS
  5
21D
 10
16.4266
 20
4.12894
 30
0.000000
  70
    32
  0
VERTEX
  8
AM_VIS
  5
21E
 10
16.4266
 20
4.12891
 30
0.000000
  70
    32
  0
VERTEX
  8
AM_VIS
  5
21F
 10
16.4266
 20
4.12889
 30
0.000000
  70
    32
  0
VERTEX
  8
AM_VIS
  5
220
 10
16.4266
 20
4.12886
 30
0.000000
  70
    32
  0
VERTEX
  8
AM_VIS
  5
221
 10
16.4266
 20
4.12883
 30
0.000000
  70
    32
  0
VERTEX
  8
AM_VIS
  5
222
 10
16.4265
 20
4.12880
 30
0.000000
  70
    32
  0
VERTEX
  8
AM_VIS
  5
223
 10
16.4265
 20
4.12877
 30
0.000000
  70
    32
  0
VERTEX
  8
AM_VIS
  5
224
 10
16.4265
 20
4.12875
 30
0.000000
  70
    32
  0
VERTEX
  8
AM_VIS
  5
225
 10
16.4265
 20
4.12872
 30
0.000000
  70
    32
  0
VERTEX
  8
AM_VIS
  5
226
 10
16.4265
 20
4.12869
 30
0.000000
  70
    32
  0
VERTEX
  8
AM_VIS
  5
227
 10
16.4264
 20
4.12866
 30
0.000000
  70
    32
  0
VERTEX
  8
AM_VIS
  5
228
 10
16.4264
 20
4.12863
 30
0.000000
  70
    32
  0
VERTEX
  8
AM_VIS
  5
229
 10
16.4264
 20
4.12860
 30
0.000000
  70
    32
  0
VERTEX
  8
AM_VIS
  5
22A
 10
16.4264
 20
4.12857
 30
0.000000
  70
    32
  0
VERTEX
  8
AM_VIS
  5
22B
 10
16.4264
 20
4.12853
 30
0.000000
  70
    32
  0
VERTEX
  8
AM_VIS
  5
22C
 10
16.4263
 20
4.12850
 30
0.000000
  70
    32
  0
VERTEX
  8
AM_VIS
  5
22D
 10
16.4263
 20
4.12847
 30
0.000000
  70
    32
  0
VERTEX
  8
AM_VIS
  5
22E
 10
16.4263
 20
4.12844
 30
0.000000
  70
    32
  0
VERTEX
  8
AM_VIS
  5
22F
 10
16.4263
 20
4.12841
 30
0.000000
  70
    32
  0
VERTEX
  8
AM_VIS
  5
230
 10
16.4263
 20
4.12837
 30
0.000000
  70
    32
  0
VERTEX
  8
AM_VIS
  5
231
 10
16.4262
 20
4.12834
 30
0.000000
  70
    32
  0
VERTEX
  8
AM_VIS
  5
232
 10
16.4262
 20
4.12831
 30
0.000000
  70
    32
  0
VERTEX
  8
AM_VIS
  5
233
 10
16.4262
 20
4.12827
 30
0.000000
  70
    32
  0
VERTEX
  8
AM_VIS
  5
234
 10
16.4262
 20
4.12824
 30
0.000000
  70
    32
  0
VERTEX
  8
AM_VIS
  5
235
 10
16.4262
 20
4.12820
 30
0.000000
  70
    32
  0
VERTEX
  8
AM_VIS
  5
236
 10
16.4261
 20
4.12817
 30
0.000000
  70
    32
  0
VERTEX
  8
AM_VIS
  5
237
 10
16.4261
 20
4.12813
 30
0.000000
  70
    32
  0
VERTEX
  8
AM_VIS
  5
238
 10
16.4261
 20
4.12810
 30
0.000000
  70
    32
  0
VERTEX
  8
AM_VIS
  5
239
 10
16.4261
 20
4.12806
 30
0.000000
  70
    32
  0
VERTEX
  8
AM_VIS
  5
23A
 10
16.4260
 20
4.12802
 30
0.000000
  70
    32
  0
VERTEX
  8
AM_VIS
  5
23B
 10
16.4260
 20
4.12799
 30
0.000000
  70
    32
  0
VERTEX
  8
AM_VIS
  5
23C
 10
16.4260
 20
4.12795
 30
0.000000
  70
    32
  0
VERTEX
  8
AM_VIS
  5
23D
 10
16.4260
 20
4.12791
 30
0.000000
  70
    32
  0
VERTEX
  8
AM_VIS
  5
23E
 10
16.4259
 20
4.12787
 30
0.000000
  70
    32
  0
VERTEX
  8
AM_VIS
  5
23F
 10
16.4259
 20
4.12784
 30
0.000000
  70
    32
  0
VERTEX
  8
AM_VIS
  5
240
 10
16.4259
 20
4.12780
 30
0.000000
  70
    32
  0
VERTEX
  8
AM_VIS
  5
241
 10
16.4259
 20
4.12776
 30
0.000000
  70
    32
  0
VERTEX
  8
AM_VIS
  5
242
 10
16.4258
 20
4.12772
 30
0.000000
  70
    32
  0
VERTEX
  8
AM_VIS
  5
243
 10
16.4258
 20
4.12768
 30
0.000000
  70
    32
  0
VERTEX
  8
AM_VIS
  5
244
 10
16.4258
 20
4.12764
 30
0.000000
  70
    32
  0
VERTEX
  8
AM_VIS
  5
245
 10
16.4258
 20
4.12760
 30
0.000000
  70
    32
  0
VERTEX
  8
AM_VIS
  5
246
 10
16.4257
 20
4.12756
 30
0.000000
  70
    32
  0
VERTEX
  8
AM_VIS
  5
247
 10
16.4257
 20
4.12752
 30
0.000000
  70
    32
  0
VERTEX
  8
AM_VIS
  5
248
 10
16.4257
 20
4.12748
 30
0.000000
  70
    32
  0
VERTEX
  8
AM_VIS
  5
249
 10
16.4257
 20
4.12744
 30
0.000000
  70
    32
  0
VERTEX
  8
AM_VIS
  5
24A
 10
16.4256
 20
4.12739
 30
0.000000
  70
    32
  0
VERTEX
  8
AM_VIS
  5
24B
 10
16.4256
 20
4.12735
 30
0.000000
  70
    32
  0
VERTEX
  8
AM_VIS
  5
24C
 10
16.4256
 20
4.12731
 30
0.000000
  70
    32
  0
VERTEX
  8
AM_VIS
  5
24D
 10
16.4256
 20
4.12727
 30
0.000000
  70
    32
  0
VERTEX
  8
AM_VIS
  5
24E
 10
16.4255
 20
4.12722
 30
0.000000
  70
    32
  0
VERTEX
  8
AM_VIS
  5
24F
 10
16.4255
 20
4.12718
 30
0.000000
  70
    32
  0
VERTEX
  8
AM_VIS
  5
250
 10
16.4255
 20
4.12714
 30
0.000000
  70
    32
  0
VERTEX
  8
AM_VIS
  5
251
 10
16.4254
 20
4.12709
 30
0.000000
  70
    32
  0
VERTEX
  8
AM_VIS
  5
252
 10
16.4254
 20
4.12705
 30
0.000000
  70
    32
  0
VERTEX
  8
AM_VIS
  5
253
 10
16.4254
 20
4.12700
 30
0.000000
  70
    32
  0
VERTEX
  8
AM_VIS
  5
254
 10
16.4254
 20
4.12696
 30
0.000000
  70
    32
  0
VERTEX
  8
AM_VIS
  5
255
 10
16.4253
 20
4.12691
 30
0.000000
  70
    32
  0
VERTEX
  8
AM_VIS
  5
256
 10
16.4253
 20
4.12687
 30
0.000000
  70
    32
  0
VERTEX
  8
AM_VIS
  5
257
 10
16.4253
 20
4.12682
 30
0.000000
  70
    32
  0
VERTEX
  8
AM_VIS
  5
258
 10
16.4252
 20
4.12677
 30
0.000000
  70
    32
  0
VERTEX
  8
AM_VIS
  5
259
 10
16.4252
 20
4.12673
 30
0.000000
  70
    32
  0
VERTEX
  8
AM_VIS
  5
25A
 10
16.4252
 20
4.12668
 30
0.000000
  70
    32
  0
VERTEX
  8
AM_VIS
  5
25B
 10
16.4251
 20
4.12663
 30
0.000000
  70
    32
  0
VERTEX
  8
AM_VIS
  5
25C
 10
16.4251
 20
4.12659
 30
0.000000
  70
    32
  0
VERTEX
  8
AM_VIS
  5
25D
 10
16.4251
 20
4.12654
 30
0.000000
  70
    32
  0
VERTEX
  8
AM_VIS
  5
25E
 10
16.4251
 20
4.12649
 30
0.000000
  70
    32
  0
VERTEX
  8
AM_VIS
  5
25F
 10
16.4250
 20
4.12644
 30
0.000000
  70
    32
  0
VERTEX
  8
AM_VIS
  5
260
 10
16.4250
 20
4.12639
 30
0.000000
  70
    32
  0
VERTEX
  8
AM_VIS
  5
261
 10
16.4250
 20
4.12634
 30
0.000000
  70
    32
  0
VERTEX
  8
AM_VIS
  5
262
 10
16.4249
 20
4.12629
 30
0.000000
  70
    32
  0
VERTEX
  8
AM_VIS
  5
263
 10
16.4249
 20
4.12624
 30
0.000000
  70
    32
  0
VERTEX
  8
AM_VIS
  5
264
 10
16.4249
 20
4.12619
 30
0.000000
  70
    32
  0
VERTEX
  8
AM_VIS
  5
265
 10
16.4248
 20
4.12614
 30
0.000000
  70
    32
  0
VERTEX
  8
AM_VIS
  5
266
 10
16.4248
 20
4.12609
 30
0.000000
  70
    32
  0
VERTEX
  8
AM_VIS
  5
267
 10
16.4248
 20
4.12604
 30
0.000000
  70
    32
  0
VERTEX
  8
AM_VIS
  5
268
 10
16.4247
 20
4.12599
 30
0.000000
  70
    32
  0
VERTEX
  8
AM_VIS
  5
269
 10
16.4247
 20
4.12594
 30
0.000000
  70
    32
  0
VERTEX
  8
AM_VIS
  5
26A
 10
16.4247
 20
4.12589
 30
0.000000
  70
    32
  0
VERTEX
  8
AM_VIS
  5
26B
 10
16.4246
 20
4.12584
 30
0.000000
  70
    32
  0
VERTEX
  8
AM_VIS
  5
26C
 10
16.4246
 20
4.12578
 30
0.000000
  70
    32
  0
VERTEX
  8
AM_VIS
  5
26D
 10
16.4246
 20
4.12573
 30
0.000000
  70
    32
  0
VERTEX
  8
AM_VIS
  5
26E
 10
16.4245
 20
4.12568
 30
0.000000
  70
    32
  0
VERTEX
  8
AM_VIS
  5
26F
 10
16.4245
 20
4.12562
 30
0.000000
  70
    32
  0
VERTEX
  8
AM_VIS
  5
270
 10
16.4245
 20
4.12557
 30
0.000000
  70
    32
  0
VERTEX
  8
AM_VIS
  5
271
 10
16.4244
 20
4.12552
 30
0.000000
  70
    32
  0
VERTEX
  8
AM_VIS
  5
272
 10
16.4244
 20
4.12546
 30
0.000000
  70
    32
  0
VERTEX
  8
AM_VIS
  5
273
 10
16.4243
 20
4.12541
 30
0.000000
  70
    32
  0
VERTEX
  8
AM_VIS
  5
274
 10
16.4243
 20
4.12535
 30
0.000000
  70
    32
  0
VERTEX
  8
AM_VIS
  5
275
 10
16.4243
 20
4.12530
 30
0.000000
  70
    32
  0
VERTEX
  8
AM_VIS
  5
276
 10
16.4242
 20
4.12524
 30
0.000000
  70
    32
  0
VERTEX
  8
AM_VIS
  5
277
 10
16.4242
 20
4.12519
 30
0.000000
  70
    32
  0
VERTEX
  8
AM_VIS
  5
278
 10
16.4242
 20
4.12513
 30
0.000000
  70
    32
  0
VERTEX
  8
AM_VIS
  5
279
 10
16.4241
 20
4.12508
 30
0.000000
  70
    32
  0
VERTEX
  8
AM_VIS
  5
27A
 10
16.4241
 20
4.12502
 30
0.000000
  70
    32
  0
VERTEX
  8
AM_VIS
  5
27B
 10
16.4240
 20
4.12496
 30
0.000000
  70
    32
  0
VERTEX
  8
AM_VIS
  5
27C
 10
16.4240
 20
4.12491
 30
0.000000
  70
    32
  0
VERTEX
  8
AM_VIS
  5
27D
 10
16.4240
 20
4.12485
 30
0.000000
  70
    32
  0
VERTEX
  8
AM_VIS
  5
27E
 10
16.4239
 20
4.12479
 30
0.000000
  70
    32
  0
VERTEX
  8
AM_VIS
  5
27F
 10
16.4239
 20
4.12473
 30
0.000000
  70
    32
  0
VERTEX
  8
AM_VIS
  5
280
 10
16.4239
 20
4.12467
 30
0.000000
  70
    32
  0
VERTEX
  8
AM_VIS
  5
281
 10
16.4238
 20
4.12462
 30
0.000000
  70
    32
  0
VERTEX
  8
AM_VIS
  5
282
 10
16.4238
 20
4.12456
 30
0.000000
  70
    32
  0
VERTEX
  8
AM_VIS
  5
283
 10
16.4237
 20
4.12450
 30
0.000000
  70
    32
  0
VERTEX
  8
AM_VIS
  5
284
 10
16.4237
 20
4.12444
 30
0.000000
  70
    32
  0
VERTEX
  8
AM_VIS
  5
285
 10
16.4237
 20
4.12438
 30
0.000000
  70
    32
  0
VERTEX
  8
AM_VIS
  5
286
 10
16.4236
 20
4.12432
 30
0.000000
  70
    32
  0
VERTEX
  8
AM_VIS
  5
287
 10
16.4236
 20
4.12426
 30
0.000000
  70
    32
  0
VERTEX
  8
AM_VIS
  5
288
 10
16.4235
 20
4.12420
 30
0.000000
  70
    32
  0
VERTEX
  8
AM_VIS
  5
289
 10
16.4235
 20
4.12414
 30
0.000000
  70
    32
  0
VERTEX
  8
AM_VIS
  5
28A
 10
16.4235
 20
4.12408
 30
0.000000
  70
    32
  0
VERTEX
  8
AM_VIS
  5
28B
 10
16.4234
 20
4.12402
 30
0.000000
  70
    32
  0
VERTEX
  8
AM_VIS
  5
28C
 10
16.4234
 20
4.12396
 30
0.000000
  70
    32
  0
VERTEX
  8
AM_VIS
  5
28D
 10
16.4233
 20
4.12389
 30
0.000000
  70
    32
  0
VERTEX
  8
AM_VIS
  5
28E
 10
16.4233
 20
4.12383
 30
0.000000
  70
    32
  0
VERTEX
  8
AM_VIS
  5
28F
 10
16.4232
 20
4.12377
 30
0.000000
  70
    32
  0
VERTEX
  8
AM_VIS
  5
290
 10
16.4232
 20
4.12371
 30
0.000000
  70
    32
  0
VERTEX
  8
AM_VIS
  5
291
 10
16.4232
 20
4.12365
 30
0.000000
  70
    32
  0
VERTEX
  8
AM_VIS
  5
292
 10
16.4231
 20
4.12358
 30
0.000000
  70
    32
  0
VERTEX
  8
AM_VIS
  5
293
 10
16.4231
 20
4.12352
 30
0.000000
  70
    32
  0
VERTEX
  8
AM_VIS
  5
294
 10
16.4230
 20
4.12346
 30
0.000000
  70
    32
  0
VERTEX
  8
AM_VIS
  5
295
 10
16.4230
 20
4.12339
 30
0.000000
  70
    32
  0
VERTEX
  8
AM_VIS
  5
296
 10
16.4229
 20
4.12333
 30
0.000000
  70
    32
  0
VERTEX
  8
AM_VIS
  5
297
 10
16.4229
 20
4.12326
 30
0.000000
  70
    32
  0
VERTEX
  8
AM_VIS
  5
298
 10
16.4229
 20
4.12320
 30
0.000000
  70
    32
  0
VERTEX
  8
AM_VIS
  5
299
 10
16.4228
 20
4.12314
 30
0.000000
  70
    32
  0
VERTEX
  8
AM_VIS
  5
29A
 10
16.4228
 20
4.12307
 30
0.000000
  70
    32
  0
VERTEX
  8
AM_VIS
  5
29B
 10
16.4227
 20
4.12301
 30
0.000000
  70
    32
  0
VERTEX
  8
AM_VIS
  5
29C
 10
16.4227
 20
4.12294
 30
0.000000
  70
    32
  0
VERTEX
  8
AM_VIS
  5
29D
 10
16.4226
 20
4.12287
 30
0.000000
  70
    32
  0
VERTEX
  8
AM_VIS
  5
29E
 10
16.4226
 20
4.12281
 30
0.000000
  70
    32
  0
VERTEX
  8
AM_VIS
  5
29F
 10
16.4225
 20
4.12274
 30
0.000000
  70
    32
  0
VERTEX
  8
AM_VIS
  5
2A0
 10
16.4225
 20
4.12268
 30
0.000000
  70
    32
  0
VERTEX
  8
AM_VIS
  5
2A1
 10
16.4224
 20
4.12261
 30
0.000000
  70
    32
  0
VERTEX
  8
AM_VIS
  5
2A2
 10
16.4224
 20
4.12254
 30
0.000000
  70
    32
  0
VERTEX
  8
AM_VIS
  5
2A3
 10
16.4224
 20
4.12247
 30
0.000000
  70
    32
  0
VERTEX
  8
AM_VIS
  5
2A4
 10
16.4223
 20
4.12241
 30
0.000000
  70
    32
  0
VERTEX
  8
AM_VIS
  5
2A5
 10
16.4223
 20
4.12234
 30
0.000000
  70
    32
  0
VERTEX
  8
AM_VIS
  5
2A6
 10
16.4222
 20
4.12227
 30
0.000000
  70
    32
  0
VERTEX
  8
AM_VIS
  5
2A7
 10
16.4222
 20
4.12220
 30
0.000000
  70
    32
  0
VERTEX
  8
AM_VIS
  5
2A8
 10
16.4221
 20
4.12214
 30
0.000000
  70
    32
  0
VERTEX
  8
AM_VIS
  5
2A9
 10
16.4221
 20
4.12207
 30
0.000000
  70
    32
  0
VERTEX
  8
AM_VIS
  5
2AA
 10
16.4220
 20
4.12200
 30
0.000000
  70
    32
  0
VERTEX
  8
AM_VIS
  5
2AB
 10
16.4220
 20
4.12193
 30
0.000000
  70
    32
  0
VERTEX
  8
AM_VIS
  5
2AC
 10
16.4219
 20
4.12186
 30
0.000000
  70
    32
  0
VERTEX
  8
AM_VIS
  5
2AD
 10
16.4219
 20
4.12179
 30
0.000000
  70
    32
  0
VERTEX
  8
AM_VIS
  5
2AE
 10
16.4218
 20
4.12172
 30
0.000000
  70
    32
  0
VERTEX
  8
AM_VIS
  5
2AF
 10
16.4218
 20
4.12165
 30
0.000000
  70
    32
  0
VERTEX
  8
AM_VIS
  5
2B0
 10
16.4217
 20
4.12158
 30
0.000000
  70
    32
  0
VERTEX
  8
AM_VIS
  5
2B1
 10
16.4217
 20
4.12151
 30
0.000000
  70
    32
  0
VERTEX
  8
AM_VIS
  5
2B2
 10
16.4216
 20
4.12144
 30
0.000000
  70
    32
  0
VERTEX
  8
AM_VIS
  5
2B3
 10
16.4216
 20
4.12137
 30
0.000000
  70
    32
  0
VERTEX
  8
AM_VIS
  5
2B4
 10
16.4215
 20
4.12130
 30
0.000000
  70
    32
  0
VERTEX
  8
AM_VIS
  5
2B5
 10
16.4215
 20
4.12123
 30
0.000000
  70
    32
  0
VERTEX
  8
AM_VIS
  5
2B6
 10
16.4214
 20
4.12115
 30
0.000000
  70
    32
  0
VERTEX
  8
AM_VIS
  5
2B7
 10
16.4214
 20
4.12108
 30
0.000000
  70
    32
  0
VERTEX
  8
AM_VIS
  5
2B8
 10
16.4213
 20
4.12101
 30
0.000000
  70
    32
  0
VERTEX
  8
AM_VIS
  5
2B9
 10
16.4213
 20
4.12094
 30
0.000000
  70
    32
  0
VERTEX
  8
AM_VIS
  5
2BA
 10
16.4212
 20
4.12087
 30
0.000000
  70
    32
  0
VERTEX
  8
AM_VIS
  5
2BB
 10
16.4212
 20
4.12079
 30
0.000000
  70
    32
  0
VERTEX
  8
AM_VIS
  5
2BC
 10
16.4211
 20
4.12072
 30
0.000000
  70
    32
  0
VERTEX
  8
AM_VIS
  5
2BD
 10
16.4211
 20
4.12065
 30
0.000000
  70
    32
  0
VERTEX
  8
AM_VIS
  5
2BE
 10
16.4210
 20
4.12057
 30
0.000000
  70
    32
  0
VERTEX
  8
AM_VIS
  5
2BF
 10
16.4210
 20
4.12050
 30
0.000000
  70
    32
  0
VERTEX
  8
AM_VIS
  5
2C0
 10
16.4209
 20
4.12043
 30
0.000000
  70
    32
  0
VERTEX
  8
AM_VIS
  5
2C1
 10
16.4208
 20
4.12035
 30
0.000000
  70
    32
  0
VERTEX
  8
AM_VIS
  5
2C2
 10
16.4208
 20
4.12028
 30
0.000000
  70
    32
  0
VERTEX
  8
AM_VIS
  5
2C3
 10
16.4207
 20
4.12020
 30
0.000000
  70
    32
  0
VERTEX
  8
AM_VIS
  5
2C4
 10
16.4207
 20
4.12013
 30
0.000000
  70
    32
  0
VERTEX
  8
AM_VIS
  5
2C5
 10
16.4206
 20
4.12006
 30
0.000000
  70
    32
  0
VERTEX
  8
AM_VIS
  5
2C6
 10
16.4206
 20
4.11998
 30
0.000000
  70
    32
  0
VERTEX
  8
AM_VIS
  5
2C7
 10
16.4205
 20
4.11990
 30
0.000000
  70
    32
  0
VERTEX
  8
AM_VIS
  5
2C8
 10
16.4205
 20
4.11983
 30
0.000000
  70
    32
  0
VERTEX
  8
AM_VIS
  5
2C9
 10
16.4204
 20
4.11975
 30
0.000000
  70
    32
  0
VERTEX
  8
AM_VIS
  5
2CA
 10
16.4204
 20
4.11968
 30
0.000000
  70
    32
  0
VERTEX
  8
AM_VIS
  5
2CB
 10
16.4203
 20
4.11960
 30
0.000000
  70
    32
  0
VERTEX
  8
AM_VIS
  5
2CC
 10
16.4202
 20
4.11953
 30
0.000000
  70
    32
  0
VERTEX
  8
AM_VIS
  5
2CD
 10
16.4202
 20
4.11945
 30
0.000000
  70
    32
  0
VERTEX
  8
AM_VIS
  5
2CE
 10
16.4201
 20
4.11937
 30
0.000000
  70
    32
  0
VERTEX
  8
AM_VIS
  5
2CF
 10
16.4201
 20
4.11930
 30
0.000000
  70
    32
  0
VERTEX
  8
AM_VIS
  5
2D0
 10
16.4200
 20
4.11922
 30
0.000000
  70
    32
  0
VERTEX
  8
AM_VIS
  5
2D1
 10
16.4200
 20
4.11914
 30
0.000000
  70
    32
  0
VERTEX
  8
AM_VIS
  5
2D2
 10
16.4199
 20
4.11906
 30
0.000000
  70
    32
  0
VERTEX
  8
AM_VIS
  5
2D3
 10
16.4198
 20
4.11899
 30
0.000000
  70
    32
  0
VERTEX
  8
AM_VIS
  5
2D4
 10
16.4198
 20
4.11891
 30
0.000000
  70
    32
  0
VERTEX
  8
AM_VIS
  5
2D5
 10
16.4197
 20
4.11883
 30
0.000000
  70
    32
  0
VERTEX
  8
AM_VIS
  5
2D6
 10
16.4197
 20
4.11875
 30
0.000000
  70
    32
  0
VERTEX
  8
AM_VIS
  5
2D7
 10
16.4196
 20
4.11867
 30
0.000000
  70
    32
  0
VERTEX
  8
AM_VIS
  5
2D8
 10
16.4196
 20
4.11860
 30
0.000000
  70
    32
  0
VERTEX
  8
AM_VIS
  5
2D9
 10
16.4195
 20
4.11852
 30
0.000000
  70
    32
  0
VERTEX
  8
AM_VIS
  5
2DA
 10
16.4194
 20
4.11844
 30
0.000000
  70
    32
  0
VERTEX
  8
AM_VIS
  5
2DB
 10
16.4194
 20
4.11836
 30
0.000000
  70
    32
  0
VERTEX
  8
AM_VIS
  5
2DC
 10
16.4193
 20
4.11828
 30
0.000000
  70
    32
  0
VERTEX
  8
AM_VIS
  5
2DD
 10
16.4193
 20
4.11820
 30
0.000000
  70
    32
  0
VERTEX
  8
AM_VIS
  5
2DE
 10
16.4192
 20
4.11812
 30
0.000000
  70
    32
  0
VERTEX
  8
AM_VIS
  5
2DF
 10
16.4191
 20
4.11804
 30
0.000000
  70
    32
  0
VERTEX
  8
AM_VIS
  5
2E0
 10
16.4191
 20
4.11796
 30
0.000000
  70
    32
  0
VERTEX
  8
AM_VIS
  5
2E1
 10
16.4190
 20
4.11788
 30
0.000000
  70
    32
  0
VERTEX
  8
AM_VIS
  5
2E2
 10
16.4190
 20
4.11780
 30
0.000000
  70
    32
  0
VERTEX
  8
AM_VIS
  5
2E3
 10
16.4189
 20
4.11772
 30
0.000000
  70
    32
  0
VERTEX
  8
AM_VIS
  5
2E4
 10
16.4188
 20
4.11764
 30
0.000000
  70
    32
  0
VERTEX
  8
AM_VIS
  5
2E5
 10
16.4188
 20
4.11756
 30
0.000000
  70
    32
  0
VERTEX
  8
AM_VIS
  5
2E6
 10
16.4187
 20
4.11748
 30
0.000000
  70
    32
  0
VERTEX
  8
AM_VIS
  5
2E7
 10
16.4187
 20
4.11739
 30
0.000000
  70
    32
  0
VERTEX
  8
AM_VIS
  5
2E8
 10
16.4186
 20
4.11731
 30
0.000000
  70
    32
  0
VERTEX
  8
AM_VIS
  5
2E9
 10
16.4185
 20
4.11723
 30
0.000000
  70
    32
  0
VERTEX
  8
AM_VIS
  5
2EA
 10
16.4185
 20
4.11715
 30
0.000000
  70
    32
  0
VERTEX
  8
AM_VIS
  5
2EB
 10
16.4184
 20
4.11707
 30
0.000000
  70
    32
  0
VERTEX
  8
AM_VIS
  5
2EC
 10
16.4183
 20
4.11699
 30
0.000000
  70
    32
  0
VERTEX
  8
AM_VIS
  5
2ED
 10
16.4183
 20
4.11691
 30
0.000000
  70
    32
  0
VERTEX
  8
AM_VIS
  5
2EE
 10
16.4182
 20
4.11682
 30
0.000000
  70
    32
  0
VERTEX
  8
AM_VIS
  5
2EF
 10
16.4181
 20
4.11674
 30
0.000000
  70
    32
  0
VERTEX
  8
AM_VIS
  5
2F0
 10
16.4181
 20
4.11666
 30
0.000000
  70
    32
  0
VERTEX
  8
AM_VIS
  5
2F1
 10
16.4180
 20
4.11658
 30
0.000000
  70
    32
  0
VERTEX
  8
AM_VIS
  5
2F2
 10
16.4180
 20
4.11649
 30
0.000000
  70
    32
  0
VERTEX
  8
AM_VIS
  5
2F3
 10
16.4179
 20
4.11641
 30
0.000000
  70
    32
  0
VERTEX
  8
AM_VIS
  5
2F4
 10
16.4178
 20
4.11633
 30
0.000000
  70
    32
  0
VERTEX
  8
AM_VIS
  5
2F5
 10
16.4178
 20
4.11625
 30
0.000000
  70
    32
  0
VERTEX
  8
AM_VIS
  5
2F6
 10
16.4177
 20
4.11616
 30
0.000000
  70
    32
  0
VERTEX
  8
AM_VIS
  5
2F7
 10
16.4176
 20
4.11608
 30
0.000000
  70
    32
  0
VERTEX
  8
AM_VIS
  5
2F8
 10
16.4176
 20
4.11600
 30
0.000000
  70
    32
  0
VERTEX
  8
AM_VIS
  5
2F9
 10
16.4175
 20
4.11591
 30
0.000000
  70
    32
  0
VERTEX
  8
AM_VIS
  5
2FA
 10
16.4174
 20
4.11583
 30
0.000000
  70
    32
  0
VERTEX
  8
AM_VIS
  5
2FB
 10
16.4174
 20
4.11575
 30
0.000000
  70
    32
  0
VERTEX
  8
AM_VIS
  5
2FC
 10
16.4173
 20
4.11566
 30
0.000000
  70
    32
  0
VERTEX
  8
AM_VIS
  5
2FD
 10
16.4172
 20
4.11558
 30
0.000000
  70
    32
  0
VERTEX
  8
AM_VIS
  5
2FE
 10
16.4172
 20
4.11550
 30
0.000000
  70
    32
  0
VERTEX
  8
AM_VIS
  5
2FF
 10
16.4171
 20
4.11541
 30
0.000000
  70
    32
  0
VERTEX
  8
AM_VIS
  5
300
 10
16.4170
 20
4.11533
 30
0.000000
  70
    32
  0
VERTEX
  8
AM_VIS
  5
301
 10
16.4170
 20
4.11525
 30
0.000000
  70
    32
  0
VERTEX
  8
AM_VIS
  5
302
 10
16.4169
 20
4.11516
 30
0.000000
  70
    32
  0
VERTEX
  8
AM_VIS
  5
303
 10
16.4168
 20
4.11508
 30
0.000000
  70
    32
  0
VERTEX
  8
AM_VIS
  5
304
 10
16.4168
 20
4.11499
 30
0.000000
  70
    32
  0
VERTEX
  8
AM_VIS
  5
305
 10
16.4167
 20
4.11491
 30
0.000000
  70
    32
  0
VERTEX
  8
AM_VIS
  5
306
 10
16.4166
 20
4.11483
 30
0.000000
  70
    32
  0
VERTEX
  8
AM_VIS
  5
307
 10
16.4166
 20
4.11474
 30
0.000000
  70
    32
  0
VERTEX
  8
AM_VIS
  5
308
 10
16.4165
 20
4.11466
 30
0.000000
  70
    32
  0
VERTEX
  8
AM_VIS
  5
309
 10
16.4164
 20
4.11457
 30
0.000000
  70
    32
  0
VERTEX
  8
AM_VIS
  5
30A
 10
16.4164
 20
4.11449
 30
0.000000
  70
    32
  0
VERTEX
  8
AM_VIS
  5
30B
 10
16.4163
 20
4.11440
 30
0.000000
  70
    32
  0
VERTEX
  8
AM_VIS
  5
30C
 10
16.4162
 20
4.11432
 30
0.000000
  70
    32
  0
VERTEX
  8
AM_VIS
  5
30D
 10
16.4162
 20
4.11423
 30
0.000000
  70
    32
  0
VERTEX
  8
AM_VIS
  5
30E
 10
16.4161
 20
4.11415
 30
0.000000
  70
    32
  0
VERTEX
  8
AM_VIS
  5
30F
 10
16.4160
 20
4.11406
 30
0.000000
  70
    32
  0
VERTEX
  8
AM_VIS
  5
310
 10
16.4160
 20
4.11398
 30
0.000000
  70
    32
  0
VERTEX
  8
AM_VIS
  5
311
 10
16.4159
 20
4.11390
 30
0.000000
  70
    32
  0
VERTEX
  8
AM_VIS
  5
312
 10
16.4158
 20
4.11381
 30
0.000000
  70
    32
  0
VERTEX
  8
AM_VIS
  5
313
 10
16.4157
 20
4.11373
 30
0.000000
  70
    32
  0
VERTEX
  8
AM_VIS
  5
314
 10
16.4157
 20
4.11364
 30
0.000000
  70
    32
  0
VERTEX
  8
AM_VIS
  5
315
 10
16.4156
 20
4.11355
 30
0.000000
  70
    32
  0
VERTEX
  8
AM_VIS
  5
316
 10
16.4155
 20
4.11347
 30
0.000000
  70
    32
  0
VERTEX
  8
AM_VIS
  5
317
 10
16.4155
 20
4.11338
 30
0.000000
  70
    32
  0
VERTEX
  8
AM_VIS
  5
318
 10
16.4154
 20
4.11330
 30
0.000000
  70
    32
  0
VERTEX
  8
AM_VIS
  5
319
 10
16.4153
 20
4.11321
 30
0.000000
  70
    32
  0
VERTEX
  8
AM_VIS
  5
31A
 10
16.4152
 20
4.11313
 30
0.000000
  70
    32
  0
VERTEX
  8
AM_VIS
  5
31B
 10
16.4152
 20
4.11304
 30
0.000000
  70
    32
  0
VERTEX
  8
AM_VIS
  5
31C
 10
16.4151
 20
4.11296
 30
0.000000
  70
    32
  0
VERTEX
  8
AM_VIS
  5
31D
 10
16.4150
 20
4.11287
 30
0.000000
  70
    32
  0
VERTEX
  8
AM_VIS
  5
31E
 10
16.4150
 20
4.11279
 30
0.000000
  70
    32
  0
VERTEX
  8
AM_VIS
  5
31F
 10
16.4149
 20
4.11270
 30
0.000000
  70
    32
  0
VERTEX
  8
AM_VIS
  5
320
 10
16.4148
 20
4.11262
 30
0.000000
  70
    32
  0
VERTEX
  8
AM_VIS
  5
321
 10
16.4147
 20
4.11253
 30
0.000000
  70
    32
  0
VERTEX
  8
AM_VIS
  5
322
 10
16.4147
 20
4.11244
 30
0.000000
  70
    32
  0
VERTEX
  8
AM_VIS
  5
323
 10
16.4146
 20
4.11236
 30
0.000000
  70
    32
  0
VERTEX
  8
AM_VIS
  5
324
 10
16.4145
 20
4.11227
 30
0.000000
  70
    32
  0
VERTEX
  8
AM_VIS
  5
325
 10
16.4145
 20
4.11219
 30
0.000000
  70
    32
  0
VERTEX
  8
AM_VIS
  5
326
 10
16.4144
 20
4.11210
 30
0.000000
  70
    32
  0
VERTEX
  8
AM_VIS
  5
327
 10
16.4143
 20
4.11202
 30
0.000000
  70
    32
  0
VERTEX
  8
AM_VIS
  5
328
 10
16.4142
 20
4.11193
 30
0.000000
  70
    32
  0
VERTEX
  8
AM_VIS
  5
329
 10
16.4142
 20
4.11185
 30
0.000000
  70
    32
  0
VERTEX
  8
AM_VIS
  5
32A
 10
16.4141
 20
4.11176
 30
0.000000
  70
    32
  0
VERTEX
  8
AM_VIS
  5
32B
 10
16.4140
 20
4.11167
 30
0.000000
  70
    32
  0
VERTEX
  8
AM_VIS
  5
32C
 10
16.4139
 20
4.11159
 30
0.000000
  70
    32
  0
VERTEX
  8
AM_VIS
  5
32D
 10
16.4139
 20
4.11150
 30
0.000000
  70
    32
  0
VERTEX
  8
AM_VIS
  5
32E
 10
16.4138
 20
4.11142
 30
0.000000
  70
    32
  0
VERTEX
  8
AM_VIS
  5
32F
 10
16.4137
 20
4.11133
 30
0.000000
  70
    32
  0
VERTEX
  8
AM_VIS
  5
330
 10
16.4136
 20
4.11125
 30
0.000000
  70
    32
  0
VERTEX
  8
AM_VIS
  5
331
 10
16.4136
 20
4.11116
 30
0.000000
  70
    32
  0
VERTEX
  8
AM_VIS
  5
332
 10
16.4135
 20
4.11107
 30
0.000000
  70
    32
  0
VERTEX
  8
AM_VIS
  5
333
 10
16.4134
 20
4.11099
 30
0.000000
  70
    32
  0
VERTEX
  8
AM_VIS
  5
334
 10
16.4133
 20
4.11090
 30
0.000000
  70
    32
  0
VERTEX
  8
AM_VIS
  5
335
 10
16.4133
 20
4.11082
 30
0.000000
  70
    32
  0
VERTEX
  8
AM_VIS
  5
336
 10
16.4132
 20
4.11073
 30
0.000000
  70
    32
  0
VERTEX
  8
AM_VIS
  5
337
 10
16.4131
 20
4.11065
 30
0.000000
  70
    32
  0
VERTEX
  8
AM_VIS
  5
338
 10
16.4130
 20
4.11056
 30
0.000000
  70
    32
  0
VERTEX
  8
AM_VIS
  5
339
 10
16.4129
 20
4.11047
 30
0.000000
  70
    32
  0
VERTEX
  8
AM_VIS
  5
33A
 10
16.4129
 20
4.11039
 30
0.000000
  70
    32
  0
VERTEX
  8
AM_VIS
  5
33B
 10
16.4128
 20
4.11030
 30
0.000000
  70
    32
  0
VERTEX
  8
AM_VIS
  5
33C
 10
16.4127
 20
4.11022
 30
0.000000
  70
    32
  0
VERTEX
  8
AM_VIS
  5
33D
 10
16.4126
 20
4.11013
 30
0.000000
  70
    32
  0
VERTEX
  8
AM_VIS
  5
33E
 10
16.4126
 20
4.11005
 30
0.000000
  70
    32
  0
VERTEX
  8
AM_VIS
  5
33F
 10
16.4125
 20
4.10996
 30
0.000000
  70
    32
  0
VERTEX
  8
AM_VIS
  5
340
 10
16.4124
 20
4.10987
 30
0.000000
  70
    32
  0
VERTEX
  8
AM_VIS
  5
341
 10
16.4123
 20
4.10979
 30
0.000000
  70
    32
  0
VERTEX
  8
AM_VIS
  5
342
 10
16.4122
 20
4.10970
 30
0.000000
  70
    32
  0
VERTEX
  8
AM_VIS
  5
343
 10
16.4122
 20
4.10962
 30
0.000000
  70
    32
  0
VERTEX
  8
AM_VIS
  5
344
 10
16.4121
 20
4.10953
 30
0.000000
  70
    32
  0
VERTEX
  8
AM_VIS
  5
345
 10
16.4120
 20
4.10945
 30
0.000000
  70
    32
  0
VERTEX
  8
AM_VIS
  5
346
 10
16.4119
 20
4.10936
 30
0.000000
  70
    32
  0
VERTEX
  8
AM_VIS
  5
347
 10
16.4118
 20
4.10928
 30
0.000000
  70
    32
  0
VERTEX
  8
AM_VIS
  5
348
 10
16.4118
 20
4.10919
 30
0.000000
  70
    32
  0
VERTEX
  8
AM_VIS
  5
349
 10
16.4117
 20
4.10911
 30
0.000000
  70
    32
  0
VERTEX
  8
AM_VIS
  5
34A
 10
16.4116
 20
4.10902
 30
0.000000
  70
    32
  0
VERTEX
  8
AM_VIS
  5
34B
 10
16.4115
 20
4.10894
 30
0.000000
  70
    32
  0
VERTEX
  8
AM_VIS
  5
34C
 10
16.4114
 20
4.10885
 30
0.000000
  70
    32
  0
VERTEX
  8
AM_VIS
  5
34D
 10
16.4114
 20
4.10877
 30
0.000000
  70
    32
  0
VERTEX
  8
AM_VIS
  5
34E
 10
16.4113
 20
4.10868
 30
0.000000
  70
    32
  0
VERTEX
  8
AM_VIS
  5
34F
 10
16.4112
 20
4.10860
 30
0.000000
  70
    32
  0
VERTEX
  8
AM_VIS
  5
350
 10
16.4111
 20
4.10851
 30
0.000000
  70
    32
  0
VERTEX
  8
AM_VIS
  5
351
 10
16.4110
 20
4.10843
 30
0.000000
  70
    32
  0
VERTEX
  8
AM_VIS
  5
352
 10
16.4110
 20
4.10834
 30
0.000000
  70
    32
  0
VERTEX
  8
AM_VIS
  5
353
 10
16.4109
 20
4.10826
 30
0.000000
  70
    32
  0
VERTEX
  8
AM_VIS
  5
354
 10
16.4108
 20
4.10817
 30
0.000000
  70
    32
  0
VERTEX
  8
AM_VIS
  5
355
 10
16.4107
 20
4.10809
 30
0.000000
  70
    32
  0
VERTEX
  8
AM_VIS
  5
356
 10
16.4106
 20
4.10800
 30
0.000000
  70
    32
  0
VERTEX
  8
AM_VIS
  5
357
 10
16.4105
 20
4.10792
 30
0.000000
  70
    32
  0
VERTEX
  8
AM_VIS
  5
358
 10
16.4105
 20
4.10783
 30
0.000000
  70
    32
  0
VERTEX
  8
AM_VIS
  5
359
 10
16.4104
 20
4.10775
 30
0.000000
  70
    32
  0
VERTEX
  8
AM_VIS
  5
35A
 10
16.4103
 20
4.10767
 30
0.000000
  70
    32
  0
VERTEX
  8
AM_VIS
  5
35B
 10
16.4102
 20
4.10758
 30
0.000000
  70
    32
  0
VERTEX
  8
AM_VIS
  5
35C
 10
16.4101
 20
4.10750
 30
0.000000
  70
    32
  0
VERTEX
  8
AM_VIS
  5
35D
 10
16.4100
 20
4.10741
 30
0.000000
  70
    32
  0
VERTEX
  8
AM_VIS
  5
35E
 10
16.4100
 20
4.10733
 30
0.000000
  70
    32
  0
VERTEX
  8
AM_VIS
  5
35F
 10
16.4099
 20
4.10725
 30
0.000000
  70
    32
  0
VERTEX
  8
AM_VIS
  5
360
 10
16.4098
 20
4.10716
 30
0.000000
  70
    32
  0
VERTEX
  8
AM_VIS
  5
361
 10
16.4097
 20
4.10708
 30
0.000000
  70
    32
  0
VERTEX
  8
AM_VIS
  5
362
 10
16.4096
 20
4.10699
 30
0.000000
  70
    32
  0
VERTEX
  8
AM_VIS
  5
363
 10
16.4095
 20
4.10691
 30
0.000000
  70
    32
  0
VERTEX
  8
AM_VIS
  5
364
 10
16.4095
 20
4.10683
 30
0.000000
  70
    32
  0
VERTEX
  8
AM_VIS
  5
365
 10
16.4094
 20
4.10674
 30
0.000000
  70
    32
  0
VERTEX
  8
AM_VIS
  5
366
 10
16.4093
 20
4.10666
 30
0.000000
  70
    32
  0
VERTEX
  8
AM_VIS
  5
367
 10
16.4092
 20
4.10658
 30
0.000000
  70
    32
  0
VERTEX
  8
AM_VIS
  5
368
 10
16.4091
 20
4.10649
 30
0.000000
  70
    32
  0
VERTEX
  8
AM_VIS
  5
369
 10
16.4090
 20
4.10641
 30
0.000000
  70
    32
  0
VERTEX
  8
AM_VIS
  5
36A
 10
16.4089
 20
4.10633
 30
0.000000
  70
    32
  0
VERTEX
  8
AM_VIS
  5
36B
 10
16.4089
 20
4.10625
 30
0.000000
  70
    32
  0
VERTEX
  8
AM_VIS
  5
36C
 10
16.4088
 20
4.10616
 30
0.000000
  70
    32
  0
VERTEX
  8
AM_VIS
  5
36D
 10
16.4087
 20
4.10608
 30
0.000000
  70
    32
  0
VERTEX
  8
AM_VIS
  5
36E
 10
16.4086
 20
4.10600
 30
0.000000
  70
    32
  0
VERTEX
  8
AM_VIS
  5
36F
 10
16.4085
 20
4.10592
 30
0.000000
  70
    32
  0
VERTEX
  8
AM_VIS
  5
370
 10
16.4084
 20
4.10583
 30
0.000000
  70
    32
  0
VERTEX
  8
AM_VIS
  5
371
 10
16.4083
 20
4.10575
 30
0.000000
  70
    32
  0
VERTEX
  8
AM_VIS
  5
372
 10
16.4082
 20
4.10567
 30
0.000000
  70
    32
  0
VERTEX
  8
AM_VIS
  5
373
 10
16.4082
 20
4.10559
 30
0.000000
  70
    32
  0
VERTEX
  8
AM_VIS
  5
374
 10
16.4081
 20
4.10551
 30
0.000000
  70
    32
  0
VERTEX
  8
AM_VIS
  5
375
 10
16.4080
 20
4.10542
 30
0.000000
  70
    32
  0
VERTEX
  8
AM_VIS
  5
376
 10
16.4079
 20
4.10534
 30
0.000000
  70
    32
  0
VERTEX
  8
AM_VIS
  5
377
 10
16.4078
 20
4.10526
 30
0.000000
  70
    32
  0
VERTEX
  8
AM_VIS
  5
378
 10
16.4077
 20
4.10518
 30
0.000000
  70
    32
  0
VERTEX
  8
AM_VIS
  5
379
 10
16.4076
 20
4.10510
 30
0.000000
  70
    32
  0
VERTEX
  8
AM_VIS
  5
37A
 10
16.4075
 20
4.10502
 30
0.000000
  70
    32
  0
VERTEX
  8
AM_VIS
  5
37B
 10
16.4074
 20
4.10494
 30
0.000000
  70
    32
  0
VERTEX
  8
AM_VIS
  5
37C
 10
16.4074
 20
4.10486
 30
0.000000
  70
    32
  0
VERTEX
  8
AM_VIS
  5
37D
 10
16.4073
 20
4.10478
 30
0.000000
  70
    32
  0
VERTEX
  8
AM_VIS
  5
37E
 10
16.4072
 20
4.10469
 30
0.000000
  70
    32
  0
VERTEX
  8
AM_VIS
  5
37F
 10
16.4071
 20
4.10461
 30
0.000000
  70
    32
  0
VERTEX
  8
AM_VIS
  5
380
 10
16.4070
 20
4.10453
 30
0.000000
  70
    32
  0
VERTEX
  8
AM_VIS
  5
381
 10
16.4069
 20
4.10445
 30
0.000000
  70
    32
  0
VERTEX
  8
AM_VIS
  5
382
 10
16.4068
 20
4.10437
 30
0.000000
  70
    32
  0
VERTEX
  8
AM_VIS
  5
383
 10
16.4067
 20
4.10429
 30
0.000000
  70
    32
  0
VERTEX
  8
AM_VIS
  5
384
 10
16.4066
 20
4.10421
 30
0.000000
  70
    32
  0
VERTEX
  8
AM_VIS
  5
385
 10
16.4065
 20
4.10414
 30
0.000000
  70
    32
  0
VERTEX
  8
AM_VIS
  5
386
 10
16.4065
 20
4.10406
 30
0.000000
  70
    32
  0
VERTEX
  8
AM_VIS
  5
387
 10
16.4064
 20
4.10398
 30
0.000000
  70
    32
  0
VERTEX
  8
AM_VIS
  5
388
 10
16.4063
 20
4.10390
 30
0.000000
  70
    32
  0
VERTEX
  8
AM_VIS
  5
389
 10
16.4062
 20
4.10382
 30
0.000000
  70
    32
  0
VERTEX
  8
AM_VIS
  5
38A
 10
16.4061
 20
4.10374
 30
0.000000
  70
    32
  0
VERTEX
  8
AM_VIS
  5
38B
 10
16.4060
 20
4.10366
 30
0.000000
  70
    32
  0
VERTEX
  8
AM_VIS
  5
38C
 10
16.4059
 20
4.10358
 30
0.000000
  70
    32
  0
VERTEX
  8
AM_VIS
  5
38D
 10
16.4058
 20
4.10350
 30
0.000000
  70
    32
  0
VERTEX
  8
AM_VIS
  5
38E
 10
16.4057
 20
4.10343
 30
0.000000
  70
    32
  0
VERTEX
  8
AM_VIS
  5
38F
 10
16.4056
 20
4.10335
 30
0.000000
  70
    32
  0
VERTEX
  8
AM_VIS
  5
390
 10
16.4055
 20
4.10327
 30
0.000000
  70
    32
  0
VERTEX
  8
AM_VIS
  5
391
 10
16.4054
 20
4.10319
 30
0.000000
  70
    32
  0
VERTEX
  8
AM_VIS
  5
392
 10
16.4053
 20
4.10311
 30
0.000000
  70
    32
  0
VERTEX
  8
AM_VIS
  5
393
 10
16.4053
 20
4.10304
 30
0.000000
  70
    32
  0
VERTEX
  8
AM_VIS
  5
394
 10
16.4052
 20
4.10296
 30
0.000000
  70
    32
  0
VERTEX
  8
AM_VIS
  5
395
 10
16.4051
 20
4.10288
 30
0.000000
  70
    32
  0
VERTEX
  8
AM_VIS
  5
396
 10
16.4050
 20
4.10281
 30
0.000000
  70
    32
  0
VERTEX
  8
AM_VIS
  5
397
 10
16.4049
 20
4.10273
 30
0.000000
  70
    32
  0
VERTEX
  8
AM_VIS
  5
398
 10
16.4048
 20
4.10265
 30
0.000000
  70
    32
  0
VERTEX
  8
AM_VIS
  5
399
 10
16.4047
 20
4.10258
 30
0.000000
  70
    32
  0
VERTEX
  8
AM_VIS
  5
39A
 10
16.4046
 20
4.10250
 30
0.000000
  70
    32
  0
VERTEX
  8
AM_VIS
  5
39B
 10
16.4045
 20
4.10242
 30
0.000000
  70
    32
  0
VERTEX
  8
AM_VIS
  5
39C
 10
16.4044
 20
4.10235
 30
0.000000
  70
    32
  0
VERTEX
  8
AM_VIS
  5
39D
 10
16.4043
 20
4.10227
 30
0.000000
  70
    32
  0
VERTEX
  8
AM_VIS
  5
39E
 10
16.4042
 20
4.10220
 30
0.000000
  70
    32
  0
VERTEX
  8
AM_VIS
  5
39F
 10
16.4041
 20
4.10212
 30
0.000000
  70
    32
  0
VERTEX
  8
AM_VIS
  5
3A0
 10
16.4040
 20
4.10204
 30
0.000000
  70
    32
  0
VERTEX
  8
AM_VIS
  5
3A1
 10
16.4039
 20
4.10197
 30
0.000000
  70
    32
  0
VERTEX
  8
AM_VIS
  5
3A2
 10
16.4038
 20
4.10189
 30
0.000000
  70
    32
  0
VERTEX
  8
AM_VIS
  5
3A3
 10
16.4037
 20
4.10182
 30
0.000000
  70
    32
  0
VERTEX
  8
AM_VIS
  5
3A4
 10
16.4036
 20
4.10174
 30
0.000000
  70
    32
  0
VERTEX
  8
AM_VIS
  5
3A5
 10
16.4035
 20
4.10167
 30
0.000000
  70
    32
  0
VERTEX
  8
AM_VIS
  5
3A6
 10
16.4034
 20
4.10160
 30
0.000000
  70
    32
  0
VERTEX
  8
AM_VIS
  5
3A7
 10
16.4033
 20
4.10152
 30
0.000000
  70
    32
  0
VERTEX
  8
AM_VIS
  5
3A8
 10
16.4032
 20
4.10145
 30
0.000000
  70
    32
  0
VERTEX
  8
AM_VIS
  5
3A9
 10
16.4031
 20
4.10137
 30
0.000000
  70
    32
  0
VERTEX
  8
AM_VIS
  5
3AA
 10
16.4030
 20
4.10130
 30
0.000000
  70
    32
  0
VERTEX
  8
AM_VIS
  5
3AB
 10
16.4029
 20
4.10123
 30
0.000000
  70
    32
  0
VERTEX
  8
AM_VIS
  5
3AC
 10
16.4028
 20
4.10115
 30
0.000000
  70
    32
  0
VERTEX
  8
AM_VIS
  5
3AD
 10
16.4027
 20
4.10108
 30
0.000000
  70
    32
  0
VERTEX
  8
AM_VIS
  5
3AE
 10
16.4026
 20
4.10101
 30
0.000000
  70
    32
  0
VERTEX
  8
AM_VIS
  5
3AF
 10
16.4025
 20
4.10094
 30
0.000000
  70
    32
  0
VERTEX
  8
AM_VIS
  5
3B0
 10
16.4024
 20
4.10086
 30
0.000000
  70
    32
  0
VERTEX
  8
AM_VIS
  5
3B1
 10
16.4023
 20
4.10079
 30
0.000000
  70
    32
  0
VERTEX
  8
AM_VIS
  5
3B2
 10
16.4022
 20
4.10072
 30
0.000000
  70
    32
  0
VERTEX
  8
AM_VIS
  5
3B3
 10
16.4021
 20
4.10065
 30
0.000000
  70
    32
  0
VERTEX
  8
AM_VIS
  5
3B4
 10
16.4020
 20
4.10058
 30
0.000000
  70
    32
  0
VERTEX
  8
AM_VIS
  5
3B5
 10
16.4019
 20
4.10051
 30
0.000000
  70
    32
  0
VERTEX
  8
AM_VIS
  5
3B6
 10
16.4018
 20
4.10043
 30
0.000000
  70
    32
  0
VERTEX
  8
AM_VIS
  5
3B7
 10
16.4017
 20
4.10036
 30
0.000000
  70
    32
  0
VERTEX
  8
AM_VIS
  5
3B8
 10
16.4016
 20
4.10029
 30
0.000000
  70
    32
  0
VERTEX
  8
AM_VIS
  5
3B9
 10
16.4015
 20
4.10022
 30
0.000000
  70
    32
  0
VERTEX
  8
AM_VIS
  5
3BA
 10
16.4014
 20
4.10015
 30
0.000000
  70
    32
  0
VERTEX
  8
AM_VIS
  5
3BB
 10
16.4013
 20
4.10008
 30
0.000000
  70
    32
  0
VERTEX
  8
AM_VIS
  5
3BC
 10
16.4012
 20
4.10002
 30
0.000000
  70
    32
  0
VERTEX
  8
AM_VIS
  5
3BD
 10
16.4011
 20
4.09995
 30
0.000000
  70
    32
  0
VERTEX
  8
AM_VIS
  5
3BE
 10
16.4010
 20
4.09988
 30
0.000000
  70
    32
  0
VERTEX
  8
AM_VIS
  5
3BF
 10
16.4009
 20
4.09981
 30
0.000000
  70
    32
  0
VERTEX
  8
AM_VIS
  5
3C0
 10
16.4008
 20
4.09974
 30
0.000000
  70
    32
  0
VERTEX
  8
AM_VIS
  5
3C1
 10
16.4007
 20
4.09967
 30
0.000000
  70
    32
  0
VERTEX
  8
AM_VIS
  5
3C2
 10
16.4006
 20
4.09961
 30
0.000000
  70
    32
  0
VERTEX
  8
AM_VIS
  5
3C3
 10
16.4005
 20
4.09954
 30
0.000000
  70
    32
  0
VERTEX
  8
AM_VIS
  5
3C4
 10
16.4004
 20
4.09947
 30
0.000000
  70
    32
  0
VERTEX
  8
AM_VIS
  5
3C5
 10
16.4003
 20
4.09941
 30
0.000000
  70
    32
  0
VERTEX
  8
AM_VIS
  5
3C6
 10
16.4002
 20
4.09934
 30
0.000000
  70
    32
  0
VERTEX
  8
AM_VIS
  5
3C7
 10
16.4001
 20
4.09927
 30
0.000000
  70
    32
  0
VERTEX
  8
AM_VIS
  5
3C8
 10
16.4000
 20
4.09921
 30
0.000000
  70
    32
  0
VERTEX
  8
AM_VIS
  5
3C9
 10
16.3998
 20
4.09914
 30
0.000000
  70
    32
  0
VERTEX
  8
AM_VIS
  5
3CA
 10
16.3997
 20
4.09908
 30
0.000000
  70
    32
  0
VERTEX
  8
AM_VIS
  5
3CB
 10
16.3996
 20
4.09901
 30
0.000000
  70
    32
  0
VERTEX
  8
AM_VIS
  5
3CC
 10
16.3995
 20
4.09895
 30
0.000000
  70
    32
  0
VERTEX
  8
AM_VIS
  5
3CD
 10
16.3994
 20
4.09889
 30
0.000000
  70
    32
  0
VERTEX
  8
AM_VIS
  5
3CE
 10
16.3993
 20
4.09882
 30
0.000000
  70
    32
  0
VERTEX
  8
AM_VIS
  5
3CF
 10
16.3992
 20
4.09876
 30
0.000000
  70
    32
  0
VERTEX
  8
AM_VIS
  5
3D0
 10
16.3991
 20
4.09870
 30
0.000000
  70
    32
  0
VERTEX
  8
AM_VIS
  5
3D1
 10
16.3990
 20
4.09863
 30
0.000000
  70
    32
  0
VERTEX
  8
AM_VIS
  5
3D2
 10
16.3989
 20
4.09857
 30
0.000000
  70
    32
  0
VERTEX
  8
AM_VIS
  5
3D3
 10
16.3988
 20
4.09851
 30
0.000000
  70
    32
  0
VERTEX
  8
AM_VIS
  5
3D4
 10
16.3987
 20
4.09845
 30
0.000000
  70
    32
  0
VERTEX
  8
AM_VIS
  5
3D5
 10
16.3986
 20
4.09839
 30
0.000000
  70
    32
  0
VERTEX
  8
AM_VIS
  5
3D6
 10
16.3984
 20
4.09833
 30
0.000000
  70
    32
  0
VERTEX
  8
AM_VIS
  5
3D7
 10
16.3983
 20
4.09827
 30
0.000000
  70
    32
  0
VERTEX
  8
AM_VIS
  5
3D8
 10
16.3982
 20
4.09821
 30
0.000000
  70
    32
  0
VERTEX
  8
AM_VIS
  5
3D9
 10
16.3981
 20
4.09815
 30
0.000000
  70
    32
  0
VERTEX
  8
AM_VIS
  5
3DA
 10
16.3980
 20
4.09809
 30
0.000000
  70
    32
  0
VERTEX
  8
AM_VIS
  5
3DB
 10
16.3979
 20
4.09803
 30
0.000000
  70
    32
  0
VERTEX
  8
AM_VIS
  5
3DC
 10
16.3978
 20
4.09797
 30
0.000000
  70
    32
  0
VERTEX
  8
AM_VIS
  5
3DD
 10
16.3977
 20
4.09791
 30
0.000000
  70
    32
  0
VERTEX
  8
AM_VIS
  5
3DE
 10
16.3976
 20
4.09786
 30
0.000000
  70
    32
  0
VERTEX
  8
AM_VIS
  5
3DF
 10
16.3975
 20
4.09780
 30
0.000000
  70
    32
  0
VERTEX
  8
AM_VIS
  5
3E0
 10
16.3973
 20
4.09774
 30
0.000000
  70
    32
  0
VERTEX
  8
AM_VIS
  5
3E1
 10
16.3972
 20
4.09769
 30
0.000000
  70
    32
  0
VERTEX
  8
AM_VIS
  5
3E2
 10
16.3971
 20
4.09763
 30
0.000000
  70
    32
  0
VERTEX
  8
AM_VIS
  5
3E3
 10
16.3970
 20
4.09758
 30
0.000000
  70
    32
  0
VERTEX
  8
AM_VIS
  5
3E4
 10
16.3969
 20
4.09752
 30
0.000000
  70
    32
  0
VERTEX
  8
AM_VIS
  5
3E5
 10
16.3968
 20
4.09747
 30
0.000000
  70
    32
  0
VERTEX
  8
AM_VIS
  5
3E6
 10
16.3967
 20
4.09741
 30
0.000000
  70
    32
  0
VERTEX
  8
AM_VIS
  5
3E7
 10
16.3966
 20
4.09736
 30
0.000000
  70
    32
  0
VERTEX
  8
AM_VIS
  5
3E8
 10
16.3965
 20
4.09731
 30
0.000000
  70
    32
  0
VERTEX
  8
AM_VIS
  5
3E9
 10
16.3963
 20
4.09725
 30
0.000000
  70
    32
  0
VERTEX
  8
AM_VIS
  5
3EA
 10
16.3962
 20
4.09720
 30
0.000000
  70
    32
  0
VERTEX
  8
AM_VIS
  5
3EB
 10
16.3961
 20
4.09715
 30
0.000000
  70
    32
  0
VERTEX
  8
AM_VIS
  5
3EC
 10
16.3960
 20
4.09710
 30
0.000000
  70
    32
  0
VERTEX
  8
AM_VIS
  5
3ED
 10
16.3959
 20
4.09705
 30
0.000000
  70
    32
  0
VERTEX
  8
AM_VIS
  5
3EE
 10
16.3958
 20
4.09700
 30
0.000000
  70
    32
  0
VERTEX
  8
AM_VIS
  5
3EF
 10
16.3957
 20
4.09695
 30
0.000000
  70
    32
  0
VERTEX
  8
AM_VIS
  5
3F0
 10
16.3955
 20
4.09690
 30
0.000000
  70
    32
  0
VERTEX
  8
AM_VIS
  5
3F1
 10
16.3954
 20
4.09685
 30
0.000000
  70
    32
  0
VERTEX
  8
AM_VIS
  5
3F2
 10
16.3953
 20
4.09680
 30
0.000000
  70
    32
  0
VERTEX
  8
AM_VIS
  5
3F3
 10
16.3952
 20
4.09675
 30
0.000000
  70
    32
  0
VERTEX
  8
AM_VIS
  5
3F4
 10
16.3951
 20
4.09671
 30
0.000000
  70
    32
  0
VERTEX
  8
AM_VIS
  5
3F5
 10
16.3950
 20
4.09666
 30
0.000000
  70
    32
  0
VERTEX
  8
AM_VIS
  5
3F6
 10
16.3949
 20
4.09661
 30
0.000000
  70
    32
  0
VERTEX
  8
AM_VIS
  5
3F7
 10
16.3947
 20
4.09657
 30
0.000000
  70
    32
  0
VERTEX
  8
AM_VIS
  5
3F8
 10
16.3946
 20
4.09652
 30
0.000000
  70
    32
  0
VERTEX
  8
AM_VIS
  5
3F9
 10
16.3945
 20
4.09648
 30
0.000000
  70
    32
  0
VERTEX
  8
AM_VIS
  5
3FA
 10
16.3944
 20
4.09643
 30
0.000000
  70
    32
  0
VERTEX
  8
AM_VIS
  5
3FB
 10
16.3943
 20
4.09639
 30
0.000000
  70
    32
  0
VERTEX
  8
AM_VIS
  5
3FC
 10
16.3942
 20
4.09635
 30
0.000000
  70
    32
  0
VERTEX
  8
AM_VIS
  5
3FD
 10
16.3941
 20
4.09630
 30
0.000000
  70
    32
  0
VERTEX
  8
AM_VIS
  5
3FE
 10
16.3939
 20
4.09626
 30
0.000000
  70
    32
  0
VERTEX
  8
AM_VIS
  5
3FF
 10
16.3938
 20
4.09622
 30
0.000000
  70
    32
  0
VERTEX
  8
AM_VIS
  5
400
 10
16.3937
 20
4.09618
 30
0.000000
  70
    32
  0
VERTEX
  8
AM_VIS
  5
401
 10
16.3936
 20
4.09614
 30
0.000000
  70
    32
  0
VERTEX
  8
AM_VIS
  5
402
 10
16.3935
 20
4.09610
 30
0.000000
  70
    32
  0
VERTEX
  8
AM_VIS
  5
403
 10
16.3934
 20
4.09606
 30
0.000000
  70
    32
  0
VERTEX
  8
AM_VIS
  5
404
 10
16.3932
 20
4.09602
 30
0.000000
  70
    32
  0
VERTEX
  8
AM_VIS
  5
405
 10
16.3931
 20
4.09598
 30
0.000000
  70
    32
  0
VERTEX
  8
AM_VIS
  5
406
 10
16.3930
 20
4.09594
 30
0.000000
  70
    32
  0
VERTEX
  8
AM_VIS
  5
407
 10
16.3929
 20
4.09591
 30
0.000000
  70
    32
  0
VERTEX
  8
AM_VIS
  5
408
 10
16.3928
 20
4.09587
 30
0.000000
  70
    32
  0
VERTEX
  8
AM_VIS
  5
409
 10
16.3926
 20
4.09584
 30
0.000000
  70
    32
  0
VERTEX
  8
AM_VIS
  5
40A
 10
16.3925
 20
4.09580
 30
0.000000
  70
    32
  0
VERTEX
  8
AM_VIS
  5
40B
 10
16.3924
 20
4.09577
 30
0.000000
  70
    32
  0
VERTEX
  8
AM_VIS
  5
40C
 10
16.3923
 20
4.09573
 30
0.000000
  70
    32
  0
VERTEX
  8
AM_VIS
  5
40D
 10
16.3922
 20
4.09570
 30
0.000000
  70
    32
  0
VERTEX
  8
AM_VIS
  5
40E
 10
16.3921
 20
4.09566
 30
0.000000
  70
    32
  0
VERTEX
  8
AM_VIS
  5
40F
 10
16.3919
 20
4.09563
 30
0.000000
  70
    32
  0
VERTEX
  8
AM_VIS
  5
410
 10
16.3918
 20
4.09560
 30
0.000000
  70
    32
  0
VERTEX
  8
AM_VIS
  5
411
 10
16.3917
 20
4.09557
 30
0.000000
  70
    32
  0
VERTEX
  8
AM_VIS
  5
412
 10
16.3916
 20
4.09554
 30
0.000000
  70
    32
  0
VERTEX
  8
AM_VIS
  5
413
 10
16.3915
 20
4.09551
 30
0.000000
  70
    32
  0
VERTEX
  8
AM_VIS
  5
414
 10
16.3913
 20
4.09548
 30
0.000000
  70
    32
  0
VERTEX
  8
AM_VIS
  5
415
 10
16.3912
 20
4.09545
 30
0.000000
  70
    32
  0
VERTEX
  8
AM_VIS
  5
416
 10
16.3911
 20
4.09542
 30
0.000000
  70
    32
  0
VERTEX
  8
AM_VIS
  5
417
 10
16.3910
 20
4.09539
 30
0.000000
  70
    32
  0
VERTEX
  8
AM_VIS
  5
418
 10
16.3909
 20
4.09537
 30
0.000000
  70
    32
  0
VERTEX
  8
AM_VIS
  5
419
 10
16.3907
 20
4.09534
 30
0.000000
  70
    32
  0
VERTEX
  8
AM_VIS
  5
41A
 10
16.3906
 20
4.09532
 30
0.000000
  70
    32
  0
VERTEX
  8
AM_VIS
  5
41B
 10
16.3905
 20
4.09529
 30
0.000000
  70
    32
  0
VERTEX
  8
AM_VIS
  5
41C
 10
16.3904
 20
4.09527
 30
0.000000
  70
    32
  0
VERTEX
  8
AM_VIS
  5
41D
 10
16.3902
 20
4.09524
 30
0.000000
  70
    32
  0
VERTEX
  8
AM_VIS
  5
41E
 10
16.3901
 20
4.09522
 30
0.000000
  70
    32
  0
VERTEX
  8
AM_VIS
  5
41F
 10
16.3900
 20
4.09520
 30
0.000000
  70
    32
  0
VERTEX
  8
AM_VIS
  5
420
 10
16.3899
 20
4.09518
 30
0.000000
  70
    32
  0
VERTEX
  8
AM_VIS
  5
421
 10
16.3898
 20
4.09516
 30
0.000000
  70
    32
  0
VERTEX
  8
AM_VIS
  5
422
 10
16.3896
 20
4.09514
 30
0.000000
  70
    32
  0
VERTEX
  8
AM_VIS
  5
423
 10
16.3895
 20
4.09512
 30
0.000000
  70
    32
  0
VERTEX
  8
AM_VIS
  5
424
 10
16.3894
 20
4.09510
 30
0.000000
  70
    32
  0
VERTEX
  8
AM_VIS
  5
425
 10
16.3893
 20
4.09508
 30
0.000000
  70
    32
  0
VERTEX
  8
AM_VIS
  5
426
 10
16.3891
 20
4.09506
 30
0.000000
  70
    32
  0
VERTEX
  8
AM_VIS
  5
427
 10
16.3890
 20
4.09505
 30
0.000000
  70
    32
  0
VERTEX
  8
AM_VIS
  5
428
 10
16.3889
 20
4.09503
 30
0.000000
  70
    32
  0
VERTEX
  8
AM_VIS
  5
429
 10
16.3888
 20
4.09502
 30
0.000000
  70
    32
  0
VERTEX
  8
AM_VIS
  5
42A
 10
16.3886
 20
4.09500
 30
0.000000
  70
    32
  0
VERTEX
  8
AM_VIS
  5
42B
 10
16.3885
 20
4.09499
 30
0.000000
  70
    32
  0
VERTEX
  8
AM_VIS
  5
42C
 10
16.3884
 20
4.09497
 30
0.000000
  70
    32
  0
VERTEX
  8
AM_VIS
  5
42D
 10
16.3883
 20
4.09496
 30
0.000000
  70
    32
  0
VERTEX
  8
AM_VIS
  5
42E
 10
16.3881
 20
4.09495
 30
0.000000
  70
    32
  0
VERTEX
  8
AM_VIS
  5
42F
 10
16.3880
 20
4.09494
 30
0.000000
  70
    32
  0
VERTEX
  8
AM_VIS
  5
430
 10
16.3879
 20
4.09493
 30
0.000000
  70
    32
  0
VERTEX
  8
AM_VIS
  5
431
 10
16.3878
 20
4.09492
 30
0.000000
  70
    32
  0
VERTEX
  8
AM_VIS
  5
432
 10
16.3876
 20
4.09491
 30
0.000000
  70
    32
  0
VERTEX
  8
AM_VIS
  5
433
 10
16.3875
 20
4.09491
 30
0.000000
  70
    32
  0
VERTEX
  8
AM_VIS
  5
434
 10
16.3874
 20
4.09490
 30
0.000000
  70
    32
  0
VERTEX
  8
AM_VIS
  5
435
 10
16.3872
 20
4.09489
 30
0.000000
  70
    32
  0
VERTEX
  8
AM_VIS
  5
436
 10
16.3871
 20
4.09489
 30
0.000000
  70
    32
  0
VERTEX
  8
AM_VIS
  5
437
 10
16.3870
 20
4.09488
 30
0.000000
  70
    32
  0
VERTEX
  8
AM_VIS
  5
438
 10
16.3869
 20
4.09488
 30
0.000000
  70
    32
  0
VERTEX
  8
AM_VIS
  5
439
 10
16.3867
 20
4.09488
 30
0.000000
  70
    32
  0
VERTEX
  8
AM_VIS
  5
43A
 10
16.3866
 20
4.09488
 30
0.000000
  70
    32
  0
VERTEX
  8
AM_VIS
  5
43B
 10
16.3865
 20
4.09487
 30
0.000000
  70
    32
  0
VERTEX
  8
AM_VIS
  5
43C
 10
16.3864
 20
4.09487
 30
0.000000
  70
    32
  0
VERTEX
  8
AM_VIS
  5
43D
 10
16.3862
 20
4.09488
 30
0.000000
  70
    32
  0
VERTEX
  8
AM_VIS
  5
43E
 10
16.3861
 20
4.09488
 30
0.000000
  70
    32
  0
VERTEX
  8
AM_VIS
  5
43F
 10
16.3860
 20
4.09488
 30
0.000000
  70
    32
  0
VERTEX
  8
AM_VIS
  5
440
 10
16.3858
 20
4.09488
 30
0.000000
  70
    32
  0
VERTEX
  8
AM_VIS
  5
441
 10
16.3857
 20
4.09489
 30
0.000000
  70
    32
  0
VERTEX
  8
AM_VIS
  5
442
 10
16.3856
 20
4.09489
 30
0.000000
  70
    32
  0
VERTEX
  8
AM_VIS
  5
443
 10
16.3855
 20
4.09490
 30
0.000000
  70
    32
  0
VERTEX
  8
AM_VIS
  5
444
 10
16.3853
 20
4.09490
 30
0.000000
  70
    32
  0
VERTEX
  8
AM_VIS
  5
445
 10
16.3852
 20
4.09491
 30
0.000000
  70
    32
  0
VERTEX
  8
AM_VIS
  5
446
 10
16.3851
 20
4.09492
 30
0.000000
  70
    32
  0
VERTEX
  8
AM_VIS
  5
447
 10
16.3849
 20
4.09493
 30
0.000000
  70
    32
  0
VERTEX
  8
AM_VIS
  5
448
 10
16.3848
 20
4.09494
 30
0.000000
  70
    32
  0
VERTEX
  8
AM_VIS
  5
449
 10
16.3847
 20
4.09495
 30
0.000000
  70
    32
  0
VERTEX
  8
AM_VIS
  5
44A
 10
16.3845
 20
4.09496
 30
0.000000
  70
    32
  0
VERTEX
  8
AM_VIS
  5
44B
 10
16.3844
 20
4.09498
 30
0.000000
  70
    32
  0
VERTEX
  8
AM_VIS
  5
44C
 10
16.3843
 20
4.09499
 30
0.000000
  70
    32
  0
VERTEX
  8
AM_VIS
  5
44D
 10
16.3841
 20
4.09501
 30
0.000000
  70
    32
  0
VERTEX
  8
AM_VIS
  5
44E
 10
16.3840
 20
4.09502
 30
0.000000
  70
    32
  0
VERTEX
  8
AM_VIS
  5
44F
 10
16.3839
 20
4.09504
 30
0.000000
  70
    32
  0
VERTEX
  8
AM_VIS
  5
450
 10
16.3837
 20
4.09506
 30
0.000000
  70
    32
  0
VERTEX
  8
AM_VIS
  5
451
 10
16.3836
 20
4.09508
 30
0.000000
  70
    32
  0
VERTEX
  8
AM_VIS
  5
452
 10
16.3835
 20
4.09510
 30
0.000000
  70
    32
  0
VERTEX
  8
AM_VIS
  5
453
 10
16.3833
 20
4.09512
 30
0.000000
  70
    32
  0
VERTEX
  8
AM_VIS
  5
454
 10
16.3832
 20
4.09514
 30
0.000000
  70
    32
  0
VERTEX
  8
AM_VIS
  5
455
 10
16.3831
 20
4.09516
 30
0.000000
  70
    32
  0
VERTEX
  8
AM_VIS
  5
456
 10
16.3829
 20
4.09519
 30
0.000000
  70
    32
  0
VERTEX
  8
AM_VIS
  5
457
 10
16.3828
 20
4.09521
 30
0.000000
  70
    32
  0
VERTEX
  8
AM_VIS
  5
458
 10
16.3827
 20
4.09524
 30
0.000000
  70
    32
  0
VERTEX
  8
AM_VIS
  5
459
 10
16.3825
 20
4.09527
 30
0.000000
  70
    32
  0
VERTEX
  8
AM_VIS
  5
45A
 10
16.3824
 20
4.09529
 30
0.000000
  70
    32
  0
VERTEX
  8
AM_VIS
  5
45B
 10
16.3823
 20
4.09532
 30
0.000000
  70
    32
  0
VERTEX
  8
AM_VIS
  5
45C
 10
16.3821
 20
4.09535
 30
0.000000
  70
    32
  0
VERTEX
  8
AM_VIS
  5
45D
 10
16.3820
 20
4.09539
 30
0.000000
  70
    32
  0
VERTEX
  8
AM_VIS
  5
45E
 10
16.3819
 20
4.09542
 30
0.000000
  70
    32
  0
VERTEX
  8
AM_VIS
  5
45F
 10
16.3817
 20
4.09545
 30
0.000000
  70
    32
  0
VERTEX
  8
AM_VIS
  5
460
 10
16.3816
 20
4.09549
 30
0.000000
  70
    32
  0
VERTEX
  8
AM_VIS
  5
461
 10
16.3815
 20
4.09552
 30
0.000000
  70
    32
  0
VERTEX
  8
AM_VIS
  5
462
 10
16.3813
 20
4.09556
 30
0.000000
  70
    32
  0
VERTEX
  8
AM_VIS
  5
463
 10
16.3812
 20
4.09560
 30
0.000000
  70
    32
  0
VERTEX
  8
AM_VIS
  5
464
 10
16.3811
 20
4.09564
 30
0.000000
  70
    32
  0
VERTEX
  8
AM_VIS
  5
465
 10
16.3809
 20
4.09568
 30
0.000000
  70
    32
  0
VERTEX
  8
AM_VIS
  5
466
 10
16.3808
 20
4.09572
 30
0.000000
  70
    32
  0
VERTEX
  8
AM_VIS
  5
467
 10
16.3807
 20
4.09576
 30
0.000000
  70
    32
  0
VERTEX
  8
AM_VIS
  5
468
 10
16.3805
 20
4.09580
 30
0.000000
  70
    32
  0
VERTEX
  8
AM_VIS
  5
469
 10
16.3804
 20
4.09585
 30
0.000000
  70
    32
  0
VERTEX
  8
AM_VIS
  5
46A
 10
16.3802
 20
4.09589
 30
0.000000
  70
    32
  0
VERTEX
  8
AM_VIS
  5
46B
 10
16.3801
 20
4.09594
 30
0.000000
  70
    32
  0
VERTEX
  8
AM_VIS
  5
46C
 10
16.3800
 20
4.09599
 30
0.000000
  70
    32
  0
VERTEX
  8
AM_VIS
  5
46D
 10
16.3798
 20
4.09604
 30
0.000000
  70
    32
  0
VERTEX
  8
AM_VIS
  5
46E
 10
16.3797
 20
4.09609
 30
0.000000
  70
    32
  0
VERTEX
  8
AM_VIS
  5
46F
 10
16.3796
 20
4.09614
 30
0.000000
  70
    32
  0
VERTEX
  8
AM_VIS
  5
470
 10
16.3794
 20
4.09619
 30
0.000000
  70
    32
  0
VERTEX
  8
AM_VIS
  5
471
 10
16.3793
 20
4.09625
 30
0.000000
  70
    32
  0
VERTEX
  8
AM_VIS
  5
472
 10
16.3791
 20
4.09630
 30
0.000000
  70
    32
  0
VERTEX
  8
AM_VIS
  5
473
 10
16.3790
 20
4.09636
 30
0.000000
  70
    32
  0
VERTEX
  8
AM_VIS
  5
474
 10
16.3789
 20
4.09642
 30
0.000000
  70
    32
  0
VERTEX
  8
AM_VIS
  5
475
 10
16.3787
 20
4.09648
 30
0.000000
  70
    32
  0
VERTEX
  8
AM_VIS
  5
476
 10
16.3786
 20
4.09654
 30
0.000000
  70
    32
  0
VERTEX
  8
AM_VIS
  5
477
 10
16.3785
 20
4.09660
 30
0.000000
  70
    32
  0
VERTEX
  8
AM_VIS
  5
478
 10
16.3783
 20
4.09666
 30
0.000000
  70
    32
  0
VERTEX
  8
AM_VIS
  5
479
 10
16.3782
 20
4.09672
 30
0.000000
  70
    32
  0
VERTEX
  8
AM_VIS
  5
47A
 10
16.3780
 20
4.09679
 30
0.000000
  70
    32
  0
VERTEX
  8
AM_VIS
  5
47B
 10
16.3779
 20
4.09686
 30
0.000000
  70
    32
  0
VERTEX
  8
AM_VIS
  5
47C
 10
16.3778
 20
4.09692
 30
0.000000
  70
    32
  0
VERTEX
  8
AM_VIS
  5
47D
 10
16.3776
 20
4.09699
 30
0.000000
  70
    32
  0
VERTEX
  8
AM_VIS
  5
47E
 10
16.3775
 20
4.09706
 30
0.000000
  70
    32
  0
VERTEX
  8
AM_VIS
  5
47F
 10
16.3773
 20
4.09714
 30
0.000000
  70
    32
  0
VERTEX
  8
AM_VIS
  5
480
 10
16.3772
 20
4.09721
 30
0.000000
  70
    32
  0
VERTEX
  8
AM_VIS
  5
481
 10
16.3771
 20
4.09728
 30
0.000000
  70
    32
  0
VERTEX
  8
AM_VIS
  5
482
 10
16.3769
 20
4.09736
 30
0.000000
  70
    32
  0
VERTEX
  8
AM_VIS
  5
483
 10
16.3768
 20
4.09744
 30
0.000000
  70
    32
  0
VERTEX
  8
AM_VIS
  5
484
 10
16.3766
 20
4.09752
 30
0.000000
  70
    32
  0
VERTEX
  8
AM_VIS
  5
485
 10
16.3765
 20
4.09760
 30
0.000000
  70
    32
  0
VERTEX
  8
AM_VIS
  5
486
 10
16.3764
 20
4.09768
 30
0.000000
  70
    32
  0
VERTEX
  8
AM_VIS
  5
487
 10
16.3762
 20
4.09776
 30
0.000000
  70
    32
  0
VERTEX
  8
AM_VIS
  5
488
 10
16.3761
 20
4.09784
 30
0.000000
  70
    32
  0
VERTEX
  8
AM_VIS
  5
489
 10
16.3759
 20
4.09793
 30
0.000000
  70
    32
  0
VERTEX
  8
AM_VIS
  5
48A
 10
16.3758
 20
4.09802
 30
0.000000
  70
    32
  0
VERTEX
  8
AM_VIS
  5
48B
 10
16.3757
 20
4.09810
 30
0.000000
  70
    32
  0
VERTEX
  8
AM_VIS
  5
48C
 10
16.3755
 20
4.09819
 30
0.000000
  70
    32
  0
VERTEX
  8
AM_VIS
  5
48D
 10
16.3754
 20
4.09828
 30
0.000000
  70
    32
  0
VERTEX
  8
AM_VIS
  5
48E
 10
16.3752
 20
4.09838
 30
0.000000
  70
    32
  0
VERTEX
  8
AM_VIS
  5
48F
 10
16.3751
 20
4.09847
 30
0.000000
  70
    32
  0
VERTEX
  8
AM_VIS
  5
490
 10
16.3749
 20
4.09857
 30
0.000000
  70
    32
  0
VERTEX
  8
AM_VIS
  5
491
 10
16.3748
 20
4.09866
 30
0.000000
  70
    32
  0
VERTEX
  8
AM_VIS
  5
492
 10
16.3747
 20
4.09876
 30
0.000000
  70
    32
  0
VERTEX
  8
AM_VIS
  5
493
 10
16.3745
 20
4.09886
 30
0.000000
  70
    32
  0
VERTEX
  8
AM_VIS
  5
494
 10
16.3744
 20
4.09896
 30
0.000000
  70
    32
  0
VERTEX
  8
AM_VIS
  5
495
 10
16.3742
 20
4.09906
 30
0.000000
  70
    32
  0
VERTEX
  8
AM_VIS
  5
496
 10
16.3741
 20
4.09917
 30
0.000000
  70
    32
  0
VERTEX
  8
AM_VIS
  5
497
 10
16.3740
 20
4.09927
 30
0.000000
  70
    32
  0
VERTEX
  8
AM_VIS
  5
498
 10
16.3738
 20
4.09938
 30
0.000000
  70
    32
  0
VERTEX
  8
AM_VIS
  5
499
 10
16.3737
 20
4.09949
 30
0.000000
  70
    32
  0
VERTEX
  8
AM_VIS
  5
49A
 10
16.3735
 20
4.09960
 30
0.000000
  70
    32
  0
VERTEX
  8
AM_VIS
  5
49B
 10
16.3734
 20
4.09971
 30
0.000000
  70
    32
  0
VERTEX
  8
AM_VIS
  5
49C
 10
16.3732
 20
4.09982
 30
0.000000
  70
    32
  0
VERTEX
  8
AM_VIS
  5
49D
 10
16.3731
 20
4.09994
 30
0.000000
  70
    32
  0
VERTEX
  8
AM_VIS
  5
49E
 10
16.3730
 20
4.10006
 30
0.000000
  70
    32
  0
VERTEX
  8
AM_VIS
  5
49F
 10
16.3728
 20
4.10017
 30
0.000000
  70
    32
  0
VERTEX
  8
AM_VIS
  5
4A0
 10
16.3727
 20
4.10029
 30
0.000000
  70
    32
  0
VERTEX
  8
AM_VIS
  5
4A1
 10
16.3725
 20
4.10041
 30
0.000000
  70
    32
  0
VERTEX
  8
AM_VIS
  5
4A2
 10
16.3724
 20
4.10054
 30
0.000000
  70
    32
  0
VERTEX
  8
AM_VIS
  5
4A3
 10
16.3722
 20
4.10066
 30
0.000000
  70
    32
  0
VERTEX
  8
AM_VIS
  5
4A4
 10
16.3721
 20
4.10079
 30
0.000000
  70
    32
  0
VERTEX
  8
AM_VIS
  5
4A5
 10
16.3720
 20
4.10091
 30
0.000000
  70
    32
  0
VERTEX
  8
AM_VIS
  5
4A6
 10
16.3718
 20
4.10104
 30
0.000000
  70
    32
  0
VERTEX
  8
AM_VIS
  5
4A7
 10
16.3717
 20
4.10117
 30
0.000000
  70
    32
  0
VERTEX
  8
AM_VIS
  5
4A8
 10
16.3715
 20
4.10130
 30
0.000000
  70
    32
  0
VERTEX
  8
AM_VIS
  5
4A9
 10
16.3714
 20
4.10143
 30
0.000000
  70
    32
  0
VERTEX
  8
AM_VIS
  5
4AA
 10
16.3712
 20
4.10157
 30
0.000000
  70
    32
  0
VERTEX
  8
AM_VIS
  5
4AB
 10
16.3711
 20
4.10171
 30
0.000000
  70
    32
  0
VERTEX
  8
AM_VIS
  5
4AC
 10
16.3710
 20
4.10184
 30
0.000000
  70
    32
  0
VERTEX
  8
AM_VIS
  5
4AD
 10
16.3708
 20
4.10198
 30
0.000000
  70
    32
  0
VERTEX
  8
AM_VIS
  5
4AE
 10
16.3707
 20
4.10212
 30
0.000000
  70
    32
  0
VERTEX
  8
AM_VIS
  5
4AF
 10
16.3705
 20
4.10226
 30
0.000000
  70
    32
  0
VERTEX
  8
AM_VIS
  5
4B0
 10
16.3704
 20
4.10241
 30
0.000000
  70
    32
  0
VERTEX
  8
AM_VIS
  5
4B1
 10
16.3702
 20
4.10255
 30
0.000000
  70
    32
  0
VERTEX
  8
AM_VIS
  5
4B2
 10
16.3701
 20
4.10270
 30
0.000000
  70
    32
  0
VERTEX
  8
AM_VIS
  5
4B3
 10
16.3700
 20
4.10285
 30
0.000000
  70
    32
  0
VERTEX
  8
AM_VIS
  5
4B4
 10
16.3698
 20
4.10300
 30
0.000000
  70
    32
  0
VERTEX
  8
AM_VIS
  5
4B5
 10
16.3697
 20
4.10315
 30
0.000000
  70
    32
  0
VERTEX
  8
AM_VIS
  5
4B6
 10
16.3695
 20
4.10330
 30
0.000000
  70
    32
  0
VERTEX
  8
AM_VIS
  5
4B7
 10
16.3694
 20
4.10346
 30
0.000000
  70
    32
  0
VERTEX
  8
AM_VIS
  5
4B8
 10
16.3693
 20
4.10361
 30
0.000000
  70
    32
  0
VERTEX
  8
AM_VIS
  5
4B9
 10
16.3691
 20
4.10377
 30
0.000000
  70
    32
  0
VERTEX
  8
AM_VIS
  5
4BA
 10
16.3690
 20
4.10393
 30
0.000000
  70
    32
  0
VERTEX
  8
AM_VIS
  5
4BB
 10
16.3688
 20
4.10409
 30
0.000000
  70
    32
  0
VERTEX
  8
AM_VIS
  5
4BC
 10
16.3687
 20
4.10425
 30
0.000000
  70
    32
  0
VERTEX
  8
AM_VIS
  5
4BD
 10
16.3686
 20
4.10442
 30
0.000000
  70
    32
  0
VERTEX
  8
AM_VIS
  5
4BE
 10
16.3684
 20
4.10458
 30
0.000000
  70
    32
  0
VERTEX
  8
AM_VIS
  5
4BF
 10
16.3683
 20
4.10475
 30
0.000000
  70
    32
  0
VERTEX
  8
AM_VIS
  5
4C0
 10
16.3681
 20
4.10492
 30
0.000000
  70
    32
  0
VERTEX
  8
AM_VIS
  5
4C1
 10
16.3680
 20
4.10509
 30
0.000000
  70
    32
  0
VERTEX
  8
AM_VIS
  5
4C2
 10
16.3678
 20
4.10526
 30
0.000000
  70
    32
  0
VERTEX
  8
AM_VIS
  5
4C3
 10
16.3677
 20
4.10544
 30
0.000000
  70
    32
  0
VERTEX
  8
AM_VIS
  5
4C4
 10
16.3676
 20
4.10561
 30
0.000000
  70
    32
  0
VERTEX
  8
AM_VIS
  5
4C5
 10
16.3674
 20
4.10579
 30
0.000000
  70
    32
  0
VERTEX
  8
AM_VIS
  5
4C6
 10
16.3673
 20
4.10597
 30
0.000000
  70
    32
  0
VERTEX
  8
AM_VIS
  5
4C7
 10
16.3671
 20
4.10615
 30
0.000000
  70
    32
  0
VERTEX
  8
AM_VIS
  5
4C8
 10
16.3670
 20
4.10633
 30
0.000000
  70
    32
  0
VERTEX
  8
AM_VIS
  5
4C9
 10
16.3669
 20
4.10651
 30
0.000000
  70
    32
  0
VERTEX
  8
AM_VIS
  5
4CA
 10
16.3667
 20
4.10670
 30
0.000000
  70
    32
  0
VERTEX
  8
AM_VIS
  5
4CB
 10
16.3666
 20
4.10689
 30
0.000000
  70
    32
  0
VERTEX
  8
AM_VIS
  5
4CC
 10
16.3665
 20
4.10707
 30
0.000000
  70
    32
  0
VERTEX
  8
AM_VIS
  5
4CD
 10
16.3663
 20
4.10726
 30
0.000000
  70
    32
  0
VERTEX
  8
AM_VIS
  5
4CE
 10
16.3662
 20
4.10746
 30
0.000000
  70
    32
  0
VERTEX
  8
AM_VIS
  5
4CF
 10
16.3660
 20
4.10765
 30
0.000000
  70
    32
  0
VERTEX
  8
AM_VIS
  5
4D0
 10
16.3659
 20
4.10785
 30
0.000000
  70
    32
  0
VERTEX
  8
AM_VIS
  5
4D1
 10
16.3658
 20
4.10804
 30
0.000000
  70
    32
  0
VERTEX
  8
AM_VIS
  5
4D2
 10
16.3656
 20
4.10824
 30
0.000000
  70
    32
  0
VERTEX
  8
AM_VIS
  5
4D3
 10
16.3655
 20
4.10844
 30
0.000000
  70
    32
  0
VERTEX
  8
AM_VIS
  5
4D4
 10
16.3653
 20
4.10864
 30
0.000000
  70
    32
  0
VERTEX
  8
AM_VIS
  5
4D5
 10
16.3652
 20
4.10885
 30
0.000000
  70
    32
  0
VERTEX
  8
AM_VIS
  5
4D6
 10
16.3651
 20
4.10905
 30
0.000000
  70
    32
  0
VERTEX
  8
AM_VIS
  5
4D7
 10
16.3649
 20
4.10926
 30
0.000000
  70
    32
  0
VERTEX
  8
AM_VIS
  5
4D8
 10
16.3648
 20
4.10947
 30
0.000000
  70
    32
  0
VERTEX
  8
AM_VIS
  5
4D9
 10
16.3647
 20
4.10968
 30
0.000000
  70
    32
  0
VERTEX
  8
AM_VIS
  5
4DA
 10
16.3645
 20
4.10989
 30
0.000000
  70
    32
  0
VERTEX
  8
AM_VIS
  5
4DB
 10
16.3644
 20
4.11011
 30
0.000000
  70
    32
  0
VERTEX
  8
AM_VIS
  5
4DC
 10
16.3642
 20
4.11032
 30
0.000000
  70
    32
  0
VERTEX
  8
AM_VIS
  5
4DD
 10
16.3641
 20
4.11054
 30
0.000000
  70
    32
  0
VERTEX
  8
AM_VIS
  5
4DE
 10
16.3640
 20
4.11076
 30
0.000000
  70
    32
  0
VERTEX
  8
AM_VIS
  5
4DF
 10
16.3638
 20
4.11098
 30
0.000000
  70
    32
  0
VERTEX
  8
AM_VIS
  5
4E0
 10
16.3637
 20
4.11120
 30
0.000000
  70
    32
  0
VERTEX
  8
AM_VIS
  5
4E1
 10
16.3636
 20
4.11143
 30
0.000000
  70
    32
  0
VERTEX
  8
AM_VIS
  5
4E2
 10
16.3634
 20
4.11165
 30
0.000000
  70
    32
  0
VERTEX
  8
AM_VIS
  5
4E3
 10
16.3633
 20
4.11188
 30
0.000000
  70
    32
  0
VERTEX
  8
AM_VIS
  5
4E4
 10
16.3632
 20
4.11211
 30
0.000000
  70
    32
  0
VERTEX
  8
AM_VIS
  5
4E5
 10
16.3630
 20
4.11234
 30
0.000000
  70
    32
  0
VERTEX
  8
AM_VIS
  5
4E6
 10
16.3629
 20
4.11258
 30
0.000000
  70
    32
  0
VERTEX
  8
AM_VIS
  5
4E7
 10
16.3628
 20
4.11281
 30
0.000000
  70
    32
  0
VERTEX
  8
AM_VIS
  5
4E8
 10
16.3626
 20
4.11305
 30
0.000000
  70
    32
  0
VERTEX
  8
AM_VIS
  5
4E9
 10
16.3625
 20
4.11329
 30
0.000000
  70
    32
  0
VERTEX
  8
AM_VIS
  5
4EA
 10
16.3624
 20
4.11353
 30
0.000000
  70
    32
  0
VERTEX
  8
AM_VIS
  5
4EB
 10
16.3622
 20
4.11377
 30
0.000000
  70
    32
  0
VERTEX
  8
AM_VIS
  5
4EC
 10
16.3621
 20
4.11401
 30
0.000000
  70
    32
  0
VERTEX
  8
AM_VIS
  5
4ED
 10
16.3620
 20
4.11426
 30
0.000000
  70
    32
  0
VERTEX
  8
AM_VIS
  5
4EE
 10
16.3618
 20
4.11451
 30
0.000000
  70
    32
  0
VERTEX
  8
AM_VIS
  5
4EF
 10
16.3617
 20
4.11476
 30
0.000000
  70
    32
  0
VERTEX
  8
AM_VIS
  5
4F0
 10
16.3616
 20
4.11501
 30
0.000000
  70
    32
  0
VERTEX
  8
AM_VIS
  5
4F1
 10
16.3614
 20
4.11526
 30
0.000000
  70
    32
  0
VERTEX
  8
AM_VIS
  5
4F2
 10
16.3613
 20
4.11552
 30
0.000000
  70
    32
  0
VERTEX
  8
AM_VIS
  5
4F3
 10
16.3612
 20
4.11577
 30
0.000000
  70
    32
  0
VERTEX
  8
AM_VIS
  5
4F4
 10
16.3610
 20
4.11603
 30
0.000000
  70
    32
  0
VERTEX
  8
AM_VIS
  5
4F5
 10
16.3609
 20
4.11629
 30
0.000000
  70
    32
  0
VERTEX
  8
AM_VIS
  5
4F6
 10
16.3608
 20
4.11655
 30
0.000000
  70
    32
  0
VERTEX
  8
AM_VIS
  5
4F7
 10
16.3606
 20
4.11682
 30
0.000000
  70
    32
  0
VERTEX
  8
AM_VIS
  5
4F8
 10
16.3605
 20
4.11708
 30
0.000000
  70
    32
  0
VERTEX
  8
AM_VIS
  5
4F9
 10
16.3604
 20
4.11735
 30
0.000000
  70
    32
  0
VERTEX
  8
AM_VIS
  5
4FA
 10
16.3602
 20
4.11762
 30
0.000000
  70
    32
  0
VERTEX
  8
AM_VIS
  5
4FB
 10
16.3601
 20
4.11789
 30
0.000000
  70
    32
  0
VERTEX
  8
AM_VIS
  5
4FC
 10
16.3600
 20
4.11817
 30
0.000000
  70
    32
  0
VERTEX
  8
AM_VIS
  5
4FD
 10
16.3598
 20
4.11844
 30
0.000000
  70
    32
  0
VERTEX
  8
AM_VIS
  5
4FE
 10
16.3597
 20
4.11872
 30
0.000000
  70
    32
  0
VERTEX
  8
AM_VIS
  5
4FF
 10
16.3596
 20
4.11900
 30
0.000000
  70
    32
  0
VERTEX
  8
AM_VIS
  5
500
 10
16.3595
 20
4.11928
 30
0.000000
  70
    32
  0
VERTEX
  8
AM_VIS
  5
501
 10
16.3593
 20
4.11956
 30
0.000000
  70
    32
  0
VERTEX
  8
AM_VIS
  5
502
 10
16.3592
 20
4.11985
 30
0.000000
  70
    32
  0
VERTEX
  8
AM_VIS
  5
503
 10
16.3591
 20
4.12013
 30
0.000000
  70
    32
  0
VERTEX
  8
AM_VIS
  5
504
 10
16.3589
 20
4.12042
 30
0.000000
  70
    32
  0
VERTEX
  8
AM_VIS
  5
505
 10
16.3588
 20
4.12071
 30
0.000000
  70
    32
  0
VERTEX
  8
AM_VIS
  5
506
 10
16.3587
 20
4.12100
 30
0.000000
  70
    32
  0
VERTEX
  8
AM_VIS
  5
507
 10
16.3586
 20
4.12129
 30
0.000000
  70
    32
  0
VERTEX
  8
AM_VIS
  5
508
 10
16.3584
 20
4.12159
 30
0.000000
  70
    32
  0
VERTEX
  8
AM_VIS
  5
509
 10
16.3583
 20
4.12188
 30
0.000000
  70
    32
  0
VERTEX
  8
AM_VIS
  5
50A
 10
16.3582
 20
4.12218
 30
0.000000
  70
    32
  0
VERTEX
  8
AM_VIS
  5
50B
 10
16.3581
 20
4.12248
 30
0.000000
  70
    32
  0
VERTEX
  8
AM_VIS
  5
50C
 10
16.3579
 20
4.12277
 30
0.000000
  70
    32
  0
VERTEX
  8
AM_VIS
  5
50D
 10
16.3578
 20
4.12307
 30
0.000000
  70
    32
  0
VERTEX
  8
AM_VIS
  5
50E
 10
16.3577
 20
4.12338
 30
0.000000
  70
    32
  0
VERTEX
  8
AM_VIS
  5
50F
 10
16.3576
 20
4.12368
 30
0.000000
  70
    32
  0
VERTEX
  8
AM_VIS
  5
510
 10
16.3574
 20
4.12399
 30
0.000000
  70
    32
  0
VERTEX
  8
AM_VIS
  5
511
 10
16.3573
 20
4.12429
 30
0.000000
  70
    32
  0
VERTEX
  8
AM_VIS
  5
512
 10
16.3572
 20
4.12460
 30
0.000000
  70
    32
  0
VERTEX
  8
AM_VIS
  5
513
 10
16.3571
 20
4.12491
 30
0.000000
  70
    32
  0
VERTEX
  8
AM_VIS
  5
514
 10
16.3569
 20
4.12522
 30
0.000000
  70
    32
  0
SEQEND
  8
AM_VIS
  5
515
  0
LINE
  5
27
  8
AM_VIS
 10
14.35722606795791
 20
6.1533257379504569
 30
0.0
 11
16.418272594202641
 21
6.1533257379504569
 31
0.0
  0
LINE
  5
28
  8
AM_VIS
 10
16.418272594202641
 20
6.153325737298851
 30
0.0
 11
16.42846981804604
 21
6.153325737298851
 31
0.0
  0
LINE
  5
29
  8
AM_VIS
 10
16.59597606795818
 20
5.9590954247263532
 30
0.0
 11
16.59597606795818
 21
5.8701791225389011
 31
0.0
  0
ARC
  5
2A
  8
AM_VIS
 10
16.652226067957208
 20
6.1769507379495687
 30
0.0
 40
0.2249999999989425
 50
186.0271665609543
 51
255.52248781418541
  0
LINE
  5
2B
  8
AM_VIS
 10
16.59597606795792
 20
5.870179122538902
 30
0.0
 11
16.59597606795792
 21
5.3024723533620142
 31
0.0
  0
ARC
  5
2C
  8
AM_VIS
 10
16.652226067957908
 20
4.9957007379504583
 30
0.0
 40
0.2250000000000004
 50
104.4775121859299
 51
179.99999999999989
  0
LINE
  5
2D
  8
AM_VIS
 10
16.59597606795818
 20
5.3024723533620142
 30
0.0
 11
16.59597606795818
 21
5.2135560511745629
 31
0.0
  0
ARC
  5
2E
  8
AM_HID
 10
17.184304338306791
 20
5.5925643780757186
 30
0.0
 40
0.9371947784786584
 50
180.3814134309674
 51
197.86249115412579
  0
ARC
  5
31
  8
AM_HID
 10
17.18430433830676
 20
5.580087097825202
 30
0.0
 40
0.937194778478625
 50
162.1375088458739
 51
179.618586569033
  0
POLYLINE
  8
AM_VIS
  5
516
  66
     1
 10
0.000000
 20
0.000000
 30
0.000000
  70
     8
  0
VERTEX
  8
AM_VIS
  5
517
 10
16.3569
 20
3.37543
 30
0.000000
  70
    32
  0
VERTEX
  8
AM_VIS
  5
518
 10
16.3571
 20
3.37573
 30
0.000000
  70
    32
  0
VERTEX
  8
AM_VIS
  5
519
 10
16.3572
 20
3.37602
 30
0.000000
  70
    32
  0
VERTEX
  8
AM_VIS
  5
51A
 10
16.3573
 20
3.37631
 30
0.000000
  70
    32
  0
VERTEX
  8
AM_VIS
  5
51B
 10
16.3574
 20
3.37660
 30
0.000000
  70
    32
  0
VERTEX
  8
AM_VIS
  5
51C
 10
16.3575
 20
3.37689
 30
0.000000
  70
    32
  0
VERTEX
  8
AM_VIS
  5
51D
 10
16.3576
 20
3.37718
 30
0.000000
  70
    32
  0
VERTEX
  8
AM_VIS
  5
51E
 10
16.3578
 20
3.37747
 30
0.000000
  70
    32
  0
VERTEX
  8
AM_VIS
  5
51F
 10
16.3579
 20
3.37775
 30
0.000000
  70
    32
  0
VERTEX
  8
AM_VIS
  5
520
 10
16.3580
 20
3.37804
 30
0.000000
  70
    32
  0
VERTEX
  8
AM_VIS
  5
521
 10
16.3581
 20
3.37832
 30
0.000000
  70
    32
  0
VERTEX
  8
AM_VIS
  5
522
 10
16.3582
 20
3.37860
 30
0.000000
  70
    32
  0
VERTEX
  8
AM_VIS
  5
523
 10
16.3583
 20
3.37888
 30
0.000000
  70
    32
  0
VERTEX
  8
AM_VIS
  5
524
 10
16.3585
 20
3.37916
 30
0.000000
  70
    32
  0
VERTEX
  8
AM_VIS
  5
525
 10
16.3586
 20
3.37944
 30
0.000000
  70
    32
  0
VERTEX
  8
AM_VIS
  5
526
 10
16.3587
 20
3.37972
 30
0.000000
  70
    32
  0
VERTEX
  8
AM_VIS
  5
527
 10
16.3588
 20
3.37999
 30
0.000000
  70
    32
  0
VERTEX
  8
AM_VIS
  5
528
 10
16.3590
 20
3.38026
 30
0.000000
  70
    32
  0
VERTEX
  8
AM_VIS
  5
529
 10
16.3591
 20
3.38054
 30
0.000000
  70
    32
  0
VERTEX
  8
AM_VIS
  5
52A
 10
16.3592
 20
3.38081
 30
0.000000
  70
    32
  0
VERTEX
  8
AM_VIS
  5
52B
 10
16.3593
 20
3.38107
 30
0.000000
  70
    32
  0
VERTEX
  8
AM_VIS
  5
52C
 10
16.3594
 20
3.38134
 30
0.000000
  70
    32
  0
VERTEX
  8
AM_VIS
  5
52D
 10
16.3596
 20
3.38160
 30
0.000000
  70
    32
  0
VERTEX
  8
AM_VIS
  5
52E
 10
16.3597
 20
3.38187
 30
0.000000
  70
    32
  0
VERTEX
  8
AM_VIS
  5
52F
 10
16.3598
 20
3.38213
 30
0.000000
  70
    32
  0
VERTEX
  8
AM_VIS
  5
530
 10
16.3599
 20
3.38239
 30
0.000000
  70
    32
  0
VERTEX
  8
AM_VIS
  5
531
 10
16.3600
 20
3.38265
 30
0.000000
  70
    32
  0
VERTEX
  8
AM_VIS
  5
532
 10
16.3602
 20
3.38290
 30
0.000000
  70
    32
  0
VERTEX
  8
AM_VIS
  5
533
 10
16.3603
 20
3.38316
 30
0.000000
  70
    32
  0
VERTEX
  8
AM_VIS
  5
534
 10
16.3604
 20
3.38341
 30
0.000000
  70
    32
  0
VERTEX
  8
AM_VIS
  5
535
 10
16.3605
 20
3.38366
 30
0.000000
  70
    32
  0
VERTEX
  8
AM_VIS
  5
536
 10
16.3607
 20
3.38391
 30
0.000000
  70
    32
  0
VERTEX
  8
AM_VIS
  5
537
 10
16.3608
 20
3.38416
 30
0.000000
  70
    32
  0
VERTEX
  8
AM_VIS
  5
538
 10
16.3609
 20
3.38441
 30
0.000000
  70
    32
  0
VERTEX
  8
AM_VIS
  5
539
 10
16.3610
 20
3.38466
 30
0.000000
  70
    32
  0
VERTEX
  8
AM_VIS
  5
53A
 10
16.3612
 20
3.38490
 30
0.000000
  70
    32
  0
VERTEX
  8
AM_VIS
  5
53B
 10
16.3613
 20
3.38514
 30
0.000000
  70
    32
  0
VERTEX
  8
AM_VIS
  5
53C
 10
16.3614
 20
3.38538
 30
0.000000
  70
    32
  0
VERTEX
  8
AM_VIS
  5
53D
 10
16.3615
 20
3.38562
 30
0.000000
  70
    32
  0
VERTEX
  8
AM_VIS
  5
53E
 10
16.3617
 20
3.38586
 30
0.000000
  70
    32
  0
VERTEX
  8
AM_VIS
  5
53F
 10
16.3618
 20
3.38610
 30
0.000000
  70
    32
  0
VERTEX
  8
AM_VIS
  5
540
 10
16.3619
 20
3.38633
 30
0.000000
  70
    32
  0
VERTEX
  8
AM_VIS
  5
541
 10
16.3620
 20
3.38656
 30
0.000000
  70
    32
  0
VERTEX
  8
AM_VIS
  5
542
 10
16.3622
 20
3.38679
 30
0.000000
  70
    32
  0
VERTEX
  8
AM_VIS
  5
543
 10
16.3623
 20
3.38702
 30
0.000000
  70
    32
  0
VERTEX
  8
AM_VIS
  5
544
 10
16.3624
 20
3.38725
 30
0.000000
  70
    32
  0
VERTEX
  8
AM_VIS
  5
545
 10
16.3626
 20
3.38748
 30
0.000000
  70
    32
  0
VERTEX
  8
AM_VIS
  5
546
 10
16.3627
 20
3.38770
 30
0.000000
  70
    32
  0
VERTEX
  8
AM_VIS
  5
547
 10
16.3628
 20
3.38793
 30
0.000000
  70
    32
  0
VERTEX
  8
AM_VIS
  5
548
 10
16.3629
 20
3.38815
 30
0.000000
  70
    32
  0
VERTEX
  8
AM_VIS
  5
549
 10
16.3631
 20
3.38837
 30
0.000000
  70
    32
  0
VERTEX
  8
AM_VIS
  5
54A
 10
16.3632
 20
3.38859
 30
0.000000
  70
    32
  0
VERTEX
  8
AM_VIS
  5
54B
 10
16.3633
 20
3.38881
 30
0.000000
  70
    32
  0
VERTEX
  8
AM_VIS
  5
54C
 10
16.3634
 20
3.38902
 30
0.000000
  70
    32
  0
VERTEX
  8
AM_VIS
  5
54D
 10
16.3636
 20
3.38924
 30
0.000000
  70
    32
  0
VERTEX
  8
AM_VIS
  5
54E
 10
16.3637
 20
3.38945
 30
0.000000
  70
    32
  0
VERTEX
  8
AM_VIS
  5
54F
 10
16.3638
 20
3.38966
 30
0.000000
  70
    32
  0
VERTEX
  8
AM_VIS
  5
550
 10
16.3640
 20
3.38987
 30
0.000000
  70
    32
  0
VERTEX
  8
AM_VIS
  5
551
 10
16.3641
 20
3.39008
 30
0.000000
  70
    32
  0
VERTEX
  8
AM_VIS
  5
552
 10
16.3642
 20
3.39028
 30
0.000000
  70
    32
  0
VERTEX
  8
AM_VIS
  5
553
 10
16.3643
 20
3.39049
 30
0.000000
  70
    32
  0
VERTEX
  8
AM_VIS
  5
554
 10
16.3645
 20
3.39069
 30
0.000000
  70
    32
  0
VERTEX
  8
AM_VIS
  5
555
 10
16.3646
 20
3.39089
 30
0.000000
  70
    32
  0
VERTEX
  8
AM_VIS
  5
556
 10
16.3647
 20
3.39109
 30
0.000000
  70
    32
  0
VERTEX
  8
AM_VIS
  5
557
 10
16.3649
 20
3.39129
 30
0.000000
  70
    32
  0
VERTEX
  8
AM_VIS
  5
558
 10
16.3650
 20
3.39149
 30
0.000000
  70
    32
  0
VERTEX
  8
AM_VIS
  5
559
 10
16.3651
 20
3.39169
 30
0.000000
  70
    32
  0
VERTEX
  8
AM_VIS
  5
55A
 10
16.3653
 20
3.39188
 30
0.000000
  70
    32
  0
VERTEX
  8
AM_VIS
  5
55B
 10
16.3654
 20
3.39207
 30
0.000000
  70
    32
  0
VERTEX
  8
AM_VIS
  5
55C
 10
16.3655
 20
3.39227
 30
0.000000
  70
    32
  0
VERTEX
  8
AM_VIS
  5
55D
 10
16.3657
 20
3.39246
 30
0.000000
  70
    32
  0
VERTEX
  8
AM_VIS
  5
55E
 10
16.3658
 20
3.39265
 30
0.000000
  70
    32
  0
VERTEX
  8
AM_VIS
  5
55F
 10
16.3659
 20
3.39283
 30
0.000000
  70
    32
  0
VERTEX
  8
AM_VIS
  5
560
 10
16.3660
 20
3.39302
 30
0.000000
  70
    32
  0
VERTEX
  8
AM_VIS
  5
561
 10
16.3662
 20
3.39320
 30
0.000000
  70
    32
  0
VERTEX
  8
AM_VIS
  5
562
 10
16.3663
 20
3.39338
 30
0.000000
  70
    32
  0
VERTEX
  8
AM_VIS
  5
563
 10
16.3664
 20
3.39357
 30
0.000000
  70
    32
  0
VERTEX
  8
AM_VIS
  5
564
 10
16.3666
 20
3.39375
 30
0.000000
  70
    32
  0
VERTEX
  8
AM_VIS
  5
565
 10
16.3667
 20
3.39392
 30
0.000000
  70
    32
  0
VERTEX
  8
AM_VIS
  5
566
 10
16.3668
 20
3.39410
 30
0.000000
  70
    32
  0
VERTEX
  8
AM_VIS
  5
567
 10
16.3670
 20
3.39428
 30
0.000000
  70
    32
  0
VERTEX
  8
AM_VIS
  5
568
 10
16.3671
 20
3.39445
 30
0.000000
  70
    32
  0
VERTEX
  8
AM_VIS
  5
569
 10
16.3672
 20
3.39462
 30
0.000000
  70
    32
  0
VERTEX
  8
AM_VIS
  5
56A
 10
16.3674
 20
3.39479
 30
0.000000
  70
    32
  0
VERTEX
  8
AM_VIS
  5
56B
 10
16.3675
 20
3.39496
 30
0.000000
  70
    32
  0
VERTEX
  8
AM_VIS
  5
56C
 10
16.3676
 20
3.39513
 30
0.000000
  70
    32
  0
VERTEX
  8
AM_VIS
  5
56D
 10
16.3678
 20
3.39530
 30
0.000000
  70
    32
  0
VERTEX
  8
AM_VIS
  5
56E
 10
16.3679
 20
3.39546
 30
0.000000
  70
    32
  0
VERTEX
  8
AM_VIS
  5
56F
 10
16.3680
 20
3.39563
 30
0.000000
  70
    32
  0
VERTEX
  8
AM_VIS
  5
570
 10
16.3682
 20
3.39579
 30
0.000000
  70
    32
  0
VERTEX
  8
AM_VIS
  5
571
 10
16.3683
 20
3.39595
 30
0.000000
  70
    32
  0
VERTEX
  8
AM_VIS
  5
572
 10
16.3684
 20
3.39611
 30
0.000000
  70
    32
  0
VERTEX
  8
AM_VIS
  5
573
 10
16.3686
 20
3.39627
 30
0.000000
  70
    32
  0
VERTEX
  8
AM_VIS
  5
574
 10
16.3687
 20
3.39642
 30
0.000000
  70
    32
  0
VERTEX
  8
AM_VIS
  5
575
 10
16.3688
 20
3.39658
 30
0.000000
  70
    32
  0
VERTEX
  8
AM_VIS
  5
576
 10
16.3690
 20
3.39673
 30
0.000000
  70
    32
  0
VERTEX
  8
AM_VIS
  5
577
 10
16.3691
 20
3.39688
 30
0.000000
  70
    32
  0
VERTEX
  8
AM_VIS
  5
578
 10
16.3693
 20
3.39703
 30
0.000000
  70
    32
  0
VERTEX
  8
AM_VIS
  5
579
 10
16.3694
 20
3.39718
 30
0.000000
  70
    32
  0
VERTEX
  8
AM_VIS
  5
57A
 10
16.3695
 20
3.39733
 30
0.000000
  70
    32
  0
VERTEX
  8
AM_VIS
  5
57B
 10
16.3697
 20
3.39748
 30
0.000000
  70
    32
  0
VERTEX
  8
AM_VIS
  5
57C
 10
16.3698
 20
3.39762
 30
0.000000
  70
    32
  0
VERTEX
  8
AM_VIS
  5
57D
 10
16.3699
 20
3.39777
 30
0.000000
  70
    32
  0
VERTEX
  8
AM_VIS
  5
57E
 10
16.3701
 20
3.39791
 30
0.000000
  70
    32
  0
VERTEX
  8
AM_VIS
  5
57F
 10
16.3702
 20
3.39805
 30
0.000000
  70
    32
  0
VERTEX
  8
AM_VIS
  5
580
 10
16.3703
 20
3.39819
 30
0.000000
  70
    32
  0
VERTEX
  8
AM_VIS
  5
581
 10
16.3705
 20
3.39832
 30
0.000000
  70
    32
  0
VERTEX
  8
AM_VIS
  5
582
 10
16.3706
 20
3.39846
 30
0.000000
  70
    32
  0
VERTEX
  8
AM_VIS
  5
583
 10
16.3707
 20
3.39860
 30
0.000000
  70
    32
  0
VERTEX
  8
AM_VIS
  5
584
 10
16.3709
 20
3.39873
 30
0.000000
  70
    32
  0
VERTEX
  8
AM_VIS
  5
585
 10
16.3710
 20
3.39886
 30
0.000000
  70
    32
  0
VERTEX
  8
AM_VIS
  5
586
 10
16.3711
 20
3.39899
 30
0.000000
  70
    32
  0
VERTEX
  8
AM_VIS
  5
587
 10
16.3713
 20
3.39912
 30
0.000000
  70
    32
  0
VERTEX
  8
AM_VIS
  5
588
 10
16.3714
 20
3.39925
 30
0.000000
  70
    32
  0
VERTEX
  8
AM_VIS
  5
589
 10
16.3715
 20
3.39937
 30
0.000000
  70
    32
  0
VERTEX
  8
AM_VIS
  5
58A
 10
16.3717
 20
3.39949
 30
0.000000
  70
    32
  0
VERTEX
  8
AM_VIS
  5
58B
 10
16.3718
 20
3.39962
 30
0.000000
  70
    32
  0
VERTEX
  8
AM_VIS
  5
58C
 10
16.3720
 20
3.39974
 30
0.000000
  70
    32
  0
VERTEX
  8
AM_VIS
  5
58D
 10
16.3721
 20
3.39986
 30
0.000000
  70
    32
  0
VERTEX
  8
AM_VIS
  5
58E
 10
16.3722
 20
3.39998
 30
0.000000
  70
    32
  0
VERTEX
  8
AM_VIS
  5
58F
 10
16.3724
 20
3.40009
 30
0.000000
  70
    32
  0
VERTEX
  8
AM_VIS
  5
590
 10
16.3725
 20
3.40021
 30
0.000000
  70
    32
  0
VERTEX
  8
AM_VIS
  5
591
 10
16.3726
 20
3.40032
 30
0.000000
  70
    32
  0
VERTEX
  8
AM_VIS
  5
592
 10
16.3728
 20
3.40044
 30
0.000000
  70
    32
  0
VERTEX
  8
AM_VIS
  5
593
 10
16.3729
 20
3.40055
 30
0.000000
  70
    32
  0
VERTEX
  8
AM_VIS
  5
594
 10
16.3730
 20
3.40066
 30
0.000000
  70
    32
  0
VERTEX
  8
AM_VIS
  5
595
 10
16.3732
 20
3.40077
 30
0.000000
  70
    32
  0
VERTEX
  8
AM_VIS
  5
596
 10
16.3733
 20
3.40088
 30
0.000000
  70
    32
  0
VERTEX
  8
AM_VIS
  5
597
 10
16.3734
 20
3.40098
 30
0.000000
  70
    32
  0
VERTEX
  8
AM_VIS
  5
598
 10
16.3736
 20
3.40109
 30
0.000000
  70
    32
  0
VERTEX
  8
AM_VIS
  5
599
 10
16.3737
 20
3.40119
 30
0.000000
  70
    32
  0
VERTEX
  8
AM_VIS
  5
59A
 10
16.3738
 20
3.40129
 30
0.000000
  70
    32
  0
VERTEX
  8
AM_VIS
  5
59B
 10
16.3740
 20
3.40139
 30
0.000000
  70
    32
  0
VERTEX
  8
AM_VIS
  5
59C
 10
16.3741
 20
3.40149
 30
0.000000
  70
    32
  0
VERTEX
  8
AM_VIS
  5
59D
 10
16.3742
 20
3.40159
 30
0.000000
  70
    32
  0
VERTEX
  8
AM_VIS
  5
59E
 10
16.3744
 20
3.40169
 30
0.000000
  70
    32
  0
VERTEX
  8
AM_VIS
  5
59F
 10
16.3745
 20
3.40178
 30
0.000000
  70
    32
  0
VERTEX
  8
AM_VIS
  5
5A0
 10
16.3746
 20
3.40188
 30
0.000000
  70
    32
  0
VERTEX
  8
AM_VIS
  5
5A1
 10
16.3748
 20
3.40197
 30
0.000000
  70
    32
  0
VERTEX
  8
AM_VIS
  5
5A2
 10
16.3749
 20
3.40206
 30
0.000000
  70
    32
  0
VERTEX
  8
AM_VIS
  5
5A3
 10
16.3750
 20
3.40215
 30
0.000000
  70
    32
  0
VERTEX
  8
AM_VIS
  5
5A4
 10
16.3752
 20
3.40224
 30
0.000000
  70
    32
  0
VERTEX
  8
AM_VIS
  5
5A5
 10
16.3753
 20
3.40233
 30
0.000000
  70
    32
  0
VERTEX
  8
AM_VIS
  5
5A6
 10
16.3754
 20
3.40241
 30
0.000000
  70
    32
  0
VERTEX
  8
AM_VIS
  5
5A7
 10
16.3756
 20
3.40250
 30
0.000000
  70
    32
  0
VERTEX
  8
AM_VIS
  5
5A8
 10
16.3757
 20
3.40258
 30
0.000000
  70
    32
  0
VERTEX
  8
AM_VIS
  5
5A9
 10
16.3758
 20
3.40267
 30
0.000000
  70
    32
  0
VERTEX
  8
AM_VIS
  5
5AA
 10
16.3760
 20
3.40275
 30
0.000000
  70
    32
  0
VERTEX
  8
AM_VIS
  5
5AB
 10
16.3761
 20
3.40283
 30
0.000000
  70
    32
  0
VERTEX
  8
AM_VIS
  5
5AC
 10
16.3762
 20
3.40291
 30
0.000000
  70
    32
  0
VERTEX
  8
AM_VIS
  5
5AD
 10
16.3764
 20
3.40298
 30
0.000000
  70
    32
  0
VERTEX
  8
AM_VIS
  5
5AE
 10
16.3765
 20
3.40306
 30
0.000000
  70
    32
  0
VERTEX
  8
AM_VIS
  5
5AF
 10
16.3766
 20
3.40314
 30
0.000000
  70
    32
  0
VERTEX
  8
AM_VIS
  5
5B0
 10
16.3768
 20
3.40321
 30
0.000000
  70
    32
  0
VERTEX
  8
AM_VIS
  5
5B1
 10
16.3769
 20
3.40328
 30
0.000000
  70
    32
  0
VERTEX
  8
AM_VIS
  5
5B2
 10
16.3770
 20
3.40336
 30
0.000000
  70
    32
  0
VERTEX
  8
AM_VIS
  5
5B3
 10
16.3772
 20
3.40343
 30
0.000000
  70
    32
  0
VERTEX
  8
AM_VIS
  5
5B4
 10
16.3773
 20
3.40350
 30
0.000000
  70
    32
  0
VERTEX
  8
AM_VIS
  5
5B5
 10
16.3774
 20
3.40356
 30
0.000000
  70
    32
  0
VERTEX
  8
AM_VIS
  5
5B6
 10
16.3776
 20
3.40363
 30
0.000000
  70
    32
  0
VERTEX
  8
AM_VIS
  5
5B7
 10
16.3777
 20
3.40370
 30
0.000000
  70
    32
  0
VERTEX
  8
AM_VIS
  5
5B8
 10
16.3778
 20
3.40376
 30
0.000000
  70
    32
  0
VERTEX
  8
AM_VIS
  5
5B9
 10
16.3780
 20
3.40382
 30
0.000000
  70
    32
  0
VERTEX
  8
AM_VIS
  5
5BA
 10
16.3781
 20
3.40389
 30
0.000000
  70
    32
  0
VERTEX
  8
AM_VIS
  5
5BB
 10
16.3782
 20
3.40395
 30
0.000000
  70
    32
  0
VERTEX
  8
AM_VIS
  5
5BC
 10
16.3784
 20
3.40401
 30
0.000000
  70
    32
  0
VERTEX
  8
AM_VIS
  5
5BD
 10
16.3785
 20
3.40407
 30
0.000000
  70
    32
  0
VERTEX
  8
AM_VIS
  5
5BE
 10
16.3786
 20
3.40413
 30
0.000000
  70
    32
  0
VERTEX
  8
AM_VIS
  5
5BF
 10
16.3787
 20
3.40418
 30
0.000000
  70
    32
  0
VERTEX
  8
AM_VIS
  5
5C0
 10
16.3789
 20
3.40424
 30
0.000000
  70
    32
  0
VERTEX
  8
AM_VIS
  5
5C1
 10
16.3790
 20
3.40429
 30
0.000000
  70
    32
  0
VERTEX
  8
AM_VIS
  5
5C2
 10
16.3791
 20
3.40435
 30
0.000000
  70
    32
  0
VERTEX
  8
AM_VIS
  5
5C3
 10
16.3793
 20
3.40440
 30
0.000000
  70
    32
  0
VERTEX
  8
AM_VIS
  5
5C4
 10
16.3794
 20
3.40445
 30
0.000000
  70
    32
  0
VERTEX
  8
AM_VIS
  5
5C5
 10
16.3795
 20
3.40450
 30
0.000000
  70
    32
  0
VERTEX
  8
AM_VIS
  5
5C6
 10
16.3797
 20
3.40455
 30
0.000000
  70
    32
  0
VERTEX
  8
AM_VIS
  5
5C7
 10
16.3798
 20
3.40460
 30
0.000000
  70
    32
  0
VERTEX
  8
AM_VIS
  5
5C8
 10
16.3799
 20
3.40464
 30
0.000000
  70
    32
  0
VERTEX
  8
AM_VIS
  5
5C9
 10
16.3800
 20
3.40469
 30
0.000000
  70
    32
  0
VERTEX
  8
AM_VIS
  5
5CA
 10
16.3802
 20
3.40473
 30
0.000000
  70
    32
  0
VERTEX
  8
AM_VIS
  5
5CB
 10
16.3803
 20
3.40478
 30
0.000000
  70
    32
  0
VERTEX
  8
AM_VIS
  5
5CC
 10
16.3804
 20
3.40482
 30
0.000000
  70
    32
  0
VERTEX
  8
AM_VIS
  5
5CD
 10
16.3806
 20
3.40486
 30
0.000000
  70
    32
  0
VERTEX
  8
AM_VIS
  5
5CE
 10
16.3807
 20
3.40490
 30
0.000000
  70
    32
  0
VERTEX
  8
AM_VIS
  5
5CF
 10
16.3808
 20
3.40494
 30
0.000000
  70
    32
  0
VERTEX
  8
AM_VIS
  5
5D0
 10
16.3809
 20
3.40498
 30
0.000000
  70
    32
  0
VERTEX
  8
AM_VIS
  5
5D1
 10
16.3811
 20
3.40502
 30
0.000000
  70
    32
  0
VERTEX
  8
AM_VIS
  5
5D2
 10
16.3812
 20
3.40506
 30
0.000000
  70
    32
  0
VERTEX
  8
AM_VIS
  5
5D3
 10
16.3813
 20
3.40509
 30
0.000000
  70
    32
  0
VERTEX
  8
AM_VIS
  5
5D4
 10
16.3815
 20
3.40513
 30
0.000000
  70
    32
  0
VERTEX
  8
AM_VIS
  5
5D5
 10
16.3816
 20
3.40516
 30
0.000000
  70
    32
  0
VERTEX
  8
AM_VIS
  5
5D6
 10
16.3817
 20
3.40519
 30
0.000000
  70
    32
  0
VERTEX
  8
AM_VIS
  5
5D7
 10
16.3818
 20
3.40523
 30
0.000000
  70
    32
  0
VERTEX
  8
AM_VIS
  5
5D8
 10
16.3820
 20
3.40526
 30
0.000000
  70
    32
  0
VERTEX
  8
AM_VIS
  5
5D9
 10
16.3821
 20
3.40529
 30
0.000000
  70
    32
  0
VERTEX
  8
AM_VIS
  5
5DA
 10
16.3822
 20
3.40532
 30
0.000000
  70
    32
  0
VERTEX
  8
AM_VIS
  5
5DB
 10
16.3824
 20
3.40534
 30
0.000000
  70
    32
  0
VERTEX
  8
AM_VIS
  5
5DC
 10
16.3825
 20
3.40537
 30
0.000000
  70
    32
  0
VERTEX
  8
AM_VIS
  5
5DD
 10
16.3826
 20
3.40540
 30
0.000000
  70
    32
  0
VERTEX
  8
AM_VIS
  5
5DE
 10
16.3827
 20
3.40542
 30
0.000000
  70
    32
  0
VERTEX
  8
AM_VIS
  5
5DF
 10
16.3829
 20
3.40545
 30
0.000000
  70
    32
  0
VERTEX
  8
AM_VIS
  5
5E0
 10
16.3830
 20
3.40547
 30
0.000000
  70
    32
  0
VERTEX
  8
AM_VIS
  5
5E1
 10
16.3831
 20
3.40549
 30
0.000000
  70
    32
  0
VERTEX
  8
AM_VIS
  5
5E2
 10
16.3832
 20
3.40551
 30
0.000000
  70
    32
  0
VERTEX
  8
AM_VIS
  5
5E3
 10
16.3834
 20
3.40553
 30
0.000000
  70
    32
  0
VERTEX
  8
AM_VIS
  5
5E4
 10
16.3835
 20
3.40555
 30
0.000000
  70
    32
  0
VERTEX
  8
AM_VIS
  5
5E5
 10
16.3836
 20
3.40557
 30
0.000000
  70
    32
  0
VERTEX
  8
AM_VIS
  5
5E6
 10
16.3837
 20
3.40559
 30
0.000000
  70
    32
  0
VERTEX
  8
AM_VIS
  5
5E7
 10
16.3839
 20
3.40561
 30
0.000000
  70
    32
  0
VERTEX
  8
AM_VIS
  5
5E8
 10
16.3840
 20
3.40562
 30
0.000000
  70
    32
  0
VERTEX
  8
AM_VIS
  5
5E9
 10
16.3841
 20
3.40564
 30
0.000000
  70
    32
  0
VERTEX
  8
AM_VIS
  5
5EA
 10
16.3842
 20
3.40565
 30
0.000000
  70
    32
  0
VERTEX
  8
AM_VIS
  5
5EB
 10
16.3844
 20
3.40567
 30
0.000000
  70
    32
  0
VERTEX
  8
AM_VIS
  5
5EC
 10
16.3845
 20
3.40568
 30
0.000000
  70
    32
  0
VERTEX
  8
AM_VIS
  5
5ED
 10
16.3846
 20
3.40569
 30
0.000000
  70
    32
  0
VERTEX
  8
AM_VIS
  5
5EE
 10
16.3847
 20
3.40570
 30
0.000000
  70
    32
  0
VERTEX
  8
AM_VIS
  5
5EF
 10
16.3849
 20
3.40572
 30
0.000000
  70
    32
  0
VERTEX
  8
AM_VIS
  5
5F0
 10
16.3850
 20
3.40572
 30
0.000000
  70
    32
  0
VERTEX
  8
AM_VIS
  5
5F1
 10
16.3851
 20
3.40573
 30
0.000000
  70
    32
  0
VERTEX
  8
AM_VIS
  5
5F2
 10
16.3852
 20
3.40574
 30
0.000000
  70
    32
  0
VERTEX
  8
AM_VIS
  5
5F3
 10
16.3853
 20
3.40575
 30
0.000000
  70
    32
  0
VERTEX
  8
AM_VIS
  5
5F4
 10
16.3855
 20
3.40575
 30
0.000000
  70
    32
  0
VERTEX
  8
AM_VIS
  5
5F5
 10
16.3856
 20
3.40576
 30
0.000000
  70
    32
  0
VERTEX
  8
AM_VIS
  5
5F6
 10
16.3857
 20
3.40576
 30
0.000000
  70
    32
  0
VERTEX
  8
AM_VIS
  5
5F7
 10
16.3858
 20
3.40577
 30
0.000000
  70
    32
  0
VERTEX
  8
AM_VIS
  5
5F8
 10
16.3860
 20
3.40577
 30
0.000000
  70
    32
  0
VERTEX
  8
AM_VIS
  5
5F9
 10
16.3861
 20
3.40577
 30
0.000000
  70
    32
  0
VERTEX
  8
AM_VIS
  5
5FA
 10
16.3862
 20
3.40578
 30
0.000000
  70
    32
  0
VERTEX
  8
AM_VIS
  5
5FB
 10
16.3863
 20
3.40578
 30
0.000000
  70
    32
  0
VERTEX
  8
AM_VIS
  5
5FC
 10
16.3864
 20
3.40578
 30
0.000000
  70
    32
  0
VERTEX
  8
AM_VIS
  5
5FD
 10
16.3866
 20
3.40578
 30
0.000000
  70
    32
  0
VERTEX
  8
AM_VIS
  5
5FE
 10
16.3867
 20
3.40577
 30
0.000000
  70
    32
  0
VERTEX
  8
AM_VIS
  5
5FF
 10
16.3868
 20
3.40577
 30
0.000000
  70
    32
  0
VERTEX
  8
AM_VIS
  5
600
 10
16.3869
 20
3.40577
 30
0.000000
  70
    32
  0
VERTEX
  8
AM_VIS
  5
601
 10
16.3871
 20
3.40577
 30
0.000000
  70
    32
  0
VERTEX
  8
AM_VIS
  5
602
 10
16.3872
 20
3.40576
 30
0.000000
  70
    32
  0
VERTEX
  8
AM_VIS
  5
603
 10
16.3873
 20
3.40576
 30
0.000000
  70
    32
  0
VERTEX
  8
AM_VIS
  5
604
 10
16.3874
 20
3.40575
 30
0.000000
  70
    32
  0
VERTEX
  8
AM_VIS
  5
605
 10
16.3875
 20
3.40574
 30
0.000000
  70
    32
  0
VERTEX
  8
AM_VIS
  5
606
 10
16.3877
 20
3.40574
 30
0.000000
  70
    32
  0
VERTEX
  8
AM_VIS
  5
607
 10
16.3878
 20
3.40573
 30
0.000000
  70
    32
  0
VERTEX
  8
AM_VIS
  5
608
 10
16.3879
 20
3.40572
 30
0.000000
  70
    32
  0
VERTEX
  8
AM_VIS
  5
609
 10
16.3880
 20
3.40571
 30
0.000000
  70
    32
  0
VERTEX
  8
AM_VIS
  5
60A
 10
16.3881
 20
3.40570
 30
0.000000
  70
    32
  0
VERTEX
  8
AM_VIS
  5
60B
 10
16.3882
 20
3.40569
 30
0.000000
  70
    32
  0
VERTEX
  8
AM_VIS
  5
60C
 10
16.3884
 20
3.40568
 30
0.000000
  70
    32
  0
VERTEX
  8
AM_VIS
  5
60D
 10
16.3885
 20
3.40567
 30
0.000000
  70
    32
  0
VERTEX
  8
AM_VIS
  5
60E
 10
16.3886
 20
3.40565
 30
0.000000
  70
    32
  0
VERTEX
  8
AM_VIS
  5
60F
 10
16.3887
 20
3.40564
 30
0.000000
  70
    32
  0
VERTEX
  8
AM_VIS
  5
610
 10
16.3888
 20
3.40563
 30
0.000000
  70
    32
  0
VERTEX
  8
AM_VIS
  5
611
 10
16.3890
 20
3.40561
 30
0.000000
  70
    32
  0
VERTEX
  8
AM_VIS
  5
612
 10
16.3891
 20
3.40560
 30
0.000000
  70
    32
  0
VERTEX
  8
AM_VIS
  5
613
 10
16.3892
 20
3.40558
 30
0.000000
  70
    32
  0
VERTEX
  8
AM_VIS
  5
614
 10
16.3893
 20
3.40556
 30
0.000000
  70
    32
  0
VERTEX
  8
AM_VIS
  5
615
 10
16.3894
 20
3.40555
 30
0.000000
  70
    32
  0
VERTEX
  8
AM_VIS
  5
616
 10
16.3895
 20
3.40553
 30
0.000000
  70
    32
  0
VERTEX
  8
AM_VIS
  5
617
 10
16.3897
 20
3.40551
 30
0.000000
  70
    32
  0
VERTEX
  8
AM_VIS
  5
618
 10
16.3898
 20
3.40549
 30
0.000000
  70
    32
  0
VERTEX
  8
AM_VIS
  5
619
 10
16.3899
 20
3.40547
 30
0.000000
  70
    32
  0
VERTEX
  8
AM_VIS
  5
61A
 10
16.3900
 20
3.40545
 30
0.000000
  70
    32
  0
VERTEX
  8
AM_VIS
  5
61B
 10
16.3901
 20
3.40543
 30
0.000000
  70
    32
  0
VERTEX
  8
AM_VIS
  5
61C
 10
16.3902
 20
3.40541
 30
0.000000
  70
    32
  0
VERTEX
  8
AM_VIS
  5
61D
 10
16.3904
 20
3.40539
 30
0.000000
  70
    32
  0
VERTEX
  8
AM_VIS
  5
61E
 10
16.3905
 20
3.40536
 30
0.000000
  70
    32
  0
VERTEX
  8
AM_VIS
  5
61F
 10
16.3906
 20
3.40534
 30
0.000000
  70
    32
  0
VERTEX
  8
AM_VIS
  5
620
 10
16.3907
 20
3.40532
 30
0.000000
  70
    32
  0
VERTEX
  8
AM_VIS
  5
621
 10
16.3908
 20
3.40529
 30
0.000000
  70
    32
  0
VERTEX
  8
AM_VIS
  5
622
 10
16.3909
 20
3.40527
 30
0.000000
  70
    32
  0
VERTEX
  8
AM_VIS
  5
623
 10
16.3910
 20
3.40524
 30
0.000000
  70
    32
  0
VERTEX
  8
AM_VIS
  5
624
 10
16.3912
 20
3.40522
 30
0.000000
  70
    32
  0
VERTEX
  8
AM_VIS
  5
625
 10
16.3913
 20
3.40519
 30
0.000000
  70
    32
  0
VERTEX
  8
AM_VIS
  5
626
 10
16.3914
 20
3.40516
 30
0.000000
  70
    32
  0
VERTEX
  8
AM_VIS
  5
627
 10
16.3915
 20
3.40513
 30
0.000000
  70
    32
  0
VERTEX
  8
AM_VIS
  5
628
 10
16.3916
 20
3.40510
 30
0.000000
  70
    32
  0
VERTEX
  8
AM_VIS
  5
629
 10
16.3917
 20
3.40508
 30
0.000000
  70
    32
  0
VERTEX
  8
AM_VIS
  5
62A
 10
16.3918
 20
3.40505
 30
0.000000
  70
    32
  0
VERTEX
  8
AM_VIS
  5
62B
 10
16.3919
 20
3.40502
 30
0.000000
  70
    32
  0
VERTEX
  8
AM_VIS
  5
62C
 10
16.3921
 20
3.40498
 30
0.000000
  70
    32
  0
VERTEX
  8
AM_VIS
  5
62D
 10
16.3922
 20
3.40495
 30
0.000000
  70
    32
  0
VERTEX
  8
AM_VIS
  5
62E
 10
16.3923
 20
3.40492
 30
0.000000
  70
    32
  0
VERTEX
  8
AM_VIS
  5
62F
 10
16.3924
 20
3.40489
 30
0.000000
  70
    32
  0
VERTEX
  8
AM_VIS
  5
630
 10
16.3925
 20
3.40486
 30
0.000000
  70
    32
  0
VERTEX
  8
AM_VIS
  5
631
 10
16.3926
 20
3.40482
 30
0.000000
  70
    32
  0
VERTEX
  8
AM_VIS
  5
632
 10
16.3927
 20
3.40479
 30
0.000000
  70
    32
  0
VERTEX
  8
AM_VIS
  5
633
 10
16.3928
 20
3.40476
 30
0.000000
  70
    32
  0
VERTEX
  8
AM_VIS
  5
634
 10
16.3930
 20
3.40472
 30
0.000000
  70
    32
  0
VERTEX
  8
AM_VIS
  5
635
 10
16.3931
 20
3.40468
 30
0.000000
  70
    32
  0
VERTEX
  8
AM_VIS
  5
636
 10
16.3932
 20
3.40465
 30
0.000000
  70
    32
  0
VERTEX
  8
AM_VIS
  5
637
 10
16.3933
 20
3.40461
 30
0.000000
  70
    32
  0
VERTEX
  8
AM_VIS
  5
638
 10
16.3934
 20
3.40458
 30
0.000000
  70
    32
  0
VERTEX
  8
AM_VIS
  5
639
 10
16.3935
 20
3.40454
 30
0.000000
  70
    32
  0
VERTEX
  8
AM_VIS
  5
63A
 10
16.3936
 20
3.40450
 30
0.000000
  70
    32
  0
VERTEX
  8
AM_VIS
  5
63B
 10
16.3937
 20
3.40446
 30
0.000000
  70
    32
  0
VERTEX
  8
AM_VIS
  5
63C
 10
16.3938
 20
3.40442
 30
0.000000
  70
    32
  0
VERTEX
  8
AM_VIS
  5
63D
 10
16.3940
 20
3.40438
 30
0.000000
  70
    32
  0
VERTEX
  8
AM_VIS
  5
63E
 10
16.3941
 20
3.40434
 30
0.000000
  70
    32
  0
VERTEX
  8
AM_VIS
  5
63F
 10
16.3942
 20
3.40430
 30
0.000000
  70
    32
  0
VERTEX
  8
AM_VIS
  5
640
 10
16.3943
 20
3.40426
 30
0.000000
  70
    32
  0
VERTEX
  8
AM_VIS
  5
641
 10
16.3944
 20
3.40422
 30
0.000000
  70
    32
  0
VERTEX
  8
AM_VIS
  5
642
 10
16.3945
 20
3.40418
 30
0.000000
  70
    32
  0
VERTEX
  8
AM_VIS
  5
643
 10
16.3946
 20
3.40414
 30
0.000000
  70
    32
  0
VERTEX
  8
AM_VIS
  5
644
 10
16.3947
 20
3.40409
 30
0.000000
  70
    32
  0
VERTEX
  8
AM_VIS
  5
645
 10
16.3948
 20
3.40405
 30
0.000000
  70
    32
  0
VERTEX
  8
AM_VIS
  5
646
 10
16.3949
 20
3.40401
 30
0.000000
  70
    32
  0
VERTEX
  8
AM_VIS
  5
647
 10
16.3950
 20
3.40396
 30
0.000000
  70
    32
  0
VERTEX
  8
AM_VIS
  5
648
 10
16.3952
 20
3.40392
 30
0.000000
  70
    32
  0
VERTEX
  8
AM_VIS
  5
649
 10
16.3953
 20
3.40387
 30
0.000000
  70
    32
  0
VERTEX
  8
AM_VIS
  5
64A
 10
16.3954
 20
3.40383
 30
0.000000
  70
    32
  0
VERTEX
  8
AM_VIS
  5
64B
 10
16.3955
 20
3.40378
 30
0.000000
  70
    32
  0
VERTEX
  8
AM_VIS
  5
64C
 10
16.3956
 20
3.40374
 30
0.000000
  70
    32
  0
VERTEX
  8
AM_VIS
  5
64D
 10
16.3957
 20
3.40369
 30
0.000000
  70
    32
  0
VERTEX
  8
AM_VIS
  5
64E
 10
16.3958
 20
3.40364
 30
0.000000
  70
    32
  0
VERTEX
  8
AM_VIS
  5
64F
 10
16.3959
 20
3.40360
 30
0.000000
  70
    32
  0
VERTEX
  8
AM_VIS
  5
650
 10
16.3960
 20
3.40355
 30
0.000000
  70
    32
  0
VERTEX
  8
AM_VIS
  5
651
 10
16.3961
 20
3.40350
 30
0.000000
  70
    32
  0
VERTEX
  8
AM_VIS
  5
652
 10
16.3962
 20
3.40345
 30
0.000000
  70
    32
  0
VERTEX
  8
AM_VIS
  5
653
 10
16.3963
 20
3.40340
 30
0.000000
  70
    32
  0
VERTEX
  8
AM_VIS
  5
654
 10
16.3964
 20
3.40335
 30
0.000000
  70
    32
  0
VERTEX
  8
AM_VIS
  5
655
 10
16.3965
 20
3.40330
 30
0.000000
  70
    32
  0
VERTEX
  8
AM_VIS
  5
656
 10
16.3966
 20
3.40325
 30
0.000000
  70
    32
  0
VERTEX
  8
AM_VIS
  5
657
 10
16.3967
 20
3.40320
 30
0.000000
  70
    32
  0
VERTEX
  8
AM_VIS
  5
658
 10
16.3969
 20
3.40315
 30
0.000000
  70
    32
  0
VERTEX
  8
AM_VIS
  5
659
 10
16.3970
 20
3.40310
 30
0.000000
  70
    32
  0
VERTEX
  8
AM_VIS
  5
65A
 10
16.3971
 20
3.40305
 30
0.000000
  70
    32
  0
VERTEX
  8
AM_VIS
  5
65B
 10
16.3972
 20
3.40300
 30
0.000000
  70
    32
  0
VERTEX
  8
AM_VIS
  5
65C
 10
16.3973
 20
3.40294
 30
0.000000
  70
    32
  0
VERTEX
  8
AM_VIS
  5
65D
 10
16.3974
 20
3.40289
 30
0.000000
  70
    32
  0
VERTEX
  8
AM_VIS
  5
65E
 10
16.3975
 20
3.40284
 30
0.000000
  70
    32
  0
VERTEX
  8
AM_VIS
  5
65F
 10
16.3976
 20
3.40279
 30
0.000000
  70
    32
  0
VERTEX
  8
AM_VIS
  5
660
 10
16.3977
 20
3.40273
 30
0.000000
  70
    32
  0
VERTEX
  8
AM_VIS
  5
661
 10
16.3978
 20
3.40268
 30
0.000000
  70
    32
  0
VERTEX
  8
AM_VIS
  5
662
 10
16.3979
 20
3.40262
 30
0.000000
  70
    32
  0
VERTEX
  8
AM_VIS
  5
663
 10
16.3980
 20
3.40257
 30
0.000000
  70
    32
  0
VERTEX
  8
AM_VIS
  5
664
 10
16.3981
 20
3.40251
 30
0.000000
  70
    32
  0
VERTEX
  8
AM_VIS
  5
665
 10
16.3982
 20
3.40246
 30
0.000000
  70
    32
  0
VERTEX
  8
AM_VIS
  5
666
 10
16.3983
 20
3.40240
 30
0.000000
  70
    32
  0
VERTEX
  8
AM_VIS
  5
667
 10
16.3984
 20
3.40235
 30
0.000000
  70
    32
  0
VERTEX
  8
AM_VIS
  5
668
 10
16.3985
 20
3.40229
 30
0.000000
  70
    32
  0
VERTEX
  8
AM_VIS
  5
669
 10
16.3986
 20
3.40223
 30
0.000000
  70
    32
  0
VERTEX
  8
AM_VIS
  5
66A
 10
16.3987
 20
3.40218
 30
0.000000
  70
    32
  0
VERTEX
  8
AM_VIS
  5
66B
 10
16.3988
 20
3.40212
 30
0.000000
  70
    32
  0
VERTEX
  8
AM_VIS
  5
66C
 10
16.3989
 20
3.40206
 30
0.000000
  70
    32
  0
VERTEX
  8
AM_VIS
  5
66D
 10
16.3990
 20
3.40200
 30
0.000000
  70
    32
  0
VERTEX
  8
AM_VIS
  5
66E
 10
16.3991
 20
3.40194
 30
0.000000
  70
    32
  0
VERTEX
  8
AM_VIS
  5
66F
 10
16.3992
 20
3.40189
 30
0.000000
  70
    32
  0
VERTEX
  8
AM_VIS
  5
670
 10
16.3993
 20
3.40183
 30
0.000000
  70
    32
  0
VERTEX
  8
AM_VIS
  5
671
 10
16.3994
 20
3.40177
 30
0.000000
  70
    32
  0
VERTEX
  8
AM_VIS
  5
672
 10
16.3995
 20
3.40171
 30
0.000000
  70
    32
  0
VERTEX
  8
AM_VIS
  5
673
 10
16.3996
 20
3.40165
 30
0.000000
  70
    32
  0
VERTEX
  8
AM_VIS
  5
674
 10
16.3997
 20
3.40159
 30
0.000000
  70
    32
  0
VERTEX
  8
AM_VIS
  5
675
 10
16.3998
 20
3.40153
 30
0.000000
  70
    32
  0
VERTEX
  8
AM_VIS
  5
676
 10
16.3999
 20
3.40147
 30
0.000000
  70
    32
  0
VERTEX
  8
AM_VIS
  5
677
 10
16.4000
 20
3.40141
 30
0.000000
  70
    32
  0
VERTEX
  8
AM_VIS
  5
678
 10
16.4001
 20
3.40135
 30
0.000000
  70
    32
  0
VERTEX
  8
AM_VIS
  5
679
 10
16.4002
 20
3.40129
 30
0.000000
  70
    32
  0
VERTEX
  8
AM_VIS
  5
67A
 10
16.4003
 20
3.40122
 30
0.000000
  70
    32
  0
VERTEX
  8
AM_VIS
  5
67B
 10
16.4004
 20
3.40116
 30
0.000000
  70
    32
  0
VERTEX
  8
AM_VIS
  5
67C
 10
16.4005
 20
3.40110
 30
0.000000
  70
    32
  0
VERTEX
  8
AM_VIS
  5
67D
 10
16.4006
 20
3.40104
 30
0.000000
  70
    32
  0
VERTEX
  8
AM_VIS
  5
67E
 10
16.4007
 20
3.40097
 30
0.000000
  70
    32
  0
VERTEX
  8
AM_VIS
  5
67F
 10
16.4008
 20
3.40091
 30
0.000000
  70
    32
  0
VERTEX
  8
AM_VIS
  5
680
 10
16.4009
 20
3.40085
 30
0.000000
  70
    32
  0
VERTEX
  8
AM_VIS
  5
681
 10
16.4010
 20
3.40078
 30
0.000000
  70
    32
  0
VERTEX
  8
AM_VIS
  5
682
 10
16.4011
 20
3.40072
 30
0.000000
  70
    32
  0
VERTEX
  8
AM_VIS
  5
683
 10
16.4012
 20
3.40066
 30
0.000000
  70
    32
  0
VERTEX
  8
AM_VIS
  5
684
 10
16.4013
 20
3.40059
 30
0.000000
  70
    32
  0
VERTEX
  8
AM_VIS
  5
685
 10
16.4014
 20
3.40053
 30
0.000000
  70
    32
  0
VERTEX
  8
AM_VIS
  5
686
 10
16.4015
 20
3.40046
 30
0.000000
  70
    32
  0
VERTEX
  8
AM_VIS
  5
687
 10
16.4016
 20
3.40039
 30
0.000000
  70
    32
  0
VERTEX
  8
AM_VIS
  5
688
 10
16.4017
 20
3.40033
 30
0.000000
  70
    32
  0
VERTEX
  8
AM_VIS
  5
689
 10
16.4018
 20
3.40026
 30
0.000000
  70
    32
  0
VERTEX
  8
AM_VIS
  5
68A
 10
16.4019
 20
3.40020
 30
0.000000
  70
    32
  0
VERTEX
  8
AM_VIS
  5
68B
 10
16.4020
 20
3.40013
 30
0.000000
  70
    32
  0
VERTEX
  8
AM_VIS
  5
68C
 10
16.4020
 20
3.40006
 30
0.000000
  70
    32
  0
VERTEX
  8
AM_VIS
  5
68D
 10
16.4021
 20
3.39999
 30
0.000000
  70
    32
  0
VERTEX
  8
AM_VIS
  5
68E
 10
16.4022
 20
3.39993
 30
0.000000
  70
    32
  0
VERTEX
  8
AM_VIS
  5
68F
 10
16.4023
 20
3.39986
 30
0.000000
  70
    32
  0
VERTEX
  8
AM_VIS
  5
690
 10
16.4024
 20
3.39979
 30
0.000000
  70
    32
  0
VERTEX
  8
AM_VIS
  5
691
 10
16.4025
 20
3.39972
 30
0.000000
  70
    32
  0
VERTEX
  8
AM_VIS
  5
692
 10
16.4026
 20
3.39965
 30
0.000000
  70
    32
  0
VERTEX
  8
AM_VIS
  5
693
 10
16.4027
 20
3.39958
 30
0.000000
  70
    32
  0
VERTEX
  8
AM_VIS
  5
694
 10
16.4028
 20
3.39951
 30
0.000000
  70
    32
  0
VERTEX
  8
AM_VIS
  5
695
 10
16.4029
 20
3.39944
 30
0.000000
  70
    32
  0
VERTEX
  8
AM_VIS
  5
696
 10
16.4030
 20
3.39937
 30
0.000000
  70
    32
  0
VERTEX
  8
AM_VIS
  5
697
 10
16.4031
 20
3.39930
 30
0.000000
  70
    32
  0
VERTEX
  8
AM_VIS
  5
698
 10
16.4032
 20
3.39923
 30
0.000000
  70
    32
  0
VERTEX
  8
AM_VIS
  5
699
 10
16.4033
 20
3.39916
 30
0.000000
  70
    32
  0
VERTEX
  8
AM_VIS
  5
69A
 10
16.4034
 20
3.39909
 30
0.000000
  70
    32
  0
VERTEX
  8
AM_VIS
  5
69B
 10
16.4035
 20
3.39902
 30
0.000000
  70
    32
  0
VERTEX
  8
AM_VIS
  5
69C
 10
16.4036
 20
3.39895
 30
0.000000
  70
    32
  0
VERTEX
  8
AM_VIS
  5
69D
 10
16.4037
 20
3.39888
 30
0.000000
  70
    32
  0
VERTEX
  8
AM_VIS
  5
69E
 10
16.4038
 20
3.39880
 30
0.000000
  70
    32
  0
VERTEX
  8
AM_VIS
  5
69F
 10
16.4039
 20
3.39873
 30
0.000000
  70
    32
  0
VERTEX
  8
AM_VIS
  5
6A0
 10
16.4039
 20
3.39866
 30
0.000000
  70
    32
  0
VERTEX
  8
AM_VIS
  5
6A1
 10
16.4040
 20
3.39859
 30
0.000000
  70
    32
  0
VERTEX
  8
AM_VIS
  5
6A2
 10
16.4041
 20
3.39851
 30
0.000000
  70
    32
  0
VERTEX
  8
AM_VIS
  5
6A3
 10
16.4042
 20
3.39844
 30
0.000000
  70
    32
  0
VERTEX
  8
AM_VIS
  5
6A4
 10
16.4043
 20
3.39837
 30
0.000000
  70
    32
  0
VERTEX
  8
AM_VIS
  5
6A5
 10
16.4044
 20
3.39829
 30
0.000000
  70
    32
  0
VERTEX
  8
AM_VIS
  5
6A6
 10
16.4045
 20
3.39822
 30
0.000000
  70
    32
  0
VERTEX
  8
AM_VIS
  5
6A7
 10
16.4046
 20
3.39814
 30
0.000000
  70
    32
  0
VERTEX
  8
AM_VIS
  5
6A8
 10
16.4047
 20
3.39807
 30
0.000000
  70
    32
  0
VERTEX
  8
AM_VIS
  5
6A9
 10
16.4048
 20
3.39800
 30
0.000000
  70
    32
  0
VERTEX
  8
AM_VIS
  5
6AA
 10
16.4049
 20
3.39792
 30
0.000000
  70
    32
  0
VERTEX
  8
AM_VIS
  5
6AB
 10
16.4050
 20
3.39785
 30
0.000000
  70
    32
  0
VERTEX
  8
AM_VIS
  5
6AC
 10
16.4051
 20
3.39777
 30
0.000000
  70
    32
  0
VERTEX
  8
AM_VIS
  5
6AD
 10
16.4052
 20
3.39769
 30
0.000000
  70
    32
  0
VERTEX
  8
AM_VIS
  5
6AE
 10
16.4053
 20
3.39762
 30
0.000000
  70
    32
  0
VERTEX
  8
AM_VIS
  5
6AF
 10
16.4053
 20
3.39754
 30
0.000000
  70
    32
  0
VERTEX
  8
AM_VIS
  5
6B0
 10
16.4054
 20
3.39747
 30
0.000000
  70
    32
  0
VERTEX
  8
AM_VIS
  5
6B1
 10
16.4055
 20
3.39739
 30
0.000000
  70
    32
  0
VERTEX
  8
AM_VIS
  5
6B2
 10
16.4056
 20
3.39731
 30
0.000000
  70
    32
  0
VERTEX
  8
AM_VIS
  5
6B3
 10
16.4057
 20
3.39724
 30
0.000000
  70
    32
  0
VERTEX
  8
AM_VIS
  5
6B4
 10
16.4058
 20
3.39716
 30
0.000000
  70
    32
  0
VERTEX
  8
AM_VIS
  5
6B5
 10
16.4059
 20
3.39708
 30
0.000000
  70
    32
  0
VERTEX
  8
AM_VIS
  5
6B6
 10
16.4060
 20
3.39700
 30
0.000000
  70
    32
  0
VERTEX
  8
AM_VIS
  5
6B7
 10
16.4061
 20
3.39693
 30
0.000000
  70
    32
  0
VERTEX
  8
AM_VIS
  5
6B8
 10
16.4062
 20
3.39685
 30
0.000000
  70
    32
  0
VERTEX
  8
AM_VIS
  5
6B9
 10
16.4063
 20
3.39677
 30
0.000000
  70
    32
  0
VERTEX
  8
AM_VIS
  5
6BA
 10
16.4063
 20
3.39669
 30
0.000000
  70
    32
  0
VERTEX
  8
AM_VIS
  5
6BB
 10
16.4064
 20
3.39661
 30
0.000000
  70
    32
  0
VERTEX
  8
AM_VIS
  5
6BC
 10
16.4065
 20
3.39653
 30
0.000000
  70
    32
  0
VERTEX
  8
AM_VIS
  5
6BD
 10
16.4066
 20
3.39645
 30
0.000000
  70
    32
  0
VERTEX
  8
AM_VIS
  5
6BE
 10
16.4067
 20
3.39638
 30
0.000000
  70
    32
  0
VERTEX
  8
AM_VIS
  5
6BF
 10
16.4068
 20
3.39630
 30
0.000000
  70
    32
  0
VERTEX
  8
AM_VIS
  5
6C0
 10
16.4069
 20
3.39622
 30
0.000000
  70
    32
  0
VERTEX
  8
AM_VIS
  5
6C1
 10
16.4070
 20
3.39614
 30
0.000000
  70
    32
  0
VERTEX
  8
AM_VIS
  5
6C2
 10
16.4071
 20
3.39606
 30
0.000000
  70
    32
  0
VERTEX
  8
AM_VIS
  5
6C3
 10
16.4072
 20
3.39598
 30
0.000000
  70
    32
  0
VERTEX
  8
AM_VIS
  5
6C4
 10
16.4072
 20
3.39590
 30
0.000000
  70
    32
  0
VERTEX
  8
AM_VIS
  5
6C5
 10
16.4073
 20
3.39582
 30
0.000000
  70
    32
  0
VERTEX
  8
AM_VIS
  5
6C6
 10
16.4074
 20
3.39574
 30
0.000000
  70
    32
  0
VERTEX
  8
AM_VIS
  5
6C7
 10
16.4075
 20
3.39565
 30
0.000000
  70
    32
  0
VERTEX
  8
AM_VIS
  5
6C8
 10
16.4076
 20
3.39557
 30
0.000000
  70
    32
  0
VERTEX
  8
AM_VIS
  5
6C9
 10
16.4077
 20
3.39549
 30
0.000000
  70
    32
  0
VERTEX
  8
AM_VIS
  5
6CA
 10
16.4078
 20
3.39541
 30
0.000000
  70
    32
  0
VERTEX
  8
AM_VIS
  5
6CB
 10
16.4079
 20
3.39533
 30
0.000000
  70
    32
  0
VERTEX
  8
AM_VIS
  5
6CC
 10
16.4080
 20
3.39525
 30
0.000000
  70
    32
  0
VERTEX
  8
AM_VIS
  5
6CD
 10
16.4080
 20
3.39517
 30
0.000000
  70
    32
  0
VERTEX
  8
AM_VIS
  5
6CE
 10
16.4081
 20
3.39508
 30
0.000000
  70
    32
  0
VERTEX
  8
AM_VIS
  5
6CF
 10
16.4082
 20
3.39500
 30
0.000000
  70
    32
  0
VERTEX
  8
AM_VIS
  5
6D0
 10
16.4083
 20
3.39492
 30
0.000000
  70
    32
  0
VERTEX
  8
AM_VIS
  5
6D1
 10
16.4084
 20
3.39484
 30
0.000000
  70
    32
  0
VERTEX
  8
AM_VIS
  5
6D2
 10
16.4085
 20
3.39475
 30
0.000000
  70
    32
  0
VERTEX
  8
AM_VIS
  5
6D3
 10
16.4086
 20
3.39467
 30
0.000000
  70
    32
  0
VERTEX
  8
AM_VIS
  5
6D4
 10
16.4087
 20
3.39459
 30
0.000000
  70
    32
  0
VERTEX
  8
AM_VIS
  5
6D5
 10
16.4087
 20
3.39451
 30
0.000000
  70
    32
  0
VERTEX
  8
AM_VIS
  5
6D6
 10
16.4088
 20
3.39442
 30
0.000000
  70
    32
  0
VERTEX
  8
AM_VIS
  5
6D7
 10
16.4089
 20
3.39434
 30
0.000000
  70
    32
  0
VERTEX
  8
AM_VIS
  5
6D8
 10
16.4090
 20
3.39426
 30
0.000000
  70
    32
  0
VERTEX
  8
AM_VIS
  5
6D9
 10
16.4091
 20
3.39417
 30
0.000000
  70
    32
  0
VERTEX
  8
AM_VIS
  5
6DA
 10
16.4092
 20
3.39409
 30
0.000000
  70
    32
  0
VERTEX
  8
AM_VIS
  5
6DB
 10
16.4093
 20
3.39401
 30
0.000000
  70
    32
  0
VERTEX
  8
AM_VIS
  5
6DC
 10
16.4093
 20
3.39392
 30
0.000000
  70
    32
  0
VERTEX
  8
AM_VIS
  5
6DD
 10
16.4094
 20
3.39384
 30
0.000000
  70
    32
  0
VERTEX
  8
AM_VIS
  5
6DE
 10
16.4095
 20
3.39375
 30
0.000000
  70
    32
  0
VERTEX
  8
AM_VIS
  5
6DF
 10
16.4096
 20
3.39367
 30
0.000000
  70
    32
  0
VERTEX
  8
AM_VIS
  5
6E0
 10
16.4097
 20
3.39358
 30
0.000000
  70
    32
  0
VERTEX
  8
AM_VIS
  5
6E1
 10
16.4098
 20
3.39350
 30
0.000000
  70
    32
  0
VERTEX
  8
AM_VIS
  5
6E2
 10
16.4099
 20
3.39341
 30
0.000000
  70
    32
  0
VERTEX
  8
AM_VIS
  5
6E3
 10
16.4099
 20
3.39333
 30
0.000000
  70
    32
  0
VERTEX
  8
AM_VIS
  5
6E4
 10
16.4100
 20
3.39324
 30
0.000000
  70
    32
  0
VERTEX
  8
AM_VIS
  5
6E5
 10
16.4101
 20
3.39316
 30
0.000000
  70
    32
  0
VERTEX
  8
AM_VIS
  5
6E6
 10
16.4102
 20
3.39307
 30
0.000000
  70
    32
  0
VERTEX
  8
AM_VIS
  5
6E7
 10
16.4103
 20
3.39299
 30
0.000000
  70
    32
  0
VERTEX
  8
AM_VIS
  5
6E8
 10
16.4104
 20
3.39290
 30
0.000000
  70
    32
  0
VERTEX
  8
AM_VIS
  5
6E9
 10
16.4105
 20
3.39282
 30
0.000000
  70
    32
  0
VERTEX
  8
AM_VIS
  5
6EA
 10
16.4105
 20
3.39273
 30
0.000000
  70
    32
  0
VERTEX
  8
AM_VIS
  5
6EB
 10
16.4106
 20
3.39265
 30
0.000000
  70
    32
  0
VERTEX
  8
AM_VIS
  5
6EC
 10
16.4107
 20
3.39256
 30
0.000000
  70
    32
  0
VERTEX
  8
AM_VIS
  5
6ED
 10
16.4108
 20
3.39248
 30
0.000000
  70
    32
  0
VERTEX
  8
AM_VIS
  5
6EE
 10
16.4109
 20
3.39239
 30
0.000000
  70
    32
  0
VERTEX
  8
AM_VIS
  5
6EF
 10
16.4110
 20
3.39230
 30
0.000000
  70
    32
  0
VERTEX
  8
AM_VIS
  5
6F0
 10
16.4110
 20
3.39222
 30
0.000000
  70
    32
  0
VERTEX
  8
AM_VIS
  5
6F1
 10
16.4111
 20
3.39213
 30
0.000000
  70
    32
  0
VERTEX
  8
AM_VIS
  5
6F2
 10
16.4112
 20
3.39204
 30
0.000000
  70
    32
  0
VERTEX
  8
AM_VIS
  5
6F3
 10
16.4113
 20
3.39196
 30
0.000000
  70
    32
  0
VERTEX
  8
AM_VIS
  5
6F4
 10
16.4114
 20
3.39187
 30
0.000000
  70
    32
  0
VERTEX
  8
AM_VIS
  5
6F5
 10
16.4114
 20
3.39179
 30
0.000000
  70
    32
  0
VERTEX
  8
AM_VIS
  5
6F6
 10
16.4115
 20
3.39170
 30
0.000000
  70
    32
  0
VERTEX
  8
AM_VIS
  5
6F7
 10
16.4116
 20
3.39161
 30
0.000000
  70
    32
  0
VERTEX
  8
AM_VIS
  5
6F8
 10
16.4117
 20
3.39153
 30
0.000000
  70
    32
  0
VERTEX
  8
AM_VIS
  5
6F9
 10
16.4118
 20
3.39144
 30
0.000000
  70
    32
  0
VERTEX
  8
AM_VIS
  5
6FA
 10
16.4119
 20
3.39135
 30
0.000000
  70
    32
  0
VERTEX
  8
AM_VIS
  5
6FB
 10
16.4119
 20
3.39126
 30
0.000000
  70
    32
  0
VERTEX
  8
AM_VIS
  5
6FC
 10
16.4120
 20
3.39118
 30
0.000000
  70
    32
  0
VERTEX
  8
AM_VIS
  5
6FD
 10
16.4121
 20
3.39109
 30
0.000000
  70
    32
  0
VERTEX
  8
AM_VIS
  5
6FE
 10
16.4122
 20
3.39100
 30
0.000000
  70
    32
  0
VERTEX
  8
AM_VIS
  5
6FF
 10
16.4123
 20
3.39092
 30
0.000000
  70
    32
  0
VERTEX
  8
AM_VIS
  5
700
 10
16.4123
 20
3.39083
 30
0.000000
  70
    32
  0
VERTEX
  8
AM_VIS
  5
701
 10
16.4124
 20
3.39074
 30
0.000000
  70
    32
  0
VERTEX
  8
AM_VIS
  5
702
 10
16.4125
 20
3.39065
 30
0.000000
  70
    32
  0
VERTEX
  8
AM_VIS
  5
703
 10
16.4126
 20
3.39057
 30
0.000000
  70
    32
  0
VERTEX
  8
AM_VIS
  5
704
 10
16.4127
 20
3.39048
 30
0.000000
  70
    32
  0
VERTEX
  8
AM_VIS
  5
705
 10
16.4127
 20
3.39039
 30
0.000000
  70
    32
  0
VERTEX
  8
AM_VIS
  5
706
 10
16.4128
 20
3.39030
 30
0.000000
  70
    32
  0
VERTEX
  8
AM_VIS
  5
707
 10
16.4129
 20
3.39022
 30
0.000000
  70
    32
  0
VERTEX
  8
AM_VIS
  5
708
 10
16.4130
 20
3.39013
 30
0.000000
  70
    32
  0
VERTEX
  8
AM_VIS
  5
709
 10
16.4131
 20
3.39004
 30
0.000000
  70
    32
  0
VERTEX
  8
AM_VIS
  5
70A
 10
16.4131
 20
3.38995
 30
0.000000
  70
    32
  0
VERTEX
  8
AM_VIS
  5
70B
 10
16.4132
 20
3.38986
 30
0.000000
  70
    32
  0
VERTEX
  8
AM_VIS
  5
70C
 10
16.4133
 20
3.38978
 30
0.000000
  70
    32
  0
VERTEX
  8
AM_VIS
  5
70D
 10
16.4134
 20
3.38969
 30
0.000000
  70
    32
  0
VERTEX
  8
AM_VIS
  5
70E
 10
16.4135
 20
3.38960
 30
0.000000
  70
    32
  0
VERTEX
  8
AM_VIS
  5
70F
 10
16.4135
 20
3.38951
 30
0.000000
  70
    32
  0
VERTEX
  8
AM_VIS
  5
710
 10
16.4136
 20
3.38942
 30
0.000000
  70
    32
  0
VERTEX
  8
AM_VIS
  5
711
 10
16.4137
 20
3.38934
 30
0.000000
  70
    32
  0
VERTEX
  8
AM_VIS
  5
712
 10
16.4138
 20
3.38925
 30
0.000000
  70
    32
  0
VERTEX
  8
AM_VIS
  5
713
 10
16.4138
 20
3.38916
 30
0.000000
  70
    32
  0
VERTEX
  8
AM_VIS
  5
714
 10
16.4139
 20
3.38907
 30
0.000000
  70
    32
  0
VERTEX
  8
AM_VIS
  5
715
 10
16.4140
 20
3.38898
 30
0.000000
  70
    32
  0
VERTEX
  8
AM_VIS
  5
716
 10
16.4141
 20
3.38890
 30
0.000000
  70
    32
  0
VERTEX
  8
AM_VIS
  5
717
 10
16.4141
 20
3.38881
 30
0.000000
  70
    32
  0
VERTEX
  8
AM_VIS
  5
718
 10
16.4142
 20
3.38872
 30
0.000000
  70
    32
  0
VERTEX
  8
AM_VIS
  5
719
 10
16.4143
 20
3.38863
 30
0.000000
  70
    32
  0
VERTEX
  8
AM_VIS
  5
71A
 10
16.4144
 20
3.38854
 30
0.000000
  70
    32
  0
VERTEX
  8
AM_VIS
  5
71B
 10
16.4145
 20
3.38846
 30
0.000000
  70
    32
  0
VERTEX
  8
AM_VIS
  5
71C
 10
16.4145
 20
3.38837
 30
0.000000
  70
    32
  0
VERTEX
  8
AM_VIS
  5
71D
 10
16.4146
 20
3.38828
 30
0.000000
  70
    32
  0
VERTEX
  8
AM_VIS
  5
71E
 10
16.4147
 20
3.38819
 30
0.000000
  70
    32
  0
VERTEX
  8
AM_VIS
  5
71F
 10
16.4148
 20
3.38810
 30
0.000000
  70
    32
  0
VERTEX
  8
AM_VIS
  5
720
 10
16.4148
 20
3.38801
 30
0.000000
  70
    32
  0
VERTEX
  8
AM_VIS
  5
721
 10
16.4149
 20
3.38793
 30
0.000000
  70
    32
  0
VERTEX
  8
AM_VIS
  5
722
 10
16.4150
 20
3.38784
 30
0.000000
  70
    32
  0
VERTEX
  8
AM_VIS
  5
723
 10
16.4151
 20
3.38775
 30
0.000000
  70
    32
  0
VERTEX
  8
AM_VIS
  5
724
 10
16.4151
 20
3.38766
 30
0.000000
  70
    32
  0
VERTEX
  8
AM_VIS
  5
725
 10
16.4152
 20
3.38757
 30
0.000000
  70
    32
  0
VERTEX
  8
AM_VIS
  5
726
 10
16.4153
 20
3.38749
 30
0.000000
  70
    32
  0
VERTEX
  8
AM_VIS
  5
727
 10
16.4153
 20
3.38740
 30
0.000000
  70
    32
  0
VERTEX
  8
AM_VIS
  5
728
 10
16.4154
 20
3.38731
 30
0.000000
  70
    32
  0
VERTEX
  8
AM_VIS
  5
729
 10
16.4155
 20
3.38722
 30
0.000000
  70
    32
  0
VERTEX
  8
AM_VIS
  5
72A
 10
16.4156
 20
3.38713
 30
0.000000
  70
    32
  0
VERTEX
  8
AM_VIS
  5
72B
 10
16.4156
 20
3.38705
 30
0.000000
  70
    32
  0
VERTEX
  8
AM_VIS
  5
72C
 10
16.4157
 20
3.38696
 30
0.000000
  70
    32
  0
VERTEX
  8
AM_VIS
  5
72D
 10
16.4158
 20
3.38687
 30
0.000000
  70
    32
  0
VERTEX
  8
AM_VIS
  5
72E
 10
16.4159
 20
3.38678
 30
0.000000
  70
    32
  0
VERTEX
  8
AM_VIS
  5
72F
 10
16.4159
 20
3.38670
 30
0.000000
  70
    32
  0
VERTEX
  8
AM_VIS
  5
730
 10
16.4160
 20
3.38661
 30
0.000000
  70
    32
  0
VERTEX
  8
AM_VIS
  5
731
 10
16.4161
 20
3.38652
 30
0.000000
  70
    32
  0
VERTEX
  8
AM_VIS
  5
732
 10
16.4161
 20
3.38643
 30
0.000000
  70
    32
  0
VERTEX
  8
AM_VIS
  5
733
 10
16.4162
 20
3.38634
 30
0.000000
  70
    32
  0
VERTEX
  8
AM_VIS
  5
734
 10
16.4163
 20
3.38626
 30
0.000000
  70
    32
  0
VERTEX
  8
AM_VIS
  5
735
 10
16.4164
 20
3.38617
 30
0.000000
  70
    32
  0
VERTEX
  8
AM_VIS
  5
736
 10
16.4164
 20
3.38608
 30
0.000000
  70
    32
  0
VERTEX
  8
AM_VIS
  5
737
 10
16.4165
 20
3.38599
 30
0.000000
  70
    32
  0
VERTEX
  8
AM_VIS
  5
738
 10
16.4166
 20
3.38591
 30
0.000000
  70
    32
  0
VERTEX
  8
AM_VIS
  5
739
 10
16.4166
 20
3.38582
 30
0.000000
  70
    32
  0
VERTEX
  8
AM_VIS
  5
73A
 10
16.4167
 20
3.38573
 30
0.000000
  70
    32
  0
VERTEX
  8
AM_VIS
  5
73B
 10
16.4168
 20
3.38565
 30
0.000000
  70
    32
  0
VERTEX
  8
AM_VIS
  5
73C
 10
16.4169
 20
3.38556
 30
0.000000
  70
    32
  0
VERTEX
  8
AM_VIS
  5
73D
 10
16.4169
 20
3.38547
 30
0.000000
  70
    32
  0
VERTEX
  8
AM_VIS
  5
73E
 10
16.4170
 20
3.38538
 30
0.000000
  70
    32
  0
VERTEX
  8
AM_VIS
  5
73F
 10
16.4171
 20
3.38530
 30
0.000000
  70
    32
  0
VERTEX
  8
AM_VIS
  5
740
 10
16.4171
 20
3.38521
 30
0.000000
  70
    32
  0
VERTEX
  8
AM_VIS
  5
741
 10
16.4172
 20
3.38512
 30
0.000000
  70
    32
  0
VERTEX
  8
AM_VIS
  5
742
 10
16.4173
 20
3.38504
 30
0.000000
  70
    32
  0
VERTEX
  8
AM_VIS
  5
743
 10
16.4173
 20
3.38495
 30
0.000000
  70
    32
  0
VERTEX
  8
AM_VIS
  5
744
 10
16.4174
 20
3.38486
 30
0.000000
  70
    32
  0
VERTEX
  8
AM_VIS
  5
745
 10
16.4175
 20
3.38478
 30
0.000000
  70
    32
  0
VERTEX
  8
AM_VIS
  5
746
 10
16.4175
 20
3.38469
 30
0.000000
  70
    32
  0
VERTEX
  8
AM_VIS
  5
747
 10
16.4176
 20
3.38460
 30
0.000000
  70
    32
  0
VERTEX
  8
AM_VIS
  5
748
 10
16.4177
 20
3.38452
 30
0.000000
  70
    32
  0
VERTEX
  8
AM_VIS
  5
749
 10
16.4177
 20
3.38443
 30
0.000000
  70
    32
  0
VERTEX
  8
AM_VIS
  5
74A
 10
16.4178
 20
3.38435
 30
0.000000
  70
    32
  0
VERTEX
  8
AM_VIS
  5
74B
 10
16.4179
 20
3.38426
 30
0.000000
  70
    32
  0
VERTEX
  8
AM_VIS
  5
74C
 10
16.4179
 20
3.38417
 30
0.000000
  70
    32
  0
VERTEX
  8
AM_VIS
  5
74D
 10
16.4180
 20
3.38409
 30
0.000000
  70
    32
  0
VERTEX
  8
AM_VIS
  5
74E
 10
16.4181
 20
3.38400
 30
0.000000
  70
    32
  0
VERTEX
  8
AM_VIS
  5
74F
 10
16.4181
 20
3.38392
 30
0.000000
  70
    32
  0
VERTEX
  8
AM_VIS
  5
750
 10
16.4182
 20
3.38383
 30
0.000000
  70
    32
  0
VERTEX
  8
AM_VIS
  5
751
 10
16.4183
 20
3.38375
 30
0.000000
  70
    32
  0
VERTEX
  8
AM_VIS
  5
752
 10
16.4183
 20
3.38366
 30
0.000000
  70
    32
  0
VERTEX
  8
AM_VIS
  5
753
 10
16.4184
 20
3.38358
 30
0.000000
  70
    32
  0
VERTEX
  8
AM_VIS
  5
754
 10
16.4185
 20
3.38349
 30
0.000000
  70
    32
  0
VERTEX
  8
AM_VIS
  5
755
 10
16.4185
 20
3.38341
 30
0.000000
  70
    32
  0
VERTEX
  8
AM_VIS
  5
756
 10
16.4186
 20
3.38332
 30
0.000000
  70
    32
  0
VERTEX
  8
AM_VIS
  5
757
 10
16.4187
 20
3.38324
 30
0.000000
  70
    32
  0
VERTEX
  8
AM_VIS
  5
758
 10
16.4187
 20
3.38315
 30
0.000000
  70
    32
  0
VERTEX
  8
AM_VIS
  5
759
 10
16.4188
 20
3.38307
 30
0.000000
  70
    32
  0
VERTEX
  8
AM_VIS
  5
75A
 10
16.4189
 20
3.38298
 30
0.000000
  70
    32
  0
VERTEX
  8
AM_VIS
  5
75B
 10
16.4189
 20
3.38290
 30
0.000000
  70
    32
  0
VERTEX
  8
AM_VIS
  5
75C
 10
16.4190
 20
3.38281
 30
0.000000
  70
    32
  0
VERTEX
  8
AM_VIS
  5
75D
 10
16.4191
 20
3.38273
 30
0.000000
  70
    32
  0
VERTEX
  8
AM_VIS
  5
75E
 10
16.4191
 20
3.38265
 30
0.000000
  70
    32
  0
VERTEX
  8
AM_VIS
  5
75F
 10
16.4192
 20
3.38256
 30
0.000000
  70
    32
  0
VERTEX
  8
AM_VIS
  5
760
 10
16.4192
 20
3.38248
 30
0.000000
  70
    32
  0
VERTEX
  8
AM_VIS
  5
761
 10
16.4193
 20
3.38240
 30
0.000000
  70
    32
  0
VERTEX
  8
AM_VIS
  5
762
 10
16.4194
 20
3.38231
 30
0.000000
  70
    32
  0
VERTEX
  8
AM_VIS
  5
763
 10
16.4194
 20
3.38223
 30
0.000000
  70
    32
  0
VERTEX
  8
AM_VIS
  5
764
 10
16.4195
 20
3.38215
 30
0.000000
  70
    32
  0
VERTEX
  8
AM_VIS
  5
765
 10
16.4196
 20
3.38206
 30
0.000000
  70
    32
  0
VERTEX
  8
AM_VIS
  5
766
 10
16.4196
 20
3.38198
 30
0.000000
  70
    32
  0
VERTEX
  8
AM_VIS
  5
767
 10
16.4197
 20
3.38190
 30
0.000000
  70
    32
  0
VERTEX
  8
AM_VIS
  5
768
 10
16.4197
 20
3.38182
 30
0.000000
  70
    32
  0
VERTEX
  8
AM_VIS
  5
769
 10
16.4198
 20
3.38173
 30
0.000000
  70
    32
  0
VERTEX
  8
AM_VIS
  5
76A
 10
16.4199
 20
3.38165
 30
0.000000
  70
    32
  0
VERTEX
  8
AM_VIS
  5
76B
 10
16.4199
 20
3.38157
 30
0.000000
  70
    32
  0
VERTEX
  8
AM_VIS
  5
76C
 10
16.4200
 20
3.38149
 30
0.000000
  70
    32
  0
VERTEX
  8
AM_VIS
  5
76D
 10
16.4200
 20
3.38141
 30
0.000000
  70
    32
  0
VERTEX
  8
AM_VIS
  5
76E
 10
16.4201
 20
3.38133
 30
0.000000
  70
    32
  0
VERTEX
  8
AM_VIS
  5
76F
 10
16.4202
 20
3.38124
 30
0.000000
  70
    32
  0
VERTEX
  8
AM_VIS
  5
770
 10
16.4202
 20
3.38116
 30
0.000000
  70
    32
  0
VERTEX
  8
AM_VIS
  5
771
 10
16.4203
 20
3.38108
 30
0.000000
  70
    32
  0
VERTEX
  8
AM_VIS
  5
772
 10
16.4203
 20
3.38100
 30
0.000000
  70
    32
  0
VERTEX
  8
AM_VIS
  5
773
 10
16.4204
 20
3.38092
 30
0.000000
  70
    32
  0
VERTEX
  8
AM_VIS
  5
774
 10
16.4205
 20
3.38084
 30
0.000000
  70
    32
  0
VERTEX
  8
AM_VIS
  5
775
 10
16.4205
 20
3.38076
 30
0.000000
  70
    32
  0
VERTEX
  8
AM_VIS
  5
776
 10
16.4206
 20
3.38068
 30
0.000000
  70
    32
  0
VERTEX
  8
AM_VIS
  5
777
 10
16.4206
 20
3.38060
 30
0.000000
  70
    32
  0
VERTEX
  8
AM_VIS
  5
778
 10
16.4207
 20
3.38052
 30
0.000000
  70
    32
  0
VERTEX
  8
AM_VIS
  5
779
 10
16.4207
 20
3.38044
 30
0.000000
  70
    32
  0
VERTEX
  8
AM_VIS
  5
77A
 10
16.4208
 20
3.38036
 30
0.000000
  70
    32
  0
VERTEX
  8
AM_VIS
  5
77B
 10
16.4209
 20
3.38028
 30
0.000000
  70
    32
  0
VERTEX
  8
AM_VIS
  5
77C
 10
16.4209
 20
3.38020
 30
0.000000
  70
    32
  0
VERTEX
  8
AM_VIS
  5
77D
 10
16.4210
 20
3.38012
 30
0.000000
  70
    32
  0
VERTEX
  8
AM_VIS
  5
77E
 10
16.4210
 20
3.38005
 30
0.000000
  70
    32
  0
VERTEX
  8
AM_VIS
  5
77F
 10
16.4211
 20
3.37997
 30
0.000000
  70
    32
  0
VERTEX
  8
AM_VIS
  5
780
 10
16.4211
 20
3.37989
 30
0.000000
  70
    32
  0
VERTEX
  8
AM_VIS
  5
781
 10
16.4212
 20
3.37981
 30
0.000000
  70
    32
  0
VERTEX
  8
AM_VIS
  5
782
 10
16.4213
 20
3.37973
 30
0.000000
  70
    32
  0
VERTEX
  8
AM_VIS
  5
783
 10
16.4213
 20
3.37966
 30
0.000000
  70
    32
  0
VERTEX
  8
AM_VIS
  5
784
 10
16.4214
 20
3.37958
 30
0.000000
  70
    32
  0
VERTEX
  8
AM_VIS
  5
785
 10
16.4214
 20
3.37950
 30
0.000000
  70
    32
  0
VERTEX
  8
AM_VIS
  5
786
 10
16.4215
 20
3.37942
 30
0.000000
  70
    32
  0
VERTEX
  8
AM_VIS
  5
787
 10
16.4215
 20
3.37935
 30
0.000000
  70
    32
  0
VERTEX
  8
AM_VIS
  5
788
 10
16.4216
 20
3.37927
 30
0.000000
  70
    32
  0
VERTEX
  8
AM_VIS
  5
789
 10
16.4216
 20
3.37919
 30
0.000000
  70
    32
  0
VERTEX
  8
AM_VIS
  5
78A
 10
16.4217
 20
3.37912
 30
0.000000
  70
    32
  0
VERTEX
  8
AM_VIS
  5
78B
 10
16.4217
 20
3.37904
 30
0.000000
  70
    32
  0
VERTEX
  8
AM_VIS
  5
78C
 10
16.4218
 20
3.37897
 30
0.000000
  70
    32
  0
VERTEX
  8
AM_VIS
  5
78D
 10
16.4218
 20
3.37889
 30
0.000000
  70
    32
  0
VERTEX
  8
AM_VIS
  5
78E
 10
16.4219
 20
3.37882
 30
0.000000
  70
    32
  0
VERTEX
  8
AM_VIS
  5
78F
 10
16.4220
 20
3.37874
 30
0.000000
  70
    32
  0
VERTEX
  8
AM_VIS
  5
790
 10
16.4220
 20
3.37867
 30
0.000000
  70
    32
  0
VERTEX
  8
AM_VIS
  5
791
 10
16.4221
 20
3.37859
 30
0.000000
  70
    32
  0
VERTEX
  8
AM_VIS
  5
792
 10
16.4221
 20
3.37852
 30
0.000000
  70
    32
  0
VERTEX
  8
AM_VIS
  5
793
 10
16.4222
 20
3.37844
 30
0.000000
  70
    32
  0
VERTEX
  8
AM_VIS
  5
794
 10
16.4222
 20
3.37837
 30
0.000000
  70
    32
  0
VERTEX
  8
AM_VIS
  5
795
 10
16.4223
 20
3.37830
 30
0.000000
  70
    32
  0
VERTEX
  8
AM_VIS
  5
796
 10
16.4223
 20
3.37822
 30
0.000000
  70
    32
  0
VERTEX
  8
AM_VIS
  5
797
 10
16.4224
 20
3.37815
 30
0.000000
  70
    32
  0
VERTEX
  8
AM_VIS
  5
798
 10
16.4224
 20
3.37808
 30
0.000000
  70
    32
  0
VERTEX
  8
AM_VIS
  5
799
 10
16.4225
 20
3.37801
 30
0.000000
  70
    32
  0
VERTEX
  8
AM_VIS
  5
79A
 10
16.4225
 20
3.37793
 30
0.000000
  70
    32
  0
VERTEX
  8
AM_VIS
  5
79B
 10
16.4226
 20
3.37786
 30
0.000000
  70
    32
  0
VERTEX
  8
AM_VIS
  5
79C
 10
16.4226
 20
3.37779
 30
0.000000
  70
    32
  0
VERTEX
  8
AM_VIS
  5
79D
 10
16.4227
 20
3.37772
 30
0.000000
  70
    32
  0
VERTEX
  8
AM_VIS
  5
79E
 10
16.4227
 20
3.37765
 30
0.000000
  70
    32
  0
VERTEX
  8
AM_VIS
  5
79F
 10
16.4228
 20
3.37758
 30
0.000000
  70
    32
  0
VERTEX
  8
AM_VIS
  5
7A0
 10
16.4228
 20
3.37751
 30
0.000000
  70
    32
  0
VERTEX
  8
AM_VIS
  5
7A1
 10
16.4229
 20
3.37744
 30
0.000000
  70
    32
  0
VERTEX
  8
AM_VIS
  5
7A2
 10
16.4229
 20
3.37737
 30
0.000000
  70
    32
  0
VERTEX
  8
AM_VIS
  5
7A3
 10
16.4230
 20
3.37730
 30
0.000000
  70
    32
  0
VERTEX
  8
AM_VIS
  5
7A4
 10
16.4230
 20
3.37723
 30
0.000000
  70
    32
  0
VERTEX
  8
AM_VIS
  5
7A5
 10
16.4230
 20
3.37716
 30
0.000000
  70
    32
  0
VERTEX
  8
AM_VIS
  5
7A6
 10
16.4231
 20
3.37709
 30
0.000000
  70
    32
  0
VERTEX
  8
AM_VIS
  5
7A7
 10
16.4231
 20
3.37702
 30
0.000000
  70
    32
  0
VERTEX
  8
AM_VIS
  5
7A8
 10
16.4232
 20
3.37696
 30
0.000000
  70
    32
  0
VERTEX
  8
AM_VIS
  5
7A9
 10
16.4232
 20
3.37689
 30
0.000000
  70
    32
  0
VERTEX
  8
AM_VIS
  5
7AA
 10
16.4233
 20
3.37682
 30
0.000000
  70
    32
  0
VERTEX
  8
AM_VIS
  5
7AB
 10
16.4233
 20
3.37675
 30
0.000000
  70
    32
  0
VERTEX
  8
AM_VIS
  5
7AC
 10
16.4234
 20
3.37669
 30
0.000000
  70
    32
  0
VERTEX
  8
AM_VIS
  5
7AD
 10
16.4234
 20
3.37662
 30
0.000000
  70
    32
  0
VERTEX
  8
AM_VIS
  5
7AE
 10
16.4235
 20
3.37656
 30
0.000000
  70
    32
  0
VERTEX
  8
AM_VIS
  5
7AF
 10
16.4235
 20
3.37649
 30
0.000000
  70
    32
  0
VERTEX
  8
AM_VIS
  5
7B0
 10
16.4235
 20
3.37643
 30
0.000000
  70
    32
  0
VERTEX
  8
AM_VIS
  5
7B1
 10
16.4236
 20
3.37636
 30
0.000000
  70
    32
  0
VERTEX
  8
AM_VIS
  5
7B2
 10
16.4236
 20
3.37630
 30
0.000000
  70
    32
  0
VERTEX
  8
AM_VIS
  5
7B3
 10
16.4237
 20
3.37623
 30
0.000000
  70
    32
  0
VERTEX
  8
AM_VIS
  5
7B4
 10
16.4237
 20
3.37617
 30
0.000000
  70
    32
  0
VERTEX
  8
AM_VIS
  5
7B5
 10
16.4238
 20
3.37610
 30
0.000000
  70
    32
  0
VERTEX
  8
AM_VIS
  5
7B6
 10
16.4238
 20
3.37604
 30
0.000000
  70
    32
  0
VERTEX
  8
AM_VIS
  5
7B7
 10
16.4239
 20
3.37598
 30
0.000000
  70
    32
  0
VERTEX
  8
AM_VIS
  5
7B8
 10
16.4239
 20
3.37592
 30
0.000000
  70
    32
  0
VERTEX
  8
AM_VIS
  5
7B9
 10
16.4239
 20
3.37585
 30
0.000000
  70
    32
  0
VERTEX
  8
AM_VIS
  5
7BA
 10
16.4240
 20
3.37579
 30
0.000000
  70
    32
  0
VERTEX
  8
AM_VIS
  5
7BB
 10
16.4240
 20
3.37573
 30
0.000000
  70
    32
  0
VERTEX
  8
AM_VIS
  5
7BC
 10
16.4241
 20
3.37567
 30
0.000000
  70
    32
  0
VERTEX
  8
AM_VIS
  5
7BD
 10
16.4241
 20
3.37561
 30
0.000000
  70
    32
  0
VERTEX
  8
AM_VIS
  5
7BE
 10
16.4241
 20
3.37555
 30
0.000000
  70
    32
  0
VERTEX
  8
AM_VIS
  5
7BF
 10
16.4242
 20
3.37549
 30
0.000000
  70
    32
  0
VERTEX
  8
AM_VIS
  5
7C0
 10
16.4242
 20
3.37543
 30
0.000000
  70
    32
  0
VERTEX
  8
AM_VIS
  5
7C1
 10
16.4243
 20
3.37537
 30
0.000000
  70
    32
  0
VERTEX
  8
AM_VIS
  5
7C2
 10
16.4243
 20
3.37531
 30
0.000000
  70
    32
  0
VERTEX
  8
AM_VIS
  5
7C3
 10
16.4243
 20
3.37525
 30
0.000000
  70
    32
  0
VERTEX
  8
AM_VIS
  5
7C4
 10
16.4244
 20
3.37519
 30
0.000000
  70
    32
  0
VERTEX
  8
AM_VIS
  5
7C5
 10
16.4244
 20
3.37513
 30
0.000000
  70
    32
  0
VERTEX
  8
AM_VIS
  5
7C6
 10
16.4245
 20
3.37507
 30
0.000000
  70
    32
  0
VERTEX
  8
AM_VIS
  5
7C7
 10
16.4245
 20
3.37502
 30
0.000000
  70
    32
  0
VERTEX
  8
AM_VIS
  5
7C8
 10
16.4245
 20
3.37496
 30
0.000000
  70
    32
  0
VERTEX
  8
AM_VIS
  5
7C9
 10
16.4246
 20
3.37490
 30
0.000000
  70
    32
  0
VERTEX
  8
AM_VIS
  5
7CA
 10
16.4246
 20
3.37485
 30
0.000000
  70
    32
  0
VERTEX
  8
AM_VIS
  5
7CB
 10
16.4246
 20
3.37479
 30
0.000000
  70
    32
  0
VERTEX
  8
AM_VIS
  5
7CC
 10
16.4247
 20
3.37473
 30
0.000000
  70
    32
  0
VERTEX
  8
AM_VIS
  5
7CD
 10
16.4247
 20
3.37468
 30
0.000000
  70
    32
  0
VERTEX
  8
AM_VIS
  5
7CE
 10
16.4248
 20
3.37462
 30
0.000000
  70
    32
  0
VERTEX
  8
AM_VIS
  5
7CF
 10
16.4248
 20
3.37457
 30
0.000000
  70
    32
  0
VERTEX
  8
AM_VIS
  5
7D0
 10
16.4248
 20
3.37451
 30
0.000000
  70
    32
  0
VERTEX
  8
AM_VIS
  5
7D1
 10
16.4249
 20
3.37446
 30
0.000000
  70
    32
  0
VERTEX
  8
AM_VIS
  5
7D2
 10
16.4249
 20
3.37441
 30
0.000000
  70
    32
  0
VERTEX
  8
AM_VIS
  5
7D3
 10
16.4249
 20
3.37435
 30
0.000000
  70
    32
  0
VERTEX
  8
AM_VIS
  5
7D4
 10
16.4250
 20
3.37430
 30
0.000000
  70
    32
  0
VERTEX
  8
AM_VIS
  5
7D5
 10
16.4250
 20
3.37425
 30
0.000000
  70
    32
  0
VERTEX
  8
AM_VIS
  5
7D6
 10
16.4250
 20
3.37419
 30
0.000000
  70
    32
  0
VERTEX
  8
AM_VIS
  5
7D7
 10
16.4251
 20
3.37414
 30
0.000000
  70
    32
  0
VERTEX
  8
AM_VIS
  5
7D8
 10
16.4251
 20
3.37409
 30
0.000000
  70
    32
  0
VERTEX
  8
AM_VIS
  5
7D9
 10
16.4251
 20
3.37404
 30
0.000000
  70
    32
  0
VERTEX
  8
AM_VIS
  5
7DA
 10
16.4252
 20
3.37399
 30
0.000000
  70
    32
  0
VERTEX
  8
AM_VIS
  5
7DB
 10
16.4252
 20
3.37394
 30
0.000000
  70
    32
  0
VERTEX
  8
AM_VIS
  5
7DC
 10
16.4252
 20
3.37389
 30
0.000000
  70
    32
  0
VERTEX
  8
AM_VIS
  5
7DD
 10
16.4253
 20
3.37384
 30
0.000000
  70
    32
  0
VERTEX
  8
AM_VIS
  5
7DE
 10
16.4253
 20
3.37379
 30
0.000000
  70
    32
  0
VERTEX
  8
AM_VIS
  5
7DF
 10
16.4253
 20
3.37374
 30
0.000000
  70
    32
  0
VERTEX
  8
AM_VIS
  5
7E0
 10
16.4254
 20
3.37369
 30
0.000000
  70
    32
  0
VERTEX
  8
AM_VIS
  5
7E1
 10
16.4254
 20
3.37364
 30
0.000000
  70
    32
  0
VERTEX
  8
AM_VIS
  5
7E2
 10
16.4254
 20
3.37359
 30
0.000000
  70
    32
  0
VERTEX
  8
AM_VIS
  5
7E3
 10
16.4255
 20
3.37355
 30
0.000000
  70
    32
  0
VERTEX
  8
AM_VIS
  5
7E4
 10
16.4255
 20
3.37350
 30
0.000000
  70
    32
  0
VERTEX
  8
AM_VIS
  5
7E5
 10
16.4255
 20
3.37345
 30
0.000000
  70
    32
  0
VERTEX
  8
AM_VIS
  5
7E6
 10
16.4255
 20
3.37341
 30
0.000000
  70
    32
  0
VERTEX
  8
AM_VIS
  5
7E7
 10
16.4256
 20
3.37336
 30
0.000000
  70
    32
  0
VERTEX
  8
AM_VIS
  5
7E8
 10
16.4256
 20
3.37331
 30
0.000000
  70
    32
  0
VERTEX
  8
AM_VIS
  5
7E9
 10
16.4256
 20
3.37327
 30
0.000000
  70
    32
  0
VERTEX
  8
AM_VIS
  5
7EA
 10
16.4257
 20
3.37322
 30
0.000000
  70
    32
  0
VERTEX
  8
AM_VIS
  5
7EB
 10
16.4257
 20
3.37318
 30
0.000000
  70
    32
  0
VERTEX
  8
AM_VIS
  5
7EC
 10
16.4257
 20
3.37314
 30
0.000000
  70
    32
  0
VERTEX
  8
AM_VIS
  5
7ED
 10
16.4257
 20
3.37309
 30
0.000000
  70
    32
  0
VERTEX
  8
AM_VIS
  5
7EE
 10
16.4258
 20
3.37305
 30
0.000000
  70
    32
  0
VERTEX
  8
AM_VIS
  5
7EF
 10
16.4258
 20
3.37300
 30
0.000000
  70
    32
  0
VERTEX
  8
AM_VIS
  5
7F0
 10
16.4258
 20
3.37296
 30
0.000000
  70
    32
  0
VERTEX
  8
AM_VIS
  5
7F1
 10
16.4259
 20
3.37292
 30
0.000000
  70
    32
  0
VERTEX
  8
AM_VIS
  5
7F2
 10
16.4259
 20
3.37288
 30
0.000000
  70
    32
  0
VERTEX
  8
AM_VIS
  5
7F3
 10
16.4259
 20
3.37284
 30
0.000000
  70
    32
  0
VERTEX
  8
AM_VIS
  5
7F4
 10
16.4259
 20
3.37280
 30
0.000000
  70
    32
  0
VERTEX
  8
AM_VIS
  5
7F5
 10
16.4260
 20
3.37275
 30
0.000000
  70
    32
  0
VERTEX
  8
AM_VIS
  5
7F6
 10
16.4260
 20
3.37271
 30
0.000000
  70
    32
  0
VERTEX
  8
AM_VIS
  5
7F7
 10
16.4260
 20
3.37267
 30
0.000000
  70
    32
  0
VERTEX
  8
AM_VIS
  5
7F8
 10
16.4260
 20
3.37263
 30
0.000000
  70
    32
  0
VERTEX
  8
AM_VIS
  5
7F9
 10
16.4261
 20
3.37259
 30
0.000000
  70
    32
  0
VERTEX
  8
AM_VIS
  5
7FA
 10
16.4261
 20
3.37256
 30
0.000000
  70
    32
  0
VERTEX
  8
AM_VIS
  5
7FB
 10
16.4261
 20
3.37252
 30
0.000000
  70
    32
  0
VERTEX
  8
AM_VIS
  5
7FC
 10
16.4261
 20
3.37248
 30
0.000000
  70
    32
  0
VERTEX
  8
AM_VIS
  5
7FD
 10
16.4262
 20
3.37244
 30
0.000000
  70
    32
  0
VERTEX
  8
AM_VIS
  5
7FE
 10
16.4262
 20
3.37240
 30
0.000000
  70
    32
  0
VERTEX
  8
AM_VIS
  5
7FF
 10
16.4262
 20
3.37237
 30
0.000000
  70
    32
  0
VERTEX
  8
AM_VIS
  5
800
 10
16.4262
 20
3.37233
 30
0.000000
  70
    32
  0
VERTEX
  8
AM_VIS
  5
801
 10
16.4263
 20
3.37230
 30
0.000000
  70
    32
  0
VERTEX
  8
AM_VIS
  5
802
 10
16.4263
 20
3.37226
 30
0.000000
  70
    32
  0
VERTEX
  8
AM_VIS
  5
803
 10
16.4263
 20
3.37222
 30
0.000000
  70
    32
  0
VERTEX
  8
AM_VIS
  5
804
 10
16.4263
 20
3.37219
 30
0.000000
  70
    32
  0
VERTEX
  8
AM_VIS
  5
805
 10
16.4263
 20
3.37215
 30
0.000000
  70
    32
  0
VERTEX
  8
AM_VIS
  5
806
 10
16.4264
 20
3.37212
 30
0.000000
  70
    32
  0
VERTEX
  8
AM_VIS
  5
807
 10
16.4264
 20
3.37209
 30
0.000000
  70
    32
  0
VERTEX
  8
AM_VIS
  5
808
 10
16.4264
 20
3.37205
 30
0.000000
  70
    32
  0
VERTEX
  8
AM_VIS
  5
809
 10
16.4264
 20
3.37202
 30
0.000000
  70
    32
  0
VERTEX
  8
AM_VIS
  5
80A
 10
16.4264
 20
3.37199
 30
0.000000
  70
    32
  0
VERTEX
  8
AM_VIS
  5
80B
 10
16.4265
 20
3.37196
 30
0.000000
  70
    32
  0
VERTEX
  8
AM_VIS
  5
80C
 10
16.4265
 20
3.37192
 30
0.000000
  70
    32
  0
VERTEX
  8
AM_VIS
  5
80D
 10
16.4265
 20
3.37189
 30
0.000000
  70
    32
  0
VERTEX
  8
AM_VIS
  5
80E
 10
16.4265
 20
3.37186
 30
0.000000
  70
    32
  0
VERTEX
  8
AM_VIS
  5
80F
 10
16.4265
 20
3.37183
 30
0.000000
  70
    32
  0
VERTEX
  8
AM_VIS
  5
810
 10
16.4266
 20
3.37180
 30
0.000000
  70
    32
  0
VERTEX
  8
AM_VIS
  5
811
 10
16.4266
 20
3.37177
 30
0.000000
  70
    32
  0
VERTEX
  8
AM_VIS
  5
812
 10
16.4266
 20
3.37174
 30
0.000000
  70
    32
  0
VERTEX
  8
AM_VIS
  5
813
 10
16.4266
 20
3.37171
 30
0.000000
  70
    32
  0
VERTEX
  8
AM_VIS
  5
814
 10
16.4266
 20
3.37169
 30
0.000000
  70
    32
  0
VERTEX
  8
AM_VIS
  5
815
 10
16.4267
 20
3.37166
 30
0.000000
  70
    32
  0
VERTEX
  8
AM_VIS
  5
816
 10
16.4267
 20
3.37163
 30
0.000000
  70
    32
  0
VERTEX
  8
AM_VIS
  5
817
 10
16.4267
 20
3.37160
 30
0.000000
  70
    32
  0
VERTEX
  8
AM_VIS
  5
818
 10
16.4267
 20
3.37158
 30
0.000000
  70
    32
  0
VERTEX
  8
AM_VIS
  5
819
 10
16.4267
 20
3.37155
 30
0.000000
  70
    32
  0
VERTEX
  8
AM_VIS
  5
81A
 10
16.4267
 20
3.37152
 30
0.000000
  70
    32
  0
VERTEX
  8
AM_VIS
  5
81B
 10
16.4268
 20
3.37150
 30
0.000000
  70
    32
  0
VERTEX
  8
AM_VIS
  5
81C
 10
16.4268
 20
3.37147
 30
0.000000
  70
    32
  0
VERTEX
  8
AM_VIS
  5
81D
 10
16.4268
 20
3.37145
 30
0.000000
  70
    32
  0
VERTEX
  8
AM_VIS
  5
81E
 10
16.4268
 20
3.37142
 30
0.000000
  70
    32
  0
VERTEX
  8
AM_VIS
  5
81F
 10
16.4268
 20
3.37140
 30
0.000000
  70
    32
  0
VERTEX
  8
AM_VIS
  5
820
 10
16.4268
 20
3.37138
 30
0.000000
  70
    32
  0
VERTEX
  8
AM_VIS
  5
821
 10
16.4268
 20
3.37135
 30
0.000000
  70
    32
  0
VERTEX
  8
AM_VIS
  5
822
 10
16.4269
 20
3.37133
 30
0.000000
  70
    32
  0
VERTEX
  8
AM_VIS
  5
823
 10
16.4269
 20
3.37131
 30
0.000000
  70
    32
  0
VERTEX
  8
AM_VIS
  5
824
 10
16.4269
 20
3.37129
 30
0.000000
  70
    32
  0
VERTEX
  8
AM_VIS
  5
825
 10
16.4269
 20
3.37127
 30
0.000000
  70
    32
  0
VERTEX
  8
AM_VIS
  5
826
 10
16.4269
 20
3.37125
 30
0.000000
  70
    32
  0
VERTEX
  8
AM_VIS
  5
827
 10
16.4269
 20
3.37123
 30
0.000000
  70
    32
  0
VERTEX
  8
AM_VIS
  5
828
 10
16.4269
 20
3.37121
 30
0.000000
  70
    32
  0
VERTEX
  8
AM_VIS
  5
829
 10
16.4270
 20
3.37119
 30
0.000000
  70
    32
  0
VERTEX
  8
AM_VIS
  5
82A
 10
16.4270
 20
3.37117
 30
0.000000
  70
    32
  0
VERTEX
  8
AM_VIS
  5
82B
 10
16.4270
 20
3.37115
 30
0.000000
  70
    32
  0
VERTEX
  8
AM_VIS
  5
82C
 10
16.4270
 20
3.37113
 30
0.000000
  70
    32
  0
VERTEX
  8
AM_VIS
  5
82D
 10
16.4270
 20
3.37111
 30
0.000000
  70
    32
  0
VERTEX
  8
AM_VIS
  5
82E
 10
16.4270
 20
3.37109
 30
0.000000
  70
    32
  0
VERTEX
  8
AM_VIS
  5
82F
 10
16.4270
 20
3.37108
 30
0.000000
  70
    32
  0
VERTEX
  8
AM_VIS
  5
830
 10
16.4270
 20
3.37106
 30
0.000000
  70
    32
  0
VERTEX
  8
AM_VIS
  5
831
 10
16.4270
 20
3.37105
 30
0.000000
  70
    32
  0
VERTEX
  8
AM_VIS
  5
832
 10
16.4271
 20
3.37103
 30
0.000000
  70
    32
  0
VERTEX
  8
AM_VIS
  5
833
 10
16.4271
 20
3.37101
 30
0.000000
  70
    32
  0
VERTEX
  8
AM_VIS
  5
834
 10
16.4271
 20
3.37100
 30
0.000000
  70
    32
  0
VERTEX
  8
AM_VIS
  5
835
 10
16.4271
 20
3.37098
 30
0.000000
  70
    32
  0
VERTEX
  8
AM_VIS
  5
836
 10
16.4271
 20
3.37097
 30
0.000000
  70
    32
  0
VERTEX
  8
AM_VIS
  5
837
 10
16.4271
 20
3.37096
 30
0.000000
  70
    32
  0
VERTEX
  8
AM_VIS
  5
838
 10
16.4271
 20
3.37094
 30
0.000000
  70
    32
  0
VERTEX
  8
AM_VIS
  5
839
 10
16.4271
 20
3.37093
 30
0.000000
  70
    32
  0
VERTEX
  8
AM_VIS
  5
83A
 10
16.4271
 20
3.37092
 30
0.000000
  70
    32
  0
VERTEX
  8
AM_VIS
  5
83B
 10
16.4271
 20
3.37091
 30
0.000000
  70
    32
  0
VERTEX
  8
AM_VIS
  5
83C
 10
16.4271
 20
3.37090
 30
0.000000
  70
    32
  0
VERTEX
  8
AM_VIS
  5
83D
 10
16.4271
 20
3.37088
 30
0.000000
  70
    32
  0
VERTEX
  8
AM_VIS
  5
83E
 10
16.4271
 20
3.37087
 30
0.000000
  70
    32
  0
VERTEX
  8
AM_VIS
  5
83F
 10
16.4272
 20
3.37086
 30
0.000000
  70
    32
  0
VERTEX
  8
AM_VIS
  5
840
 10
16.4272
 20
3.37085
 30
0.000000
  70
    32
  0
VERTEX
  8
AM_VIS
  5
841
 10
16.4272
 20
3.37084
 30
0.000000
  70
    32
  0
VERTEX
  8
AM_VIS
  5
842
 10
16.4272
 20
3.37084
 30
0.000000
  70
    32
  0
VERTEX
  8
AM_VIS
  5
843
 10
16.4272
 20
3.37083
 30
0.000000
  70
    32
  0
VERTEX
  8
AM_VIS
  5
844
 10
16.4272
 20
3.37082
 30
0.000000
  70
    32
  0
VERTEX
  8
AM_VIS
  5
845
 10
16.4272
 20
3.37081
 30
0.000000
  70
    32
  0
VERTEX
  8
AM_VIS
  5
846
 10
16.4272
 20
3.37080
 30
0.000000
  70
    32
  0
VERTEX
  8
AM_VIS
  5
847
 10
16.4272
 20
3.37080
 30
0.000000
  70
    32
  0
VERTEX
  8
AM_VIS
  5
848
 10
16.4272
 20
3.37079
 30
0.000000
  70
    32
  0
VERTEX
  8
AM_VIS
  5
849
 10
16.4272
 20
3.37079
 30
0.000000
  70
    32
  0
VERTEX
  8
AM_VIS
  5
84A
 10
16.4272
 20
3.37078
 30
0.000000
  70
    32
  0
VERTEX
  8
AM_VIS
  5
84B
 10
16.4272
 20
3.37078
 30
0.000000
  70
    32
  0
VERTEX
  8
AM_VIS
  5
84C
 10
16.4272
 20
3.37077
 30
0.000000
  70
    32
  0
VERTEX
  8
AM_VIS
  5
84D
 10
16.4272
 20
3.37077
 30
0.000000
  70
    32
  0
VERTEX
  8
AM_VIS
  5
84E
 10
16.4272
 20
3.37076
 30
0.000000
  70
    32
  0
VERTEX
  8
AM_VIS
  5
84F
 10
16.4272
 20
3.37076
 30
0.000000
  70
    32
  0
VERTEX
  8
AM_VIS
  5
850
 10
16.4272
 20
3.37076
 30
0.000000
  70
    32
  0
VERTEX
  8
AM_VIS
  5
851
 10
16.4272
 20
3.37075
 30
0.000000
  70
    32
  0
VERTEX
  8
AM_VIS
  5
852
 10
16.4272
 20
3.37075
 30
0.000000
  70
    32
  0
VERTEX
  8
AM_VIS
  5
853
 10
16.4272
 20
3.37075
 30
0.000000
  70
    32
  0
VERTEX
  8
AM_VIS
  5
854
 10
16.4272
 20
3.37075
 30
0.000000
  70
    32
  0
VERTEX
  8
AM_VIS
  5
855
 10
16.4272
 20
3.37075
 30
0.000000
  70
    32
  0
VERTEX
  8
AM_VIS
  5
856
 10
16.4272
 20
3.37075
 30
0.000000
  70
    32
  0
SEQEND
  8
AM_VIS
  5
857
  0
LINE
  5
33
  8
AM_VIS
 10
14.35722606795791
 20
1.347325737950458
 30
0.0
 11
16.418272594202641
 21
1.3473257379504571
 31
0.0
  0
LINE
  5
34
  8
AM_VIS
 10
16.418272594202641
 20
1.347325738602061
 30
0.0
 11
16.42846981804604
 21
1.347325738602061
 31
0.0
  0
ARC
  5
35
  8
AM_VIS
 10
16.652226067957208
 20
1.323700737951345
 30
0.0
 40
0.2249999999989424
 50
104.4775121858145
 51
173.97283343904559
  0
LINE
  5
36
  8
AM_VIS
 10
16.59597606795818
 20
1.630472353362012
 30
0.0
 11
16.59597606795818
 21
1.541556051174561
 31
0.0
  0
LINE
  5
37
  8
AM_VIS
 10
16.59597606795792
 20
1.630472353362012
 30
0.0
 11
16.59597606795792
 21
2.1981791225389
 31
0.0
  0
LINE
  5
38
  8
AM_VIS
 10
16.59597606795818
 20
2.2870954247263509
 30
0.0
 11
16.59597606795818
 21
2.1981791225389
 31
0.0
  0
ARC
  5
39
  8
AM_VIS
 10
16.652226067957908
 20
2.5049507379504572
 30
0.0
 40
0.2250000000000006
 50
180.0
 51
255.52248781406979
  0
ARC
  5
3A
  8
AM_HID
 10
17.184304338306781
 20
1.9205643780757149
 30
0.0
 40
0.9371947784786453
 50
180.3814134309672
 51
197.86249115412591
  0
ARC
  5
3B
  8
AM_HID
 10
17.184304338306791
 20
1.908087097825198
 30
0.0
 40
0.937194778478647
 50
162.13750884587409
 51
179.6185865690328
  0
ARC
  5
3C
  8
AM_VIS
 10
15.39222606795791
 20
3.7503257379504609
 30
0.0
 40
1.034999999999999
 50
269.99999999999989
 51
89.999999999999957
  0
ARC
  5
3D
  8
AM_VIS
 10
15.39222606795791
 20
3.7503257379504609
 30
0.0
 40
1.034999999999999
 50
89.999999999999957
 51
269.99999999999989
  0
CIRCLE
  5
3E
  8
AM_VIS
 10
15.39222606795791
 20
3.7503257379504591
 30
0.0
 40
0.9
  0
ARC
  5
3F
  8
AM_VIS
 10
16.505222972434741
 20
3.1597007379504181
 30
0.0
 40
0.2250000000000444
 50
90.000000000001975
 51
110.28272816228591
  0
LINE
  5
40
  8
AM_VIS
 10
16.59597606795818
 20
3.7503257379513348
 30
0.0
 11
16.59597606795818
 21
3.5198720621657511
 31
0.0
  0
POLYLINE
  8
AM_HID
  5
858
  66
     1
 10
0.000000
 20
0.000000
 30
0.000000
  70
     8
  0
VERTEX
  8
AM_HID
  5
859
 10
16.4183
 20
3.61448
 30
0.000000
  70
    32
  0
VERTEX
  8
AM_HID
  5
85A
 10
16.4184
 20
3.61552
 30
0.000000
  70
    32
  0
VERTEX
  8
AM_HID
  5
85B
 10
16.4185
 20
3.61655
 30
0.000000
  70
    32
  0
VERTEX
  8
AM_HID
  5
85C
 10
16.4187
 20
3.61759
 30
0.000000
  70
    32
  0
VERTEX
  8
AM_HID
  5
85D
 10
16.4188
 20
3.61863
 30
0.000000
  70
    32
  0
VERTEX
  8
AM_HID
  5
85E
 10
16.4190
 20
3.61966
 30
0.000000
  70
    32
  0
VERTEX
  8
AM_HID
  5
85F
 10
16.4191
 20
3.62070
 30
0.000000
  70
    32
  0
VERTEX
  8
AM_HID
  5
860
 10
16.4192
 20
3.62173
 30
0.000000
  70
    32
  0
VERTEX
  8
AM_HID
  5
861
 10
16.4194
 20
3.62277
 30
0.000000
  70
    32
  0
VERTEX
  8
AM_HID
  5
862
 10
16.4195
 20
3.62380
 30
0.000000
  70
    32
  0
VERTEX
  8
AM_HID
  5
863
 10
16.4196
 20
3.62484
 30
0.000000
  70
    32
  0
VERTEX
  8
AM_HID
  5
864
 10
16.4197
 20
3.62587
 30
0.000000
  70
    32
  0
VERTEX
  8
AM_HID
  5
865
 10
16.4199
 20
3.62691
 30
0.000000
  70
    32
  0
VERTEX
  8
AM_HID
  5
866
 10
16.4200
 20
3.62794
 30
0.000000
  70
    32
  0
VERTEX
  8
AM_HID
  5
867
 10
16.4201
 20
3.62898
 30
0.000000
  70
    32
  0
VERTEX
  8
AM_HID
  5
868
 10
16.4203
 20
3.63001
 30
0.000000
  70
    32
  0
VERTEX
  8
AM_HID
  5
869
 10
16.4204
 20
3.63105
 30
0.000000
  70
    32
  0
VERTEX
  8
AM_HID
  5
86A
 10
16.4205
 20
3.63209
 30
0.000000
  70
    32
  0
VERTEX
  8
AM_HID
  5
86B
 10
16.4206
 20
3.63312
 30
0.000000
  70
    32
  0
VERTEX
  8
AM_HID
  5
86C
 10
16.4208
 20
3.63416
 30
0.000000
  70
    32
  0
VERTEX
  8
AM_HID
  5
86D
 10
16.4209
 20
3.63519
 30
0.000000
  70
    32
  0
VERTEX
  8
AM_HID
  5
86E
 10
16.4210
 20
3.63623
 30
0.000000
  70
    32
  0
VERTEX
  8
AM_HID
  5
86F
 10
16.4211
 20
3.63727
 30
0.000000
  70
    32
  0
VERTEX
  8
AM_HID
  5
870
 10
16.4213
 20
3.63830
 30
0.000000
  70
    32
  0
VERTEX
  8
AM_HID
  5
871
 10
16.4214
 20
3.63934
 30
0.000000
  70
    32
  0
VERTEX
  8
AM_HID
  5
872
 10
16.4215
 20
3.64038
 30
0.000000
  70
    32
  0
VERTEX
  8
AM_HID
  5
873
 10
16.4216
 20
3.64141
 30
0.000000
  70
    32
  0
VERTEX
  8
AM_HID
  5
874
 10
16.4218
 20
3.64245
 30
0.000000
  70
    32
  0
VERTEX
  8
AM_HID
  5
875
 10
16.4219
 20
3.64349
 30
0.000000
  70
    32
  0
VERTEX
  8
AM_HID
  5
876
 10
16.4220
 20
3.64453
 30
0.000000
  70
    32
  0
VERTEX
  8
AM_HID
  5
877
 10
16.4221
 20
3.64557
 30
0.000000
  70
    32
  0
VERTEX
  8
AM_HID
  5
878
 10
16.4222
 20
3.64660
 30
0.000000
  70
    32
  0
VERTEX
  8
AM_HID
  5
879
 10
16.4223
 20
3.64764
 30
0.000000
  70
    32
  0
VERTEX
  8
AM_HID
  5
87A
 10
16.4225
 20
3.64868
 30
0.000000
  70
    32
  0
VERTEX
  8
AM_HID
  5
87B
 10
16.4226
 20
3.64972
 30
0.000000
  70
    32
  0
VERTEX
  8
AM_HID
  5
87C
 10
16.4227
 20
3.65076
 30
0.000000
  70
    32
  0
VERTEX
  8
AM_HID
  5
87D
 10
16.4228
 20
3.65180
 30
0.000000
  70
    32
  0
VERTEX
  8
AM_HID
  5
87E
 10
16.4229
 20
3.65285
 30
0.000000
  70
    32
  0
VERTEX
  8
AM_HID
  5
87F
 10
16.4230
 20
3.65389
 30
0.000000
  70
    32
  0
VERTEX
  8
AM_HID
  5
880
 10
16.4231
 20
3.65493
 30
0.000000
  70
    32
  0
VERTEX
  8
AM_HID
  5
881
 10
16.4232
 20
3.65597
 30
0.000000
  70
    32
  0
VERTEX
  8
AM_HID
  5
882
 10
16.4234
 20
3.65701
 30
0.000000
  70
    32
  0
VERTEX
  8
AM_HID
  5
883
 10
16.4235
 20
3.65806
 30
0.000000
  70
    32
  0
VERTEX
  8
AM_HID
  5
884
 10
16.4236
 20
3.65910
 30
0.000000
  70
    32
  0
VERTEX
  8
AM_HID
  5
885
 10
16.4237
 20
3.66015
 30
0.000000
  70
    32
  0
VERTEX
  8
AM_HID
  5
886
 10
16.4238
 20
3.66119
 30
0.000000
  70
    32
  0
VERTEX
  8
AM_HID
  5
887
 10
16.4239
 20
3.66224
 30
0.000000
  70
    32
  0
VERTEX
  8
AM_HID
  5
888
 10
16.4240
 20
3.66328
 30
0.000000
  70
    32
  0
VERTEX
  8
AM_HID
  5
889
 10
16.4241
 20
3.66433
 30
0.000000
  70
    32
  0
VERTEX
  8
AM_HID
  5
88A
 10
16.4242
 20
3.66538
 30
0.000000
  70
    32
  0
VERTEX
  8
AM_HID
  5
88B
 10
16.4243
 20
3.66643
 30
0.000000
  70
    32
  0
VERTEX
  8
AM_HID
  5
88C
 10
16.4244
 20
3.66747
 30
0.000000
  70
    32
  0
VERTEX
  8
AM_HID
  5
88D
 10
16.4245
 20
3.66852
 30
0.000000
  70
    32
  0
VERTEX
  8
AM_HID
  5
88E
 10
16.4246
 20
3.66957
 30
0.000000
  70
    32
  0
VERTEX
  8
AM_HID
  5
88F
 10
16.4247
 20
3.67062
 30
0.000000
  70
    32
  0
VERTEX
  8
AM_HID
  5
890
 10
16.4248
 20
3.67168
 30
0.000000
  70
    32
  0
VERTEX
  8
AM_HID
  5
891
 10
16.4249
 20
3.67273
 30
0.000000
  70
    32
  0
VERTEX
  8
AM_HID
  5
892
 10
16.4250
 20
3.67378
 30
0.000000
  70
    32
  0
VERTEX
  8
AM_HID
  5
893
 10
16.4251
 20
3.67484
 30
0.000000
  70
    32
  0
VERTEX
  8
AM_HID
  5
894
 10
16.4252
 20
3.67589
 30
0.000000
  70
    32
  0
VERTEX
  8
AM_HID
  5
895
 10
16.4252
 20
3.67695
 30
0.000000
  70
    32
  0
VERTEX
  8
AM_HID
  5
896
 10
16.4253
 20
3.67800
 30
0.000000
  70
    32
  0
VERTEX
  8
AM_HID
  5
897
 10
16.4254
 20
3.67906
 30
0.000000
  70
    32
  0
VERTEX
  8
AM_HID
  5
898
 10
16.4255
 20
3.68012
 30
0.000000
  70
    32
  0
VERTEX
  8
AM_HID
  5
899
 10
16.4256
 20
3.68117
 30
0.000000
  70
    32
  0
VERTEX
  8
AM_HID
  5
89A
 10
16.4257
 20
3.68223
 30
0.000000
  70
    32
  0
VERTEX
  8
AM_HID
  5
89B
 10
16.4258
 20
3.68329
 30
0.000000
  70
    32
  0
VERTEX
  8
AM_HID
  5
89C
 10
16.4258
 20
3.68436
 30
0.000000
  70
    32
  0
VERTEX
  8
AM_HID
  5
89D
 10
16.4259
 20
3.68542
 30
0.000000
  70
    32
  0
VERTEX
  8
AM_HID
  5
89E
 10
16.4260
 20
3.68648
 30
0.000000
  70
    32
  0
VERTEX
  8
AM_HID
  5
89F
 10
16.4261
 20
3.68755
 30
0.000000
  70
    32
  0
VERTEX
  8
AM_HID
  5
8A0
 10
16.4262
 20
3.68861
 30
0.000000
  70
    32
  0
VERTEX
  8
AM_HID
  5
8A1
 10
16.4262
 20
3.68968
 30
0.000000
  70
    32
  0
VERTEX
  8
AM_HID
  5
8A2
 10
16.4263
 20
3.69074
 30
0.000000
  70
    32
  0
VERTEX
  8
AM_HID
  5
8A3
 10
16.4264
 20
3.69181
 30
0.000000
  70
    32
  0
VERTEX
  8
AM_HID
  5
8A4
 10
16.4265
 20
3.69288
 30
0.000000
  70
    32
  0
VERTEX
  8
AM_HID
  5
8A5
 10
16.4265
 20
3.69395
 30
0.000000
  70
    32
  0
VERTEX
  8
AM_HID
  5
8A6
 10
16.4266
 20
3.69502
 30
0.000000
  70
    32
  0
VERTEX
  8
AM_HID
  5
8A7
 10
16.4267
 20
3.69610
 30
0.000000
  70
    32
  0
VERTEX
  8
AM_HID
  5
8A8
 10
16.4267
 20
3.69717
 30
0.000000
  70
    32
  0
VERTEX
  8
AM_HID
  5
8A9
 10
16.4268
 20
3.69825
 30
0.000000
  70
    32
  0
VERTEX
  8
AM_HID
  5
8AA
 10
16.4269
 20
3.69932
 30
0.000000
  70
    32
  0
VERTEX
  8
AM_HID
  5
8AB
 10
16.4269
 20
3.70040
 30
0.000000
  70
    32
  0
VERTEX
  8
AM_HID
  5
8AC
 10
16.4270
 20
3.70148
 30
0.000000
  70
    32
  0
VERTEX
  8
AM_HID
  5
8AD
 10
16.4271
 20
3.70256
 30
0.000000
  70
    32
  0
VERTEX
  8
AM_HID
  5
8AE
 10
16.4271
 20
3.70364
 30
0.000000
  70
    32
  0
VERTEX
  8
AM_HID
  5
8AF
 10
16.4272
 20
3.70472
 30
0.000000
  70
    32
  0
VERTEX
  8
AM_HID
  5
8B0
 10
16.4273
 20
3.70580
 30
0.000000
  70
    32
  0
VERTEX
  8
AM_HID
  5
8B1
 10
16.4273
 20
3.70689
 30
0.000000
  70
    32
  0
VERTEX
  8
AM_HID
  5
8B2
 10
16.4274
 20
3.70797
 30
0.000000
  70
    32
  0
VERTEX
  8
AM_HID
  5
8B3
 10
16.4274
 20
3.70906
 30
0.000000
  70
    32
  0
VERTEX
  8
AM_HID
  5
8B4
 10
16.4275
 20
3.71015
 30
0.000000
  70
    32
  0
VERTEX
  8
AM_HID
  5
8B5
 10
16.4275
 20
3.71124
 30
0.000000
  70
    32
  0
VERTEX
  8
AM_HID
  5
8B6
 10
16.4276
 20
3.71233
 30
0.000000
  70
    32
  0
VERTEX
  8
AM_HID
  5
8B7
 10
16.4276
 20
3.71342
 30
0.000000
  70
    32
  0
VERTEX
  8
AM_HID
  5
8B8
 10
16.4277
 20
3.71451
 30
0.000000
  70
    32
  0
VERTEX
  8
AM_HID
  5
8B9
 10
16.4277
 20
3.71561
 30
0.000000
  70
    32
  0
VERTEX
  8
AM_HID
  5
8BA
 10
16.4278
 20
3.71670
 30
0.000000
  70
    32
  0
VERTEX
  8
AM_HID
  5
8BB
 10
16.4278
 20
3.71780
 30
0.000000
  70
    32
  0
VERTEX
  8
AM_HID
  5
8BC
 10
16.4279
 20
3.71890
 30
0.000000
  70
    32
  0
VERTEX
  8
AM_HID
  5
8BD
 10
16.4279
 20
3.72000
 30
0.000000
  70
    32
  0
VERTEX
  8
AM_HID
  5
8BE
 10
16.4279
 20
3.72110
 30
0.000000
  70
    32
  0
VERTEX
  8
AM_HID
  5
8BF
 10
16.4280
 20
3.72221
 30
0.000000
  70
    32
  0
VERTEX
  8
AM_HID
  5
8C0
 10
16.4280
 20
3.72331
 30
0.000000
  70
    32
  0
VERTEX
  8
AM_HID
  5
8C1
 10
16.4281
 20
3.72442
 30
0.000000
  70
    32
  0
VERTEX
  8
AM_HID
  5
8C2
 10
16.4281
 20
3.72553
 30
0.000000
  70
    32
  0
VERTEX
  8
AM_HID
  5
8C3
 10
16.4281
 20
3.72664
 30
0.000000
  70
    32
  0
VERTEX
  8
AM_HID
  5
8C4
 10
16.4282
 20
3.72775
 30
0.000000
  70
    32
  0
VERTEX
  8
AM_HID
  5
8C5
 10
16.4282
 20
3.72886
 30
0.000000
  70
    32
  0
VERTEX
  8
AM_HID
  5
8C6
 10
16.4282
 20
3.72997
 30
0.000000
  70
    32
  0
VERTEX
  8
AM_HID
  5
8C7
 10
16.4282
 20
3.73109
 30
0.000000
  70
    32
  0
VERTEX
  8
AM_HID
  5
8C8
 10
16.4283
 20
3.73221
 30
0.000000
  70
    32
  0
VERTEX
  8
AM_HID
  5
8C9
 10
16.4283
 20
3.73333
 30
0.000000
  70
    32
  0
VERTEX
  8
AM_HID
  5
8CA
 10
16.4283
 20
3.73445
 30
0.000000
  70
    32
  0
VERTEX
  8
AM_HID
  5
8CB
 10
16.4283
 20
3.73557
 30
0.000000
  70
    32
  0
VERTEX
  8
AM_HID
  5
8CC
 10
16.4284
 20
3.73670
 30
0.000000
  70
    32
  0
VERTEX
  8
AM_HID
  5
8CD
 10
16.4284
 20
3.73782
 30
0.000000
  70
    32
  0
VERTEX
  8
AM_HID
  5
8CE
 10
16.4284
 20
3.73895
 30
0.000000
  70
    32
  0
VERTEX
  8
AM_HID
  5
8CF
 10
16.4284
 20
3.74008
 30
0.000000
  70
    32
  0
VERTEX
  8
AM_HID
  5
8D0
 10
16.4284
 20
3.74121
 30
0.000000
  70
    32
  0
VERTEX
  8
AM_HID
  5
8D1
 10
16.4284
 20
3.74234
 30
0.000000
  70
    32
  0
VERTEX
  8
AM_HID
  5
8D2
 10
16.4284
 20
3.74348
 30
0.000000
  70
    32
  0
VERTEX
  8
AM_HID
  5
8D3
 10
16.4284
 20
3.74461
 30
0.000000
  70
    32
  0
VERTEX
  8
AM_HID
  5
8D4
 10
16.4285
 20
3.74575
 30
0.000000
  70
    32
  0
VERTEX
  8
AM_HID
  5
8D5
 10
16.4285
 20
3.74689
 30
0.000000
  70
    32
  0
VERTEX
  8
AM_HID
  5
8D6
 10
16.4285
 20
3.74804
 30
0.000000
  70
    32
  0
VERTEX
  8
AM_HID
  5
8D7
 10
16.4285
 20
3.74918
 30
0.000000
  70
    32
  0
VERTEX
  8
AM_HID
  5
8D8
 10
16.4285
 20
3.75033
 30
0.000000
  70
    32
  0
SEQEND
  8
AM_HID
  5
8D9
  0
ARC
  5
42
  8
AM_HID
 10
17.320560759292519
 20
3.7096574445785349
 30
0.0
 40
1.077545184671963
 50
162.61736628898481
 51
167.1556347230362
  0
ARC
  5
43
  8
AM_HID
 10
17.320560759292579
 20
3.7909940313224122
 30
0.0
 40
1.077545184672033
 50
192.84436527696451
 51
197.3826337110151
  0
POLYLINE
  8
AM_HID
  5
8DA
  66
     1
 10
0.000000
 20
0.000000
 30
0.000000
  70
     8
  0
VERTEX
  8
AM_HID
  5
8DB
 10
16.4285
 20
3.75033
 30
0.000000
  70
    32
  0
VERTEX
  8
AM_HID
  5
8DC
 10
16.4285
 20
3.75147
 30
0.000000
  70
    32
  0
VERTEX
  8
AM_HID
  5
8DD
 10
16.4285
 20
3.75262
 30
0.000000
  70
    32
  0
VERTEX
  8
AM_HID
  5
8DE
 10
16.4285
 20
3.75376
 30
0.000000
  70
    32
  0
VERTEX
  8
AM_HID
  5
8DF
 10
16.4285
 20
3.75490
 30
0.000000
  70
    32
  0
VERTEX
  8
AM_HID
  5
8E0
 10
16.4284
 20
3.75604
 30
0.000000
  70
    32
  0
VERTEX
  8
AM_HID
  5
8E1
 10
16.4284
 20
3.75717
 30
0.000000
  70
    32
  0
VERTEX
  8
AM_HID
  5
8E2
 10
16.4284
 20
3.75831
 30
0.000000
  70
    32
  0
VERTEX
  8
AM_HID
  5
8E3
 10
16.4284
 20
3.75944
 30
0.000000
  70
    32
  0
VERTEX
  8
AM_HID
  5
8E4
 10
16.4284
 20
3.76057
 30
0.000000
  70
    32
  0
VERTEX
  8
AM_HID
  5
8E5
 10
16.4284
 20
3.76170
 30
0.000000
  70
    32
  0
VERTEX
  8
AM_HID
  5
8E6
 10
16.4284
 20
3.76283
 30
0.000000
  70
    32
  0
VERTEX
  8
AM_HID
  5
8E7
 10
16.4284
 20
3.76396
 30
0.000000
  70
    32
  0
VERTEX
  8
AM_HID
  5
8E8
 10
16.4283
 20
3.76508
 30
0.000000
  70
    32
  0
VERTEX
  8
AM_HID
  5
8E9
 10
16.4283
 20
3.76620
 30
0.000000
  70
    32
  0
VERTEX
  8
AM_HID
  5
8EA
 10
16.4283
 20
3.76732
 30
0.000000
  70
    32
  0
VERTEX
  8
AM_HID
  5
8EB
 10
16.4283
 20
3.76844
 30
0.000000
  70
    32
  0
VERTEX
  8
AM_HID
  5
8EC
 10
16.4282
 20
3.76956
 30
0.000000
  70
    32
  0
VERTEX
  8
AM_HID
  5
8ED
 10
16.4282
 20
3.77068
 30
0.000000
  70
    32
  0
VERTEX
  8
AM_HID
  5
8EE
 10
16.4282
 20
3.77179
 30
0.000000
  70
    32
  0
VERTEX
  8
AM_HID
  5
8EF
 10
16.4282
 20
3.77290
 30
0.000000
  70
    32
  0
VERTEX
  8
AM_HID
  5
8F0
 10
16.4281
 20
3.77402
 30
0.000000
  70
    32
  0
VERTEX
  8
AM_HID
  5
8F1
 10
16.4281
 20
3.77512
 30
0.000000
  70
    32
  0
VERTEX
  8
AM_HID
  5
8F2
 10
16.4281
 20
3.77623
 30
0.000000
  70
    32
  0
VERTEX
  8
AM_HID
  5
8F3
 10
16.4280
 20
3.77734
 30
0.000000
  70
    32
  0
VERTEX
  8
AM_HID
  5
8F4
 10
16.4280
 20
3.77844
 30
0.000000
  70
    32
  0
VERTEX
  8
AM_HID
  5
8F5
 10
16.4279
 20
3.77955
 30
0.000000
  70
    32
  0
VERTEX
  8
AM_HID
  5
8F6
 10
16.4279
 20
3.78065
 30
0.000000
  70
    32
  0
VERTEX
  8
AM_HID
  5
8F7
 10
16.4279
 20
3.78175
 30
0.000000
  70
    32
  0
VERTEX
  8
AM_HID
  5
8F8
 10
16.4278
 20
3.78285
 30
0.000000
  70
    32
  0
VERTEX
  8
AM_HID
  5
8F9
 10
16.4278
 20
3.78395
 30
0.000000
  70
    32
  0
VERTEX
  8
AM_HID
  5
8FA
 10
16.4277
 20
3.78504
 30
0.000000
  70
    32
  0
VERTEX
  8
AM_HID
  5
8FB
 10
16.4277
 20
3.78614
 30
0.000000
  70
    32
  0
VERTEX
  8
AM_HID
  5
8FC
 10
16.4276
 20
3.78723
 30
0.000000
  70
    32
  0
VERTEX
  8
AM_HID
  5
8FD
 10
16.4276
 20
3.78832
 30
0.000000
  70
    32
  0
VERTEX
  8
AM_HID
  5
8FE
 10
16.4275
 20
3.78942
 30
0.000000
  70
    32
  0
VERTEX
  8
AM_HID
  5
8FF
 10
16.4275
 20
3.79051
 30
0.000000
  70
    32
  0
VERTEX
  8
AM_HID
  5
900
 10
16.4274
 20
3.79159
 30
0.000000
  70
    32
  0
VERTEX
  8
AM_HID
  5
901
 10
16.4274
 20
3.79268
 30
0.000000
  70
    32
  0
VERTEX
  8
AM_HID
  5
902
 10
16.4273
 20
3.79377
 30
0.000000
  70
    32
  0
VERTEX
  8
AM_HID
  5
903
 10
16.4273
 20
3.79485
 30
0.000000
  70
    32
  0
VERTEX
  8
AM_HID
  5
904
 10
16.4272
 20
3.79593
 30
0.000000
  70
    32
  0
VERTEX
  8
AM_HID
  5
905
 10
16.4271
 20
3.79702
 30
0.000000
  70
    32
  0
VERTEX
  8
AM_HID
  5
906
 10
16.4271
 20
3.79810
 30
0.000000
  70
    32
  0
VERTEX
  8
AM_HID
  5
907
 10
16.4270
 20
3.79918
 30
0.000000
  70
    32
  0
VERTEX
  8
AM_HID
  5
908
 10
16.4269
 20
3.80025
 30
0.000000
  70
    32
  0
VERTEX
  8
AM_HID
  5
909
 10
16.4269
 20
3.80133
 30
0.000000
  70
    32
  0
VERTEX
  8
AM_HID
  5
90A
 10
16.4268
 20
3.80241
 30
0.000000
  70
    32
  0
VERTEX
  8
AM_HID
  5
90B
 10
16.4267
 20
3.80348
 30
0.000000
  70
    32
  0
VERTEX
  8
AM_HID
  5
90C
 10
16.4267
 20
3.80455
 30
0.000000
  70
    32
  0
VERTEX
  8
AM_HID
  5
90D
 10
16.4266
 20
3.80563
 30
0.000000
  70
    32
  0
VERTEX
  8
AM_HID
  5
90E
 10
16.4265
 20
3.80670
 30
0.000000
  70
    32
  0
VERTEX
  8
AM_HID
  5
90F
 10
16.4265
 20
3.80777
 30
0.000000
  70
    32
  0
VERTEX
  8
AM_HID
  5
910
 10
16.4264
 20
3.80884
 30
0.000000
  70
    32
  0
VERTEX
  8
AM_HID
  5
911
 10
16.4263
 20
3.80991
 30
0.000000
  70
    32
  0
VERTEX
  8
AM_HID
  5
912
 10
16.4262
 20
3.81097
 30
0.000000
  70
    32
  0
VERTEX
  8
AM_HID
  5
913
 10
16.4262
 20
3.81204
 30
0.000000
  70
    32
  0
VERTEX
  8
AM_HID
  5
914
 10
16.4261
 20
3.81311
 30
0.000000
  70
    32
  0
VERTEX
  8
AM_HID
  5
915
 10
16.4260
 20
3.81417
 30
0.000000
  70
    32
  0
VERTEX
  8
AM_HID
  5
916
 10
16.4259
 20
3.81523
 30
0.000000
  70
    32
  0
VERTEX
  8
AM_HID
  5
917
 10
16.4258
 20
3.81630
 30
0.000000
  70
    32
  0
VERTEX
  8
AM_HID
  5
918
 10
16.4258
 20
3.81736
 30
0.000000
  70
    32
  0
VERTEX
  8
AM_HID
  5
919
 10
16.4257
 20
3.81842
 30
0.000000
  70
    32
  0
VERTEX
  8
AM_HID
  5
91A
 10
16.4256
 20
3.81948
 30
0.000000
  70
    32
  0
VERTEX
  8
AM_HID
  5
91B
 10
16.4255
 20
3.82054
 30
0.000000
  70
    32
  0
VERTEX
  8
AM_HID
  5
91C
 10
16.4254
 20
3.82159
 30
0.000000
  70
    32
  0
VERTEX
  8
AM_HID
  5
91D
 10
16.4253
 20
3.82265
 30
0.000000
  70
    32
  0
VERTEX
  8
AM_HID
  5
91E
 10
16.4252
 20
3.82371
 30
0.000000
  70
    32
  0
VERTEX
  8
AM_HID
  5
91F
 10
16.4252
 20
3.82476
 30
0.000000
  70
    32
  0
VERTEX
  8
AM_HID
  5
920
 10
16.4251
 20
3.82582
 30
0.000000
  70
    32
  0
VERTEX
  8
AM_HID
  5
921
 10
16.4250
 20
3.82687
 30
0.000000
  70
    32
  0
VERTEX
  8
AM_HID
  5
922
 10
16.4249
 20
3.82792
 30
0.000000
  70
    32
  0
VERTEX
  8
AM_HID
  5
923
 10
16.4248
 20
3.82898
 30
0.000000
  70
    32
  0
VERTEX
  8
AM_HID
  5
924
 10
16.4247
 20
3.83003
 30
0.000000
  70
    32
  0
VERTEX
  8
AM_HID
  5
925
 10
16.4246
 20
3.83108
 30
0.000000
  70
    32
  0
VERTEX
  8
AM_HID
  5
926
 10
16.4245
 20
3.83213
 30
0.000000
  70
    32
  0
VERTEX
  8
AM_HID
  5
927
 10
16.4244
 20
3.83318
 30
0.000000
  70
    32
  0
VERTEX
  8
AM_HID
  5
928
 10
16.4243
 20
3.83423
 30
0.000000
  70
    32
  0
VERTEX
  8
AM_HID
  5
929
 10
16.4242
 20
3.83527
 30
0.000000
  70
    32
  0
VERTEX
  8
AM_HID
  5
92A
 10
16.4241
 20
3.83632
 30
0.000000
  70
    32
  0
VERTEX
  8
AM_HID
  5
92B
 10
16.4240
 20
3.83737
 30
0.000000
  70
    32
  0
VERTEX
  8
AM_HID
  5
92C
 10
16.4239
 20
3.83841
 30
0.000000
  70
    32
  0
VERTEX
  8
AM_HID
  5
92D
 10
16.4238
 20
3.83946
 30
0.000000
  70
    32
  0
VERTEX
  8
AM_HID
  5
92E
 10
16.4237
 20
3.84051
 30
0.000000
  70
    32
  0
VERTEX
  8
AM_HID
  5
92F
 10
16.4236
 20
3.84155
 30
0.000000
  70
    32
  0
VERTEX
  8
AM_HID
  5
930
 10
16.4235
 20
3.84259
 30
0.000000
  70
    32
  0
VERTEX
  8
AM_HID
  5
931
 10
16.4234
 20
3.84364
 30
0.000000
  70
    32
  0
VERTEX
  8
AM_HID
  5
932
 10
16.4232
 20
3.84468
 30
0.000000
  70
    32
  0
VERTEX
  8
AM_HID
  5
933
 10
16.4231
 20
3.84572
 30
0.000000
  70
    32
  0
VERTEX
  8
AM_HID
  5
934
 10
16.4230
 20
3.84676
 30
0.000000
  70
    32
  0
VERTEX
  8
AM_HID
  5
935
 10
16.4229
 20
3.84781
 30
0.000000
  70
    32
  0
VERTEX
  8
AM_HID
  5
936
 10
16.4228
 20
3.84885
 30
0.000000
  70
    32
  0
VERTEX
  8
AM_HID
  5
937
 10
16.4227
 20
3.84989
 30
0.000000
  70
    32
  0
VERTEX
  8
AM_HID
  5
938
 10
16.4226
 20
3.85093
 30
0.000000
  70
    32
  0
VERTEX
  8
AM_HID
  5
939
 10
16.4225
 20
3.85197
 30
0.000000
  70
    32
  0
VERTEX
  8
AM_HID
  5
93A
 10
16.4223
 20
3.85301
 30
0.000000
  70
    32
  0
VERTEX
  8
AM_HID
  5
93B
 10
16.4222
 20
3.85405
 30
0.000000
  70
    32
  0
VERTEX
  8
AM_HID
  5
93C
 10
16.4221
 20
3.85509
 30
0.000000
  70
    32
  0
VERTEX
  8
AM_HID
  5
93D
 10
16.4220
 20
3.85612
 30
0.000000
  70
    32
  0
VERTEX
  8
AM_HID
  5
93E
 10
16.4219
 20
3.85716
 30
0.000000
  70
    32
  0
VERTEX
  8
AM_HID
  5
93F
 10
16.4218
 20
3.85820
 30
0.000000
  70
    32
  0
VERTEX
  8
AM_HID
  5
940
 10
16.4216
 20
3.85924
 30
0.000000
  70
    32
  0
VERTEX
  8
AM_HID
  5
941
 10
16.4215
 20
3.86027
 30
0.000000
  70
    32
  0
VERTEX
  8
AM_HID
  5
942
 10
16.4214
 20
3.86131
 30
0.000000
  70
    32
  0
VERTEX
  8
AM_HID
  5
943
 10
16.4213
 20
3.86235
 30
0.000000
  70
    32
  0
VERTEX
  8
AM_HID
  5
944
 10
16.4211
 20
3.86339
 30
0.000000
  70
    32
  0
VERTEX
  8
AM_HID
  5
945
 10
16.4210
 20
3.86442
 30
0.000000
  70
    32
  0
VERTEX
  8
AM_HID
  5
946
 10
16.4209
 20
3.86546
 30
0.000000
  70
    32
  0
VERTEX
  8
AM_HID
  5
947
 10
16.4208
 20
3.86649
 30
0.000000
  70
    32
  0
VERTEX
  8
AM_HID
  5
948
 10
16.4206
 20
3.86753
 30
0.000000
  70
    32
  0
VERTEX
  8
AM_HID
  5
949
 10
16.4205
 20
3.86857
 30
0.000000
  70
    32
  0
VERTEX
  8
AM_HID
  5
94A
 10
16.4204
 20
3.86960
 30
0.000000
  70
    32
  0
VERTEX
  8
AM_HID
  5
94B
 10
16.4203
 20
3.87064
 30
0.000000
  70
    32
  0
VERTEX
  8
AM_HID
  5
94C
 10
16.4201
 20
3.87167
 30
0.000000
  70
    32
  0
VERTEX
  8
AM_HID
  5
94D
 10
16.4200
 20
3.87271
 30
0.000000
  70
    32
  0
VERTEX
  8
AM_HID
  5
94E
 10
16.4199
 20
3.87374
 30
0.000000
  70
    32
  0
VERTEX
  8
AM_HID
  5
94F
 10
16.4197
 20
3.87478
 30
0.000000
  70
    32
  0
VERTEX
  8
AM_HID
  5
950
 10
16.4196
 20
3.87581
 30
0.000000
  70
    32
  0
VERTEX
  8
AM_HID
  5
951
 10
16.4195
 20
3.87685
 30
0.000000
  70
    32
  0
VERTEX
  8
AM_HID
  5
952
 10
16.4194
 20
3.87788
 30
0.000000
  70
    32
  0
VERTEX
  8
AM_HID
  5
953
 10
16.4192
 20
3.87892
 30
0.000000
  70
    32
  0
VERTEX
  8
AM_HID
  5
954
 10
16.4191
 20
3.87996
 30
0.000000
  70
    32
  0
VERTEX
  8
AM_HID
  5
955
 10
16.4190
 20
3.88099
 30
0.000000
  70
    32
  0
VERTEX
  8
AM_HID
  5
956
 10
16.4188
 20
3.88203
 30
0.000000
  70
    32
  0
VERTEX
  8
AM_HID
  5
957
 10
16.4187
 20
3.88306
 30
0.000000
  70
    32
  0
VERTEX
  8
AM_HID
  5
958
 10
16.4185
 20
3.88410
 30
0.000000
  70
    32
  0
VERTEX
  8
AM_HID
  5
959
 10
16.4184
 20
3.88513
 30
0.000000
  70
    32
  0
VERTEX
  8
AM_HID
  5
95A
 10
16.4183
 20
3.88617
 30
0.000000
  70
    32
  0
SEQEND
  8
AM_HID
  5
95B
  0
ARC
  5
45
  8
AM_VIS
 10
16.505222972434741
 20
4.3409507379504548
 30
0.0
 40
0.2249999999999976
 50
249.71727183771199
 51
270.0
  0
LINE
  5
46
  8
AM_VIS
 10
16.59597606795791
 20
3.3847007379504621
 30
0.0
 11
16.59597606795791
 21
3.5198720621657511
 31
0.0
  0
LINE
  5
47
  8
AM_VIS
 10
16.59597606795791
 20
3.9807794137351689
 30
0.0
 11
16.59597606795791
 21
4.115950737950457
 31
0.0
  0
LINE
  5
48
  8
AM_VIS
 10
16.59597606795818
 20
3.9807794137351689
 30
0.0
 11
16.59597606795818
 21
3.7503257379495838
 31
0.0
  0
LINE
  5
49
  8
AM_VIS
 10
16.427226067957911
 20
4.9957007379504583
 30
0.0
 11
16.427226067957911
 21
4.1299022058730408
 31
0.0
  0
LINE
  5
4A
  8
AM_VIS
 10
14.35722606795791
 20
6.1533257379504569
 30
0.0
 11
14.35722606795791
 21
3.75032573795046
 31
0.0
  0
LINE
  5
4B
  8
AM_HID
 10
16.292226067957909
 20
5.8675757379504576
 30
0.0
 11
16.59597606795791
 21
5.8675757379504576
 31
0.0
  0
LINE
  5
4C
  8
AM_HID
 10
16.292226067957909
 20
5.3050757379504576
 30
0.0
 11
16.59597606795791
 21
5.3050757379504576
 31
0.0
  0
LINE
  5
4D
  8
AM_VIS
 10
16.427226067957911
 20
3.3707492700278801
 30
0.0
 11
16.427226067957911
 21
2.5049507379504559
 31
0.0
  0
LINE
  5
4E
  8
AM_VIS
 10
14.35722606795791
 20
3.75032573795046
 30
0.0
 11
14.35722606795791
 21
1.347325737950458
 31
0.0
  0
LINE
  5
4F
  8
AM_HID
 10
16.59597606795791
 20
1.6330757379504559
 30
0.0
 11
16.292226067957909
 21
1.6330757379504559
 31
0.0
  0
LINE
  5
50
  8
AM_HID
 10
16.59597606795791
 20
2.195575737950457
 30
0.0
 11
16.292226067957909
 21
2.195575737950457
 31
0.0
  0
LINE
  5
51
  8
AM_HID
 10
14.49222606795791
 20
3.75032573795046
 30
0.0
 11
14.49222606795791
 21
6.1533257379504569
 31
0.0
  0
LINE
  5
52
  8
AM_HID
 10
16.292226067957909
 20
4.0315757379504618
 30
0.0
 11
16.292226067957909
 21
5.3050757379504576
 31
0.0
  0
LINE
  5
53
  8
AM_HID
 10
16.292226067957909
 20
5.8675757379504567
 30
0.0
 11
16.292226067957909
 21
6.1533257379504569
 31
0.0
  0
LINE
  5
54
  8
AM_HID
 10
14.49222606795791
 20
1.347325737950458
 30
0.0
 11
14.49222606795791
 21
3.75032573795046
 31
0.0
  0
LINE
  5
55
  8
AM_HID
 10
16.292226067957909
 20
1.3473257379504571
 30
0.0
 11
16.292226067957909
 21
1.633075737950457
 31
0.0
  0
LINE
  5
56
  8
AM_HID
 10
16.292226067957909
 20
2.195575737950457
 30
0.0
 11
16.292226067957909
 21
3.4690757379504622
 31
0.0
  0
LINE
  5
57
  8
AM_VIS
 10
16.505222972434741
 20
3.3847007379504621
 30
0.0
 11
16.59597606795791
 21
3.3847007379504621
 31
0.0
  0
LINE
  5
58
  8
AM_VIS
 10
16.59597606795791
 20
4.1159507379504587
 30
0.0
 11
16.505222972434741
 21
4.1159507379504587
 31
0.0
  0
LINE
  5
59
  8
AM_HID
 10
16.292226067957909
 20
4.0315757379504618
 30
0.0
 11
16.59597606795791
 21
4.0315757379504618
 31
0.0
  0
LINE
  5
5A
  8
AM_HID
 10
16.292226067957909
 20
3.4690757379504622
 30
0.0
 11
16.59597606795791
 21
3.4690757379504622
 31
0.0
  0
INSERT
  5
174
  8
0
  2
*U7
 10
0.0
 20
0.0
 30
0.0
  0
INSERT
  5
175
  8
0
  2
*U8
 10
0.0
 20
0.0
 30
0.0
  0
LINE
  5
177
  8
0
 10
14.30097606795791
 20
6.1533257379504569
 30
0.0
 11
13.291679164958399
 21
6.1533257379504578
 31
0.0
  0
LINE
  5
178
  8
0
 10
14.30097606795791
 20
1.347325737950458
 30
0.0
 11
13.291679164958399
 21
1.347325737950458
 31
0.0
  0
LINE
  5
179
  8
0
 10
13.4536791649584
 20
6.0408257379504571
 30
0.0
 11
13.4536791649584
 21
4.0563257379504583
 31
0.0
  0
LINE
  5
17A
  8
0
 10
13.453679164958389
 20
1.459825737950458
 30
0.0
 11
13.453679164958389
 21
3.4443257379504582
 31
0.0
  0
SOLID
  5
17B
  8
0
 10
13.434929164958399
 20
6.0408257379504571
 30
0.0
 11
13.472429164958401
 21
6.0408257379504571
 31
0.0
 12
13.4536791649584
 22
6.1533257379504578
 32
0.0
 13
13.4536791649584
 23
6.1533257379504578
 33
0.0
  0
SOLID
  5
17C
  8
0
 10
13.43492916495839
 20
1.459825737950458
 30
0.0
 11
13.47242916495839
 21
1.459825737950458
 31
0.0
 12
13.453679164958389
 22
1.347325737950458
 32
0.0
 13
13.453679164958389
 23
1.347325737950458
 33
0.0
  0
INSERT
  5
17D
  8
0
  2
*U9
 10
0.0
 20
0.0
 30
0.0
  0
ENDSEC
  0
EOF
