  0
SECTION
  2
HEADER
  9
$ACADVER
  1
AC1009
  9
$INSBASE
 10
0.0
 20
0.0
 30
0.0
  9
$EXTMIN
 10
7.9349155681823991
 20
1.0325479958708701
 30
0.0
  9
$EXTMAX
 10
12.026587914584519
 20
6.0355614133582502
 30
0.0
  9
$LIMMIN
 10
0.0
 20
0.0
  9
$LIMMAX
 10
12.0
 20
9.0
  9
$ORTHOMODE
 70
     1
  9
$REGENMODE
 70
     0
  9
$FILLMODE
 70
     1
  9
$QTEXTMODE
 70
     0
  9
$MIRRTEXT
 70
     0
  9
$DRAGMODE
 70
     2
  9
$LTSCALE
 40
1.0
  9
$OSMODE
 70
    55
  9
$ATTMODE
 70
     1
  9
$TEXTSIZE
 40
0.2
  9
$TRACEWID
 40
0.05
  9
$TEXTSTYLE
  7
STANDARD
  9
$CLAYER
  8
0
  9
$CELTYPE
  6
BYLAYER
  9
$CECOLOR
 62
   256
  9
$DIMSCALE
 40
1.0
  9
$DIMASZ
 40
0.125
  9
$DIMEXO
 40
0.0625
  9
$DIMDLI
 40
0.38
  9
$DIMRND
 40
0.0
  9
$DIMDLE
 40
0.0
  9
$DIMEXE
 40
0.18
  9
$DIMTP
 40
0.0
  9
$DIMTM
 40
0.0
  9
$DIMTXT
 40
0.09375
  9
$DIMCEN
 40
-0.125
  9
$DIMTSZ
 40
0.0
  9
$DIMTOL
 70
     0
  9
$DIMLIM
 70
     0
  9
$DIMTIH
 70
     0
  9
$DIMTOH
 70
     0
  9
$DIMSE1
 70
     0
  9
$DIMSE2
 70
     0
  9
$DIMTAD
 70
     0
  9
$DIMZIN
 70
     3
  9
$DIMBLK
  1

  9
$DIMASO
 70
     0
  9
$DIMSHO
 70
     1
  9
$DIMPOST
  1

  9
$DIMAPOST
  1

  9
$DIMALT
 70
     0
  9
$DIMALTD
 70
     2
  9
$DIMALTF
 40
25.399999999999999
  9
$DIMLFAC
 40
1.0
  9
$DIMTOFL
 70
     1
  9
$DIMTVP
 40
0.0
  9
$DIMTIX
 70
     0
  9
$DIMSOXD
 70
     0
  9
$DIMSAH
 70
     0
  9
$DIMBLK1
  1

  9
$DIMBLK2
  1

  9
$DIMSTYLE
  2
STANDARD
  9
$DIMCLRD
 70
     0
  9
$DIMCLRE
 70
     0
  9
$DIMCLRT
 70
     0
  9
$DIMTFAC
 40
1.0
  9
$DIMGAP
 40
0.09
  9
$LUNITS
 70
     4
  9
$LUPREC
 70
     4
  9
$SKETCHINC
 40
0.1
  9
$FILLETRAD
 40
1.3125
  9
$AUNITS
 70
     0
  9
$AUPREC
 70
     4
  9
$MENU
  1
.
  9
$ELEVATION
 40
0.0
  9
$PELEVATION
 40
0.0
  9
$THICKNESS
 40
0.0
  9
$LIMCHECK
 70
     0
  9
$BLIPMODE
 70
     0
  9
$CHAMFERA
 40
0.125
  9
$CHAMFERB
 40
0.5
  9
$SKPOLY
 70
     0
  9
$TDCREATE
 40
2451086.9109346061
  9
$TDUPDATE
 40
2453913.5739439242
  9
$TDINDWG
 40
0.0845961574
  9
$TDUSRTIMER
 40
0.0845961574
  9
$USRTIMER
 70
     1
  9
$ANGBASE
 50
0.0
  9
$ANGDIR
 70
     0
  9
$PDMODE
 70
    34
  9
$PDSIZE
 40
3.0
  9
$PLINEWID
 40
0.0
  9
$COORDS
 70
     1
  9
$SPLFRAME
 70
     0
  9
$SPLINETYPE
 70
     6
  9
$SPLINESEGS
 70
     8
  9
$ATTDIA
 70
     0
  9
$ATTREQ
 70
     1
  9
$HANDLING
 70
     1
  9
$HANDSEED
  5
34A
  9
$SURFTAB1
 70
     6
  9
$SURFTAB2
 70
     6
  9
$SURFTYPE
 70
     6
  9
$SURFU
 70
     6
  9
$SURFV
 70
     6
  9
$UCSNAME
  2

  9
$UCSORG
 10
0.0
 20
0.0
 30
0.0
  9
$UCSXDIR
 10
1.0
 20
0.0
 30
0.0
  9
$UCSYDIR
 10
0.0
 20
1.0
 30
0.0
  9
$PUCSNAME
  2

  9
$PUCSORG
 10
0.0
 20
0.0
 30
0.0
  9
$PUCSXDIR
 10
1.0
 20
0.0
 30
0.0
  9
$PUCSYDIR
 10
0.0
 20
1.0
 30
0.0
  9
$USERI1
 70
     0
  9
$USERI2
 70
     0
  9
$USERI3
 70
     0
  9
$USERI4
 70
     0
  9
$USERI5
 70
     0
  9
$USERR1
 40
0.0
  9
$USERR2
 40
0.0
  9
$USERR3
 40
0.0
  9
$USERR4
 40
0.0
  9
$USERR5
 40
0.0
  9
$WORLDVIEW
 70
     1
  9
$SHADEDGE
 70
     3
  9
$SHADEDIF
 70
    70
  9
$TILEMODE
 70
     1
  9
$MAXACTVP
 70
    48
  9
$PLIMCHECK
 70
     0
  9
$PEXTMIN
 10
7.8109463460747603
 20
0.9085787737632333
 30
0.0
  9
$PEXTMAX
 10
18.766850725076011
 20
10.631333352877689
 30
0.0
  9
$PLIMMIN
 10
-0.1579164520023376
 20
-0.2812499887361301
  9
$PLIMMAX
 10
10.84208330770177
 20
8.2187497709679782
  9
$UNITMODE
 70
     0
  9
$VISRETAIN
 70
     1
  9
$PLINEGEN
 70
     0
  9
$PSLTSCALE
 70
     1
  0
ENDSEC
  0
SECTION
  2
TABLES
  0
TABLE
  2
VPORT
 70
     2
  0
VPORT
  2
*ACTIVE
 70
     0
 10
0.0
 20
0.0
 11
1.0
 21
1.0
 12
5.5154946708390709
 22
0.1469979093009668
 13
0.0
 23
0.0
 14
0.5
 24
0.5
 15
0.5
 25
0.5
 16
0.0
 26
0.0
 36
1.0
 17
6.0132939572922579
 27
3.3872352037912088
 37
0.0
 40
5.0597007918326939
 41
2.38716814159292
 42
50.0
 43
0.0
 44
0.0
 50
0.0
 51
0.0
 71
     0
 72
   100
 73
     1
 74
     1
 75
     0
 76
     0
 77
     0
 78
     0
  0
ENDTAB
  0
TABLE
  2
LTYPE
 70
    12
  0
LTYPE
  2
CONTINUOUS
 70
     0
  3
Solid line
 72
    65
 73
     0
 40
0.0
  0
LTYPE
  2
HIDDEN
 70
     0
  3
__ __ __ __ __ __ __ __ __ __ __ __ __ __ __ __
 72
    65
 73
     2
 40
0.375
 49
0.25
 49
-0.125
  0
LTYPE
  2
PHANTOM2
 70
     0
  3
Phantom (.5x) ___ _ _ ___ _ _ ___ _ _ ___ _ _
 72
    65
 73
     6
 40
1.25
 49
0.625
 49
-0.125
 49
0.125
 49
-0.125
 49
0.125
 49
-0.125
  0
LTYPE
  2
CENTER
 70
     0
  3
Center ____ _ ____ _ ____ _ ____ _ ____ _ ____
 72
    65
 73
     4
 40
2.0
 49
1.25
 49
-0.25
 49
0.25
 49
-0.25
  0
LTYPE
  2
AMCONSTR
 70
     0
  3
_______________________
 72
    65
 73
     2
 40
9999.0
 49
9999.0
 49
0.0
  0
LTYPE
  2
CENTER2
 70
     0
  3
Center (.5x) ___ _ ___ _ ___ _ ___ _ ___ _ ___
 72
    65
 73
     4
 40
1.125
 49
0.75
 49
-0.125
 49
0.125
 49
-0.125
  0
LTYPE
  2
HIDDEN2
 70
     0
  3
Hidden (.5x) _ _ _ _ _ _ _ _ _ _ _ _ _ _ _ _ _
 72
    65
 73
     2
 40
0.1875
 49
0.125
 49
-0.0625
  0
LTYPE
  2
AMZIGZAG2
 70
     0
  3
/\/-/\/-/\/-/\/-/\/-/\/
 72
    65
 73
     2
 40
0.4401
 49
0.0001
 49
-0.4400000000000001
  0
LTYPE
  2
ACANSTGB
 70
     0
  3
__ . . __ . .
 72
    65
 73
     6
 40
0.35433070866
 49
0.15748031496
 49
-0.03937007874
 49
0.03937007874
 49
-0.03937007874
 49
0.03937007874
 49
-0.03937007874
  0
LTYPE
  2
ACANSTGL
 70
     0
  3
_ _ _ _ _
 72
    65
 73
     2
 40
0.11811023622
 49
0.07874015748
 49
-0.03937007874
  0
LTYPE
  2
ASULTYPE
 70
     0
  3
Solid line
 72
    65
 73
     2
 40
3.0
 49
2.5
 49
0.5
  0
LTYPE
  2
ASVLTYPE
 70
     0
  3
__ __ __ __ __ __ __ __ __ __ __ __ __ __ __ __ __ __ __ __ __
 72
    65
 73
     2
 40
0.75
 49
0.5
 49
-0.25
  0
ENDTAB
  0
TABLE
  2
LAYER
 70
     4
  0
LAYER
  2
0
 70
     0
 62
     7
  6
CONTINUOUS
  0
LAYER
  2
AM_VIS
 70
     0
 62
     7
  6
CONTINUOUS
  0
LAYER
  2
AM_HID
 70
     0
 62
     7
  6
HIDDEN
  0
LAYER
  2
KEE10
 70
     0
 62
     7
  6
CONTINUOUS
  0
ENDTAB
  0
TABLE
  2
STYLE
 70
     5
  0
STYLE
  2
STANDARD
 70
     0
 40
0.0
 41
1.0
 50
0.0
 71
     0
 42
0.2
  3
txt
  4

  0
STYLE
  2

 70
     1
 40
0.0
 41
1.0
 50
0.0
 71
     0
 42
0.2
  3
ltypeshp.shx
  4

  0
STYLE
  2
ACANSTS
 70
     0
 40
1.0
 41
1.0
 50
0.0
 71
     0
 42
0.2
  3
romans.shx
  4

  0
STYLE
  2
ACANSGDT
 70
     0
 40
0.0
 41
1.0
 50
0.0
 71
     0
 42
0.2
  3
amgdtans.shx
  4

  0
STYLE
  2
ACANSTSB
 70
     0
 40
1.0
 41
1.0
 50
0.0
 71
     0
 42
0.2
  3
romans.shx
  4

  0
ENDTAB
  0
TABLE
  2
VIEW
 70
     0
  0
ENDTAB
  0
TABLE
  2
UCS
 70
     0
  0
ENDTAB
  0
TABLE
  2
APPID
 70
    13
  0
APPID
  2
ACAD
 70
     0
  0
APPID
  2
GENIUS_GENDIM_13
 70
     0
  0
APPID
  2
GENIUS_GENDTOL_13
 70
     0
  0
APPID
  2
GENIUS_GE3DTOL_13
 70
     0
  0
APPID
  2
MCAD_NO_VIS
 70
     0
  0
APPID
  2
ACAD_TEMP_GRAPHIC
 70
     0
  0
APPID
  2
AD_DRAW
 70
     0
  0
APPID
  2
ACATTRIBSERVICES
 70
     0
  0
APPID
  2
ASURF_PCURVE_APPNAME
 70
     0
  0
APPID
  2
AMG_3D2D_5_0
 70
     0
  0
APPID
  2
DESIGNERASSEMBLIES
 70
     0
  0
APPID
  2
ACADM_DIM_EDIT
 70
     0
  0
APPID
  2
AMDT_DM_ADJ
 70
     0
  0
ENDTAB
  0
TABLE
  2
DIMSTYLE
 70
     7
  0
DIMSTYLE
  2
STANDARD
 70
     0
  3

  4

  5

  6

  7

 40
1.0
 41
0.18
 42
0.0625
 43
0.38
 44
0.18
 45
0.0
 46
0.0
 47
0.0
 48
0.0
140
0.18
141
0.09
142
0.0
143
25.399999999999999
144
1.0
145
0.0
146
1.0
147
0.09
 71
     0
 72
     0
 73
     1
 74
     1
 75
     0
 76
     0
 77
     0
 78
     0
170
     0
171
     2
172
     0
173
     0
174
     0
175
     0
176
     0
177
     0
178
     0
  0
DIMSTYLE
  2
AM_ANSI
 70
     0
  3

  4
mm
  5

  6

  7

 40
1.0
 41
0.1
 42
0.05
 43
0.5
 44
0.1
 45
0.0
 46
0.0
 47
0.1
 48
0.1
140
0.12
141
0.0
142
0.0
143
25.399999999999999
144
1.0
145
0.0
146
0.71
147
0.06
 71
     0
 72
     0
 73
     1
 74
     1
 75
     0
 76
     0
 77
     0
 78
     7
170
     0
171
     2
172
     0
173
     0
174
     0
175
     0
176
   256
177
   256
178
     2
  0
DIMSTYLE
  2
AM_ANSI$3
 70
     0
  3

  4
mm
  5

  6

  7

 40
1.0
 41
0.1
 42
0.05
 43
0.5
 44
0.1
 45
0.0
 46
0.0
 47
0.1
 48
0.1
140
0.12
141
0.0
142
0.0
143
25.399999999999999
144
1.0
145
0.0
146
0.71
147
0.06
 71
     0
 72
     0
 73
     1
 74
     1
 75
     0
 76
     0
 77
     0
 78
     7
170
     0
171
     2
172
     0
173
     0
174
     0
175
     0
176
   256
177
   256
178
     2
  0
DIMSTYLE
  2
AM_ANSI$4
 70
     0
  3

  4
mm
  5

  6

  7

 40
1.0
 41
0.1
 42
0.05
 43
0.5
 44
0.1
 45
0.0
 46
0.0
 47
0.1
 48
0.1
140
0.12
141
0.0
142
0.0
143
25.399999999999999
144
1.0
145
0.0
146
0.71
147
0.06
 71
     0
 72
     0
 73
     1
 74
     1
 75
     0
 76
     0
 77
     0
 78
     7
170
     0
171
     2
172
     0
173
     0
174
     0
175
     0
176
   256
177
   256
178
     2
  0
DIMSTYLE
  2
AM_ANSI$7
 70
     0
  3

  4
mm
  5

  6

  7

 40
1.0
 41
0.1
 42
0.05
 43
0.5
 44
0.1
 45
0.0
 46
0.0
 47
0.1
 48
0.1
140
0.24
141
0.0
142
0.0
143
25.399999999999999
144
1.0
145
0.0
146
0.71
147
0.06
 71
     0
 72
     0
 73
     1
 74
     1
 75
     0
 76
     0
 77
     0
 78
     7
170
     0
171
     2
172
     0
173
     0
174
     0
175
     0
176
   256
177
   256
178
     2
  0
DIMSTYLE
  2
AM_ANSI$SF
 70
     0
  3

  4
mm
  5

  6

  7

 40
1.0
 41
0.1
 42
0.05
 43
0.5
 44
0.1
 45
0.0
 46
0.0
 47
0.1
 48
0.1
140
0.12
141
0.0
142
0.0
143
25.399999999999999
144
1.0
145
0.0
146
0.71
147
0.06
 71
     0
 72
     0
 73
     1
 74
     1
 75
     1
 76
     1
 77
     0
 78
     7
170
     0
171
     2
172
     0
173
     0
174
     0
175
     0
176
   256
177
   256
178
     2
  0
DIMSTYLE
  2
AM_ANSI$SH
 70
     0
  3

  4
mm
  5

  6
GENAXEH
  7

 40
1.0
 41
0.1
 42
0.05
 43
0.5
 44
0.1
 45
0.0
 46
0.0
 47
0.1
 48
0.1
140
0.12
141
0.0
142
0.0
143
25.399999999999999
144
1.0
145
0.0
146
0.71
147
0.06
 71
     0
 72
     0
 73
     1
 74
     1
 75
     1
 76
     1
 77
     0
 78
     7
170
     0
171
     2
172
     0
173
     1
174
     0
175
     0
176
   256
177
   256
178
     2
  0
ENDTAB
  0
ENDSEC
  0
SECTION
  2
BLOCKS
  0
BLOCK
  8
0
  2
$MODEL_SPACE
 70
     0
 10
0.0
 20
0.0
 30
0.0
  3
$MODEL_SPACE
  1

  0
ENDBLK
  5
A
  8
0
  0
BLOCK
 67
     1
  8
0
  2
$PAPER_SPACE
 70
     0
 10
0.0
 20
0.0
 30
0.0
  3
$PAPER_SPACE
  1

  0
ENDBLK
  5
F
 67
     1
  8
0
  0
BLOCK
  8
0
  2
*U0
 70
     1
 10
0.0
 20
0.0
 30
0.0
  3
*U0
  1

  0
ENDBLK
  5
147
  8
0
  0
BLOCK
  8
0
  2
GENAXEH
 70
     0
 10
0.0
 20
0.0
 30
0.0
  3
GENAXEH
  1

  0
LINE
  5
185
  8
0
 10
-1.0
 20
0.0
 30
0.0
 11
1.0
 21
0.0
 31
0.0
  0
ENDBLK
  5
187
  8
0
  0
BLOCK
  8
0
  2
_DOT
 70
     0
 10
0.0
 20
0.0
 30
0.0
  3
_DOT
  1

  0
POLYLINE
  5
1C2
  8
0
  6
BYBLOCK
 62
     0
 66
     1
 10
0.0
 20
0.0
 30
0.0
 70
     1
 40
0.5
 41
0.5
  0
VERTEX
  5
1C3
  8
0
  6
BYBLOCK
 62
     0
 10
-0.25
 20
0.0
 30
0.0
 42
1.0
  0
VERTEX
  5
1C4
  8
0
  6
BYBLOCK
 62
     0
 10
0.25
 20
0.0
 30
0.0
 42
1.0
  0
SEQEND
  5
1C5
  8
0
  6
BYBLOCK
 62
     0
  0
LINE
  5
1C6
  8
0
  6
BYBLOCK
 62
     0
 10
-0.5
 20
0.0
 30
0.0
 11
-1.0
 21
0.0
 31
0.0
  0
ENDBLK
  5
1C8
  8
0
  0
BLOCK
  8
0
  2
2D
 70
     0
 10
0.0
 20
0.0
 30
0.0
  3
2D
  1

  0
INSERT
  5
1CC
  8
0
  2
*U5
 10
0.0
 20
0.0
 30
0.0
  0
INSERT
  5
1CD
  8
0
  2
*U6
 10
0.0
 20
0.0
 30
0.0
  0
INSERT
  5
1CE
  8
0
  2
*U7
 10
0.0
 20
0.0
 30
0.0
  0
ENDBLK
  5
1D0
  8
0
  0
BLOCK
  8
0
  2
*U4
 70
     1
 10
0.0
 20
0.0
 30
0.0
  3
*U4
  1

  0
TEXT
  5
1EF
  8
0
 10
10.435761030948299
 20
5.8086864133582488
 30
0.0
 40
0.09375
  1
2-5/8"
  0
ENDBLK
  5
1F1
  8
0
  0
BLOCK
  8
0
  2
*U5
 70
     1
 10
0.0
 20
0.0
 30
0.0
  3
*U5
  1

  0
TEXT
  5
1F3
  8
KEE10
 10
-0.167740653382606
 20
0.7944046258072062
 30
0.0
 40
0.140625
  1
KEE
  0
ENDBLK
  5
1F5
  8
0
  0
BLOCK
  8
0
  2
*U6
 70
     1
 10
0.0
 20
0.0
 30
0.0
  3
*U6
  1

  0
TEXT
  5
1F7
  8
KEE10
 10
-0.308365653382606
 20
0.4858688129746218
 30
0.0
 40
0.140625
  1
KLAMP
  0
ENDBLK
  5
1F9
  8
0
  0
BLOCK
  8
0
  2
*U7
 70
     1
 10
0.0
 20
0.0
 30
0.0
  3
*U7
  1

  0
TEXT
  5
1FB
  8
KEE10
 10
-0.202896903382606
 20
0.2018753139112972
 30
0.0
 40
0.140625
  1
10-8
  0
ENDBLK
  5
1FD
  8
0
  0
BLOCK
  8
0
  2
*U8
 70
     1
 10
0.0
 20
0.0
 30
0.0
  3
*U8
  1

  0
TEXT
  5
1FF
  8
KEE10
 10
9.1505070257180101
 20
2.7208823466718388
 30
0.0
 40
0.140625
  1
KEE
  0
ENDBLK
  5
201
  8
0
  0
BLOCK
  8
0
  2
*U9
 70
     1
 10
0.0
 20
0.0
 30
0.0
  3
*U9
  1

  0
TEXT
  5
203
  8
KEE10
 10
9.0098820257180101
 20
2.412346533839254
 30
0.0
 40
0.140625
  1
KLAMP
  0
ENDBLK
  5
205
  8
0
  0
ENDSEC
  0
SECTION
  2
ENTITIES
  0
POINT
  5
25
  8
0
 10
0.0
 20
0.0
 30
0.0
  0
POINT
  5
26
  8
0
 10
0.0
 20
0.0
 30
0.0
  0
LINE
  5
29
  8
AM_VIS
 10
12.026587914584519
 20
1.3042203422729881
 30
0.0
 11
12.026587914584519
 21
3.6042203422729879
 31
0.0
  0
ARC
  5
2A
  8
AM_HID
 10
11.46658791458451
 20
2.45422034227298
 30
0.0
 40
0.3124999999999913
 50
179.99999999999821
 51
270.00000000000119
  0
ARC
  5
2D
  8
AM_HID
 10
11.46658791458451
 20
2.4542203422729969
 30
0.0
 40
0.3124999999999911
 50
89.999999999998764
 51
180.00000000000179
  0
ARC
  5
2E
  8
AM_HID
 10
11.466587914584521
 20
2.4542203422729969
 30
0.0
 40
0.3124999999999904
 50
359.99999999999818
 51
90.000000000001336
  0
ARC
  5
2F
  8
AM_HID
 10
11.466587914584521
 20
2.45422034227298
 30
0.0
 40
0.3124999999999918
 50
269.99999999999892
 51
0.0000000000017586
  0
ARC
  5
30
  8
AM_HID
 10
11.466587914584521
 20
2.4542203422729898
 30
0.0
 40
0.4062499999999999
 50
270.00000000000023
 51
320.92769244081973
  0
ARC
  5
31
  8
AM_HID
 10
11.47079746771554
 20
2.4658741095454251
 30
0.0
 40
0.4103297329045498
 50
319.29431560951798
 51
358.37178989421977
  0
ARC
  5
32
  8
AM_HID
 10
11.470797467715551
 20
2.4425665750005519
 30
0.0
 40
0.4103297329045477
 50
1.6282101057800871
 51
40.705684390482119
  0
ARC
  5
33
  8
AM_HID
 10
11.466587914584521
 20
2.454220342272984
 30
0.0
 40
0.4062500000000015
 50
39.072307559180622
 51
89.999999999999915
  0
ARC
  5
34
  8
AM_HID
 10
11.466587914584521
 20
2.4542203422729871
 30
0.0
 40
0.4062499999999985
 50
90.000000000000028
 51
140.92769244081961
  0
ARC
  5
35
  8
AM_HID
 10
11.46237836145348
 20
2.4425665750005519
 30
0.0
 40
0.4103297329045481
 50
139.29431560951789
 51
178.37178989421989
  0
ARC
  5
36
  8
AM_HID
 10
11.46237836145348
 20
2.4658741095454229
 30
0.0
 40
0.4103297329045459
 50
181.62821010578
 51
220.70568439048211
  0
ARC
  5
37
  8
AM_HID
 10
11.466587914584521
 20
2.4542203422729889
 30
0.0
 40
0.406249999999999
 50
219.0723075591803
 51
270.0
  0
LINE
  5
45
  8
AM_VIS
 10
10.506587914584509
 20
5.1242203422729906
 30
0.0
 11
8.2065879145845173
 21
5.1242203422729906
 31
0.0
  0
ARC
  5
46
  8
AM_HID
 10
9.3565879145845248
 20
4.5642203422729848
 30
0.0
 40
0.3124999999999916
 50
270.0
 51
0.0000000000028777
  0
ARC
  5
47
  8
AM_HID
 10
9.3565879145845088
 20
4.5642203422729848
 30
0.0
 40
0.3124999999999918
 50
179.99999999999719
 51
270.0
  0
ARC
  5
48
  8
AM_HID
 10
9.356587914584507
 20
4.564220342272999
 30
0.0
 40
0.3124999999999909
 50
90.0
 51
180.00000000000301
  0
ARC
  5
49
  8
AM_HID
 10
9.3565879145845248
 20
4.5642203422729981
 30
0.0
 40
0.312499999999992
 50
359.99999999999733
 51
90.0
  0
ARC
  5
4B
  8
AM_HID
 10
9.3565879145845159
 20
4.564220342272991
 30
0.0
 40
0.406249999999999
 50
0.0000000000000799
 51
50.927692440819783
  0
ARC
  5
4C
  8
AM_HID
 10
9.3449341473120811
 20
4.5684298954040239
 30
0.0
 40
0.4103297329045464
 50
49.294315609517831
 51
88.371789894220001
  0
ARC
  5
4D
  8
AM_HID
 10
9.3682416818569525
 20
4.568429895404023
 30
0.0
 40
0.4103297329045477
 50
91.62821010578007
 51
130.70568439048199
  0
ARC
  5
4E
  8
AM_HID
 10
9.3565879145845194
 20
4.564220342272991
 30
0.0
 40
0.4062500000000001
 50
129.0723075591805
 51
179.99999999999989
  0
ARC
  5
4F
  8
AM_HID
 10
9.3565879145845177
 20
4.5642203422729919
 30
0.0
 40
0.4062499999999999
 50
180.00000000000011
 51
230.92769244081961
  0
ARC
  5
50
  8
AM_HID
 10
9.3682416818569525
 20
4.560010789141959
 30
0.0
 40
0.4103297329045473
 50
229.29431560951789
 51
268.37178989422
  0
ARC
  5
51
  8
AM_HID
 10
9.3449341473120811
 20
4.560010789141959
 30
0.0
 40
0.4103297329045465
 50
271.62821010578
 51
310.70568439048208
  0
ARC
  5
52
  8
AM_HID
 10
9.3565879145845159
 20
4.564220342272991
 30
0.0
 40
0.406249999999999
 50
309.07230755918039
 51
0.0
  0
LINE
  5
56
  8
AM_HID
 10
10.169760713070909
 20
3.267393140515654
 30
0.0
 11
10.25163957463443
 21
3.349272002427631
 31
0.0
  0
ARC
  5
57
  8
AM_HID
 10
9.3565879145845159
 20
2.4542203422729889
 30
0.0
 40
1.149999999999999
 50
44.999999999999972
 51
179.99999999999989
  0
ARC
  5
58
  8
AM_VIS
 10
9.3565879145845159
 20
2.4542203422729889
 30
0.0
 40
1.149999999999999
 50
179.99999999999989
 51
225.0
  0
LINE
  5
5B
  8
AM_VIS
 10
10.66908791458445
 20
3.6042203422724528
 30
0.0
 11
10.67176207165026
 21
3.6042203422724528
 31
0.0
  0
ARC
  5
5D
  8
AM_VIS
 10
9.3565879145845159
 20
2.4542203422729889
 30
0.0
 40
1.149999999999999
 50
225.0
 51
269.99999999999989
  0
ARC
  5
5E
  8
AM_HID
 10
9.3565879145845159
 20
2.4542203422729889
 30
0.0
 40
1.149999999999999
 50
269.99999999999989
 51
44.999999999999972
  0
LINE
  5
5F
  8
AM_VIS
 10
10.66908791458329
 20
1.454220342273604
 30
0.0
 11
10.671762071650249
 21
1.454220342273604
 31
0.0
  0
LINE
  5
60
  8
AM_VIS
 10
10.669087914584431
 20
3.454220342272373
 30
0.0
 11
10.67176207165026
 21
3.454220342272373
 31
0.0
  0
LINE
  5
65
  8
AM_HID
 10
10.06369469584585
 20
3.1613271233847429
 30
0.0
 11
10.094911779731589
 21
3.1925442074969621
 31
0.0
  0
ARC
  5
66
  8
AM_HID
 10
9.3565879145845159
 20
2.4542203422729889
 30
0.0
 40
1.0
 50
225.0
 51
44.999999999999972
  0
ARC
  5
6A
  8
AM_HID
 10
9.3565879145845159
 20
2.4542203422729889
 30
0.0
 40
1.0
 50
45.0
 51
225.0
  0
POLYLINE
  8
AM_HID
  5
206
  66
     1
 10
0.000000
 20
0.000000
 30
0.000000
  70
     8
  0
VERTEX
  8
AM_HID
  5
207
 10
10.1834
 20
3.28102
 30
0.000000
  70
    32
  0
VERTEX
  8
AM_HID
  5
208
 10
10.1823
 20
3.28208
 30
0.000000
  70
    32
  0
VERTEX
  8
AM_HID
  5
209
 10
10.1812
 20
3.28314
 30
0.000000
  70
    32
  0
VERTEX
  8
AM_HID
  5
20A
 10
10.1802
 20
3.28420
 30
0.000000
  70
    32
  0
VERTEX
  8
AM_HID
  5
20B
 10
10.1791
 20
3.28525
 30
0.000000
  70
    32
  0
VERTEX
  8
AM_HID
  5
20C
 10
10.1780
 20
3.28630
 30
0.000000
  70
    32
  0
VERTEX
  8
AM_HID
  5
20D
 10
10.1770
 20
3.28734
 30
0.000000
  70
    32
  0
VERTEX
  8
AM_HID
  5
20E
 10
10.1759
 20
3.28838
 30
0.000000
  70
    32
  0
VERTEX
  8
AM_HID
  5
20F
 10
10.1748
 20
3.28941
 30
0.000000
  70
    32
  0
VERTEX
  8
AM_HID
  5
210
 10
10.1737
 20
3.29044
 30
0.000000
  70
    32
  0
VERTEX
  8
AM_HID
  5
211
 10
10.1726
 20
3.29146
 30
0.000000
  70
    32
  0
VERTEX
  8
AM_HID
  5
212
 10
10.1716
 20
3.29248
 30
0.000000
  70
    32
  0
VERTEX
  8
AM_HID
  5
213
 10
10.1705
 20
3.29350
 30
0.000000
  70
    32
  0
VERTEX
  8
AM_HID
  5
214
 10
10.1694
 20
3.29451
 30
0.000000
  70
    32
  0
VERTEX
  8
AM_HID
  5
215
 10
10.1683
 20
3.29552
 30
0.000000
  70
    32
  0
VERTEX
  8
AM_HID
  5
216
 10
10.1672
 20
3.29652
 30
0.000000
  70
    32
  0
VERTEX
  8
AM_HID
  5
217
 10
10.1661
 20
3.29752
 30
0.000000
  70
    32
  0
VERTEX
  8
AM_HID
  5
218
 10
10.1650
 20
3.29851
 30
0.000000
  70
    32
  0
VERTEX
  8
AM_HID
  5
219
 10
10.1639
 20
3.29950
 30
0.000000
  70
    32
  0
VERTEX
  8
AM_HID
  5
21A
 10
10.1628
 20
3.30049
 30
0.000000
  70
    32
  0
VERTEX
  8
AM_HID
  5
21B
 10
10.1617
 20
3.30147
 30
0.000000
  70
    32
  0
VERTEX
  8
AM_HID
  5
21C
 10
10.1606
 20
3.30245
 30
0.000000
  70
    32
  0
VERTEX
  8
AM_HID
  5
21D
 10
10.1595
 20
3.30343
 30
0.000000
  70
    32
  0
VERTEX
  8
AM_HID
  5
21E
 10
10.1584
 20
3.30440
 30
0.000000
  70
    32
  0
VERTEX
  8
AM_HID
  5
21F
 10
10.1573
 20
3.30537
 30
0.000000
  70
    32
  0
VERTEX
  8
AM_HID
  5
220
 10
10.1562
 20
3.30633
 30
0.000000
  70
    32
  0
VERTEX
  8
AM_HID
  5
221
 10
10.1551
 20
3.30729
 30
0.000000
  70
    32
  0
VERTEX
  8
AM_HID
  5
222
 10
10.1540
 20
3.30825
 30
0.000000
  70
    32
  0
VERTEX
  8
AM_HID
  5
223
 10
10.1528
 20
3.30920
 30
0.000000
  70
    32
  0
VERTEX
  8
AM_HID
  5
224
 10
10.1517
 20
3.31015
 30
0.000000
  70
    32
  0
VERTEX
  8
AM_HID
  5
225
 10
10.1506
 20
3.31110
 30
0.000000
  70
    32
  0
VERTEX
  8
AM_HID
  5
226
 10
10.1495
 20
3.31204
 30
0.000000
  70
    32
  0
VERTEX
  8
AM_HID
  5
227
 10
10.1484
 20
3.31298
 30
0.000000
  70
    32
  0
VERTEX
  8
AM_HID
  5
228
 10
10.1472
 20
3.31392
 30
0.000000
  70
    32
  0
VERTEX
  8
AM_HID
  5
229
 10
10.1461
 20
3.31485
 30
0.000000
  70
    32
  0
VERTEX
  8
AM_HID
  5
22A
 10
10.1450
 20
3.31578
 30
0.000000
  70
    32
  0
VERTEX
  8
AM_HID
  5
22B
 10
10.1438
 20
3.31671
 30
0.000000
  70
    32
  0
VERTEX
  8
AM_HID
  5
22C
 10
10.1427
 20
3.31763
 30
0.000000
  70
    32
  0
VERTEX
  8
AM_HID
  5
22D
 10
10.1416
 20
3.31855
 30
0.000000
  70
    32
  0
VERTEX
  8
AM_HID
  5
22E
 10
10.1404
 20
3.31946
 30
0.000000
  70
    32
  0
VERTEX
  8
AM_HID
  5
22F
 10
10.1393
 20
3.32038
 30
0.000000
  70
    32
  0
VERTEX
  8
AM_HID
  5
230
 10
10.1381
 20
3.32129
 30
0.000000
  70
    32
  0
VERTEX
  8
AM_HID
  5
231
 10
10.1370
 20
3.32220
 30
0.000000
  70
    32
  0
VERTEX
  8
AM_HID
  5
232
 10
10.1358
 20
3.32310
 30
0.000000
  70
    32
  0
VERTEX
  8
AM_HID
  5
233
 10
10.1347
 20
3.32400
 30
0.000000
  70
    32
  0
VERTEX
  8
AM_HID
  5
234
 10
10.1335
 20
3.32490
 30
0.000000
  70
    32
  0
VERTEX
  8
AM_HID
  5
235
 10
10.1324
 20
3.32580
 30
0.000000
  70
    32
  0
VERTEX
  8
AM_HID
  5
236
 10
10.1312
 20
3.32669
 30
0.000000
  70
    32
  0
VERTEX
  8
AM_HID
  5
237
 10
10.1301
 20
3.32758
 30
0.000000
  70
    32
  0
VERTEX
  8
AM_HID
  5
238
 10
10.1289
 20
3.32847
 30
0.000000
  70
    32
  0
VERTEX
  8
AM_HID
  5
239
 10
10.1278
 20
3.32935
 30
0.000000
  70
    32
  0
VERTEX
  8
AM_HID
  5
23A
 10
10.1266
 20
3.33024
 30
0.000000
  70
    32
  0
VERTEX
  8
AM_HID
  5
23B
 10
10.1254
 20
3.33112
 30
0.000000
  70
    32
  0
VERTEX
  8
AM_HID
  5
23C
 10
10.1243
 20
3.33199
 30
0.000000
  70
    32
  0
VERTEX
  8
AM_HID
  5
23D
 10
10.1231
 20
3.33287
 30
0.000000
  70
    32
  0
VERTEX
  8
AM_HID
  5
23E
 10
10.1219
 20
3.33374
 30
0.000000
  70
    32
  0
VERTEX
  8
AM_HID
  5
23F
 10
10.1207
 20
3.33461
 30
0.000000
  70
    32
  0
VERTEX
  8
AM_HID
  5
240
 10
10.1196
 20
3.33548
 30
0.000000
  70
    32
  0
VERTEX
  8
AM_HID
  5
241
 10
10.1184
 20
3.33634
 30
0.000000
  70
    32
  0
VERTEX
  8
AM_HID
  5
242
 10
10.1172
 20
3.33721
 30
0.000000
  70
    32
  0
VERTEX
  8
AM_HID
  5
243
 10
10.1160
 20
3.33807
 30
0.000000
  70
    32
  0
VERTEX
  8
AM_HID
  5
244
 10
10.1148
 20
3.33892
 30
0.000000
  70
    32
  0
VERTEX
  8
AM_HID
  5
245
 10
10.1136
 20
3.33978
 30
0.000000
  70
    32
  0
VERTEX
  8
AM_HID
  5
246
 10
10.1124
 20
3.34064
 30
0.000000
  70
    32
  0
VERTEX
  8
AM_HID
  5
247
 10
10.1112
 20
3.34149
 30
0.000000
  70
    32
  0
VERTEX
  8
AM_HID
  5
248
 10
10.1100
 20
3.34234
 30
0.000000
  70
    32
  0
VERTEX
  8
AM_HID
  5
249
 10
10.1088
 20
3.34319
 30
0.000000
  70
    32
  0
VERTEX
  8
AM_HID
  5
24A
 10
10.1076
 20
3.34403
 30
0.000000
  70
    32
  0
VERTEX
  8
AM_HID
  5
24B
 10
10.1064
 20
3.34488
 30
0.000000
  70
    32
  0
VERTEX
  8
AM_HID
  5
24C
 10
10.1052
 20
3.34572
 30
0.000000
  70
    32
  0
VERTEX
  8
AM_HID
  5
24D
 10
10.1040
 20
3.34656
 30
0.000000
  70
    32
  0
VERTEX
  8
AM_HID
  5
24E
 10
10.1028
 20
3.34740
 30
0.000000
  70
    32
  0
VERTEX
  8
AM_HID
  5
24F
 10
10.1016
 20
3.34823
 30
0.000000
  70
    32
  0
VERTEX
  8
AM_HID
  5
250
 10
10.1003
 20
3.34907
 30
0.000000
  70
    32
  0
VERTEX
  8
AM_HID
  5
251
 10
10.0991
 20
3.34990
 30
0.000000
  70
    32
  0
VERTEX
  8
AM_HID
  5
252
 10
10.0979
 20
3.35074
 30
0.000000
  70
    32
  0
VERTEX
  8
AM_HID
  5
253
 10
10.0967
 20
3.35157
 30
0.000000
  70
    32
  0
VERTEX
  8
AM_HID
  5
254
 10
10.0954
 20
3.35240
 30
0.000000
  70
    32
  0
VERTEX
  8
AM_HID
  5
255
 10
10.0942
 20
3.35322
 30
0.000000
  70
    32
  0
VERTEX
  8
AM_HID
  5
256
 10
10.0930
 20
3.35405
 30
0.000000
  70
    32
  0
VERTEX
  8
AM_HID
  5
257
 10
10.0917
 20
3.35487
 30
0.000000
  70
    32
  0
VERTEX
  8
AM_HID
  5
258
 10
10.0905
 20
3.35570
 30
0.000000
  70
    32
  0
VERTEX
  8
AM_HID
  5
259
 10
10.0893
 20
3.35652
 30
0.000000
  70
    32
  0
VERTEX
  8
AM_HID
  5
25A
 10
10.0880
 20
3.35734
 30
0.000000
  70
    32
  0
VERTEX
  8
AM_HID
  5
25B
 10
10.0868
 20
3.35816
 30
0.000000
  70
    32
  0
VERTEX
  8
AM_HID
  5
25C
 10
10.0855
 20
3.35898
 30
0.000000
  70
    32
  0
VERTEX
  8
AM_HID
  5
25D
 10
10.0842
 20
3.35979
 30
0.000000
  70
    32
  0
VERTEX
  8
AM_HID
  5
25E
 10
10.0830
 20
3.36061
 30
0.000000
  70
    32
  0
VERTEX
  8
AM_HID
  5
25F
 10
10.0817
 20
3.36142
 30
0.000000
  70
    32
  0
VERTEX
  8
AM_HID
  5
260
 10
10.0805
 20
3.36224
 30
0.000000
  70
    32
  0
VERTEX
  8
AM_HID
  5
261
 10
10.0792
 20
3.36305
 30
0.000000
  70
    32
  0
VERTEX
  8
AM_HID
  5
262
 10
10.0779
 20
3.36386
 30
0.000000
  70
    32
  0
VERTEX
  8
AM_HID
  5
263
 10
10.0767
 20
3.36467
 30
0.000000
  70
    32
  0
VERTEX
  8
AM_HID
  5
264
 10
10.0754
 20
3.36548
 30
0.000000
  70
    32
  0
VERTEX
  8
AM_HID
  5
265
 10
10.0741
 20
3.36629
 30
0.000000
  70
    32
  0
VERTEX
  8
AM_HID
  5
266
 10
10.0728
 20
3.36710
 30
0.000000
  70
    32
  0
VERTEX
  8
AM_HID
  5
267
 10
10.0716
 20
3.36791
 30
0.000000
  70
    32
  0
VERTEX
  8
AM_HID
  5
268
 10
10.0703
 20
3.36871
 30
0.000000
  70
    32
  0
VERTEX
  8
AM_HID
  5
269
 10
10.0690
 20
3.36951
 30
0.000000
  70
    32
  0
VERTEX
  8
AM_HID
  5
26A
 10
10.0677
 20
3.37031
 30
0.000000
  70
    32
  0
VERTEX
  8
AM_HID
  5
26B
 10
10.0664
 20
3.37111
 30
0.000000
  70
    32
  0
VERTEX
  8
AM_HID
  5
26C
 10
10.0651
 20
3.37191
 30
0.000000
  70
    32
  0
VERTEX
  8
AM_HID
  5
26D
 10
10.0638
 20
3.37271
 30
0.000000
  70
    32
  0
VERTEX
  8
AM_HID
  5
26E
 10
10.0626
 20
3.37350
 30
0.000000
  70
    32
  0
VERTEX
  8
AM_HID
  5
26F
 10
10.0613
 20
3.37429
 30
0.000000
  70
    32
  0
VERTEX
  8
AM_HID
  5
270
 10
10.0600
 20
3.37508
 30
0.000000
  70
    32
  0
VERTEX
  8
AM_HID
  5
271
 10
10.0587
 20
3.37587
 30
0.000000
  70
    32
  0
VERTEX
  8
AM_HID
  5
272
 10
10.0574
 20
3.37666
 30
0.000000
  70
    32
  0
VERTEX
  8
AM_HID
  5
273
 10
10.0561
 20
3.37745
 30
0.000000
  70
    32
  0
VERTEX
  8
AM_HID
  5
274
 10
10.0548
 20
3.37824
 30
0.000000
  70
    32
  0
VERTEX
  8
AM_HID
  5
275
 10
10.0535
 20
3.37902
 30
0.000000
  70
    32
  0
VERTEX
  8
AM_HID
  5
276
 10
10.0522
 20
3.37981
 30
0.000000
  70
    32
  0
VERTEX
  8
AM_HID
  5
277
 10
10.0509
 20
3.38059
 30
0.000000
  70
    32
  0
VERTEX
  8
AM_HID
  5
278
 10
10.0496
 20
3.38137
 30
0.000000
  70
    32
  0
VERTEX
  8
AM_HID
  5
279
 10
10.0483
 20
3.38215
 30
0.000000
  70
    32
  0
VERTEX
  8
AM_HID
  5
27A
 10
10.0470
 20
3.38293
 30
0.000000
  70
    32
  0
VERTEX
  8
AM_HID
  5
27B
 10
10.0457
 20
3.38371
 30
0.000000
  70
    32
  0
VERTEX
  8
AM_HID
  5
27C
 10
10.0444
 20
3.38448
 30
0.000000
  70
    32
  0
VERTEX
  8
AM_HID
  5
27D
 10
10.0431
 20
3.38526
 30
0.000000
  70
    32
  0
VERTEX
  8
AM_HID
  5
27E
 10
10.0418
 20
3.38604
 30
0.000000
  70
    32
  0
VERTEX
  8
AM_HID
  5
27F
 10
10.0405
 20
3.38681
 30
0.000000
  70
    32
  0
VERTEX
  8
AM_HID
  5
280
 10
10.0392
 20
3.38758
 30
0.000000
  70
    32
  0
VERTEX
  8
AM_HID
  5
281
 10
10.0379
 20
3.38836
 30
0.000000
  70
    32
  0
VERTEX
  8
AM_HID
  5
282
 10
10.0365
 20
3.38913
 30
0.000000
  70
    32
  0
VERTEX
  8
AM_HID
  5
283
 10
10.0352
 20
3.38990
 30
0.000000
  70
    32
  0
VERTEX
  8
AM_HID
  5
284
 10
10.0339
 20
3.39067
 30
0.000000
  70
    32
  0
VERTEX
  8
AM_HID
  5
285
 10
10.0326
 20
3.39144
 30
0.000000
  70
    32
  0
VERTEX
  8
AM_HID
  5
286
 10
10.0313
 20
3.39221
 30
0.000000
  70
    32
  0
VERTEX
  8
AM_HID
  5
287
 10
10.0300
 20
3.39297
 30
0.000000
  70
    32
  0
VERTEX
  8
AM_HID
  5
288
 10
10.0287
 20
3.39374
 30
0.000000
  70
    32
  0
VERTEX
  8
AM_HID
  5
289
 10
10.0274
 20
3.39451
 30
0.000000
  70
    32
  0
VERTEX
  8
AM_HID
  5
28A
 10
10.0260
 20
3.39527
 30
0.000000
  70
    32
  0
VERTEX
  8
AM_HID
  5
28B
 10
10.0247
 20
3.39604
 30
0.000000
  70
    32
  0
VERTEX
  8
AM_HID
  5
28C
 10
10.0234
 20
3.39681
 30
0.000000
  70
    32
  0
VERTEX
  8
AM_HID
  5
28D
 10
10.0221
 20
3.39757
 30
0.000000
  70
    32
  0
VERTEX
  8
AM_HID
  5
28E
 10
10.0208
 20
3.39833
 30
0.000000
  70
    32
  0
VERTEX
  8
AM_HID
  5
28F
 10
10.0194
 20
3.39910
 30
0.000000
  70
    32
  0
VERTEX
  8
AM_HID
  5
290
 10
10.0181
 20
3.39986
 30
0.000000
  70
    32
  0
VERTEX
  8
AM_HID
  5
291
 10
10.0168
 20
3.40062
 30
0.000000
  70
    32
  0
VERTEX
  8
AM_HID
  5
292
 10
10.0155
 20
3.40139
 30
0.000000
  70
    32
  0
VERTEX
  8
AM_HID
  5
293
 10
10.0142
 20
3.40215
 30
0.000000
  70
    32
  0
VERTEX
  8
AM_HID
  5
294
 10
10.0128
 20
3.40291
 30
0.000000
  70
    32
  0
VERTEX
  8
AM_HID
  5
295
 10
10.0115
 20
3.40367
 30
0.000000
  70
    32
  0
VERTEX
  8
AM_HID
  5
296
 10
10.0102
 20
3.40444
 30
0.000000
  70
    32
  0
VERTEX
  8
AM_HID
  5
297
 10
10.0089
 20
3.40520
 30
0.000000
  70
    32
  0
VERTEX
  8
AM_HID
  5
298
 10
10.0075
 20
3.40596
 30
0.000000
  70
    32
  0
VERTEX
  8
AM_HID
  5
299
 10
10.0062
 20
3.40672
 30
0.000000
  70
    32
  0
VERTEX
  8
AM_HID
  5
29A
 10
10.0049
 20
3.40748
 30
0.000000
  70
    32
  0
VERTEX
  8
AM_HID
  5
29B
 10
10.0036
 20
3.40824
 30
0.000000
  70
    32
  0
VERTEX
  8
AM_HID
  5
29C
 10
10.0022
 20
3.40901
 30
0.000000
  70
    32
  0
VERTEX
  8
AM_HID
  5
29D
 10
10.0009
 20
3.40977
 30
0.000000
  70
    32
  0
VERTEX
  8
AM_HID
  5
29E
 10
9.99959
 20
3.41053
 30
0.000000
  70
    32
  0
VERTEX
  8
AM_HID
  5
29F
 10
9.99826
 20
3.41129
 30
0.000000
  70
    32
  0
VERTEX
  8
AM_HID
  5
2A0
 10
9.99693
 20
3.41205
 30
0.000000
  70
    32
  0
VERTEX
  8
AM_HID
  5
2A1
 10
9.99560
 20
3.41282
 30
0.000000
  70
    32
  0
VERTEX
  8
AM_HID
  5
2A2
 10
9.99428
 20
3.41358
 30
0.000000
  70
    32
  0
VERTEX
  8
AM_HID
  5
2A3
 10
9.99295
 20
3.41434
 30
0.000000
  70
    32
  0
VERTEX
  8
AM_HID
  5
2A4
 10
9.99162
 20
3.41510
 30
0.000000
  70
    32
  0
VERTEX
  8
AM_HID
  5
2A5
 10
9.99029
 20
3.41587
 30
0.000000
  70
    32
  0
VERTEX
  8
AM_HID
  5
2A6
 10
9.98896
 20
3.41663
 30
0.000000
  70
    32
  0
VERTEX
  8
AM_HID
  5
2A7
 10
9.98763
 20
3.41740
 30
0.000000
  70
    32
  0
VERTEX
  8
AM_HID
  5
2A8
 10
9.98630
 20
3.41816
 30
0.000000
  70
    32
  0
VERTEX
  8
AM_HID
  5
2A9
 10
9.98497
 20
3.41893
 30
0.000000
  70
    32
  0
VERTEX
  8
AM_HID
  5
2AA
 10
9.98364
 20
3.41969
 30
0.000000
  70
    32
  0
VERTEX
  8
AM_HID
  5
2AB
 10
9.98231
 20
3.42046
 30
0.000000
  70
    32
  0
VERTEX
  8
AM_HID
  5
2AC
 10
9.98097
 20
3.42122
 30
0.000000
  70
    32
  0
VERTEX
  8
AM_HID
  5
2AD
 10
9.97964
 20
3.42199
 30
0.000000
  70
    32
  0
VERTEX
  8
AM_HID
  5
2AE
 10
9.97831
 20
3.42276
 30
0.000000
  70
    32
  0
VERTEX
  8
AM_HID
  5
2AF
 10
9.97698
 20
3.42353
 30
0.000000
  70
    32
  0
VERTEX
  8
AM_HID
  5
2B0
 10
9.97565
 20
3.42430
 30
0.000000
  70
    32
  0
VERTEX
  8
AM_HID
  5
2B1
 10
9.97432
 20
3.42507
 30
0.000000
  70
    32
  0
VERTEX
  8
AM_HID
  5
2B2
 10
9.97299
 20
3.42584
 30
0.000000
  70
    32
  0
VERTEX
  8
AM_HID
  5
2B3
 10
9.97165
 20
3.42661
 30
0.000000
  70
    32
  0
VERTEX
  8
AM_HID
  5
2B4
 10
9.97032
 20
3.42738
 30
0.000000
  70
    32
  0
VERTEX
  8
AM_HID
  5
2B5
 10
9.96899
 20
3.42816
 30
0.000000
  70
    32
  0
VERTEX
  8
AM_HID
  5
2B6
 10
9.96766
 20
3.42893
 30
0.000000
  70
    32
  0
VERTEX
  8
AM_HID
  5
2B7
 10
9.96633
 20
3.42971
 30
0.000000
  70
    32
  0
VERTEX
  8
AM_HID
  5
2B8
 10
9.96500
 20
3.43048
 30
0.000000
  70
    32
  0
VERTEX
  8
AM_HID
  5
2B9
 10
9.96367
 20
3.43126
 30
0.000000
  70
    32
  0
VERTEX
  8
AM_HID
  5
2BA
 10
9.96233
 20
3.43204
 30
0.000000
  70
    32
  0
VERTEX
  8
AM_HID
  5
2BB
 10
9.96100
 20
3.43282
 30
0.000000
  70
    32
  0
VERTEX
  8
AM_HID
  5
2BC
 10
9.95967
 20
3.43360
 30
0.000000
  70
    32
  0
VERTEX
  8
AM_HID
  5
2BD
 10
9.95834
 20
3.43438
 30
0.000000
  70
    32
  0
VERTEX
  8
AM_HID
  5
2BE
 10
9.95701
 20
3.43516
 30
0.000000
  70
    32
  0
VERTEX
  8
AM_HID
  5
2BF
 10
9.95568
 20
3.43594
 30
0.000000
  70
    32
  0
VERTEX
  8
AM_HID
  5
2C0
 10
9.95435
 20
3.43673
 30
0.000000
  70
    32
  0
VERTEX
  8
AM_HID
  5
2C1
 10
9.95302
 20
3.43752
 30
0.000000
  70
    32
  0
VERTEX
  8
AM_HID
  5
2C2
 10
9.95169
 20
3.43830
 30
0.000000
  70
    32
  0
VERTEX
  8
AM_HID
  5
2C3
 10
9.95036
 20
3.43909
 30
0.000000
  70
    32
  0
VERTEX
  8
AM_HID
  5
2C4
 10
9.94903
 20
3.43988
 30
0.000000
  70
    32
  0
VERTEX
  8
AM_HID
  5
2C5
 10
9.94770
 20
3.44067
 30
0.000000
  70
    32
  0
VERTEX
  8
AM_HID
  5
2C6
 10
9.94637
 20
3.44147
 30
0.000000
  70
    32
  0
SEQEND
  8
AM_HID
  5
2C7
  0
POLYLINE
  8
AM_HID
  5
2C8
  66
     1
 10
0.000000
 20
0.000000
 30
0.000000
  70
     8
  0
VERTEX
  8
AM_HID
  5
2C9
 10
10.3438
 20
3.04400
 30
0.000000
  70
    32
  0
VERTEX
  8
AM_HID
  5
2CA
 10
10.3427
 20
3.04598
 30
0.000000
  70
    32
  0
VERTEX
  8
AM_HID
  5
2CB
 10
10.3415
 20
3.04795
 30
0.000000
  70
    32
  0
VERTEX
  8
AM_HID
  5
2CC
 10
10.3403
 20
3.04992
 30
0.000000
  70
    32
  0
VERTEX
  8
AM_HID
  5
2CD
 10
10.3392
 20
3.05188
 30
0.000000
  70
    32
  0
VERTEX
  8
AM_HID
  5
2CE
 10
10.3380
 20
3.05385
 30
0.000000
  70
    32
  0
VERTEX
  8
AM_HID
  5
2CF
 10
10.3368
 20
3.05582
 30
0.000000
  70
    32
  0
VERTEX
  8
AM_HID
  5
2D0
 10
10.3357
 20
3.05779
 30
0.000000
  70
    32
  0
VERTEX
  8
AM_HID
  5
2D1
 10
10.3345
 20
3.05975
 30
0.000000
  70
    32
  0
VERTEX
  8
AM_HID
  5
2D2
 10
10.3334
 20
3.06172
 30
0.000000
  70
    32
  0
VERTEX
  8
AM_HID
  5
2D3
 10
10.3322
 20
3.06368
 30
0.000000
  70
    32
  0
VERTEX
  8
AM_HID
  5
2D4
 10
10.3311
 20
3.06565
 30
0.000000
  70
    32
  0
VERTEX
  8
AM_HID
  5
2D5
 10
10.3300
 20
3.06761
 30
0.000000
  70
    32
  0
VERTEX
  8
AM_HID
  5
2D6
 10
10.3288
 20
3.06957
 30
0.000000
  70
    32
  0
VERTEX
  8
AM_HID
  5
2D7
 10
10.3277
 20
3.07153
 30
0.000000
  70
    32
  0
VERTEX
  8
AM_HID
  5
2D8
 10
10.3266
 20
3.07349
 30
0.000000
  70
    32
  0
VERTEX
  8
AM_HID
  5
2D9
 10
10.3254
 20
3.07545
 30
0.000000
  70
    32
  0
VERTEX
  8
AM_HID
  5
2DA
 10
10.3243
 20
3.07741
 30
0.000000
  70
    32
  0
VERTEX
  8
AM_HID
  5
2DB
 10
10.3232
 20
3.07936
 30
0.000000
  70
    32
  0
VERTEX
  8
AM_HID
  5
2DC
 10
10.3221
 20
3.08132
 30
0.000000
  70
    32
  0
VERTEX
  8
AM_HID
  5
2DD
 10
10.3209
 20
3.08327
 30
0.000000
  70
    32
  0
VERTEX
  8
AM_HID
  5
2DE
 10
10.3198
 20
3.08523
 30
0.000000
  70
    32
  0
VERTEX
  8
AM_HID
  5
2DF
 10
10.3187
 20
3.08718
 30
0.000000
  70
    32
  0
VERTEX
  8
AM_HID
  5
2E0
 10
10.3176
 20
3.08913
 30
0.000000
  70
    32
  0
VERTEX
  8
AM_HID
  5
2E1
 10
10.3165
 20
3.09108
 30
0.000000
  70
    32
  0
VERTEX
  8
AM_HID
  5
2E2
 10
10.3153
 20
3.09303
 30
0.000000
  70
    32
  0
VERTEX
  8
AM_HID
  5
2E3
 10
10.3142
 20
3.09497
 30
0.000000
  70
    32
  0
VERTEX
  8
AM_HID
  5
2E4
 10
10.3131
 20
3.09692
 30
0.000000
  70
    32
  0
VERTEX
  8
AM_HID
  5
2E5
 10
10.3120
 20
3.09886
 30
0.000000
  70
    32
  0
VERTEX
  8
AM_HID
  5
2E6
 10
10.3109
 20
3.10081
 30
0.000000
  70
    32
  0
VERTEX
  8
AM_HID
  5
2E7
 10
10.3098
 20
3.10275
 30
0.000000
  70
    32
  0
VERTEX
  8
AM_HID
  5
2E8
 10
10.3087
 20
3.10469
 30
0.000000
  70
    32
  0
VERTEX
  8
AM_HID
  5
2E9
 10
10.3076
 20
3.10663
 30
0.000000
  70
    32
  0
VERTEX
  8
AM_HID
  5
2EA
 10
10.3064
 20
3.10857
 30
0.000000
  70
    32
  0
VERTEX
  8
AM_HID
  5
2EB
 10
10.3053
 20
3.11050
 30
0.000000
  70
    32
  0
VERTEX
  8
AM_HID
  5
2EC
 10
10.3042
 20
3.11244
 30
0.000000
  70
    32
  0
VERTEX
  8
AM_HID
  5
2ED
 10
10.3031
 20
3.11437
 30
0.000000
  70
    32
  0
VERTEX
  8
AM_HID
  5
2EE
 10
10.3020
 20
3.11630
 30
0.000000
  70
    32
  0
VERTEX
  8
AM_HID
  5
2EF
 10
10.3009
 20
3.11823
 30
0.000000
  70
    32
  0
VERTEX
  8
AM_HID
  5
2F0
 10
10.2998
 20
3.12016
 30
0.000000
  70
    32
  0
VERTEX
  8
AM_HID
  5
2F1
 10
10.2986
 20
3.12209
 30
0.000000
  70
    32
  0
VERTEX
  8
AM_HID
  5
2F2
 10
10.2975
 20
3.12402
 30
0.000000
  70
    32
  0
VERTEX
  8
AM_HID
  5
2F3
 10
10.2964
 20
3.12594
 30
0.000000
  70
    32
  0
VERTEX
  8
AM_HID
  5
2F4
 10
10.2953
 20
3.12786
 30
0.000000
  70
    32
  0
VERTEX
  8
AM_HID
  5
2F5
 10
10.2942
 20
3.12978
 30
0.000000
  70
    32
  0
VERTEX
  8
AM_HID
  5
2F6
 10
10.2931
 20
3.13170
 30
0.000000
  70
    32
  0
VERTEX
  8
AM_HID
  5
2F7
 10
10.2919
 20
3.13362
 30
0.000000
  70
    32
  0
VERTEX
  8
AM_HID
  5
2F8
 10
10.2908
 20
3.13553
 30
0.000000
  70
    32
  0
VERTEX
  8
AM_HID
  5
2F9
 10
10.2897
 20
3.13745
 30
0.000000
  70
    32
  0
VERTEX
  8
AM_HID
  5
2FA
 10
10.2885
 20
3.13936
 30
0.000000
  70
    32
  0
VERTEX
  8
AM_HID
  5
2FB
 10
10.2874
 20
3.14127
 30
0.000000
  70
    32
  0
VERTEX
  8
AM_HID
  5
2FC
 10
10.2863
 20
3.14318
 30
0.000000
  70
    32
  0
VERTEX
  8
AM_HID
  5
2FD
 10
10.2851
 20
3.14509
 30
0.000000
  70
    32
  0
VERTEX
  8
AM_HID
  5
2FE
 10
10.2840
 20
3.14699
 30
0.000000
  70
    32
  0
VERTEX
  8
AM_HID
  5
2FF
 10
10.2829
 20
3.14889
 30
0.000000
  70
    32
  0
VERTEX
  8
AM_HID
  5
300
 10
10.2817
 20
3.15079
 30
0.000000
  70
    32
  0
VERTEX
  8
AM_HID
  5
301
 10
10.2806
 20
3.15269
 30
0.000000
  70
    32
  0
VERTEX
  8
AM_HID
  5
302
 10
10.2794
 20
3.15459
 30
0.000000
  70
    32
  0
VERTEX
  8
AM_HID
  5
303
 10
10.2783
 20
3.15648
 30
0.000000
  70
    32
  0
VERTEX
  8
AM_HID
  5
304
 10
10.2771
 20
3.15838
 30
0.000000
  70
    32
  0
VERTEX
  8
AM_HID
  5
305
 10
10.2759
 20
3.16027
 30
0.000000
  70
    32
  0
VERTEX
  8
AM_HID
  5
306
 10
10.2748
 20
3.16216
 30
0.000000
  70
    32
  0
VERTEX
  8
AM_HID
  5
307
 10
10.2736
 20
3.16404
 30
0.000000
  70
    32
  0
VERTEX
  8
AM_HID
  5
308
 10
10.2724
 20
3.16593
 30
0.000000
  70
    32
  0
VERTEX
  8
AM_HID
  5
309
 10
10.2713
 20
3.16781
 30
0.000000
  70
    32
  0
VERTEX
  8
AM_HID
  5
30A
 10
10.2701
 20
3.16969
 30
0.000000
  70
    32
  0
VERTEX
  8
AM_HID
  5
30B
 10
10.2689
 20
3.17157
 30
0.000000
  70
    32
  0
VERTEX
  8
AM_HID
  5
30C
 10
10.2677
 20
3.17344
 30
0.000000
  70
    32
  0
VERTEX
  8
AM_HID
  5
30D
 10
10.2665
 20
3.17532
 30
0.000000
  70
    32
  0
VERTEX
  8
AM_HID
  5
30E
 10
10.2653
 20
3.17719
 30
0.000000
  70
    32
  0
VERTEX
  8
AM_HID
  5
30F
 10
10.2641
 20
3.17906
 30
0.000000
  70
    32
  0
VERTEX
  8
AM_HID
  5
310
 10
10.2629
 20
3.18092
 30
0.000000
  70
    32
  0
VERTEX
  8
AM_HID
  5
311
 10
10.2617
 20
3.18279
 30
0.000000
  70
    32
  0
VERTEX
  8
AM_HID
  5
312
 10
10.2605
 20
3.18465
 30
0.000000
  70
    32
  0
VERTEX
  8
AM_HID
  5
313
 10
10.2593
 20
3.18651
 30
0.000000
  70
    32
  0
VERTEX
  8
AM_HID
  5
314
 10
10.2580
 20
3.18836
 30
0.000000
  70
    32
  0
VERTEX
  8
AM_HID
  5
315
 10
10.2568
 20
3.19022
 30
0.000000
  70
    32
  0
VERTEX
  8
AM_HID
  5
316
 10
10.2555
 20
3.19207
 30
0.000000
  70
    32
  0
VERTEX
  8
AM_HID
  5
317
 10
10.2543
 20
3.19392
 30
0.000000
  70
    32
  0
VERTEX
  8
AM_HID
  5
318
 10
10.2531
 20
3.19577
 30
0.000000
  70
    32
  0
VERTEX
  8
AM_HID
  5
319
 10
10.2518
 20
3.19761
 30
0.000000
  70
    32
  0
VERTEX
  8
AM_HID
  5
31A
 10
10.2505
 20
3.19945
 30
0.000000
  70
    32
  0
VERTEX
  8
AM_HID
  5
31B
 10
10.2493
 20
3.20129
 30
0.000000
  70
    32
  0
VERTEX
  8
AM_HID
  5
31C
 10
10.2480
 20
3.20313
 30
0.000000
  70
    32
  0
VERTEX
  8
AM_HID
  5
31D
 10
10.2467
 20
3.20497
 30
0.000000
  70
    32
  0
VERTEX
  8
AM_HID
  5
31E
 10
10.2454
 20
3.20680
 30
0.000000
  70
    32
  0
VERTEX
  8
AM_HID
  5
31F
 10
10.2441
 20
3.20863
 30
0.000000
  70
    32
  0
VERTEX
  8
AM_HID
  5
320
 10
10.2428
 20
3.21045
 30
0.000000
  70
    32
  0
VERTEX
  8
AM_HID
  5
321
 10
10.2415
 20
3.21228
 30
0.000000
  70
    32
  0
VERTEX
  8
AM_HID
  5
322
 10
10.2402
 20
3.21410
 30
0.000000
  70
    32
  0
VERTEX
  8
AM_HID
  5
323
 10
10.2388
 20
3.21591
 30
0.000000
  70
    32
  0
VERTEX
  8
AM_HID
  5
324
 10
10.2375
 20
3.21773
 30
0.000000
  70
    32
  0
VERTEX
  8
AM_HID
  5
325
 10
10.2362
 20
3.21954
 30
0.000000
  70
    32
  0
VERTEX
  8
AM_HID
  5
326
 10
10.2348
 20
3.22135
 30
0.000000
  70
    32
  0
VERTEX
  8
AM_HID
  5
327
 10
10.2335
 20
3.22316
 30
0.000000
  70
    32
  0
VERTEX
  8
AM_HID
  5
328
 10
10.2321
 20
3.22496
 30
0.000000
  70
    32
  0
VERTEX
  8
AM_HID
  5
329
 10
10.2307
 20
3.22676
 30
0.000000
  70
    32
  0
VERTEX
  8
AM_HID
  5
32A
 10
10.2293
 20
3.22856
 30
0.000000
  70
    32
  0
VERTEX
  8
AM_HID
  5
32B
 10
10.2280
 20
3.23036
 30
0.000000
  70
    32
  0
VERTEX
  8
AM_HID
  5
32C
 10
10.2266
 20
3.23215
 30
0.000000
  70
    32
  0
VERTEX
  8
AM_HID
  5
32D
 10
10.2251
 20
3.23394
 30
0.000000
  70
    32
  0
VERTEX
  8
AM_HID
  5
32E
 10
10.2237
 20
3.23572
 30
0.000000
  70
    32
  0
VERTEX
  8
AM_HID
  5
32F
 10
10.2223
 20
3.23751
 30
0.000000
  70
    32
  0
VERTEX
  8
AM_HID
  5
330
 10
10.2209
 20
3.23929
 30
0.000000
  70
    32
  0
VERTEX
  8
AM_HID
  5
331
 10
10.2194
 20
3.24106
 30
0.000000
  70
    32
  0
VERTEX
  8
AM_HID
  5
332
 10
10.2180
 20
3.24284
 30
0.000000
  70
    32
  0
VERTEX
  8
AM_HID
  5
333
 10
10.2165
 20
3.24461
 30
0.000000
  70
    32
  0
VERTEX
  8
AM_HID
  5
334
 10
10.2150
 20
3.24637
 30
0.000000
  70
    32
  0
VERTEX
  8
AM_HID
  5
335
 10
10.2136
 20
3.24814
 30
0.000000
  70
    32
  0
VERTEX
  8
AM_HID
  5
336
 10
10.2121
 20
3.24990
 30
0.000000
  70
    32
  0
VERTEX
  8
AM_HID
  5
337
 10
10.2106
 20
3.25166
 30
0.000000
  70
    32
  0
VERTEX
  8
AM_HID
  5
338
 10
10.2091
 20
3.25341
 30
0.000000
  70
    32
  0
VERTEX
  8
AM_HID
  5
339
 10
10.2075
 20
3.25516
 30
0.000000
  70
    32
  0
VERTEX
  8
AM_HID
  5
33A
 10
10.2060
 20
3.25691
 30
0.000000
  70
    32
  0
VERTEX
  8
AM_HID
  5
33B
 10
10.2045
 20
3.25866
 30
0.000000
  70
    32
  0
VERTEX
  8
AM_HID
  5
33C
 10
10.2029
 20
3.26040
 30
0.000000
  70
    32
  0
VERTEX
  8
AM_HID
  5
33D
 10
10.2013
 20
3.26213
 30
0.000000
  70
    32
  0
VERTEX
  8
AM_HID
  5
33E
 10
10.1998
 20
3.26387
 30
0.000000
  70
    32
  0
VERTEX
  8
AM_HID
  5
33F
 10
10.1982
 20
3.26560
 30
0.000000
  70
    32
  0
VERTEX
  8
AM_HID
  5
340
 10
10.1966
 20
3.26733
 30
0.000000
  70
    32
  0
VERTEX
  8
AM_HID
  5
341
 10
10.1950
 20
3.26905
 30
0.000000
  70
    32
  0
VERTEX
  8
AM_HID
  5
342
 10
10.1934
 20
3.27077
 30
0.000000
  70
    32
  0
VERTEX
  8
AM_HID
  5
343
 10
10.1917
 20
3.27249
 30
0.000000
  70
    32
  0
VERTEX
  8
AM_HID
  5
344
 10
10.1901
 20
3.27420
 30
0.000000
  70
    32
  0
VERTEX
  8
AM_HID
  5
345
 10
10.1884
 20
3.27591
 30
0.000000
  70
    32
  0
VERTEX
  8
AM_HID
  5
346
 10
10.1868
 20
3.27762
 30
0.000000
  70
    32
  0
VERTEX
  8
AM_HID
  5
347
 10
10.1851
 20
3.27932
 30
0.000000
  70
    32
  0
VERTEX
  8
AM_HID
  5
348
 10
10.1834
 20
3.28102
 30
0.000000
  70
    32
  0
SEQEND
  8
AM_HID
  5
349
  0
ARC
  5
6D
  8
AM_HID
 10
10.695079693732851
 20
2.8646344711139871
 30
0.0
 40
0.2499999999999986
 50
135.00000000000011
 51
197.04681311661921
  0
ARC
  5
6E
  8
AM_HID
 10
9.7670020434255136
 20
3.7927121214213289
 30
0.0
 40
0.2500000000000018
 50
252.95318688338131
 51
314.99999999999972
  0
LINE
  5
6F
  8
AM_HID
 10
10.015081104564491
 20
3.6872377919670312
 30
0.0
 11
10.121281726758481
 21
3.5810371697730341
 31
0.0
  0
LINE
  5
70
  8
AM_HID
 10
10.12128172675876
 20
3.5810371697733121
 30
0.0
 11
10.302343234422141
 21
3.399975662109239
 31
0.0
  0
LINE
  5
71
  8
AM_HID
 10
10.302343234420761
 20
3.3999756621106139
 30
0.0
 11
10.48340474208484
 21
3.2189141544472379
 31
0.0
  0
LINE
  5
72
  8
AM_HID
 10
10.483404742084559
 20
3.2189141544469591
 30
0.0
 11
10.589605364278549
 21
3.1127135322529629
 31
0.0
  0
LINE
  5
73
  8
AM_VIS
 10
12.026587914584519
 20
1.3042203422729881
 30
0.0
 11
10.67176207165026
 21
1.304220342272989
 31
0.0
  0
LINE
  5
74
  8
AM_VIS
 10
12.026587914584519
 20
3.6042203422729879
 30
0.0
 11
10.67176207165026
 21
3.6042203422729888
 31
0.0
  0
LINE
  5
75
  8
AM_HID
 10
12.026587914584519
 20
1.454220342272988
 30
0.0
 11
9.9244787491645425
 21
1.4542203422729889
 31
0.0
  0
LINE
  5
76
  8
AM_HID
 10
12.026587914584519
 20
3.454220342272988
 30
0.0
 11
10.67176207165026
 21
3.454220342272988
 31
0.0
  0
ARC
  5
7A
  8
AM_VIS
 10
10.669087914584511
 20
3.7693944993387318
 30
0.0
 40
0.1625000000000001
 50
179.99999999999989
 51
269.99999999999989
  0
LINE
  5
7B
  8
AM_VIS
 10
10.506587914584509
 20
5.1242203422729906
 30
0.0
 11
10.506587914584509
 21
3.7693944993387318
 31
0.0
  0
LINE
  5
7C
  8
AM_VIS
 10
8.2065879145845155
 20
5.1242203422729906
 30
0.0
 11
8.2065879145845155
 21
3.7693944993387318
 31
0.0
  0
LINE
  5
7D
  8
AM_HID
 10
10.356587914584511
 20
5.1242203422729906
 30
0.0
 11
10.356587914584511
 21
3.7693944993387318
 31
0.0
  0
LINE
  5
7E
  8
AM_HID
 10
8.3565879145845159
 20
5.1242203422729906
 30
0.0
 11
8.3565879145845159
 21
3.022111176853016
 31
0.0
  0
LINE
  5
7F
  8
AM_HID
 10
8.3565879145845159
 20
3.003830517004078
 30
0.0
 11
8.3565879145845159
 21
2.700210455649918
 31
0.0
  0
LINE
  5
80
  8
AM_VIS
 10
8.2065879145845155
 20
3.7693944993387332
 30
0.0
 11
8.2065879145845155
 21
2.454220342272988
 31
0.0
  0
LINE
  5
81
  8
AM_VIS
 10
9.3565879145845141
 20
1.304220342272989
 30
0.0
 11
10.67176207165026
 21
1.304220342272989
 31
0.0
  0
LINE
  5
82
  8
AM_HID
 10
10.67176207165026
 20
3.6042203422729888
 30
0.0
 11
10.669087914584511
 21
3.6042203422729888
 31
0.0
  0
LINE
  5
83
  8
AM_HID
 10
10.669087914584511
 20
1.4542203422729889
 30
0.0
 11
10.671762071650249
 21
1.4542203422729889
 31
0.0
  0
LINE
  5
84
  8
AM_HID
 10
10.67176207165026
 20
3.454220342272988
 30
0.0
 11
10.669087914584511
 21
3.454220342272988
 31
0.0
  0
LINE
  5
85
  8
AM_HID
 10
10.356587914584511
 20
2.454220342272988
 30
0.0
 11
10.356587914584511
 21
2.4646804921286449
 31
0.0
  0
LINE
  5
86
  8
AM_HID
 10
10.015081104564491
 20
3.6872377919670312
 30
0.0
 11
9.9437787387221501
 21
3.615935426124691
 31
0.0
  0
LINE
  5
87
  8
AM_HID
 10
10.51830299843621
 20
3.0414111664106231
 30
0.0
 11
10.589605364278549
 21
3.1127135322529629
 31
0.0
  0
LINE
  5
88
  8
AM_HID
 10
10.523314103542321
 20
3.1790047929891991
 30
0.0
 11
10.24925207308671
 21
2.904942762533588
 31
0.0
  0
LINE
  5
89
  8
AM_HID
 10
10.08137236530073
 20
3.6209465312307909
 30
0.0
 11
9.8073103348451163
 21
3.3468845007751811
 31
0.0
  0
LINE
  5
8A
  8
AM_HID
 10
9.6025780279614441
 20
1.4542203422729889
 30
0.0
 11
9.9098357494230882
 21
1.4542203422729889
 31
0.0
  0
LINE
  5
8B
  8
AM_HID
 10
9.3670419553637316
 20
3.4542203422729889
 30
0.0
 11
9.3565879145845159
 21
3.4542203422729889
 31
0.0
  0
LINE
  5
1B8
  8
0
 10
9.3449341473120811
 20
4.6309298954040239
 30
0.0
 11
9.3449341473120811
 21
6.0355614133582494
 31
0.0
  0
LINE
  5
1B9
  8
0
 10
12.026587914584519
 20
3.6667203422729879
 30
0.0
 11
12.026587914584519
 21
6.0355614133582502
 31
0.0
  0
LINE
  5
1BA
  8
0
 10
9.4699341473120811
 20
5.8555614133582488
 30
0.0
 11
10.345761030948299
 21
5.8555614133582488
 31
0.0
  0
LINE
  5
1BB
  8
0
 10
11.90158791458451
 20
5.8555614133582488
 30
0.0
 11
11.025761030948299
 21
5.8555614133582488
 31
0.0
  0
SOLID
  5
1BC
  8
0
 10
9.4699341473120811
 20
5.8763947466915818
 30
0.0
 11
9.4699341473120811
 21
5.8347280800249157
 31
0.0
 12
9.3449341473120811
 22
5.8555614133582488
 32
0.0
 13
9.3449341473120811
 23
5.8555614133582488
 33
0.0
  0
SOLID
  5
1BD
  8
0
 10
11.90158791458451
 20
5.8763947466915818
 30
0.0
 11
11.90158791458451
 21
5.8347280800249157
 31
0.0
 12
12.026587914584519
 22
5.8555614133582488
 32
0.0
 13
12.026587914584519
 23
5.8555614133582488
 33
0.0
  0
INSERT
  5
1BE
  8
0
  2
*U4
 10
0.0
 20
0.0
 30
0.0
  0
INSERT
  5
1D4
  8
0
  2
*U8
 10
0.0
 20
0.0
 30
0.0
  0
INSERT
  5
1D5
  8
0
  2
*U9
 10
0.0
 20
0.0
 30
0.0
  0
ENDSEC
  0
EOF
