  0
SECTION
  2
HEADER
  9
$ACADVER
  1
AC1009
  9
$INSBASE
 10
0.0
 20
0.0
 30
0.0
  9
$EXTMIN
 10
4.1754767145832767
 20
2.32076074008096
 30
0.0
  9
$EXTMAX
 10
9.2974698565074512
 20
6.6302538820051309
 30
0.0
  9
$LIMMIN
 10
0.0
 20
0.0
  9
$LIMMAX
 10
12.0
 20
9.0
  9
$ORTHOMODE
 70
     1
  9
$REGENMODE
 70
     0
  9
$FILLMODE
 70
     1
  9
$QTEXTMODE
 70
     0
  9
$MIRRTEXT
 70
     0
  9
$DRAGMODE
 70
     2
  9
$LTSCALE
 40
1.0
  9
$OSMODE
 70
    55
  9
$ATTMODE
 70
     1
  9
$TEXTSIZE
 40
0.12
  9
$TRACEWID
 40
0.05
  9
$TEXTSTYLE
  7
ADESK1
  9
$CLAYER
  8
0
  9
$CELTYPE
  6
BYLAYER
  9
$CECOLOR
 62
   256
  9
$DIMSCALE
 40
1.0
  9
$DIMASZ
 40
0.125
  9
$DIMEXO
 40
0.0625
  9
$DIMDLI
 40
0.38
  9
$DIMRND
 40
0.0
  9
$DIMDLE
 40
0.0
  9
$DIMEXE
 40
0.18
  9
$DIMTP
 40
0.0
  9
$DIMTM
 40
0.0
  9
$DIMTXT
 40
0.09375
  9
$DIMCEN
 40
-0.125
  9
$DIMTSZ
 40
0.0
  9
$DIMTOL
 70
     0
  9
$DIMLIM
 70
     0
  9
$DIMTIH
 70
     0
  9
$DIMTOH
 70
     0
  9
$DIMSE1
 70
     0
  9
$DIMSE2
 70
     0
  9
$DIMTAD
 70
     0
  9
$DIMZIN
 70
     3
  9
$DIMBLK
  1

  9
$DIMASO
 70
     0
  9
$DIMSHO
 70
     1
  9
$DIMPOST
  1

  9
$DIMAPOST
  1

  9
$DIMALT
 70
     0
  9
$DIMALTD
 70
     2
  9
$DIMALTF
 40
25.399999999999999
  9
$DIMLFAC
 40
1.0
  9
$DIMTOFL
 70
     1
  9
$DIMTVP
 40
0.0
  9
$DIMTIX
 70
     0
  9
$DIMSOXD
 70
     0
  9
$DIMSAH
 70
     0
  9
$DIMBLK1
  1

  9
$DIMBLK2
  1

  9
$DIMSTYLE
  2
STANDARD
  9
$DIMCLRD
 70
     0
  9
$DIMCLRE
 70
     0
  9
$DIMCLRT
 70
     0
  9
$DIMTFAC
 40
1.0
  9
$DIMGAP
 40
0.09
  9
$LUNITS
 70
     4
  9
$LUPREC
 70
     4
  9
$SKETCHINC
 40
0.1
  9
$FILLETRAD
 40
0.0
  9
$AUNITS
 70
     0
  9
$AUPREC
 70
     4
  9
$MENU
  1
.
  9
$ELEVATION
 40
0.0
  9
$PELEVATION
 40
0.0
  9
$THICKNESS
 40
0.0
  9
$LIMCHECK
 70
     0
  9
$BLIPMODE
 70
     0
  9
$CHAMFERA
 40
0.5
  9
$CHAMFERB
 40
0.5
  9
$SKPOLY
 70
     0
  9
$TDCREATE
 40
2451065.3838062501
  9
$TDUPDATE
 40
2453913.5764611228
  9
$TDINDWG
 40
0.0282467708
  9
$TDUSRTIMER
 40
0.0282467708
  9
$USRTIMER
 70
     1
  9
$ANGBASE
 50
0.0
  9
$ANGDIR
 70
     0
  9
$PDMODE
 70
    34
  9
$PDSIZE
 40
3.0
  9
$PLINEWID
 40
0.0
  9
$COORDS
 70
     1
  9
$SPLFRAME
 70
     0
  9
$SPLINETYPE
 70
     6
  9
$SPLINESEGS
 70
     8
  9
$ATTDIA
 70
     0
  9
$ATTREQ
 70
     1
  9
$HANDLING
 70
     1
  9
$HANDSEED
  5
8A
  9
$SURFTAB1
 70
     6
  9
$SURFTAB2
 70
     6
  9
$SURFTYPE
 70
     6
  9
$SURFU
 70
     6
  9
$SURFV
 70
     6
  9
$UCSNAME
  2

  9
$UCSORG
 10
0.0
 20
0.0
 30
0.0
  9
$UCSXDIR
 10
1.0
 20
0.0
 30
0.0
  9
$UCSYDIR
 10
0.0
 20
1.0
 30
0.0
  9
$PUCSNAME
  2

  9
$PUCSORG
 10
0.0
 20
0.0
 30
0.0
  9
$PUCSXDIR
 10
1.0
 20
0.0
 30
0.0
  9
$PUCSYDIR
 10
0.0
 20
1.0
 30
0.0
  9
$USERI1
 70
     0
  9
$USERI2
 70
     0
  9
$USERI3
 70
     0
  9
$USERI4
 70
     0
  9
$USERI5
 70
     0
  9
$USERR1
 40
0.0
  9
$USERR2
 40
0.0
  9
$USERR3
 40
0.0
  9
$USERR4
 40
0.0
  9
$USERR5
 40
0.0
  9
$WORLDVIEW
 70
     1
  9
$SHADEDGE
 70
     3
  9
$SHADEDIF
 70
    70
  9
$TILEMODE
 70
     1
  9
$MAXACTVP
 70
    48
  9
$PLIMCHECK
 70
     0
  9
$PEXTMIN
 10
3.719377057487069
 20
1.90528608298475
 30
0.0
  9
$PEXTMAX
 10
9.7535695136036615
 20
7.04572853910134
 30
0.0
  9
$PLIMMIN
 10
-0.1579164520023376
 20
-0.2812499887361301
  9
$PLIMMAX
 10
10.84208330770177
 20
8.2187497709679782
  9
$UNITMODE
 70
     0
  9
$VISRETAIN
 70
     1
  9
$PLINEGEN
 70
     0
  9
$PSLTSCALE
 70
     1
  0
ENDSEC
  0
SECTION
  2
TABLES
  0
TABLE
  2
VPORT
 70
     2
  0
VPORT
  2
*ACTIVE
 70
     0
 10
0.0
 20
0.0
 11
1.0
 21
1.0
 12
9.8302909021081302
 22
4.475507311043045
 13
0.0
 23
0.0
 14
0.5
 24
0.5
 15
0.5
 25
0.5
 16
0.0
 26
0.0
 36
1.0
 17
0.0
 27
0.0
 37
0.0
 40
4.3094931419241709
 41
2.6243523316062172
 42
50.0
 43
0.0
 44
0.0
 50
0.0
 51
0.0
 71
     0
 72
   100
 73
     1
 74
     1
 75
     0
 76
     0
 77
     0
 78
     0
  0
ENDTAB
  0
TABLE
  2
LTYPE
 70
     2
  0
LTYPE
  2
CONTINUOUS
 70
     0
  3
Solid line
 72
    65
 73
     0
 40
0.0
  0
LTYPE
  2
HIDDEN
 70
     0
  3
__ __ __ __ __ __ __ __ __ __ __ __ __ __ __ __
 72
    65
 73
     2
 40
0.375
 49
0.25
 49
-0.125
  0
ENDTAB
  0
TABLE
  2
LAYER
 70
     3
  0
LAYER
  2
0
 70
     0
 62
     7
  6
CONTINUOUS
  0
LAYER
  2
AM_VIS
 70
     0
 62
     7
  6
CONTINUOUS
  0
LAYER
  2
AM_HID
 70
     0
 62
     7
  6
HIDDEN
  0
ENDTAB
  0
TABLE
  2
STYLE
 70
     2
  0
STYLE
  2
STANDARD
 70
     0
 40
0.0
 41
1.0
 50
0.0
 71
     0
 42
0.2
  3
txt
  4

  0
STYLE
  2
ADESK1
 70
     0
 40
0.0
 41
1.0
 50
0.0
 71
     0
 42
0.12
  3
romans.shx
  4

  0
ENDTAB
  0
TABLE
  2
VIEW
 70
     0
  0
ENDTAB
  0
TABLE
  2
UCS
 70
     0
  0
ENDTAB
  0
TABLE
  2
APPID
 70
     1
  0
APPID
  2
ACAD
 70
     0
  0
ENDTAB
  0
TABLE
  2
DIMSTYLE
 70
     1
  0
DIMSTYLE
  2
STANDARD
 70
     0
  3

  4

  5

  6

  7

 40
1.0
 41
0.18
 42
0.0625
 43
0.38
 44
0.18
 45
0.0
 46
0.0
 47
0.0
 48
0.0
140
0.18
141
0.09
142
0.0
143
25.399999999999999
144
1.0
145
0.0
146
1.0
147
0.09
 71
     0
 72
     0
 73
     1
 74
     1
 75
     0
 76
     0
 77
     0
 78
     0
170
     0
171
     2
172
     0
173
     0
174
     0
175
     0
176
     0
177
     0
178
     0
  0
ENDTAB
  0
ENDSEC
  0
SECTION
  2
BLOCKS
  0
BLOCK
  8
0
  2
$MODEL_SPACE
 70
     0
 10
0.0
 20
0.0
 30
0.0
  3
$MODEL_SPACE
  1

  0
ENDBLK
  5
A
  8
0
  0
BLOCK
 67
     1
  8
0
  2
$PAPER_SPACE
 70
     0
 10
0.0
 20
0.0
 30
0.0
  3
$PAPER_SPACE
  1

  0
ENDBLK
  5
F
 67
     1
  8
0
  0
ENDSEC
  0
SECTION
  2
ENTITIES
  0
ARC
  5
26
  8
AM_VIS
 10
6.362976714618207
 20
3.6957607407951021
 30
0.0
 40
1.6214917805152069
 50
84.693524438737583
 51
90.171768403270065
  0
ARC
  5
28
  8
AM_HID
 10
6.3629767145832794
 20
3.69576074008096
 30
0.0
 40
1.6214917812293761
 50
74.878845377885554
 51
84.693524439842719
  0
ARC
  5
2B
  8
AM_VIS
 10
6.3629767152975161
 20
3.6957607401159041
 30
0.0
 40
1.621491780515111
 50
359.82823159672898
 51
5.3064755612617978
  0
ARC
  5
2C
  8
AM_HID
 10
6.3629767145832794
 20
3.69576074008096
 30
0.0
 40
1.6214917812293761
 50
5.3064755601571836
 51
15.121154622114391
  0
LINE
  5
2D
  8
AM_HID
 10
7.8841338896008191
 20
3.8734150308440611
 30
0.0
 11
7.963904027198538
 21
3.95318516844178
 31
0.0
  0
LINE
  5
2E
  8
AM_HID
 10
7.9283265840653696
 20
4.118744643683466
 30
0.0
 11
7.7835654304133923
 21
3.9739834900314879
 31
0.0
  0
LINE
  5
2F
  8
AM_HID
 10
7.7835654304133932
 20
3.9739834900314879
 30
0.0
 11
6.641199464533809
 21
5.1163494559110729
 31
0.0
  0
LINE
  5
30
  8
AM_HID
 10
6.6411994645338082
 20
5.1163494559110738
 30
0.0
 11
6.7859606181857863
 21
5.261110609563052
 31
0.0
  0
LINE
  5
31
  8
AM_HID
 10
6.6204011429450471
 20
5.296688052697168
 30
0.0
 11
6.5406310053463796
 21
5.2169179150985023
 31
0.0
  0
LINE
  5
32
  8
AM_VIS
 10
6.3377925699759858
 20
5.1351584470613476
 30
0.0
 11
6.539753409879915
 21
4.9331976071574193
 31
0.0
  0
LINE
  5
33
  8
AM_VIS
 10
7.600413581659736
 20
3.8725374353775961
 30
0.0
 11
7.8023744215636661
 21
3.6705765954736669
 31
0.0
  0
LINE
  5
34
  8
AM_HID
 10
6.5406310053463796
 20
5.2169179150985023
 30
0.0
 11
6.6411994645338082
 21
5.1163494559110738
 31
0.0
  0
LINE
  5
35
  8
AM_HID
 10
7.7835654304133932
 20
3.9739834900314892
 30
0.0
 11
7.8841338896008191
 21
3.873415030844062
 31
0.0
  0
ARC
  5
36
  8
AM_VIS
 10
7.341509438195974
 20
4.6742934636936564
 30
0.0
 40
1.035615758860398
 50
156.75590471153691
 51
178.597095090658
  0
ARC
  5
37
  8
AM_VIS
 10
7.341509438195974
 20
4.6742934636936564
 30
0.0
 40
1.035615758860398
 50
271.40290490934188
 51
293.24409528846292
  0
ARC
  5
38
  8
AM_VIS
 10
7.341509438195974
 20
4.6742934636936564
 30
0.0
 40
1.149999999999999
 50
271.06961372182292
 51
295.50124942042561
  0
ARC
  5
39
  8
AM_HID
 10
7.341509438195974
 20
4.6742934636936564
 30
0.0
 40
1.149999999999999
 50
265.70570683104148
 51
271.06961372182292
  0
ARC
  5
3A
  8
AM_HID
 10
7.341509438195974
 20
4.6742934636936564
 30
0.0
 40
1.0871407452579449
 50
181.379146067514
 51
268.620853932486
  0
ARC
  5
3B
  8
AM_VIS
 10
7.341509438195974
 20
4.6742934636936564
 30
0.0
 40
1.149999999999999
 50
154.49875057957439
 51
184.29429316895849
  0
LINE
  5
3C
  8
AM_HID
 10
6.3035471575717761
 20
5.1694038594655591
 30
0.0
 11
6.3377925699759858
 21
5.1351584470613476
 31
0.0
  0
LINE
  5
3D
  8
AM_HID
 10
6.539753409879915
 20
4.9331976071574193
 30
0.0
 11
6.5424117227896899
 21
4.9305392942476418
 31
0.0
  0
LINE
  5
3E
  8
AM_HID
 10
7.5977552687499603
 20
3.8751957482873718
 30
0.0
 11
7.6004135816597351
 21
3.8725374353775961
 31
0.0
  0
LINE
  5
3F
  8
AM_HID
 10
7.8023744215636661
 20
3.6705765954736669
 30
0.0
 11
7.8366198339678768
 21
3.6363311830694558
 31
0.0
  0
LINE
  5
40
  8
AM_VIS
 10
7.9844612091994511
 20
3.6908996379680712
 30
0.0
 11
7.8832562941343571
 21
3.5896947229029772
 31
0.0
  0
LINE
  5
41
  8
AM_VIS
 10
6.2569106974052966
 20
5.216040319632036
 30
0.0
 11
6.3581156124703933
 21
5.3172452346971317
 31
0.0
  0
LINE
  5
42
  8
AM_VIS
 10
6.5129373392540497
 20
5.3103032163394097
 30
0.0
 11
6.3377925699759876
 21
5.1351584470613476
 31
0.0
  0
LINE
  5
43
  8
AM_VIS
 10
6.5424117227896934
 20
4.9305392942476418
 30
0.0
 11
6.5521281530209894
 21
4.9402557244789387
 31
0.0
  0
LINE
  5
44
  8
AM_VIS
 10
6.5424117227896916
 20
4.9305392942476427
 30
0.0
 11
7.5977552687499621
 21
3.8751957482873731
 31
0.0
  0
LINE
  5
45
  8
AM_VIS
 10
7.6074716989812581
 20
3.8849121785186682
 30
0.0
 11
7.5977552687499621
 21
3.8751957482873718
 31
0.0
  0
LINE
  5
46
  8
AM_VIS
 10
7.802374421563667
 20
3.6705765954736669
 30
0.0
 11
7.9775191908417291
 21
3.845721364751729
 31
0.0
  0
LINE
  5
47
  8
AM_VIS
 10
7.6711242597783924
 20
6.6302538820051309
 30
0.0
 11
8.4842970581429231
 21
5.8170810836406019
 31
0.0
  0
LINE
  5
48
  8
AM_VIS
 10
8.4842970581429231
 20
5.8170810836406019
 30
0.0
 11
9.2974698565074512
 21
5.003908285276073
 31
0.0
  0
ARC
  5
49
  8
AM_VIS
 10
9.6482235436964174
 20
3.8737480843676062
 30
0.0
 40
1.1055675377355501
 50
135.46003328325071
 51
153.72083519707081
  0
ARC
  5
4A
  8
AM_VIS
 10
9.6356704624869902
 20
3.8611950031581639
 30
0.0
 40
1.1055675377355609
 50
116.2791648029292
 51
134.53996671674909
  0
LINE
  5
4B
  8
AM_VIS
 10
7.8832562941343554
 20
3.5896947229029781
 30
0.0
 11
7.8366198339678759
 21
3.6363311830694558
 31
0.0
  0
LINE
  5
4C
  8
AM_VIS
 10
6.3035471575717761
 20
5.1694038594655591
 30
0.0
 11
6.2569106974052966
 21
5.2160403196320368
 31
0.0
  0
LINE
  5
4D
  8
AM_HID
 10
8.9671124268475317
 20
4.6735508556161518
 30
0.0
 11
8.8358676912384375
 21
4.5423061200070576
 31
0.0
  0
LINE
  5
4E
  8
AM_HID
 10
9.0555007744958491
 20
4.5851625079678326
 30
0.0
 11
8.9671124268475317
 21
4.6735508556161518
 31
0.0
  0
LINE
  5
4F
  8
AM_HID
 10
8.9242560388867567
 20
4.4539177723587393
 30
0.0
 11
8.8358676912384375
 21
4.5423061200070567
 31
0.0
  0
LINE
  5
50
  8
AM_HID
 10
8.8358676912384375
 20
4.5423061200070567
 30
0.0
 11
8.7702453234338904
 21
4.4766837522025087
 31
0.0
  0
LINE
  5
51
  8
AM_HID
 10
8.8586336710822078
 20
4.3882954045541922
 30
0.0
 11
8.7702453234338904
 21
4.4766837522025096
 31
0.0
  0
LINE
  5
52
  8
AM_HID
 10
9.121123142300398
 20
4.6507848757723798
 30
0.0
 11
9.0327347946520788
 21
4.7391732234206989
 31
0.0
  0
LINE
  5
53
  8
AM_HID
 10
9.0327347946520788
 20
4.7391732234206989
 30
0.0
 11
8.9671124268475317
 21
4.6735508556161518
 31
0.0
  0
LINE
  5
54
  8
AM_VIS
 10
8.7689075375705041
 20
4.2985692710424912
 30
0.0
 11
9.2108492758120981
 21
4.7405110092840834
 31
0.0
  0
ARC
  5
55
  8
AM_VIS
 10
7.3415094381959749
 20
4.6742934636936564
 30
0.0
 40
0.7462405778299637
 50
165.95629275853599
 51
284.04370724146378
  0
LINE
  5
56
  8
AM_VIS
 10
6.5521281530209894
 20
4.9402557244789387
 30
0.0
 11
6.5494698401112119
 21
4.9429140373887162
 31
0.0
  0
LINE
  5
57
  8
AM_VIS
 10
6.5494698401112119
 20
4.9429140373887162
 30
0.0
 11
5.832646628693368
 21
4.2260908259708732
 31
0.0
  0
ARC
  5
58
  8
AM_VIS
 10
6.3629767145832794
 20
3.69576074008096
 30
0.0
 40
0.75
 50
134.99999999999989
 51
314.99999999999989
  0
LINE
  5
59
  8
AM_VIS
 10
6.8933068004731881
 20
3.16543065419105
 30
0.0
 11
7.610130011891032
 21
3.882253865608893
 31
0.0
  0
LINE
  5
5A
  8
AM_VIS
 10
7.6101300118910329
 20
3.8822538656088939
 30
0.0
 11
7.6074716989812581
 21
3.8849121785186691
 31
0.0
  0
CIRCLE
  5
5B
  8
AM_VIS
 10
6.3629767145832776
 20
3.6957607400809609
 30
0.0
 40
0.1875
  0
LINE
  5
5C
  8
AM_HID
 10
6.6204011429450471
 20
5.296688052697168
 30
0.0
 11
7.8125456160157016
 21
6.4888325257678217
 31
0.0
  0
LINE
  5
5D
  8
AM_HID
 10
7.9639040271985388
 20
3.95318516844178
 30
0.0
 11
9.1560485002701402
 21
5.1453296415133822
 31
0.0
  0
LINE
  5
5E
  8
AM_VIS
 10
6.3581156124703933
 20
5.3172452346971317
 30
0.0
 11
7.6711242597783924
 21
6.6302538820051309
 31
0.0
  0
LINE
  5
5F
  8
AM_VIS
 10
7.9844612091994502
 20
3.6908996379680721
 30
0.0
 11
8.6568356035494993
 21
4.3632740323181221
 31
0.0
  0
LINE
  5
60
  8
AM_VIS
 10
9.1461445145364682
 20
4.8525829433050891
 30
0.0
 11
9.2974698565074512
 21
5.003908285276073
 31
0.0
  0
LINE
  5
61
  8
AM_VIS
 10
8.7689075375705041
 20
4.2985692710424912
 30
0.0
 11
8.6568356035494993
 21
4.3632740323181212
 31
0.0
  0
LINE
  5
62
  8
AM_VIS
 10
9.2108492758120981
 20
4.7405110092840834
 30
0.0
 11
9.1461445145364682
 21
4.8525829433050891
 31
0.0
  0
LINE
  5
63
  8
AM_VIS
 10
8.5504767145832794
 20
2.57076074008096
 30
0.0
 11
4.1754767145832776
 21
2.57076074008096
 31
0.0
  0
LINE
  5
64
  8
AM_VIS
 10
8.5504767145832794
 20
2.32076074008096
 30
0.0
 11
8.5504767145832794
 21
2.57076074008096
 31
0.0
  0
LINE
  5
65
  8
AM_VIS
 10
4.1754767145832767
 20
2.32076074008096
 30
0.0
 11
4.1754767145832767
 21
2.57076074008096
 31
0.0
  0
LINE
  5
66
  8
AM_VIS
 10
4.1754767145832767
 20
2.32076074008096
 30
0.0
 11
8.5504767145832794
 21
2.32076074008096
 31
0.0
  0
CIRCLE
  5
67
  8
AM_HID
 10
6.3629767145832776
 20
3.69576074008096
 30
0.0
 40
0.21875
  0
ARC
  5
68
  8
AM_HID
 10
6.8629767145832794
 20
4.07076074008096
 30
0.0
 40
0.5
 50
0.0
 51
90.0
  0
LINE
  5
69
  8
AM_HID
 10
6.8629767145832794
 20
4.57076074008096
 30
0.0
 11
6.1773165428034567
 21
4.57076074008096
 31
0.0
  0
LINE
  5
6A
  8
AM_VIS
 10
6.1773165428034567
 20
4.57076074008096
 30
0.0
 11
5.8629767145832794
 21
4.57076074008096
 31
0.0
  0
ARC
  5
6B
  8
AM_VIS
 10
5.8629767145832776
 20
4.07076074008096
 30
0.0
 40
0.5
 50
89.999999999999986
 51
180.0
  0
LINE
  5
6C
  8
AM_VIS
 10
5.3629767145832776
 20
2.57076074008096
 30
0.0
 11
5.3629767145832776
 21
4.07076074008096
 31
0.0
  0
LINE
  5
6D
  8
AM_VIS
 10
7.3629767145832776
 20
2.57076074008096
 30
0.0
 11
7.3629767145832776
 21
3.635100568301139
 31
0.0
  0
LINE
  5
6E
  8
AM_HID
 10
7.3629767145832776
 20
3.635100568301139
 30
0.0
 11
7.3629767145832776
 21
4.07076074008096
 31
0.0
  0
LINE
  5
6F
  8
AM_HID
 10
4.5192267145832776
 20
2.32076074008096
 30
0.0
 11
4.5192267145832776
 21
2.57076074008096
 31
0.0
  0
LINE
  5
70
  8
AM_HID
 10
4.9567267145832776
 20
2.32076074008096
 30
0.0
 11
4.9567267145832776
 21
2.57076074008096
 31
0.0
  0
LINE
  5
71
  8
AM_HID
 10
7.7692267145832767
 20
2.32076074008096
 30
0.0
 11
7.7692267145832767
 21
2.57076074008096
 31
0.0
  0
LINE
  5
72
  8
AM_HID
 10
8.2067267145832776
 20
2.32076074008096
 30
0.0
 11
8.2067267145832776
 21
2.57076074008096
 31
0.0
  0
ENDSEC
  0
EOF
