  0
SECTION
  2
HEADER
  9
$ACADVER
  1
AC1009
  9
$INSBASE
 10
0.0
 20
0.0
 30
0.0
  9
$EXTMIN
 10
11.39879006036586
 20
3.0537347935326138
 30
0.0
  9
$EXTMAX
 10
15.99603891662686
 20
7.448754720708699
 30
0.0
  9
$LIMMIN
 10
0.0
 20
0.0
  9
$LIMMAX
 10
12.0
 20
9.0
  9
$ORTHOMODE
 70
     1
  9
$REGENMODE
 70
     0
  9
$FILLMODE
 70
     1
  9
$QTEXTMODE
 70
     0
  9
$MIRRTEXT
 70
     0
  9
$DRAGMODE
 70
     2
  9
$LTSCALE
 40
1.0
  9
$OSMODE
 70
    55
  9
$ATTMODE
 70
     1
  9
$TEXTSIZE
 40
0.2
  9
$TRACEWID
 40
0.05
  9
$TEXTSTYLE
  7
STANDARD
  9
$CLAYER
  8
0
  9
$CELTYPE
  6
BYLAYER
  9
$CECOLOR
 62
   256
  9
$DIMSCALE
 40
1.0
  9
$DIMASZ
 40
0.125
  9
$DIMEXO
 40
0.0625
  9
$DIMDLI
 40
0.38
  9
$DIMRND
 40
0.0
  9
$DIMDLE
 40
0.0
  9
$DIMEXE
 40
0.18
  9
$DIMTP
 40
0.0
  9
$DIMTM
 40
0.0
  9
$DIMTXT
 40
0.09375
  9
$DIMCEN
 40
-0.125
  9
$DIMTSZ
 40
0.0
  9
$DIMTOL
 70
     0
  9
$DIMLIM
 70
     0
  9
$DIMTIH
 70
     0
  9
$DIMTOH
 70
     0
  9
$DIMSE1
 70
     0
  9
$DIMSE2
 70
     0
  9
$DIMTAD
 70
     0
  9
$DIMZIN
 70
     3
  9
$DIMBLK
  1

  9
$DIMASO
 70
     0
  9
$DIMSHO
 70
     1
  9
$DIMPOST
  1

  9
$DIMAPOST
  1

  9
$DIMALT
 70
     0
  9
$DIMALTD
 70
     2
  9
$DIMALTF
 40
25.399999999999999
  9
$DIMLFAC
 40
1.0
  9
$DIMTOFL
 70
     1
  9
$DIMTVP
 40
0.0
  9
$DIMTIX
 70
     0
  9
$DIMSOXD
 70
     0
  9
$DIMSAH
 70
     0
  9
$DIMBLK1
  1

  9
$DIMBLK2
  1

  9
$DIMSTYLE
  2
STANDARD
  9
$DIMCLRD
 70
     0
  9
$DIMCLRE
 70
     0
  9
$DIMCLRT
 70
     0
  9
$DIMTFAC
 40
1.0
  9
$DIMGAP
 40
0.09
  9
$LUNITS
 70
     4
  9
$LUPREC
 70
     4
  9
$SKETCHINC
 40
0.1
  9
$FILLETRAD
 40
0.025
  9
$AUNITS
 70
     0
  9
$AUPREC
 70
     4
  9
$MENU
  1
.
  9
$ELEVATION
 40
0.0
  9
$PELEVATION
 40
0.0
  9
$THICKNESS
 40
0.0
  9
$LIMCHECK
 70
     0
  9
$BLIPMODE
 70
     0
  9
$CHAMFERA
 40
0.125
  9
$CHAMFERB
 40
0.5
  9
$SKPOLY
 70
     0
  9
$TDCREATE
 40
2451086.9109346061
  9
$TDUPDATE
 40
2453913.577331285
  9
$TDINDWG
 40
0.068729213
  9
$TDUSRTIMER
 40
0.068729213
  9
$USRTIMER
 70
     1
  9
$ANGBASE
 50
0.0
  9
$ANGDIR
 70
     0
  9
$PDMODE
 70
    34
  9
$PDSIZE
 40
3.0
  9
$PLINEWID
 40
0.0
  9
$COORDS
 70
     1
  9
$SPLFRAME
 70
     0
  9
$SPLINETYPE
 70
     6
  9
$SPLINESEGS
 70
     8
  9
$ATTDIA
 70
     0
  9
$ATTREQ
 70
     1
  9
$HANDLING
 70
     1
  9
$HANDSEED
  5
179
  9
$SURFTAB1
 70
     6
  9
$SURFTAB2
 70
     6
  9
$SURFTYPE
 70
     6
  9
$SURFU
 70
     6
  9
$SURFV
 70
     6
  9
$UCSNAME
  2

  9
$UCSORG
 10
0.0
 20
0.0
 30
0.0
  9
$UCSXDIR
 10
1.0
 20
0.0
 30
0.0
  9
$UCSYDIR
 10
0.0
 20
1.0
 30
0.0
  9
$PUCSNAME
  2

  9
$PUCSORG
 10
0.0
 20
0.0
 30
0.0
  9
$PUCSXDIR
 10
1.0
 20
0.0
 30
0.0
  9
$PUCSYDIR
 10
0.0
 20
1.0
 30
0.0
  9
$USERI1
 70
     0
  9
$USERI2
 70
     0
  9
$USERI3
 70
     0
  9
$USERI4
 70
     0
  9
$USERI5
 70
     0
  9
$USERR1
 40
0.0
  9
$USERR2
 40
0.0
  9
$USERR3
 40
0.0
  9
$USERR4
 40
0.0
  9
$USERR5
 40
0.0
  9
$WORLDVIEW
 70
     1
  9
$SHADEDGE
 70
     3
  9
$SHADEDIF
 70
    70
  9
$TILEMODE
 70
     1
  9
$MAXACTVP
 70
    48
  9
$PLIMCHECK
 70
     0
  9
$PEXTMIN
 10
11.44955314120444
 20
2.656958739986846
 30
0.0
  9
$PEXTMAX
 10
16.441740200491719
 20
7.3860319179937353
 30
0.0
  9
$PLIMMIN
 10
-0.1579164520023376
 20
-0.2812499887361301
  9
$PLIMMAX
 10
10.84208330770177
 20
8.2187497709679782
  9
$UNITMODE
 70
     0
  9
$VISRETAIN
 70
     1
  9
$PLINEGEN
 70
     0
  9
$PSLTSCALE
 70
     1
  0
ENDSEC
  0
SECTION
  2
TABLES
  0
TABLE
  2
VPORT
 70
     2
  0
VPORT
  2
*ACTIVE
 70
     0
 10
0.0
 20
0.0
 11
1.0
 21
1.0
 12
17.215571050990761
 22
5.0214953289902899
 13
0.0
 23
0.0
 14
0.5
 24
0.5
 15
0.5
 25
0.5
 16
0.0
 26
0.0
 36
1.0
 17
0.0
 27
0.0
 37
0.0
 40
3.9355210909153522
 41
2.7225274725274722
 42
50.0
 43
0.0
 44
0.0
 50
0.0
 51
0.0
 71
     0
 72
   100
 73
     1
 74
     1
 75
     0
 76
     0
 77
     0
 78
     0
  0
ENDTAB
  0
TABLE
  2
LTYPE
 70
     2
  0
LTYPE
  2
CONTINUOUS
 70
     0
  3
Solid line
 72
    65
 73
     0
 40
0.0
  0
LTYPE
  2
HIDDEN
 70
     0
  3
__ __ __ __ __ __ __ __ __ __ __ __ __ __ __ __
 72
    65
 73
     2
 40
0.375
 49
0.25
 49
-0.125
  0
ENDTAB
  0
TABLE
  2
LAYER
 70
     3
  0
LAYER
  2
0
 70
     0
 62
     7
  6
CONTINUOUS
  0
LAYER
  2
AM_VIS
 70
     0
 62
     7
  6
CONTINUOUS
  0
LAYER
  2
AM_HID
 70
     0
 62
     7
  6
HIDDEN
  0
ENDTAB
  0
TABLE
  2
STYLE
 70
     1
  0
STYLE
  2
STANDARD
 70
     0
 40
0.0
 41
1.0
 50
0.0
 71
     0
 42
0.2
  3
txt
  4

  0
ENDTAB
  0
TABLE
  2
VIEW
 70
     0
  0
ENDTAB
  0
TABLE
  2
UCS
 70
     0
  0
ENDTAB
  0
TABLE
  2
APPID
 70
     1
  0
APPID
  2
ACAD
 70
     0
  0
ENDTAB
  0
TABLE
  2
DIMSTYLE
 70
     1
  0
DIMSTYLE
  2
STANDARD
 70
     0
  3

  4

  5

  6

  7

 40
1.0
 41
0.18
 42
0.0625
 43
0.38
 44
0.18
 45
0.0
 46
0.0
 47
0.0
 48
0.0
140
0.18
141
0.09
142
0.0
143
25.399999999999999
144
1.0
145
0.0
146
1.0
147
0.09
 71
     0
 72
     0
 73
     1
 74
     1
 75
     0
 76
     0
 77
     0
 78
     0
170
     0
171
     2
172
     0
173
     0
174
     0
175
     0
176
     0
177
     0
178
     0
  0
ENDTAB
  0
ENDSEC
  0
SECTION
  2
BLOCKS
  0
BLOCK
  8
0
  2
$MODEL_SPACE
 70
     0
 10
0.0
 20
0.0
 30
0.0
  3
$MODEL_SPACE
  1

  0
ENDBLK
  5
A
  8
0
  0
BLOCK
 67
     1
  8
0
  2
$PAPER_SPACE
 70
     0
 10
0.0
 20
0.0
 30
0.0
  3
$PAPER_SPACE
  1

  0
ENDBLK
  5
F
 67
     1
  8
0
  0
ENDSEC
  0
SECTION
  2
ENTITIES
  0
LINE
  5
25
  8
AM_VIS
 10
12.64034507377356
 20
3.551255864447965
 30
0.0
 11
11.85828891662659
 21
3.551255864447965
 31
0.0
  0
LINE
  5
27
  8
AM_VIS
 10
13.90778826609545
 20
3.551255864447965
 30
0.0
 11
13.146232759479631
 21
3.551255864447965
 31
0.0
  0
LINE
  5
28
  8
AM_VIS
 10
15.29628891662659
 20
4.9927309218429059
 30
0.0
 11
15.29628891662659
 21
5.7013120215949327
 31
0.0
  0
LINE
  5
29
  8
AM_VIS
 10
15.29628891662659
 20
6.2071997073010001
 30
0.0
 11
15.29628891662659
 21
6.9892558644479674
 31
0.0
  0
LINE
  5
2A
  8
AM_VIS
 10
12.89328891662659
 20
3.5512558655383568
 30
0.0
 11
13.146232759479631
 21
3.5512558655383568
 31
0.0
  0
LINE
  5
2B
  8
AM_VIS
 10
12.64034507377356
 20
3.551255866116604
 30
0.0
 11
12.89328891662659
 21
3.551255866116604
 31
0.0
  0
ARC
  5
2C
  8
AM_VIS
 10
12.903777307171779
 20
4.051467266630036
 30
0.0
 40
0.369296759614094
 50
229.29431560951801
 51
268.37178989421989
  0
ARC
  5
2D
  8
AM_VIS
 10
12.8828005260814
 20
4.0514672666300413
 30
0.0
 40
0.3692967596140979
 50
271.62821010578028
 51
310.70568439048179
  0
ARC
  5
2E
  8
AM_VIS
 10
12.89328891662659
 20
4.0552558644479637
 30
0.0
 40
0.365625
 50
309.07230755918039
 51
50.927692440819548
  0
ARC
  5
2F
  8
AM_VIS
 10
12.8828005260814
 20
4.0590444622658977
 30
0.0
 40
0.3692967596140871
 50
49.294315609517632
 51
88.371789894220299
  0
CIRCLE
  5
30
  8
AM_VIS
 10
12.89328891662659
 20
4.0552558644479637
 30
0.0
 40
0.28125
  0
ARC
  5
31
  8
AM_VIS
 10
12.903777307171779
 20
4.0590444622659012
 30
0.0
 40
0.3692967596140853
 50
91.628210105779729
 51
130.7056843904825
  0
ARC
  5
32
  8
AM_VIS
 10
12.89328891662659
 20
4.0552558644479646
 30
0.0
 40
0.365625
 50
129.0723075591805
 51
230.9276924408197
  0
LINE
  5
33
  8
AM_VIS
 10
15.296288914975371
 20
6.2071997073009992
 30
0.0
 11
15.296288914975371
 21
5.9542558644479673
 31
0.0
  0
LINE
  5
34
  8
AM_VIS
 10
15.296288915241201
 20
5.9542558644479673
 30
0.0
 11
15.296288915241201
 21
5.7013120215949327
 31
0.0
  0
ARC
  5
35
  8
AM_VIS
 10
14.796077514444519
 20
5.9437674739027742
 30
0.0
 40
0.3692967596140922
 50
1.628210105780008
 51
40.705684390482119
  0
ARC
  5
36
  8
AM_VIS
 10
14.796077514444519
 20
5.9647442549931577
 30
0.0
 40
0.3692967596140924
 50
319.29431560951792
 51
358.37178989421989
  0
ARC
  5
37
  8
AM_VIS
 10
14.792288916626591
 20
5.9542558644479691
 30
0.0
 40
0.365625
 50
219.0723075591805
 51
320.92769244081938
  0
ARC
  5
38
  8
AM_VIS
 10
14.78850031880866
 20
5.9647442549931577
 30
0.0
 40
0.3692967596140915
 50
181.62821010578
 51
220.70568439048219
  0
CIRCLE
  5
39
  8
AM_VIS
 10
14.792288916626591
 20
5.9542558644479637
 30
0.0
 40
0.28125
  0
ARC
  5
3A
  8
AM_VIS
 10
14.792288916626591
 20
5.9542558644479637
 30
0.0
 40
0.365625
 50
39.072307559180338
 51
140.92769244081941
  0
ARC
  5
3B
  8
AM_VIS
 10
14.78850031880866
 20
5.943767473902775
 30
0.0
 40
0.3692967596140878
 50
139.29431560951761
 51
178.37178989422009
  0
LINE
  5
3C
  8
AM_HID
 10
15.812689831932291
 20
3.915509587389578
 30
0.0
 11
15.675461054670601
 21
3.915509587389578
 31
0.0
  0
LINE
  5
3F
  8
AM_HID
 10
15.675461054670601
 20
4.2619599996756463
 30
0.0
 11
15.812689831932291
 21
4.2619599996756463
 31
0.0
  0
CIRCLE
  5
40
  8
AM_VIS
 10
14.792288916626591
 20
4.0887347935326144
 30
0.0
 40
0.9
  0
CIRCLE
  5
41
  8
AM_VIS
 10
14.792288916626591
 20
4.0887347935326144
 30
0.0
 40
1.034999999999999
  0
POLYLINE
  8
AM_HID
  5
75
  66
     1
 10
0.000000
 20
0.000000
 30
0.000000
  70
     8
  0
VERTEX
  8
AM_HID
  5
76
 10
15.8183
 20
4.22458
 30
0.000000
  70
    32
  0
VERTEX
  8
AM_HID
  5
77
 10
15.8185
 20
4.22354
 30
0.000000
  70
    32
  0
VERTEX
  8
AM_HID
  5
78
 10
15.8186
 20
4.22251
 30
0.000000
  70
    32
  0
VERTEX
  8
AM_HID
  5
79
 10
15.8187
 20
4.22147
 30
0.000000
  70
    32
  0
VERTEX
  8
AM_HID
  5
7A
 10
15.8189
 20
4.22044
 30
0.000000
  70
    32
  0
VERTEX
  8
AM_HID
  5
7B
 10
15.8190
 20
4.21940
 30
0.000000
  70
    32
  0
VERTEX
  8
AM_HID
  5
7C
 10
15.8191
 20
4.21836
 30
0.000000
  70
    32
  0
VERTEX
  8
AM_HID
  5
7D
 10
15.8193
 20
4.21733
 30
0.000000
  70
    32
  0
VERTEX
  8
AM_HID
  5
7E
 10
15.8194
 20
4.21629
 30
0.000000
  70
    32
  0
VERTEX
  8
AM_HID
  5
7F
 10
15.8195
 20
4.21526
 30
0.000000
  70
    32
  0
VERTEX
  8
AM_HID
  5
80
 10
15.8197
 20
4.21422
 30
0.000000
  70
    32
  0
VERTEX
  8
AM_HID
  5
81
 10
15.8198
 20
4.21319
 30
0.000000
  70
    32
  0
VERTEX
  8
AM_HID
  5
82
 10
15.8199
 20
4.21215
 30
0.000000
  70
    32
  0
VERTEX
  8
AM_HID
  5
83
 10
15.8201
 20
4.21112
 30
0.000000
  70
    32
  0
VERTEX
  8
AM_HID
  5
84
 10
15.8202
 20
4.21008
 30
0.000000
  70
    32
  0
VERTEX
  8
AM_HID
  5
85
 10
15.8203
 20
4.20905
 30
0.000000
  70
    32
  0
VERTEX
  8
AM_HID
  5
86
 10
15.8205
 20
4.20801
 30
0.000000
  70
    32
  0
VERTEX
  8
AM_HID
  5
87
 10
15.8206
 20
4.20697
 30
0.000000
  70
    32
  0
VERTEX
  8
AM_HID
  5
88
 10
15.8207
 20
4.20594
 30
0.000000
  70
    32
  0
VERTEX
  8
AM_HID
  5
89
 10
15.8208
 20
4.20490
 30
0.000000
  70
    32
  0
VERTEX
  8
AM_HID
  5
8A
 10
15.8210
 20
4.20387
 30
0.000000
  70
    32
  0
VERTEX
  8
AM_HID
  5
8B
 10
15.8211
 20
4.20283
 30
0.000000
  70
    32
  0
VERTEX
  8
AM_HID
  5
8C
 10
15.8212
 20
4.20179
 30
0.000000
  70
    32
  0
VERTEX
  8
AM_HID
  5
8D
 10
15.8213
 20
4.20076
 30
0.000000
  70
    32
  0
VERTEX
  8
AM_HID
  5
8E
 10
15.8215
 20
4.19972
 30
0.000000
  70
    32
  0
VERTEX
  8
AM_HID
  5
8F
 10
15.8216
 20
4.19868
 30
0.000000
  70
    32
  0
VERTEX
  8
AM_HID
  5
90
 10
15.8217
 20
4.19765
 30
0.000000
  70
    32
  0
VERTEX
  8
AM_HID
  5
91
 10
15.8218
 20
4.19661
 30
0.000000
  70
    32
  0
VERTEX
  8
AM_HID
  5
92
 10
15.8219
 20
4.19557
 30
0.000000
  70
    32
  0
VERTEX
  8
AM_HID
  5
93
 10
15.8221
 20
4.19453
 30
0.000000
  70
    32
  0
VERTEX
  8
AM_HID
  5
94
 10
15.8222
 20
4.19349
 30
0.000000
  70
    32
  0
VERTEX
  8
AM_HID
  5
95
 10
15.8223
 20
4.19246
 30
0.000000
  70
    32
  0
VERTEX
  8
AM_HID
  5
96
 10
15.8224
 20
4.19142
 30
0.000000
  70
    32
  0
VERTEX
  8
AM_HID
  5
97
 10
15.8225
 20
4.19038
 30
0.000000
  70
    32
  0
VERTEX
  8
AM_HID
  5
98
 10
15.8226
 20
4.18934
 30
0.000000
  70
    32
  0
VERTEX
  8
AM_HID
  5
99
 10
15.8228
 20
4.18830
 30
0.000000
  70
    32
  0
VERTEX
  8
AM_HID
  5
9A
 10
15.8229
 20
4.18726
 30
0.000000
  70
    32
  0
VERTEX
  8
AM_HID
  5
9B
 10
15.8230
 20
4.18622
 30
0.000000
  70
    32
  0
VERTEX
  8
AM_HID
  5
9C
 10
15.8231
 20
4.18517
 30
0.000000
  70
    32
  0
VERTEX
  8
AM_HID
  5
9D
 10
15.8232
 20
4.18413
 30
0.000000
  70
    32
  0
VERTEX
  8
AM_HID
  5
9E
 10
15.8233
 20
4.18309
 30
0.000000
  70
    32
  0
VERTEX
  8
AM_HID
  5
9F
 10
15.8234
 20
4.18205
 30
0.000000
  70
    32
  0
VERTEX
  8
AM_HID
  5
A0
 10
15.8235
 20
4.18100
 30
0.000000
  70
    32
  0
VERTEX
  8
AM_HID
  5
A1
 10
15.8236
 20
4.17996
 30
0.000000
  70
    32
  0
VERTEX
  8
AM_HID
  5
A2
 10
15.8237
 20
4.17891
 30
0.000000
  70
    32
  0
VERTEX
  8
AM_HID
  5
A3
 10
15.8238
 20
4.17787
 30
0.000000
  70
    32
  0
VERTEX
  8
AM_HID
  5
A4
 10
15.8239
 20
4.17682
 30
0.000000
  70
    32
  0
VERTEX
  8
AM_HID
  5
A5
 10
15.8240
 20
4.17578
 30
0.000000
  70
    32
  0
VERTEX
  8
AM_HID
  5
A6
 10
15.8242
 20
4.17473
 30
0.000000
  70
    32
  0
VERTEX
  8
AM_HID
  5
A7
 10
15.8243
 20
4.17368
 30
0.000000
  70
    32
  0
VERTEX
  8
AM_HID
  5
A8
 10
15.8244
 20
4.17264
 30
0.000000
  70
    32
  0
VERTEX
  8
AM_HID
  5
A9
 10
15.8245
 20
4.17159
 30
0.000000
  70
    32
  0
VERTEX
  8
AM_HID
  5
AA
 10
15.8246
 20
4.17054
 30
0.000000
  70
    32
  0
VERTEX
  8
AM_HID
  5
AB
 10
15.8246
 20
4.16949
 30
0.000000
  70
    32
  0
VERTEX
  8
AM_HID
  5
AC
 10
15.8247
 20
4.16844
 30
0.000000
  70
    32
  0
VERTEX
  8
AM_HID
  5
AD
 10
15.8248
 20
4.16738
 30
0.000000
  70
    32
  0
VERTEX
  8
AM_HID
  5
AE
 10
15.8249
 20
4.16633
 30
0.000000
  70
    32
  0
VERTEX
  8
AM_HID
  5
AF
 10
15.8250
 20
4.16528
 30
0.000000
  70
    32
  0
VERTEX
  8
AM_HID
  5
B0
 10
15.8251
 20
4.16423
 30
0.000000
  70
    32
  0
VERTEX
  8
AM_HID
  5
B1
 10
15.8252
 20
4.16317
 30
0.000000
  70
    32
  0
VERTEX
  8
AM_HID
  5
B2
 10
15.8253
 20
4.16212
 30
0.000000
  70
    32
  0
VERTEX
  8
AM_HID
  5
B3
 10
15.8254
 20
4.16106
 30
0.000000
  70
    32
  0
VERTEX
  8
AM_HID
  5
B4
 10
15.8255
 20
4.16000
 30
0.000000
  70
    32
  0
VERTEX
  8
AM_HID
  5
B5
 10
15.8256
 20
4.15894
 30
0.000000
  70
    32
  0
VERTEX
  8
AM_HID
  5
B6
 10
15.8257
 20
4.15789
 30
0.000000
  70
    32
  0
VERTEX
  8
AM_HID
  5
B7
 10
15.8257
 20
4.15683
 30
0.000000
  70
    32
  0
VERTEX
  8
AM_HID
  5
B8
 10
15.8258
 20
4.15577
 30
0.000000
  70
    32
  0
VERTEX
  8
AM_HID
  5
B9
 10
15.8259
 20
4.15470
 30
0.000000
  70
    32
  0
VERTEX
  8
AM_HID
  5
BA
 10
15.8260
 20
4.15364
 30
0.000000
  70
    32
  0
VERTEX
  8
AM_HID
  5
BB
 10
15.8261
 20
4.15258
 30
0.000000
  70
    32
  0
VERTEX
  8
AM_HID
  5
BC
 10
15.8261
 20
4.15151
 30
0.000000
  70
    32
  0
VERTEX
  8
AM_HID
  5
BD
 10
15.8262
 20
4.15045
 30
0.000000
  70
    32
  0
VERTEX
  8
AM_HID
  5
BE
 10
15.8263
 20
4.14938
 30
0.000000
  70
    32
  0
VERTEX
  8
AM_HID
  5
BF
 10
15.8264
 20
4.14832
 30
0.000000
  70
    32
  0
VERTEX
  8
AM_HID
  5
C0
 10
15.8265
 20
4.14725
 30
0.000000
  70
    32
  0
VERTEX
  8
AM_HID
  5
C1
 10
15.8265
 20
4.14618
 30
0.000000
  70
    32
  0
VERTEX
  8
AM_HID
  5
C2
 10
15.8266
 20
4.14511
 30
0.000000
  70
    32
  0
VERTEX
  8
AM_HID
  5
C3
 10
15.8267
 20
4.14404
 30
0.000000
  70
    32
  0
VERTEX
  8
AM_HID
  5
C4
 10
15.8267
 20
4.14296
 30
0.000000
  70
    32
  0
VERTEX
  8
AM_HID
  5
C5
 10
15.8268
 20
4.14189
 30
0.000000
  70
    32
  0
VERTEX
  8
AM_HID
  5
C6
 10
15.8269
 20
4.14082
 30
0.000000
  70
    32
  0
VERTEX
  8
AM_HID
  5
C7
 10
15.8269
 20
4.13974
 30
0.000000
  70
    32
  0
VERTEX
  8
AM_HID
  5
C8
 10
15.8270
 20
4.13866
 30
0.000000
  70
    32
  0
VERTEX
  8
AM_HID
  5
C9
 10
15.8271
 20
4.13758
 30
0.000000
  70
    32
  0
VERTEX
  8
AM_HID
  5
CA
 10
15.8271
 20
4.13650
 30
0.000000
  70
    32
  0
VERTEX
  8
AM_HID
  5
CB
 10
15.8272
 20
4.13542
 30
0.000000
  70
    32
  0
VERTEX
  8
AM_HID
  5
CC
 10
15.8273
 20
4.13434
 30
0.000000
  70
    32
  0
VERTEX
  8
AM_HID
  5
CD
 10
15.8273
 20
4.13326
 30
0.000000
  70
    32
  0
VERTEX
  8
AM_HID
  5
CE
 10
15.8274
 20
4.13218
 30
0.000000
  70
    32
  0
VERTEX
  8
AM_HID
  5
CF
 10
15.8274
 20
4.13109
 30
0.000000
  70
    32
  0
VERTEX
  8
AM_HID
  5
D0
 10
15.8275
 20
4.13000
 30
0.000000
  70
    32
  0
VERTEX
  8
AM_HID
  5
D1
 10
15.8275
 20
4.12891
 30
0.000000
  70
    32
  0
VERTEX
  8
AM_HID
  5
D2
 10
15.8276
 20
4.12782
 30
0.000000
  70
    32
  0
VERTEX
  8
AM_HID
  5
D3
 10
15.8276
 20
4.12673
 30
0.000000
  70
    32
  0
VERTEX
  8
AM_HID
  5
D4
 10
15.8277
 20
4.12564
 30
0.000000
  70
    32
  0
VERTEX
  8
AM_HID
  5
D5
 10
15.8277
 20
4.12455
 30
0.000000
  70
    32
  0
VERTEX
  8
AM_HID
  5
D6
 10
15.8278
 20
4.12345
 30
0.000000
  70
    32
  0
VERTEX
  8
AM_HID
  5
D7
 10
15.8278
 20
4.12236
 30
0.000000
  70
    32
  0
VERTEX
  8
AM_HID
  5
D8
 10
15.8279
 20
4.12126
 30
0.000000
  70
    32
  0
VERTEX
  8
AM_HID
  5
D9
 10
15.8279
 20
4.12016
 30
0.000000
  70
    32
  0
VERTEX
  8
AM_HID
  5
DA
 10
15.8280
 20
4.11906
 30
0.000000
  70
    32
  0
VERTEX
  8
AM_HID
  5
DB
 10
15.8280
 20
4.11796
 30
0.000000
  70
    32
  0
VERTEX
  8
AM_HID
  5
DC
 10
15.8280
 20
4.11685
 30
0.000000
  70
    32
  0
VERTEX
  8
AM_HID
  5
DD
 10
15.8281
 20
4.11575
 30
0.000000
  70
    32
  0
VERTEX
  8
AM_HID
  5
DE
 10
15.8281
 20
4.11464
 30
0.000000
  70
    32
  0
VERTEX
  8
AM_HID
  5
DF
 10
15.8282
 20
4.11353
 30
0.000000
  70
    32
  0
VERTEX
  8
AM_HID
  5
E0
 10
15.8282
 20
4.11242
 30
0.000000
  70
    32
  0
VERTEX
  8
AM_HID
  5
E1
 10
15.8282
 20
4.11131
 30
0.000000
  70
    32
  0
VERTEX
  8
AM_HID
  5
E2
 10
15.8282
 20
4.11020
 30
0.000000
  70
    32
  0
VERTEX
  8
AM_HID
  5
E3
 10
15.8283
 20
4.10909
 30
0.000000
  70
    32
  0
VERTEX
  8
AM_HID
  5
E4
 10
15.8283
 20
4.10797
 30
0.000000
  70
    32
  0
VERTEX
  8
AM_HID
  5
E5
 10
15.8283
 20
4.10685
 30
0.000000
  70
    32
  0
VERTEX
  8
AM_HID
  5
E6
 10
15.8284
 20
4.10573
 30
0.000000
  70
    32
  0
VERTEX
  8
AM_HID
  5
E7
 10
15.8284
 20
4.10461
 30
0.000000
  70
    32
  0
VERTEX
  8
AM_HID
  5
E8
 10
15.8284
 20
4.10349
 30
0.000000
  70
    32
  0
VERTEX
  8
AM_HID
  5
E9
 10
15.8284
 20
4.10236
 30
0.000000
  70
    32
  0
VERTEX
  8
AM_HID
  5
EA
 10
15.8284
 20
4.10124
 30
0.000000
  70
    32
  0
VERTEX
  8
AM_HID
  5
EB
 10
15.8285
 20
4.10011
 30
0.000000
  70
    32
  0
VERTEX
  8
AM_HID
  5
EC
 10
15.8285
 20
4.09898
 30
0.000000
  70
    32
  0
VERTEX
  8
AM_HID
  5
ED
 10
15.8285
 20
4.09785
 30
0.000000
  70
    32
  0
VERTEX
  8
AM_HID
  5
EE
 10
15.8285
 20
4.09672
 30
0.000000
  70
    32
  0
VERTEX
  8
AM_HID
  5
EF
 10
15.8285
 20
4.09558
 30
0.000000
  70
    32
  0
VERTEX
  8
AM_HID
  5
F0
 10
15.8285
 20
4.09445
 30
0.000000
  70
    32
  0
VERTEX
  8
AM_HID
  5
F1
 10
15.8285
 20
4.09331
 30
0.000000
  70
    32
  0
VERTEX
  8
AM_HID
  5
F2
 10
15.8285
 20
4.09217
 30
0.000000
  70
    32
  0
VERTEX
  8
AM_HID
  5
F3
 10
15.8285
 20
4.09102
 30
0.000000
  70
    32
  0
VERTEX
  8
AM_HID
  5
F4
 10
15.8285
 20
4.08988
 30
0.000000
  70
    32
  0
VERTEX
  8
AM_HID
  5
F5
 10
15.8285
 20
4.08873
 30
0.000000
  70
    32
  0
SEQEND
  8
AM_HID
  5
F6
  0
POLYLINE
  8
AM_HID
  5
F7
  66
     1
 10
0.000000
 20
0.000000
 30
0.000000
  70
     8
  0
VERTEX
  8
AM_HID
  5
F8
 10
15.8285
 20
4.08873
 30
0.000000
  70
    32
  0
VERTEX
  8
AM_HID
  5
F9
 10
15.8285
 20
4.08759
 30
0.000000
  70
    32
  0
VERTEX
  8
AM_HID
  5
FA
 10
15.8285
 20
4.08644
 30
0.000000
  70
    32
  0
VERTEX
  8
AM_HID
  5
FB
 10
15.8285
 20
4.08530
 30
0.000000
  70
    32
  0
VERTEX
  8
AM_HID
  5
FC
 10
15.8285
 20
4.08416
 30
0.000000
  70
    32
  0
VERTEX
  8
AM_HID
  5
FD
 10
15.8285
 20
4.08302
 30
0.000000
  70
    32
  0
VERTEX
  8
AM_HID
  5
FE
 10
15.8285
 20
4.08189
 30
0.000000
  70
    32
  0
VERTEX
  8
AM_HID
  5
FF
 10
15.8285
 20
4.08075
 30
0.000000
  70
    32
  0
VERTEX
  8
AM_HID
  5
100
 10
15.8285
 20
4.07962
 30
0.000000
  70
    32
  0
VERTEX
  8
AM_HID
  5
101
 10
15.8285
 20
4.07849
 30
0.000000
  70
    32
  0
VERTEX
  8
AM_HID
  5
102
 10
15.8285
 20
4.07736
 30
0.000000
  70
    32
  0
VERTEX
  8
AM_HID
  5
103
 10
15.8284
 20
4.07623
 30
0.000000
  70
    32
  0
VERTEX
  8
AM_HID
  5
104
 10
15.8284
 20
4.07510
 30
0.000000
  70
    32
  0
VERTEX
  8
AM_HID
  5
105
 10
15.8284
 20
4.07398
 30
0.000000
  70
    32
  0
VERTEX
  8
AM_HID
  5
106
 10
15.8284
 20
4.07286
 30
0.000000
  70
    32
  0
VERTEX
  8
AM_HID
  5
107
 10
15.8284
 20
4.07174
 30
0.000000
  70
    32
  0
VERTEX
  8
AM_HID
  5
108
 10
15.8283
 20
4.07062
 30
0.000000
  70
    32
  0
VERTEX
  8
AM_HID
  5
109
 10
15.8283
 20
4.06950
 30
0.000000
  70
    32
  0
VERTEX
  8
AM_HID
  5
10A
 10
15.8283
 20
4.06838
 30
0.000000
  70
    32
  0
VERTEX
  8
AM_HID
  5
10B
 10
15.8282
 20
4.06727
 30
0.000000
  70
    32
  0
VERTEX
  8
AM_HID
  5
10C
 10
15.8282
 20
4.06616
 30
0.000000
  70
    32
  0
VERTEX
  8
AM_HID
  5
10D
 10
15.8282
 20
4.06505
 30
0.000000
  70
    32
  0
VERTEX
  8
AM_HID
  5
10E
 10
15.8282
 20
4.06394
 30
0.000000
  70
    32
  0
VERTEX
  8
AM_HID
  5
10F
 10
15.8281
 20
4.06283
 30
0.000000
  70
    32
  0
VERTEX
  8
AM_HID
  5
110
 10
15.8281
 20
4.06172
 30
0.000000
  70
    32
  0
VERTEX
  8
AM_HID
  5
111
 10
15.8280
 20
4.06062
 30
0.000000
  70
    32
  0
VERTEX
  8
AM_HID
  5
112
 10
15.8280
 20
4.05951
 30
0.000000
  70
    32
  0
VERTEX
  8
AM_HID
  5
113
 10
15.8280
 20
4.05841
 30
0.000000
  70
    32
  0
VERTEX
  8
AM_HID
  5
114
 10
15.8279
 20
4.05731
 30
0.000000
  70
    32
  0
VERTEX
  8
AM_HID
  5
115
 10
15.8279
 20
4.05621
 30
0.000000
  70
    32
  0
VERTEX
  8
AM_HID
  5
116
 10
15.8278
 20
4.05511
 30
0.000000
  70
    32
  0
VERTEX
  8
AM_HID
  5
117
 10
15.8278
 20
4.05402
 30
0.000000
  70
    32
  0
VERTEX
  8
AM_HID
  5
118
 10
15.8277
 20
4.05292
 30
0.000000
  70
    32
  0
VERTEX
  8
AM_HID
  5
119
 10
15.8277
 20
4.05183
 30
0.000000
  70
    32
  0
VERTEX
  8
AM_HID
  5
11A
 10
15.8276
 20
4.05074
 30
0.000000
  70
    32
  0
VERTEX
  8
AM_HID
  5
11B
 10
15.8276
 20
4.04964
 30
0.000000
  70
    32
  0
VERTEX
  8
AM_HID
  5
11C
 10
15.8275
 20
4.04856
 30
0.000000
  70
    32
  0
VERTEX
  8
AM_HID
  5
11D
 10
15.8275
 20
4.04747
 30
0.000000
  70
    32
  0
VERTEX
  8
AM_HID
  5
11E
 10
15.8274
 20
4.04638
 30
0.000000
  70
    32
  0
VERTEX
  8
AM_HID
  5
11F
 10
15.8274
 20
4.04529
 30
0.000000
  70
    32
  0
VERTEX
  8
AM_HID
  5
120
 10
15.8273
 20
4.04421
 30
0.000000
  70
    32
  0
VERTEX
  8
AM_HID
  5
121
 10
15.8273
 20
4.04313
 30
0.000000
  70
    32
  0
VERTEX
  8
AM_HID
  5
122
 10
15.8272
 20
4.04205
 30
0.000000
  70
    32
  0
VERTEX
  8
AM_HID
  5
123
 10
15.8271
 20
4.04096
 30
0.000000
  70
    32
  0
VERTEX
  8
AM_HID
  5
124
 10
15.8271
 20
4.03989
 30
0.000000
  70
    32
  0
VERTEX
  8
AM_HID
  5
125
 10
15.8270
 20
4.03881
 30
0.000000
  70
    32
  0
VERTEX
  8
AM_HID
  5
126
 10
15.8269
 20
4.03773
 30
0.000000
  70
    32
  0
VERTEX
  8
AM_HID
  5
127
 10
15.8269
 20
4.03665
 30
0.000000
  70
    32
  0
VERTEX
  8
AM_HID
  5
128
 10
15.8268
 20
4.03558
 30
0.000000
  70
    32
  0
VERTEX
  8
AM_HID
  5
129
 10
15.8267
 20
4.03451
 30
0.000000
  70
    32
  0
VERTEX
  8
AM_HID
  5
12A
 10
15.8267
 20
4.03343
 30
0.000000
  70
    32
  0
VERTEX
  8
AM_HID
  5
12B
 10
15.8266
 20
4.03236
 30
0.000000
  70
    32
  0
VERTEX
  8
AM_HID
  5
12C
 10
15.8265
 20
4.03129
 30
0.000000
  70
    32
  0
VERTEX
  8
AM_HID
  5
12D
 10
15.8265
 20
4.03022
 30
0.000000
  70
    32
  0
VERTEX
  8
AM_HID
  5
12E
 10
15.8264
 20
4.02915
 30
0.000000
  70
    32
  0
VERTEX
  8
AM_HID
  5
12F
 10
15.8263
 20
4.02809
 30
0.000000
  70
    32
  0
VERTEX
  8
AM_HID
  5
130
 10
15.8262
 20
4.02702
 30
0.000000
  70
    32
  0
VERTEX
  8
AM_HID
  5
131
 10
15.8261
 20
4.02596
 30
0.000000
  70
    32
  0
VERTEX
  8
AM_HID
  5
132
 10
15.8261
 20
4.02489
 30
0.000000
  70
    32
  0
VERTEX
  8
AM_HID
  5
133
 10
15.8260
 20
4.02383
 30
0.000000
  70
    32
  0
VERTEX
  8
AM_HID
  5
134
 10
15.8259
 20
4.02277
 30
0.000000
  70
    32
  0
VERTEX
  8
AM_HID
  5
135
 10
15.8258
 20
4.02170
 30
0.000000
  70
    32
  0
VERTEX
  8
AM_HID
  5
136
 10
15.8257
 20
4.02064
 30
0.000000
  70
    32
  0
VERTEX
  8
AM_HID
  5
137
 10
15.8257
 20
4.01958
 30
0.000000
  70
    32
  0
VERTEX
  8
AM_HID
  5
138
 10
15.8256
 20
4.01853
 30
0.000000
  70
    32
  0
VERTEX
  8
AM_HID
  5
139
 10
15.8255
 20
4.01747
 30
0.000000
  70
    32
  0
VERTEX
  8
AM_HID
  5
13A
 10
15.8254
 20
4.01641
 30
0.000000
  70
    32
  0
VERTEX
  8
AM_HID
  5
13B
 10
15.8253
 20
4.01535
 30
0.000000
  70
    32
  0
VERTEX
  8
AM_HID
  5
13C
 10
15.8252
 20
4.01430
 30
0.000000
  70
    32
  0
VERTEX
  8
AM_HID
  5
13D
 10
15.8251
 20
4.01324
 30
0.000000
  70
    32
  0
VERTEX
  8
AM_HID
  5
13E
 10
15.8250
 20
4.01219
 30
0.000000
  70
    32
  0
VERTEX
  8
AM_HID
  5
13F
 10
15.8249
 20
4.01114
 30
0.000000
  70
    32
  0
VERTEX
  8
AM_HID
  5
140
 10
15.8248
 20
4.01009
 30
0.000000
  70
    32
  0
VERTEX
  8
AM_HID
  5
141
 10
15.8247
 20
4.00903
 30
0.000000
  70
    32
  0
VERTEX
  8
AM_HID
  5
142
 10
15.8246
 20
4.00798
 30
0.000000
  70
    32
  0
VERTEX
  8
AM_HID
  5
143
 10
15.8246
 20
4.00693
 30
0.000000
  70
    32
  0
VERTEX
  8
AM_HID
  5
144
 10
15.8245
 20
4.00588
 30
0.000000
  70
    32
  0
VERTEX
  8
AM_HID
  5
145
 10
15.8244
 20
4.00483
 30
0.000000
  70
    32
  0
VERTEX
  8
AM_HID
  5
146
 10
15.8243
 20
4.00379
 30
0.000000
  70
    32
  0
VERTEX
  8
AM_HID
  5
147
 10
15.8242
 20
4.00274
 30
0.000000
  70
    32
  0
VERTEX
  8
AM_HID
  5
148
 10
15.8240
 20
4.00169
 30
0.000000
  70
    32
  0
VERTEX
  8
AM_HID
  5
149
 10
15.8239
 20
4.00065
 30
0.000000
  70
    32
  0
VERTEX
  8
AM_HID
  5
14A
 10
15.8238
 20
3.99960
 30
0.000000
  70
    32
  0
VERTEX
  8
AM_HID
  5
14B
 10
15.8237
 20
3.99856
 30
0.000000
  70
    32
  0
VERTEX
  8
AM_HID
  5
14C
 10
15.8236
 20
3.99751
 30
0.000000
  70
    32
  0
VERTEX
  8
AM_HID
  5
14D
 10
15.8235
 20
3.99647
 30
0.000000
  70
    32
  0
VERTEX
  8
AM_HID
  5
14E
 10
15.8234
 20
3.99542
 30
0.000000
  70
    32
  0
VERTEX
  8
AM_HID
  5
14F
 10
15.8233
 20
3.99438
 30
0.000000
  70
    32
  0
VERTEX
  8
AM_HID
  5
150
 10
15.8232
 20
3.99334
 30
0.000000
  70
    32
  0
VERTEX
  8
AM_HID
  5
151
 10
15.8231
 20
3.99230
 30
0.000000
  70
    32
  0
VERTEX
  8
AM_HID
  5
152
 10
15.8230
 20
3.99125
 30
0.000000
  70
    32
  0
VERTEX
  8
AM_HID
  5
153
 10
15.8229
 20
3.99021
 30
0.000000
  70
    32
  0
VERTEX
  8
AM_HID
  5
154
 10
15.8228
 20
3.98917
 30
0.000000
  70
    32
  0
VERTEX
  8
AM_HID
  5
155
 10
15.8226
 20
3.98813
 30
0.000000
  70
    32
  0
VERTEX
  8
AM_HID
  5
156
 10
15.8225
 20
3.98709
 30
0.000000
  70
    32
  0
VERTEX
  8
AM_HID
  5
157
 10
15.8224
 20
3.98605
 30
0.000000
  70
    32
  0
VERTEX
  8
AM_HID
  5
158
 10
15.8223
 20
3.98501
 30
0.000000
  70
    32
  0
VERTEX
  8
AM_HID
  5
159
 10
15.8222
 20
3.98397
 30
0.000000
  70
    32
  0
VERTEX
  8
AM_HID
  5
15A
 10
15.8221
 20
3.98294
 30
0.000000
  70
    32
  0
VERTEX
  8
AM_HID
  5
15B
 10
15.8219
 20
3.98190
 30
0.000000
  70
    32
  0
VERTEX
  8
AM_HID
  5
15C
 10
15.8218
 20
3.98086
 30
0.000000
  70
    32
  0
VERTEX
  8
AM_HID
  5
15D
 10
15.8217
 20
3.97982
 30
0.000000
  70
    32
  0
VERTEX
  8
AM_HID
  5
15E
 10
15.8216
 20
3.97879
 30
0.000000
  70
    32
  0
VERTEX
  8
AM_HID
  5
15F
 10
15.8215
 20
3.97775
 30
0.000000
  70
    32
  0
VERTEX
  8
AM_HID
  5
160
 10
15.8213
 20
3.97671
 30
0.000000
  70
    32
  0
VERTEX
  8
AM_HID
  5
161
 10
15.8212
 20
3.97568
 30
0.000000
  70
    32
  0
VERTEX
  8
AM_HID
  5
162
 10
15.8211
 20
3.97464
 30
0.000000
  70
    32
  0
VERTEX
  8
AM_HID
  5
163
 10
15.8210
 20
3.97360
 30
0.000000
  70
    32
  0
VERTEX
  8
AM_HID
  5
164
 10
15.8208
 20
3.97257
 30
0.000000
  70
    32
  0
VERTEX
  8
AM_HID
  5
165
 10
15.8207
 20
3.97153
 30
0.000000
  70
    32
  0
VERTEX
  8
AM_HID
  5
166
 10
15.8206
 20
3.97049
 30
0.000000
  70
    32
  0
VERTEX
  8
AM_HID
  5
167
 10
15.8205
 20
3.96946
 30
0.000000
  70
    32
  0
VERTEX
  8
AM_HID
  5
168
 10
15.8203
 20
3.96842
 30
0.000000
  70
    32
  0
VERTEX
  8
AM_HID
  5
169
 10
15.8202
 20
3.96739
 30
0.000000
  70
    32
  0
VERTEX
  8
AM_HID
  5
16A
 10
15.8201
 20
3.96635
 30
0.000000
  70
    32
  0
VERTEX
  8
AM_HID
  5
16B
 10
15.8199
 20
3.96532
 30
0.000000
  70
    32
  0
VERTEX
  8
AM_HID
  5
16C
 10
15.8198
 20
3.96428
 30
0.000000
  70
    32
  0
VERTEX
  8
AM_HID
  5
16D
 10
15.8197
 20
3.96325
 30
0.000000
  70
    32
  0
VERTEX
  8
AM_HID
  5
16E
 10
15.8195
 20
3.96221
 30
0.000000
  70
    32
  0
VERTEX
  8
AM_HID
  5
16F
 10
15.8194
 20
3.96118
 30
0.000000
  70
    32
  0
VERTEX
  8
AM_HID
  5
170
 10
15.8193
 20
3.96014
 30
0.000000
  70
    32
  0
VERTEX
  8
AM_HID
  5
171
 10
15.8191
 20
3.95911
 30
0.000000
  70
    32
  0
VERTEX
  8
AM_HID
  5
172
 10
15.8190
 20
3.95807
 30
0.000000
  70
    32
  0
VERTEX
  8
AM_HID
  5
173
 10
15.8189
 20
3.95703
 30
0.000000
  70
    32
  0
VERTEX
  8
AM_HID
  5
174
 10
15.8187
 20
3.95600
 30
0.000000
  70
    32
  0
VERTEX
  8
AM_HID
  5
175
 10
15.8186
 20
3.95496
 30
0.000000
  70
    32
  0
VERTEX
  8
AM_HID
  5
176
 10
15.8185
 20
3.95393
 30
0.000000
  70
    32
  0
VERTEX
  8
AM_HID
  5
177
 10
15.8183
 20
3.95289
 30
0.000000
  70
    32
  0
SEQEND
  8
AM_HID
  5
178
  0
ARC
  5
44
  8
AM_VIS
 10
15.905285821103419
 20
4.6793597935326119
 30
0.0
 40
0.2250000000000005
 50
207.95318688338099
 51
269.99999999999977
  0
ARC
  5
45
  8
AM_VIS
 10
15.905285821103419
 20
3.4981097935326182
 30
0.0
 40
0.2249999999999972
 50
89.999999999999758
 51
152.04681311661929
  0
LINE
  5
46
  8
AM_VIS
 10
15.99603891662659
 20
4.4543597935326122
 30
0.0
 11
15.99603891662659
 21
4.3191884693173233
 31
0.0
  0
LINE
  5
47
  8
AM_VIS
 10
15.99603891662686
 20
4.3191884693173233
 30
0.0
 11
15.99603891662686
 21
4.0887347935317386
 31
0.0
  0
LINE
  5
48
  8
AM_VIS
 10
15.99603891662686
 20
4.0887347935334883
 30
0.0
 11
15.99603891662686
 21
3.8582811177479042
 31
0.0
  0
LINE
  5
49
  8
AM_VIS
 10
15.99603891662659
 20
3.8582811177479042
 30
0.0
 11
15.99603891662659
 21
3.7231097935326152
 31
0.0
  0
LINE
  5
4A
  8
AM_VIS
 10
13.92828891662659
 20
4.340734793532607
 30
0.0
 11
13.92828891662659
 21
3.8367347935326199
 31
0.0
  0
LINE
  5
4B
  8
AM_VIS
 10
13.92828891662659
 20
4.7705991230887967
 30
0.0
 11
13.92828891662659
 21
4.6585847737905741
 31
0.0
  0
LINE
  5
4C
  8
AM_VIS
 10
11.85828891662659
 20
4.7705991230887959
 30
0.0
 11
11.85828891662659
 21
3.551255864447965
 31
0.0
  0
LINE
  5
4D
  8
AM_HID
 10
13.79328891662659
 20
4.7705991230887967
 30
0.0
 11
13.79328891662659
 21
4.3593341283433196
 31
0.0
  0
LINE
  5
4E
  8
AM_HID
 10
13.79328891662659
 20
3.8181354587219092
 30
0.0
 11
13.79328891662659
 21
3.551255864447965
 31
0.0
  0
LINE
  5
4F
  8
AM_HID
 10
11.993288916626589
 20
4.7705991230887959
 30
0.0
 11
11.993288916626589
 21
3.551255864447965
 31
0.0
  0
LINE
  5
50
  8
AM_VIS
 10
15.139037746135241
 20
4.9192558644479671
 30
0.0
 11
14.44554008711795
 21
4.9192558644479671
 31
0.0
  0
LINE
  5
51
  8
AM_VIS
 10
14.1746646370151
 20
4.9192558644479671
 30
0.0
 11
14.07694565798576
 21
4.9192558644479671
 31
0.0
  0
LINE
  5
52
  8
AM_VIS
 10
15.29628891662659
 20
6.9892558644479656
 30
0.0
 11
14.07694565798576
 21
6.9892558644479656
 31
0.0
  0
LINE
  5
53
  8
AM_HID
 10
15.29628891662659
 20
5.054255864447966
 30
0.0
 11
15.16510799019777
 21
5.054255864447966
 31
0.0
  0
LINE
  5
54
  8
AM_HID
 10
14.41946984305542
 20
5.054255864447966
 30
0.0
 11
14.07694565798576
 21
5.054255864447966
 31
0.0
  0
LINE
  5
55
  8
AM_HID
 10
15.29628891662659
 20
6.8542558644479659
 30
0.0
 11
14.07694565798576
 21
6.8542558644479659
 31
0.0
  0
ARC
  5
56
  8
AM_HID
 10
14.07694565798576
 20
4.7705991230887959
 30
0.0
 40
2.0836567413591691
 50
90.0
 51
180.0
  0
ARC
  5
57
  8
AM_HID
 10
14.07694565798576
 20
4.7705991230887959
 30
0.0
 40
0.2836567413591696
 50
90.0
 51
180.0
  0
ARC
  5
58
  8
AM_VIS
 10
14.07694565798576
 20
4.7705991230887959
 30
0.0
 40
2.2186567413591689
 50
90.0
 51
180.0
  0
ARC
  5
59
  8
AM_VIS
 10
14.07694565798576
 20
4.7705991230887959
 30
0.0
 40
0.1486567413591697
 50
90.0
 51
180.0
  0
LINE
  5
5A
  8
AM_VIS
 10
15.99603891662659
 20
4.4543597935326122
 30
0.0
 11
15.905285821103419
 21
4.4543597935326122
 31
0.0
  0
LINE
  5
5B
  8
AM_VIS
 10
15.905285821103419
 20
3.7231097935326152
 30
0.0
 11
15.99603891662659
 21
3.7231097935326152
 31
0.0
  0
LINE
  5
5C
  8
AM_HID
 10
15.99603891662659
 20
3.8074847935326122
 30
0.0
 11
15.64721490026494
 21
3.8074847935326122
 31
0.0
  0
LINE
  5
5D
  8
AM_HID
 10
15.99603891662659
 20
4.3699847935326108
 30
0.0
 11
15.64721490026494
 21
4.3699847935326117
 31
0.0
  0
ENDSEC
  0
EOF
