  0
SECTION
  2
HEADER
  9
$ACADVER
  1
AC1009
  9
$INSBASE
 10
0.0
 20
0.0
 30
0.0
  9
$EXTMIN
 10
12.292853900780861
 20
2.2369478858678571
 30
0.0
  9
$EXTMAX
 10
17.517763152769781
 20
6.9987033866761124
 30
0.0
  9
$LIMMIN
 10
0.0
 20
0.0
  9
$LIMMAX
 10
12.0
 20
9.0
  9
$ORTHOMODE
 70
     1
  9
$REGENMODE
 70
     0
  9
$FILLMODE
 70
     1
  9
$QTEXTMODE
 70
     0
  9
$MIRRTEXT
 70
     0
  9
$DRAGMODE
 70
     2
  9
$LTSCALE
 40
1.0
  9
$OSMODE
 70
    55
  9
$ATTMODE
 70
     1
  9
$TEXTSIZE
 40
0.2
  9
$TRACEWID
 40
0.05
  9
$TEXTSTYLE
  7
STANDARD
  9
$CLAYER
  8
0
  9
$CELTYPE
  6
BYLAYER
  9
$CECOLOR
 62
   256
  9
$DIMSCALE
 40
1.0
  9
$DIMASZ
 40
0.125
  9
$DIMEXO
 40
0.0625
  9
$DIMDLI
 40
0.38
  9
$DIMRND
 40
0.0
  9
$DIMDLE
 40
0.0
  9
$DIMEXE
 40
0.18
  9
$DIMTP
 40
0.0
  9
$DIMTM
 40
0.0
  9
$DIMTXT
 40
0.09375
  9
$DIMCEN
 40
-0.125
  9
$DIMTSZ
 40
0.0
  9
$DIMTOL
 70
     0
  9
$DIMLIM
 70
     0
  9
$DIMTIH
 70
     0
  9
$DIMTOH
 70
     0
  9
$DIMSE1
 70
     0
  9
$DIMSE2
 70
     0
  9
$DIMTAD
 70
     0
  9
$DIMZIN
 70
     3
  9
$DIMBLK
  1

  9
$DIMASO
 70
     0
  9
$DIMSHO
 70
     1
  9
$DIMPOST
  1

  9
$DIMAPOST
  1

  9
$DIMALT
 70
     0
  9
$DIMALTD
 70
     2
  9
$DIMALTF
 40
25.399999999999999
  9
$DIMLFAC
 40
1.0
  9
$DIMTOFL
 70
     1
  9
$DIMTVP
 40
0.0
  9
$DIMTIX
 70
     0
  9
$DIMSOXD
 70
     0
  9
$DIMSAH
 70
     0
  9
$DIMBLK1
  1

  9
$DIMBLK2
  1

  9
$DIMSTYLE
  2
STANDARD
  9
$DIMCLRD
 70
     0
  9
$DIMCLRE
 70
     0
  9
$DIMCLRT
 70
     0
  9
$DIMTFAC
 40
1.0
  9
$DIMGAP
 40
0.09
  9
$LUNITS
 70
     4
  9
$LUPREC
 70
     4
  9
$SKETCHINC
 40
0.1
  9
$FILLETRAD
 40
0.025
  9
$AUNITS
 70
     0
  9
$AUPREC
 70
     4
  9
$MENU
  1
.
  9
$ELEVATION
 40
0.0
  9
$PELEVATION
 40
0.0
  9
$THICKNESS
 40
0.0
  9
$LIMCHECK
 70
     0
  9
$BLIPMODE
 70
     0
  9
$CHAMFERA
 40
0.125
  9
$CHAMFERB
 40
0.5
  9
$SKPOLY
 70
     0
  9
$TDCREATE
 40
2451086.9109346061
  9
$TDUPDATE
 40
2453913.5792622799
  9
$TDINDWG
 40
0.0645695486
  9
$TDUSRTIMER
 40
0.0645695486
  9
$USRTIMER
 70
     1
  9
$ANGBASE
 50
0.0
  9
$ANGDIR
 70
     0
  9
$PDMODE
 70
    34
  9
$PDSIZE
 40
3.0
  9
$PLINEWID
 40
0.0
  9
$COORDS
 70
     1
  9
$SPLFRAME
 70
     0
  9
$SPLINETYPE
 70
     6
  9
$SPLINESEGS
 70
     8
  9
$ATTDIA
 70
     0
  9
$ATTREQ
 70
     1
  9
$HANDLING
 70
     1
  9
$HANDSEED
  5
18D
  9
$SURFTAB1
 70
     6
  9
$SURFTAB2
 70
     6
  9
$SURFTYPE
 70
     6
  9
$SURFU
 70
     6
  9
$SURFV
 70
     6
  9
$UCSNAME
  2

  9
$UCSORG
 10
0.0
 20
0.0
 30
0.0
  9
$UCSXDIR
 10
1.0
 20
0.0
 30
0.0
  9
$UCSYDIR
 10
0.0
 20
1.0
 30
0.0
  9
$PUCSNAME
  2

  9
$PUCSORG
 10
0.0
 20
0.0
 30
0.0
  9
$PUCSXDIR
 10
1.0
 20
0.0
 30
0.0
  9
$PUCSYDIR
 10
0.0
 20
1.0
 30
0.0
  9
$USERI1
 70
     0
  9
$USERI2
 70
     0
  9
$USERI3
 70
     0
  9
$USERI4
 70
     0
  9
$USERI5
 70
     0
  9
$USERR1
 40
0.0
  9
$USERR2
 40
0.0
  9
$USERR3
 40
0.0
  9
$USERR4
 40
0.0
  9
$USERR5
 40
0.0
  9
$WORLDVIEW
 70
     1
  9
$SHADEDGE
 70
     3
  9
$SHADEDIF
 70
    70
  9
$TILEMODE
 70
     1
  9
$MAXACTVP
 70
    48
  9
$PLIMCHECK
 70
     0
  9
$PEXTMIN
 10
11.805586390074181
 20
1.8474389386776811
 30
0.0
  9
$PEXTMAX
 10
18.005030663476461
 20
6.4123741564018051
 30
0.0
  9
$PLIMMIN
 10
-0.1579164520023376
 20
-0.2812499887361301
  9
$PLIMMAX
 10
10.84208330770177
 20
8.2187497709679782
  9
$UNITMODE
 70
     0
  9
$VISRETAIN
 70
     1
  9
$PLINEGEN
 70
     0
  9
$PSLTSCALE
 70
     1
  0
ENDSEC
  0
SECTION
  2
TABLES
  0
TABLE
  2
VPORT
 70
     2
  0
VPORT
  2
*ACTIVE
 70
     0
 10
0.0
 20
0.0
 11
1.0
 21
1.0
 12
0.3207040086299102
 22
0.4999278545709114
 13
0.0
 23
0.0
 14
0.5
 24
0.5
 15
0.5
 25
0.5
 16
0.0
 26
0.0
 36
1.0
 17
15.632560824865831
 27
4.1181751938650857
 37
0.0
 40
4.8159852735601429
 41
2.2104247104247099
 42
50.0
 43
0.0
 44
0.0
 50
0.0
 51
0.0
 71
     0
 72
   100
 73
     1
 74
     1
 75
     0
 76
     0
 77
     0
 78
     0
  0
ENDTAB
  0
TABLE
  2
LTYPE
 70
    18
  0
LTYPE
  2
CONTINUOUS
 70
     0
  3
Solid line
 72
    65
 73
     0
 40
0.0
  0
LTYPE
  2
HIDDEN
 70
     0
  3
__ __ __ __ __ __ __ __ __ __ __ __ __ __ __ __
 72
    65
 73
     2
 40
0.375
 49
0.25
 49
-0.125
  0
LTYPE
  2
PHANTOM2
 70
     0
  3
Phantom (.5x) ___ _ _ ___ _ _ ___ _ _ ___ _ _
 72
    65
 73
     6
 40
1.25
 49
0.625
 49
-0.125
 49
0.125
 49
-0.125
 49
0.125
 49
-0.125
  0
LTYPE
  2
CENTER
 70
     0
  3
Center ____ _ ____ _ ____ _ ____ _ ____ _ ____
 72
    65
 73
     4
 40
2.0
 49
1.25
 49
-0.25
 49
0.25
 49
-0.25
  0
LTYPE
  2
ASULTYPE
 70
     0
  3
Solid line
 72
    65
 73
     2
 40
3.0
 49
2.5
 49
0.5
  0
LTYPE
  2
ASVLTYPE
 70
     0
  3
__ __ __ __ __ __ __ __ __ __ __ __ __ __ __ __ __ __ __ __ __
 72
    65
 73
     2
 40
0.75
 49
0.5
 49
-0.25
  0
LTYPE
  2
AM_ISO02W050
 70
     0
  3
__ __ __ __ __ __ __ __ __ __ __ __ __ __ __
 72
    65
 73
     2
 40
7.5
 49
6.0
 49
-1.5
  0
LTYPE
  2
AM_ISO08W050
 70
     0
  3
____ . ____ . ____ . ____ . ____ . ____ . ____
 72
    65
 73
     4
 40
18.0
 49
12.0
 49
-1.5
 49
3.0
 49
-1.5
  0
LTYPE
  2
AM_ISO09W050
 70
     0
  3
_____ . . _____ . . _____ . . ____ .. ____
 72
    65
 73
     6
 40
22.5
 49
12.0
 49
-1.5
 49
3.0
 49
-1.5
 49
3.0
 49
-1.5
  0
LTYPE
  2
AMCONSTR
 70
     0
  3
_______________________
 72
    65
 73
     2
 40
9999.0
 49
9999.0
 49
0.0
  0
LTYPE
  2
AM_ISO08W050X2
 70
     0
  3
__ . __ . __ . __ . __ . __
 72
    65
 73
     4
 40
9.0
 49
6.0
 49
-0.75
 49
1.5
 49
-0.75
  0
LTYPE
  2
AM_ISO02W050X2
 70
     0
  3
 _ _ _ _ _ _ _ _ _ _ _ _
 72
    65
 73
     2
 40
3.75
 49
3.0
 49
-0.75
  0
LTYPE
  2
AMZIGZAG
 70
     0
  3
/\/-/\/-/\/-/\/-/\/-/\/
 72
    65
 73
     2
 40
11.0001
 49
0.0001
 49
-11.0
  0
LTYPE
  2
CENTER2
 70
     0
  3
Center (.5x) ___ _ ___ _ ___ _ ___ _ ___ _ ___
 72
    65
 73
     4
 40
1.125
 49
0.75
 49
-0.125
 49
0.125
 49
-0.125
  0
LTYPE
  2
HIDDEN2
 70
     0
  3
Hidden (.5x) _ _ _ _ _ _ _ _ _ _ _ _ _ _ _ _ _
 72
    65
 73
     2
 40
0.1875
 49
0.125
 49
-0.0625
  0
LTYPE
  2
AMZIGZAG2
 70
     0
  3
/\/-/\/-/\/-/\/-/\/-/\/
 72
    65
 73
     2
 40
0.4401
 49
0.0001
 49
-0.4400000000000001
  0
LTYPE
  2
ACANSTGB
 70
     0
  3
__ . . __ . .
 72
    65
 73
     6
 40
0.35433070866
 49
0.15748031496
 49
-0.03937007874
 49
0.03937007874
 49
-0.03937007874
 49
0.03937007874
 49
-0.03937007874
  0
LTYPE
  2
ACANSTGL
 70
     0
  3
_ _ _ _ _
 72
    65
 73
     2
 40
0.11811023622
 49
0.07874015748
 49
-0.03937007874
  0
ENDTAB
  0
TABLE
  2
LAYER
 70
     3
  0
LAYER
  2
0
 70
     0
 62
     7
  6
CONTINUOUS
  0
LAYER
  2
AM_VIS
 70
     0
 62
     7
  6
CONTINUOUS
  0
LAYER
  2
AM_HID
 70
     0
 62
     7
  6
HIDDEN
  0
ENDTAB
  0
TABLE
  2
STYLE
 70
     4
  0
STYLE
  2
STANDARD
 70
     0
 40
0.0
 41
1.0
 50
0.0
 71
     0
 42
0.2
  3
txt
  4

  0
STYLE
  2

 70
     1
 40
0.0
 41
1.0
 50
0.0
 71
     0
 42
0.2
  3
ltypeshp.shx
  4

  0
STYLE
  2
ACANSTS
 70
     0
 40
1.0
 41
1.0
 50
0.0
 71
     0
 42
0.2
  3
romans.shx
  4

  0
STYLE
  2
ACANSGDT
 70
     0
 40
0.0
 41
1.0
 50
0.0
 71
     0
 42
0.2
  3
amgdtans.shx
  4

  0
ENDTAB
  0
TABLE
  2
VIEW
 70
     0
  0
ENDTAB
  0
TABLE
  2
UCS
 70
     0
  0
ENDTAB
  0
TABLE
  2
APPID
 70
    13
  0
APPID
  2
ACAD
 70
     0
  0
APPID
  2
GENIUS_GENDIM_13
 70
     0
  0
APPID
  2
GENIUS_GENDTOL_13
 70
     0
  0
APPID
  2
GENIUS_GE3DTOL_13
 70
     0
  0
APPID
  2
MCAD_NO_VIS
 70
     0
  0
APPID
  2
ACAD_TEMP_GRAPHIC
 70
     0
  0
APPID
  2
AD_DRAW
 70
     0
  0
APPID
  2
ACATTRIBSERVICES
 70
     0
  0
APPID
  2
ASURF_PCURVE_APPNAME
 70
     0
  0
APPID
  2
AMG_3D2D_5_0
 70
     0
  0
APPID
  2
DESIGNERASSEMBLIES
 70
     0
  0
APPID
  2
ACADM_DIM_EDIT
 70
     0
  0
APPID
  2
AMDT_DM_ADJ
 70
     0
  0
ENDTAB
  0
TABLE
  2
DIMSTYLE
 70
     7
  0
DIMSTYLE
  2
STANDARD
 70
     0
  3

  4

  5

  6

  7

 40
1.0
 41
0.18
 42
0.0625
 43
0.38
 44
0.18
 45
0.0
 46
0.0
 47
0.0
 48
0.0
140
0.18
141
0.09
142
0.0
143
25.399999999999999
144
1.0
145
0.0
146
1.0
147
0.09
 71
     0
 72
     0
 73
     1
 74
     1
 75
     0
 76
     0
 77
     0
 78
     0
170
     0
171
     2
172
     0
173
     0
174
     0
175
     0
176
     0
177
     0
178
     0
  0
DIMSTYLE
  2
AM_ANSI
 70
     0
  3

  4
mm
  5

  6

  7

 40
1.0
 41
0.1
 42
0.05
 43
0.5
 44
0.1
 45
0.0
 46
0.0
 47
0.1
 48
0.1
140
0.12
141
0.0
142
0.0
143
25.399999999999999
144
1.0
145
0.0
146
0.71
147
0.06
 71
     0
 72
     0
 73
     1
 74
     1
 75
     0
 76
     0
 77
     0
 78
     7
170
     0
171
     2
172
     0
173
     0
174
     0
175
     0
176
   256
177
   256
178
     2
  0
DIMSTYLE
  2
AM_ANSI$3
 70
     0
  3

  4
mm
  5

  6

  7

 40
1.0
 41
0.1
 42
0.05
 43
0.5
 44
0.1
 45
0.0
 46
0.0
 47
0.1
 48
0.1
140
0.12
141
0.0
142
0.0
143
25.399999999999999
144
1.0
145
0.0
146
0.71
147
0.06
 71
     0
 72
     0
 73
     1
 74
     1
 75
     0
 76
     0
 77
     0
 78
     7
170
     0
171
     2
172
     0
173
     0
174
     0
175
     0
176
   256
177
   256
178
     2
  0
DIMSTYLE
  2
AM_ANSI$4
 70
     0
  3

  4
mm
  5

  6

  7

 40
1.0
 41
0.1
 42
0.05
 43
0.5
 44
0.1
 45
0.0
 46
0.0
 47
0.1
 48
0.1
140
0.12
141
0.0
142
0.0
143
25.399999999999999
144
1.0
145
0.0
146
0.71
147
0.06
 71
     0
 72
     0
 73
     1
 74
     1
 75
     0
 76
     0
 77
     0
 78
     7
170
     0
171
     2
172
     0
173
     0
174
     0
175
     0
176
   256
177
   256
178
     2
  0
DIMSTYLE
  2
AM_ANSI$7
 70
     0
  3

  4
mm
  5

  6

  7

 40
1.0
 41
0.1
 42
0.05
 43
0.5
 44
0.1
 45
0.0
 46
0.0
 47
0.1
 48
0.1
140
0.24
141
0.0
142
0.0
143
25.399999999999999
144
1.0
145
0.0
146
0.71
147
0.06
 71
     0
 72
     0
 73
     1
 74
     1
 75
     0
 76
     0
 77
     0
 78
     7
170
     0
171
     2
172
     0
173
     0
174
     0
175
     0
176
   256
177
   256
178
     2
  0
DIMSTYLE
  2
AM_ANSI$SF
 70
     0
  3

  4
mm
  5

  6

  7

 40
1.0
 41
0.1
 42
0.05
 43
0.5
 44
0.1
 45
0.0
 46
0.0
 47
0.1
 48
0.1
140
0.12
141
0.0
142
0.0
143
25.399999999999999
144
1.0
145
0.0
146
0.71
147
0.06
 71
     0
 72
     0
 73
     1
 74
     1
 75
     1
 76
     1
 77
     0
 78
     7
170
     0
171
     2
172
     0
173
     0
174
     0
175
     0
176
   256
177
   256
178
     2
  0
DIMSTYLE
  2
AM_ANSI$SH
 70
     0
  3

  4
mm
  5

  6
GENAXEH
  7

 40
1.0
 41
0.1
 42
0.05
 43
0.5
 44
0.1
 45
0.0
 46
0.0
 47
0.1
 48
0.1
140
0.12
141
0.0
142
0.0
143
25.399999999999999
144
1.0
145
0.0
146
0.71
147
0.06
 71
     0
 72
     0
 73
     1
 74
     1
 75
     1
 76
     1
 77
     0
 78
     7
170
     0
171
     2
172
     0
173
     1
174
     0
175
     0
176
   256
177
   256
178
     2
  0
ENDTAB
  0
ENDSEC
  0
SECTION
  2
BLOCKS
  0
BLOCK
  8
0
  2
$MODEL_SPACE
 70
     0
 10
0.0
 20
0.0
 30
0.0
  3
$MODEL_SPACE
  1

  0
ENDBLK
  5
A
  8
0
  0
BLOCK
 67
     1
  8
0
  2
$PAPER_SPACE
 70
     0
 10
0.0
 20
0.0
 30
0.0
  3
$PAPER_SPACE
  1

  0
ENDBLK
  5
F
 67
     1
  8
0
  0
BLOCK
  8
0
  2
*U0
 70
     1
 10
0.0
 20
0.0
 30
0.0
  3
*U0
  1

  0
ENDBLK
  5
11F
  8
0
  0
BLOCK
  8
0
  2
GENAXEH
 70
     0
 10
0.0
 20
0.0
 30
0.0
  3
GENAXEH
  1

  0
LINE
  5
15D
  8
0
 10
-1.0
 20
0.0
 30
0.0
 11
1.0
 21
0.0
 31
0.0
  0
ENDBLK
  5
15F
  8
0
  0
BLOCK
  8
0
  2
*U2
 70
     1
 10
0.0
 20
0.0
 30
0.0
  3
*U2
  1

  0
TEXT
  5
18A
  8
0
 10
14.65530852677532
 20
6.7718283866761118
 30
0.0
 40
0.09375
  1
5-3/8"
  0
ENDBLK
  5
18C
  8
0
  0
ENDSEC
  0
SECTION
  2
ENTITIES
  0
ARC
  5
25
  8
AM_HID
 10
14.950495519410749
 20
1.2443537843851771
 30
0.0
 40
1.1972724274130719
 50
102.8443652769639
 51
107.3826337110158
  0
ARC
  5
28
  8
AM_HID
 10
14.8601215341398
 20
1.244353784384826
 30
0.0
 40
1.197272427413435
 50
72.617366288984826
 51
77.155634723035334
  0
ARC
  5
29
  8
AM_VIS
 10
14.93861681187542
 20
0.96611019535323
 30
0.0
 40
1.3170466224384101
 50
101.1318657083643
 51
105.22222183159479
  0
ARC
  5
2B
  8
AM_VIS
 10
14.87200024167513
 20
0.9661101953528294
 30
0.0
 40
1.3170466224388211
 50
74.777778168405831
 51
78.868134291635059
  0
LINE
  5
2C
  8
AM_HID
 10
15.61241530796187
 20
4.0940546670544062
 30
0.0
 11
15.71848132513985
 21
4.2001206842323882
 31
0.0
  0
CIRCLE
  5
2D
  8
AM_VIS
 10
14.90530852677532
 20
3.3869478858678561
 30
0.0
 40
1.0
  0
LINE
  5
2E
  8
AM_VIS
 10
16.05530852677532
 20
4.5369478858678578
 30
0.0
 11
15.71848132513985
 21
4.200120684232389
 31
0.0
  0
LINE
  5
2F
  8
AM_VIS
 10
17.517763152769781
 20
4.536947885867856
 30
0.0
 11
17.517763152769781
 21
3.5378853922766589
 31
0.0
  0
LINE
  5
30
  8
AM_VIS
 10
17.517763152769781
 20
3.2360103794590529
 30
0.0
 11
17.517763152769781
 21
2.2369478858678571
 31
0.0
  0
LINE
  5
31
  8
AM_HID
 10
14.19820174558877
 20
4.0940546670544062
 30
0.0
 11
14.09213572841079
 21
4.2001206842323882
 31
0.0
  0
LINE
  5
32
  8
AM_VIS
 10
14.75437102036652
 20
5.9994025113029057
 30
0.0
 11
14.90530852677532
 21
5.9994025113029057
 31
0.0
  0
ARC
  5
33
  8
AM_VIS
 10
14.91696229404776
 20
5.3736120649933481
 30
0.0
 40
0.4103297329045449
 50
91.628210105780099
 51
130.70568439048219
  0
ARC
  5
34
  8
AM_VIS
 10
14.90530852677532
 20
5.3694025118623161
 30
0.0
 40
0.40625
 50
129.0723075591805
 51
230.9276924408197
  0
ARC
  5
35
  8
AM_VIS
 10
14.91696229404775
 20
5.365192958731269
 30
0.0
 40
0.4103297329045346
 50
229.29431560951701
 51
268.37178989422029
  0
LINE
  5
36
  8
AM_VIS
 10
13.75530852677532
 20
4.5369478858678578
 30
0.0
 11
14.09213572841079
 21
4.200120684232389
 31
0.0
  0
LINE
  5
37
  8
AM_VIS
 10
12.292853900780861
 20
4.536947885867856
 30
0.0
 11
12.292853900780861
 21
3.5378853922766589
 31
0.0
  0
LINE
  5
38
  8
AM_VIS
 10
12.292853900780861
 20
3.2360103794590529
 30
0.0
 11
12.292853900780861
 21
2.2369478858678571
 31
0.0
  0
ARC
  5
39
  8
AM_VIS
 10
14.90530852677532
 20
3.3869478858678561
 30
0.0
 40
1.149999999999999
 50
89.999999999999986
 51
180.0
  0
LINE
  5
3A
  8
AM_VIS
 10
12.29285390135197
 20
3.3869478858678579
 30
0.0
 11
12.29285390135197
 21
3.2360103794590538
 31
0.0
  0
LINE
  5
3B
  8
AM_VIS
 10
12.29285390135197
 20
3.5378853922766602
 30
0.0
 11
12.29285390135197
 21
3.3869478858678579
 31
0.0
  0
ARC
  5
3C
  8
AM_VIS
 10
12.91864434764984
 20
3.3986016531402981
 30
0.0
 40
0.4103297329045608
 50
181.62821010578079
 51
220.70568439048139
  0
ARC
  5
3D
  8
AM_VIS
 10
12.91864434764984
 20
3.3752941185954182
 30
0.0
 40
0.41032973290456
 50
139.29431560951861
 51
178.3717898942194
  0
ARC
  5
3E
  8
AM_VIS
 10
12.92285390078086
 20
3.3869478858678592
 30
0.0
 40
0.40625
 50
219.0723075591805
 51
320.92769244081973
  0
ARC
  5
3F
  8
AM_VIS
 10
12.92706345391192
 20
3.3986016531402861
 30
0.0
 40
0.4103297329045251
 50
319.29431560951662
 51
358.37178989422068
  0
CIRCLE
  5
40
  8
AM_VIS
 10
12.92285390078086
 20
3.3869478858678548
 30
0.0
 40
0.3125
  0
ARC
  5
41
  8
AM_VIS
 10
12.927063453911909
 20
3.3752941185954271
 30
0.0
 40
0.4103297329045312
 50
1.6282101057793681
 51
40.705684390483079
  0
ARC
  5
42
  8
AM_VIS
 10
12.92285390078086
 20
3.3869478858678548
 30
0.0
 40
0.40625
 50
39.072307559180622
 51
140.9276924408195
  0
LINE
  5
43
  8
AM_VIS
 10
13.75530852677532
 20
5.9994025118623151
 30
0.0
 11
14.75437102036652
 21
5.9994025118623151
 31
0.0
  0
LINE
  5
44
  8
AM_VIS
 10
15.05624603318412
 20
5.9994025118623151
 30
0.0
 11
16.05530852677532
 21
5.9994025118623142
 31
0.0
  0
LINE
  5
45
  8
AM_VIS
 10
14.90530852677532
 20
5.9994025113029057
 30
0.0
 11
15.05624603318412
 21
5.9994025113029057
 31
0.0
  0
ARC
  5
46
  8
AM_VIS
 10
14.90530852677532
 20
3.3869478858678561
 30
0.0
 40
1.149999999999999
 50
180.0
 51
0.0
  0
ARC
  5
47
  8
AM_VIS
 10
14.90530852677532
 20
3.3869478858678561
 30
0.0
 40
1.149999999999999
 50
0.0000000000000127
 51
90.000000000000057
  0
ARC
  5
48
  8
AM_VIS
 10
14.893654759502891
 20
5.373612064993349
 30
0.0
 40
0.4103297329045445
 50
49.294315609517717
 51
88.371789894219916
  0
ARC
  5
49
  8
AM_VIS
 10
14.90530852677532
 20
5.3694025118623161
 30
0.0
 40
0.40625
 50
309.07230755918039
 51
50.927692440819477
  0
ARC
  5
4A
  8
AM_VIS
 10
14.893654759502891
 20
5.365192958731269
 30
0.0
 40
0.410329732904534
 50
271.6282101057796
 51
310.70568439048287
  0
CIRCLE
  5
4B
  8
AM_VIS
 10
14.90530852677532
 20
5.3694025118623161
 30
0.0
 40
0.3125
  0
LINE
  5
4C
  8
AM_VIS
 10
17.517763152198668
 20
3.5378853922766602
 30
0.0
 11
17.517763152198668
 21
3.3869478858678579
 31
0.0
  0
LINE
  5
4D
  8
AM_VIS
 10
17.517763152198668
 20
3.3869478858678579
 30
0.0
 11
17.517763152198668
 21
3.2360103794590538
 31
0.0
  0
ARC
  5
4E
  8
AM_VIS
 10
16.891972705900809
 20
3.3986016531402918
 30
0.0
 40
0.4103297329045438
 50
319.29431560951781
 51
358.37178989422011
  0
ARC
  5
4F
  8
AM_VIS
 10
16.891972705900809
 20
3.3752941185954191
 30
0.0
 40
0.4103297329045528
 50
1.6282101057803591
 51
40.705684390481871
  0
ARC
  5
50
  8
AM_VIS
 10
16.887763152769779
 20
3.3869478858678592
 30
0.0
 40
0.40625
 50
219.0723075591803
 51
320.9276924408195
  0
ARC
  5
51
  8
AM_VIS
 10
16.883553599638731
 20
3.3986016531402878
 30
0.0
 40
0.4103297329045314
 50
181.62821010577949
 51
220.7056843904831
  0
CIRCLE
  5
52
  8
AM_VIS
 10
16.887763152769779
 20
3.3869478858678548
 30
0.0
 40
0.3125
  0
ARC
  5
53
  8
AM_VIS
 10
16.887763152769779
 20
3.3869478858678548
 30
0.0
 40
0.40625
 50
39.072307559180459
 51
140.92769244081941
  0
ARC
  5
54
  8
AM_VIS
 10
16.883553599638741
 20
3.3752941185954248
 30
0.0
 40
0.4103297329045373
 50
139.29431560951721
 51
178.37178989422031
  0
LINE
  5
55
  8
AM_HID
 10
15.21780852677532
 20
2.3869478858678579
 30
0.0
 11
15.21780852677532
 21
2.236947885867858
 31
0.0
  0
LINE
  5
56
  8
AM_HID
 10
14.59280852677532
 20
2.3869478858678579
 30
0.0
 11
14.59280852677532
 21
2.236947885867858
 31
0.0
  0
LINE
  5
57
  8
AM_HID
 10
17.517763152769781
 20
2.386947885867857
 30
0.0
 11
15.21780852677532
 21
2.3869478858678579
 31
0.0
  0
LINE
  5
58
  8
AM_HID
 10
17.517763152769781
 20
4.3869478858678574
 30
0.0
 11
15.90530852677532
 21
4.3869478858678583
 31
0.0
  0
LINE
  5
59
  8
AM_VIS
 10
17.517763152769781
 20
2.2369478858678571
 30
0.0
 11
15.21780852677532
 21
2.236947885867858
 31
0.0
  0
LINE
  5
5A
  8
AM_VIS
 10
17.517763152769781
 20
4.5369478858678569
 30
0.0
 11
16.05530852677532
 21
4.5369478858678578
 31
0.0
  0
LINE
  5
5B
  8
AM_HID
 10
14.59280852677532
 20
2.3869478858678579
 30
0.0
 11
12.292853900780861
 21
2.386947885867857
 31
0.0
  0
LINE
  5
5C
  8
AM_HID
 10
13.90530852677532
 20
4.3869478858678583
 30
0.0
 11
12.292853900780861
 21
4.3869478858678583
 31
0.0
  0
LINE
  5
5D
  8
AM_VIS
 10
14.59280852677532
 20
2.236947885867858
 30
0.0
 11
12.292853900780861
 21
2.2369478858678571
 31
0.0
  0
LINE
  5
5E
  8
AM_VIS
 10
13.75530852677532
 20
4.5369478858678569
 30
0.0
 11
12.292853900780861
 21
4.536947885867856
 31
0.0
  0
LINE
  5
5F
  8
AM_VIS
 10
16.05530852677532
 20
5.9994025118623142
 30
0.0
 11
16.05530852677532
 21
4.5369478858678569
 31
0.0
  0
LINE
  5
60
  8
AM_VIS
 10
13.75530852677532
 20
5.9994025118623151
 30
0.0
 11
13.75530852677532
 21
4.5369478858678578
 31
0.0
  0
LINE
  5
61
  8
AM_HID
 10
15.90530852677532
 20
5.9994025118623142
 30
0.0
 11
15.90530852677532
 21
4.3869478858678583
 31
0.0
  0
LINE
  5
62
  8
AM_HID
 10
13.90530852677532
 20
5.9994025118623151
 30
0.0
 11
13.90530852677532
 21
4.3869478858678592
 31
0.0
  0
LINE
  5
166
  8
0
 10
12.292853900780861
 20
4.599447885867856
 30
0.0
 11
12.292853900780861
 21
6.9987033866761124
 31
0.0
  0
LINE
  5
167
  8
0
 10
17.517763152769781
 20
4.5994478858678569
 30
0.0
 11
17.517763152769781
 21
6.9987033866761124
 31
0.0
  0
LINE
  5
168
  8
0
 10
12.417853900780861
 20
6.8187033866761118
 30
0.0
 11
14.56530852677532
 21
6.8187033866761118
 31
0.0
  0
LINE
  5
169
  8
0
 10
17.392763152769781
 20
6.8187033866761118
 30
0.0
 11
15.24530852677532
 21
6.8187033866761118
 31
0.0
  0
SOLID
  5
16A
  8
0
 10
12.417853900780861
 20
6.8395367200094448
 30
0.0
 11
12.417853900780861
 21
6.7978700533427787
 31
0.0
 12
12.292853900780861
 22
6.8187033866761118
 32
0.0
 13
12.292853900780861
 23
6.8187033866761118
 33
0.0
  0
SOLID
  5
16B
  8
0
 10
17.392763152769781
 20
6.8395367200094448
 30
0.0
 11
17.392763152769781
 21
6.7978700533427787
 31
0.0
 12
17.517763152769781
 22
6.8187033866761118
 32
0.0
 13
17.517763152769781
 23
6.8187033866761118
 33
0.0
  0
INSERT
  5
16C
  8
0
  2
*U2
 10
0.0
 20
0.0
 30
0.0
  0
ENDSEC
  0
EOF
