  0
SECTION
  2
HEADER
  9
$ACADVER
  1
AC1015
  9
$ACADMAINTVER
 70
    20
  9
$DWGCODEPAGE
  3
ANSI_1252
  9
$INSBASE
 10
10.79723451915565
 20
-1.904689977685004
 30
0.0
  9
$EXTMIN
 10
9.469116305780037
 20
-1.905510123792754
 30
-0.0000000000112498
  9
$EXTMAX
 10
14.40472417977257
 20
4.697138872626753
 30
0.0000000000002956
  9
$LIMMIN
 10
0.0
 20
0.0
  9
$LIMMAX
 10
36.0
 20
36.0
  9
$ORTHOMODE
 70
     1
  9
$REGENMODE
 70
     1
  9
$FILLMODE
 70
     1
  9
$QTEXTMODE
 70
     0
  9
$MIRRTEXT
 70
     1
  9
$LTSCALE
 40
1.0
  9
$ATTMODE
 70
     1
  9
$TEXTSIZE
 40
0.2
  9
$TRACEWID
 40
0.05
  9
$TEXTSTYLE
  7
STANDARD
  9
$CLAYER
  8
DIMS
  9
$CELTYPE
  6
ByLayer
  9
$CECOLOR
 62
   256
  9
$CELTSCALE
 40
1.0
  9
$DISPSILH
 70
     0
  9
$DIMSCALE
 40
1.0
  9
$DIMASZ
 40
0.125
  9
$DIMEXO
 40
0.0625
  9
$DIMDLI
 40
0.38
  9
$DIMRND
 40
0.0
  9
$DIMDLE
 40
0.0
  9
$DIMEXE
 40
0.18
  9
$DIMTP
 40
0.0
  9
$DIMTM
 40
0.0
  9
$DIMTXT
 40
0.125
  9
$DIMCEN
 40
0.1875
  9
$DIMTSZ
 40
0.125
  9
$DIMTOL
 70
     0
  9
$DIMLIM
 70
     0
  9
$DIMTIH
 70
     0
  9
$DIMTOH
 70
     0
  9
$DIMSE1
 70
     0
  9
$DIMSE2
 70
     0
  9
$DIMTAD
 70
     0
  9
$DIMZIN
 70
     3
  9
$DIMBLK
  1

  9
$DIMASO
 70
     1
  9
$DIMSHO
 70
     1
  9
$DIMPOST
  1

  9
$DIMAPOST
  1

  9
$DIMALT
 70
     0
  9
$DIMALTD
 70
     1
  9
$DIMALTF
 40
25.4
  9
$DIMLFAC
 40
1.0
  9
$DIMTOFL
 70
     0
  9
$DIMTVP
 40
0.0
  9
$DIMTIX
 70
     0
  9
$DIMSOXD
 70
     0
  9
$DIMSAH
 70
     0
  9
$DIMBLK1
  1

  9
$DIMBLK2
  1

  9
$DIMSTYLE
  2
STANDARD
  9
$DIMCLRD
 70
     0
  9
$DIMCLRE
 70
     0
  9
$DIMCLRT
 70
     0
  9
$DIMTFAC
 40
1.0
  9
$DIMGAP
 40
0.125
  9
$DIMJUST
 70
     0
  9
$DIMSD1
 70
     0
  9
$DIMSD2
 70
     0
  9
$DIMTOLJ
 70
     1
  9
$DIMTZIN
 70
     0
  9
$DIMALTZ
 70
     0
  9
$DIMALTTZ
 70
     0
  9
$DIMUPT
 70
     0
  9
$DIMDEC
 70
     4
  9
$DIMTDEC
 70
     4
  9
$DIMALTU
 70
     2
  9
$DIMALTTD
 70
     2
  9
$DIMTXSTY
  7
STANDARD
  9
$DIMAUNIT
 70
     0
  9
$DIMADEC
 70
     0
  9
$DIMALTRND
 40
0.0
  9
$DIMAZIN
 70
     0
  9
$DIMDSEP
 70
    46
  9
$DIMATFIT
 70
     3
  9
$DIMFRAC
 70
     0
  9
$DIMLDRBLK
  1

  9
$DIMLUNIT
 70
     2
  9
$DIMLWD
 70
    -2
  9
$DIMLWE
 70
    -2
  9
$DIMTMOVE
 70
     0
  9
$LUNITS
 70
     5
  9
$LUPREC
 70
     5
  9
$SKETCHINC
 40
0.1
  9
$FILLETRAD
 40
0.125
  9
$AUNITS
 70
     0
  9
$AUPREC
 70
     0
  9
$MENU
  1
acad
  9
$ELEVATION
 40
0.0
  9
$PELEVATION
 40
0.0
  9
$THICKNESS
 40
0.0
  9
$LIMCHECK
 70
     0
  9
$CHAMFERA
 40
0.03125
  9
$CHAMFERB
 40
0.03125
  9
$CHAMFERC
 40
0.0
  9
$CHAMFERD
 40
0.0
  9
$SKPOLY
 70
     0
  9
$TDCREATE
 40
2450280.612363032
  9
$TDUCREATE
 40
2450280.862363033
  9
$TDUPDATE
 40
2454475.474839792
  9
$TDUUPDATE
 40
2454475.724839792
  9
$TDINDWG
 40
0.0618474653
  9
$TDUSRTIMER
 40
0.0618467361
  9
$USRTIMER
 70
     1
  9
$ANGBASE
 50
0.0
  9
$ANGDIR
 70
     0
  9
$PDMODE
 70
     0
  9
$PDSIZE
 40
0.0
  9
$PLINEWID
 40
0.0
  9
$SPLFRAME
 70
     0
  9
$SPLINETYPE
 70
     6
  9
$SPLINESEGS
 70
     8
  9
$HANDSEED
  5
57F
  9
$SURFTAB1
 70
     6
  9
$SURFTAB2
 70
     6
  9
$SURFTYPE
 70
     6
  9
$SURFU
 70
     6
  9
$SURFV
 70
     6
  9
$UCSBASE
  2

  9
$UCSNAME
  2

  9
$UCSORG
 10
0.0
 20
0.0
 30
0.0
  9
$UCSXDIR
 10
1.0
 20
0.0
 30
0.0
  9
$UCSYDIR
 10
0.0
 20
1.0
 30
0.0
  9
$UCSORTHOREF
  2

  9
$UCSORTHOVIEW
 70
     0
  9
$UCSORGTOP
 10
0.0
 20
0.0
 30
0.0
  9
$UCSORGBOTTOM
 10
0.0
 20
0.0
 30
0.0
  9
$UCSORGLEFT
 10
0.0
 20
0.0
 30
0.0
  9
$UCSORGRIGHT
 10
0.0
 20
0.0
 30
0.0
  9
$UCSORGFRONT
 10
0.0
 20
0.0
 30
0.0
  9
$UCSORGBACK
 10
0.0
 20
0.0
 30
0.0
  9
$PUCSBASE
  2

  9
$PUCSNAME
  2

  9
$PUCSORG
 10
0.0
 20
0.0
 30
0.0
  9
$PUCSXDIR
 10
1.0
 20
0.0
 30
0.0
  9
$PUCSYDIR
 10
0.0
 20
1.0
 30
0.0
  9
$PUCSORTHOREF
  2

  9
$PUCSORTHOVIEW
 70
     0
  9
$PUCSORGTOP
 10
0.0
 20
0.0
 30
0.0
  9
$PUCSORGBOTTOM
 10
0.0
 20
0.0
 30
0.0
  9
$PUCSORGLEFT
 10
0.0
 20
0.0
 30
0.0
  9
$PUCSORGRIGHT
 10
0.0
 20
0.0
 30
0.0
  9
$PUCSORGFRONT
 10
0.0
 20
0.0
 30
0.0
  9
$PUCSORGBACK
 10
0.0
 20
0.0
 30
0.0
  9
$USERI1
 70
     0
  9
$USERI2
 70
     0
  9
$USERI3
 70
     0
  9
$USERI4
 70
     0
  9
$USERI5
 70
     0
  9
$USERR1
 40
0.0
  9
$USERR2
 40
0.0
  9
$USERR3
 40
0.0
  9
$USERR4
 40
0.0
  9
$USERR5
 40
0.0
  9
$WORLDVIEW
 70
     1
  9
$SHADEDGE
 70
     3
  9
$SHADEDIF
 70
    70
  9
$TILEMODE
 70
     1
  9
$MAXACTVP
 70
    15
  9
$PINSBASE
 10
0.0
 20
0.0
 30
0.0
  9
$PLIMCHECK
 70
     0
  9
$PEXTMIN
 10
1.000000000000000E+20
 20
1.000000000000000E+20
 30
1.000000000000000E+20
  9
$PEXTMAX
 10
-1.000000000000000E+20
 20
-1.000000000000000E+20
 30
-1.000000000000000E+20
  9
$PLIMMIN
 10
0.0
 20
0.0
  9
$PLIMMAX
 10
12.0
 20
9.0
  9
$UNITMODE
 70
     0
  9
$VISRETAIN
 70
     0
  9
$PLINEGEN
 70
     0
  9
$PSLTSCALE
 70
     1
  9
$TREEDEPTH
 70
  3020
  9
$CMLSTYLE
  2
Standard
  9
$CMLJUST
 70
     0
  9
$CMLSCALE
 40
1.0
  9
$PROXYGRAPHICS
 70
     1
  9
$MEASUREMENT
 70
     0
  9
$CELWEIGHT
370
    -1
  9
$ENDCAPS
280
     0
  9
$JOINSTYLE
280
     0
  9
$LWDISPLAY
290
     0
  9
$INSUNITS
 70
     0
  9
$HYPERLINKBASE
  1

  9
$STYLESHEET
  1

  9
$XEDIT
290
     1
  9
$CEPSNTYPE
380
     0
  9
$PSTYLEMODE
290
     1
  9
$FINGERPRINTGUID
  2
{C748B2FF-1EE6-4BF9-A6E9-55394A9DB08C}
  9
$VERSIONGUID
  2
{7C681FC2-26F5-44BF-A5E8-7AA04D0F2229}
  9
$EXTNAMES
290
     1
  9
$PSVPSCALE
 40
0.0
  9
$OLESTARTUP
290
     0
  0
ENDSEC
  0
SECTION
  2
CLASSES
  0
CLASS
  1
ACDBDICTIONARYWDFLT
  2
AcDbDictionaryWithDefault
  3
ObjectDBX Classes
 90
        0
280
     0
281
     0
  0
CLASS
  1
MATERIAL
  2
AcDbMaterial
  3
ObjectDBX Classes
 90
     1024
280
     0
281
     0
  0
CLASS
  1
VISUALSTYLE
  2
AcDbVisualStyle
  3
ObjectDBX Classes
 90
     4095
280
     0
281
     0
  0
CLASS
  1
TABLESTYLE
  2
AcDbTableStyle
  3
ObjectDBX Classes
 90
     4095
280
     0
281
     0
  0
CLASS
  1
AMGSETTINGSOBJ
  2
AmgSettingsObj
  3
"AcadM|Product Description: AutoCAD Mechanical|Company: Autodesk"
 90
        0
280
     1
281
     0
  0
CLASS
  1
ACME_DOCUMENT
  2
AcMeDbDoc
  3
AcMeServices
 90
        0
280
     1
281
     0
  0
CLASS
  1
ACMESCOPE
  2
AcMeScope
  3
AcMeServices
 90
        0
280
     1
281
     0
  0
CLASS
  1
ACMECOMMANDHISTORY
  2
AcMeCommandHistory
  3
AcMeServices
 90
        0
280
     1
281
     0
  0
CLASS
  1
ACIMSYSVARMAN
  2
AcImSysVarManager
  3
AcMeServices
 90
        0
280
     1
281
     0
  0
CLASS
  1
ACIMINTSYSVAR
  2
AcImIntSysVar
  3
AcMeServices
 90
        0
280
     1
281
     0
  0
CLASS
  1
ACMEDRAWINGMAN
  2
AcMeDrawingMan
  3
AcMeServices
 90
        0
280
     1
281
     0
  0
CLASS
  1
ACMEVIEW
  2
AcMeView
  3
AcMeServices
 90
        0
280
     1
281
     0
  0
CLASS
  1
ACDBENTITYCACHE
  2
AcMeEntityCache
  3
AcMeServices
 90
        0
280
     1
281
     0
  0
CLASS
  1
GSMANAGER
  2
AcMeGSManager
  3
AcMeServices
 90
        0
280
     1
281
     0
  0
CLASS
  1
AMDTINTERNALREACTOR
  2
AmdtInternalReactor
  3
AcMeServices
 90
        0
280
     1
281
     0
  0
CLASS
  1
ACMESTATEMGR
  2
AcMeStateMgr
  3
AcMeServices
 90
        0
280
     1
281
     0
  0
CLASS
  1
ACGREFMASTER
  2
AcGrefMaster
  3
AcAttribServices
 90
        0
280
     1
281
     0
  0
CLASS
  1
AM_DRAWING_MGR
  2
AcDmDwgMgr
  3
AcMechDwgViewMgmt
 90
        0
280
     1
281
     0
  0
CLASS
  1
AM_DWG_DOCUMENT
  2
AcDmDwgDocument
  3
AcMechDwgViewMgmt
 90
        0
280
     1
281
     0
  0
CLASS
  1
AM_DWG_SHEET
  2
AcDmSheet
  3
AcMechDwgViewMgmt
 90
        0
280
     1
281
     0
  0
CLASS
  1
AM_VIEWDIMPARMAP
  2
AcDmViewDimParMap
  3
AcMechDwgViewMgmt
 90
        0
280
     1
281
     0
  0
CLASS
  1
ACIMREALSYSVAR
  2
AcImRealSysVar
  3
AcMeServices
 90
        0
280
     1
281
     0
  0
CLASS
  1
AM_DWGMGR_NAME
  2
AcDmDwgMgrName
  3
AcMechDwgViewMgmt
 90
        0
280
     1
281
     0
  0
CLASS
  1
ACME_DATABASE
  2
AcMeDbDatabase
  3
AcMeServices
 90
        0
280
     1
281
     0
  0
CLASS
  1
ACRFINSADJUSTERMGR
  2
AcRfInsAdjusterMgr
  3
AcMeServices
 90
        0
280
     1
281
     0
  0
CLASS
  1
ACGREFACADMASTER
  2
AcGrefacadMaster
  3
AcGrefServices
 90
        0
280
     1
281
     0
  0
CLASS
  1
AMDTMENUSTATEMGR
  2
AmdtMenuStateMgr
  3
McadcomServices
 90
        0
280
     1
281
     0
  0
CLASS
  1
AMDTMCOMMENUSTATE
  2
AmdtMcomMenuState
  3
McadcomServices
 90
        0
280
     1
281
     0
  0
CLASS
  1
AMIMASTER
  2
AmiMaster
  3
AmiServices
 90
        0
280
     1
281
     0
  0
CLASS
  1
MAPIAMMOUDLE
  2
MApiAmModule
  3
MApiAmServices
 90
        0
280
     1
281
     0
  0
CLASS
  1
ACIMSTRSYSVAR
  2
AcImStrSysVar
  3
AcMeServices
 90
        0
280
     1
281
     0
  0
CLASS
  1
AMDTADMENUSTATE
  2
AmdtAdMenuState
  3
DesignerServices
 90
        0
280
     1
281
     0
  0
CLASS
  1
ADAPPL
  2
AcAdAppl
  3
DesignerServices
 90
        0
280
     1
281
     0
  0
CLASS
  1
DEPMGR
  2
AcAdDepMgr
  3
DesignerServices
 90
        0
280
     1
281
     0
  0
CLASS
  1
PARAMMGR
  2
AcAdParamMgr
  3
DesignerServices
 90
        0
280
     1
281
     0
  0
CLASS
  1
PARAMSCOPE
  2
AcAdParamScope
  3
DesignerServices
 90
        0
280
     1
281
     0
  0
CLASS
  1
NAMEDAPPL
  2
AcAdNamedAppl
  3
DesignerServices
 90
        0
280
     1
281
     0
  0
CLASS
  1
AMDTDMMENUSTATE
  2
AmdtDmMenuState
  3
AcMechDwgViewMgmt
 90
        0
280
     1
281
     0
  0
CLASS
  1
AMDTAMMENUSTATE
  2
AmdtAmMenuState
  3
DesignerAssemblies
 90
        0
280
     1
281
     0
  0
CLASS
  1
ACAMPROJECT
  2
AcAmProject
  3
DesignerAssemblies
 90
        0
280
     1
281
     0
  0
CLASS
  1
ACAMGRCOMPDEF
  2
AcAmGrCompDef
  3
DesignerAssemblies
 90
        0
280
     1
281
     0
  0
CLASS
  1
ACCMCONTEXT
  2
AcCmContext
  3
DesignerAssemblies
 90
        0
280
     1
281
     0
  0
CLASS
  1
ACAMCOMPDEF
  2
AcAmCompDef
  3
DesignerAssemblies
 90
        0
280
     1
281
     0
  0
CLASS
  1
ACAMCOMPDEFMGR
  2
AcAmCompDefMgr
  3
DesignerAssemblies
 90
        0
280
     1
281
     0
  0
CLASS
  1
AMCONTEXTMGR
  2
AcAmContextMgr
  3
DesignerAssemblies
 90
        0
280
     1
281
     0
  0
CLASS
  1
ACAMCONTEXTMODELER
  2
AcAmContextModeler
  3
DesignerAssemblies
 90
        0
280
     1
281
     0
  0
CLASS
  1
ACMDATADICTIONARY
  2
AcmDataDictionary
  3
"AcmSymBB|Product Description: AutoCAD Mechanical|Company: Autodesk"
 90
        0
280
     1
281
     0
  0
CLASS
  1
CATALOGSTATE
  2
AcAmCatalogState
  3
DesignerAssemblies
 90
        0
280
     1
281
     0
  0
CLASS
  1
ACAMGRCOMPDEFSET
  2
AcAmGrCompDefSet
  3
DesignerAssemblies
 90
        0
280
     1
281
     0
  0
CLASS
  1
AMDTBROWSERDBTAB
  2
AmdtBrowserDbTab
  3
McadcomServices
 90
        0
280
     1
281
     0
  0
CLASS
  1
CBROWSERAPPOBJECT
  2
CBrowserAppObject
  3
McadcomServices
 90
        0
280
     1
281
     0
  0
CLASS
  1
DM_PLACEHOLDER
  2
AcDmSelsetPlaceholder
  3
AcMechDwgViewMgmt
 90
        0
280
     1
281
     0
  0
CLASS
  1
ACMSTANDARDANSI
  2
AcmStandardANSI
  3
"Amdt_StdImp|Product Description: AutoCAD Mechanical|Company: Autodesk"
 90
        0
280
     1
281
     0
  0
CLASS
  1
AMGOBJPROPCFG
  2
AmgObjPropCfg
  3
"AmgLay|Product Description: AutoCAD Mechanical|Company: Autodesk"
 90
        1
280
     1
281
     0
  0
CLASS
  1
ACMSURFSTANDARDANSI
  2
AcmSurfTextStdANSI
  3
"Amdt_StdImp|Product Description: AutoCAD Mechanical|Company: Autodesk"
 90
        0
280
     1
281
     0
  0
CLASS
  1
ACMFCFSTANDARDANSI
  2
AcmFCFStdANSI
  3
"Amdt_StdImp|Product Description: AutoCAD Mechanical|Company: Autodesk"
 90
        0
280
     1
281
     0
  0
CLASS
  1
ACMWELDSTANDARDANSI
  2
AcmWeldingStdANSI
  3
"Amdt_StdImp|Product Description: AutoCAD Mechanical|Company: Autodesk"
 90
        0
280
     1
281
     0
  0
CLASS
  1
ACMIDSTANDARDANSI
  2
AcmIdStdANSI
  3
"Amdt_StdImp|Product Description: AutoCAD Mechanical|Company: Autodesk"
 90
        0
280
     1
281
     0
  0
CLASS
  1
ACMDATUMSTANDARDANSI
  2
AcmDatumStdANSI
  3
"Amdt_StdImp|Product Description: AutoCAD Mechanical|Company: Autodesk"
 90
        0
280
     1
281
     0
  0
CLASS
  1
ACMBOMSTANDARDANSI
  2
AcmBOMStdANSI
  3
"Amdt_StdImp|Product Description: AutoCAD Mechanical|Company: Autodesk"
 90
        0
280
     1
281
     0
  0
CLASS
  1
ACMDETAILSTANDARDANSI
  2
AmdtDetailSymStdANSI
  3
"Amdt_StdImp|Product Description: AutoCAD Mechanical|Company: Autodesk"
 90
        0
280
     1
281
     0
  0
CLASS
  1
ACMSECTIONSTANDARDANSI
  2
AmdtSectionSymStdANSI
  3
"Amdt_StdImp|Product Description: AutoCAD Mechanical|Company: Autodesk"
 90
        0
280
     1
281
     0
  0
CLASS
  1
ACMCENTERLINESTANDARDANSI
  2
AmdtCenterLineStdANSI
  3
"Amdt_StdImp|Product Description: AutoCAD Mechanical|Company: Autodesk"
 90
        0
280
     1
281
     0
  0
CLASS
  1
ACMTHREADLINESTANDARDANSI
  2
AmdtThreadLineStdANSI
  3
"Amdt_StdImp|Product Description: AutoCAD Mechanical|Company: Autodesk"
 90
        0
280
     1
281
     0
  0
CLASS
  1
ACMNOTESTANDARDANSI
  2
AmdtNoteStdANSI
  3
"Amdt_StdImp|Product Description: AutoCAD Mechanical|Company: Autodesk"
 90
        0
280
     1
281
     0
  0
CLASS
  1
ACMTAPERSTANDARDANSI
  2
AcmTaperStdANSI
  3
"Amdt_StdImp|Product Description: AutoCAD Mechanical|Company: Autodesk"
 90
        0
280
     1
281
     0
  0
CLASS
  1
AMDTNOTETEMPLATEDB
  2
AmdtNoteTemplateDB
  3
AMDT_STDIMP_MODULE_NAME
 90
        0
280
     1
281
     0
  0
CLASS
  1
ACAMGLAYSTD
  2
AcAmgLayStd
  3
"AmgLay|Product Description: AutoCAD Mechanical|Company: Autodesk"
 90
        0
280
     1
281
     0
  0
CLASS
  1
ACAMGDIMSTD
  2
AcAmgDimStd
  3
"AmgDim|Product Description: AutoCAD Mechanical|Company: Autodesk"
 90
        0
280
     1
281
     0
  0
CLASS
  1
ACAMGHOLECHARTSTDANSI
  2
AcAmgHoleChartStdANSI
  3
ACMSYMBB_MODULE_NAME
 90
        0
280
     1
281
     0
  0
CLASS
  1
ACAMGTITLESTD
  2
AcAmgTitleStd
  3
"AmgTitle|Product Description: AutoCAD Mechanical|Company: Autodesk"
 90
        0
280
     1
281
     0
  0
CLASS
  1
ACAMGFILTERDAT
  2
AcAmgFilterDat
  3
"AcadM|Product Description: AutoCAD Mechanical|Company: Autodesk"
 90
    32768
280
     1
281
     0
  0
CLASS
  1
DICTIONARYVAR
  2
AcDbDictionaryVar
  3
ObjectDBX Classes
 90
        0
280
     0
281
     0
  0
CLASS
  1
SCALE
  2
AcDbScale
  3
ObjectDBX Classes
 90
     1153
280
     1
281
     0
  0
CLASS
  1
MLEADERSTYLE
  2
AcDbMLeaderStyle
  3
ACDB_MLEADERSTYLE_CLASS
 90
     4095
280
     1
281
     0
  0
CLASS
  1
ACMANOOTATIONVIEWSTANDARDANSI
  2
AmdtAnViewStdANSI
  3
"Amdt_StdImp|Product Description: AutoCAD Mechanical|Company: Autodesk, Inc."
 90
    33792
280
     1
281
     0
  0
CLASS
  1
CELLSTYLEMAP
  2
AcDbCellStyleMap
  3
ObjectDBX Classes
 90
    33920
280
     1
281
     0
  0
CLASS
  1
ACDBPLACEHOLDER
  2
AcDbPlaceHolder
  3
ObjectDBX Classes
 90
        0
280
     0
281
     0
  0
CLASS
  1
LAYOUT
  2
AcDbLayout
  3
ObjectDBX Classes
 90
        0
280
     0
281
     0
  0
ENDSEC
  0
SECTION
  2
TABLES
  0
TABLE
  2
VPORT
  5
328
330
0
100
AcDbSymbolTable
 70
     1
  0
VPORT
  5
35B
330
328
100
AcDbSymbolTableRecord
100
AcDbViewportTableRecord
  2
*ACTIVE
 70
     0
 10
0.0
 20
0.0
 11
1.0
 21
1.0
 12
11.9369202427763
 22
1.395814374416999
 13
0.0
 23
0.0
 14
0.5740882589684923
 24
0.5740882589684923
 15
0.5
 25
0.5
 16
0.0
 26
0.0
 36
1.0
 17
0.0
 27
0.0
 37
0.0
 40
6.674940773752569
 41
1.084095063985374
 42
50.0
 43
0.0
 44
0.0
 50
0.0
 51
0.0
 71
     0
 72
   100
 73
     1
 74
     0
 75
     0
 76
     0
 77
     0
 78
     0
281
     0
 65
     0
110
0.0
120
0.0
130
0.0
111
1.0
121
0.0
131
0.0
112
0.0
122
1.0
132
0.0
 79
     0
146
0.0
  0
ENDTAB
  0
TABLE
  2
LTYPE
  5
325
330
0
100
AcDbSymbolTable
 70
    16
  0
LTYPE
  5
348
330
325
100
AcDbSymbolTableRecord
100
AcDbLinetypeTableRecord
  2
ByBlock
 70
     0
  3

 72
    65
 73
     0
 40
0.0
  0
LTYPE
  5
349
330
325
100
AcDbSymbolTableRecord
100
AcDbLinetypeTableRecord
  2
ByLayer
 70
     0
  3

 72
    65
 73
     0
 40
0.0
  0
LTYPE
  5
34A
330
325
100
AcDbSymbolTableRecord
100
AcDbLinetypeTableRecord
  2
CONTINUOUS
 70
     0
  3
Solid line
 72
    65
 73
     0
 40
0.0
  0
LTYPE
  5
35C
330
325
100
AcDbSymbolTableRecord
100
AcDbLinetypeTableRecord
  2
HIDDEN2
 70
     0
  3
_ _ _ _ _ _ _ _ _ _ _ _ _ _ _ _ _ _ _ _ _ _ _ _
 72
    65
 73
     2
 40
0.1875
 49
0.125
 74
     0
 49
-0.0625
 74
     0
  0
LTYPE
  5
39C
330
325
100
AcDbSymbolTableRecord
100
AcDbLinetypeTableRecord
  2
HIDDEN
 70
     0
  3
Hidden __ __ __ __ __ __ __ __ __ __ __ __ __ _
 72
    65
 73
     2
 40
0.375
 49
0.25
 74
     0
 49
-0.125
 74
     0
  0
LTYPE
  5
39D
330
325
100
AcDbSymbolTableRecord
100
AcDbLinetypeTableRecord
  2
PHANTOM2
 70
     0
  3
Phantom (.5x) ___ _ _ ___ _ _ ___ _ _ ___ _ _
 72
    65
 73
     6
 40
1.25
 49
0.625
 74
     0
 49
-0.125
 74
     0
 49
0.125
 74
     0
 49
-0.125
 74
     0
 49
0.125
 74
     0
 49
-0.125
 74
     0
  0
LTYPE
  5
39E
330
325
100
AcDbSymbolTableRecord
100
AcDbLinetypeTableRecord
  2
CENTER
 70
     0
  3
Center ____ _ ____ _ ____ _ ____ _ ____ _ ____
 72
    65
 73
     4
 40
2.0
 49
1.25
 74
     0
 49
-0.25
 74
     0
 49
0.25
 74
     0
 49
-0.25
 74
     0
  0
LTYPE
  5
3D3
330
325
100
AcDbSymbolTableRecord
100
AcDbLinetypeTableRecord
  2
AM_ISO02W050
 70
     0
  3
__ __ __ __ __ __ __ __ __ __ __ __ __ __ __
 72
    65
 73
     2
 40
7.5
 49
6.0
 74
     0
 49
-1.5
 74
     0
  0
LTYPE
  5
3D4
330
325
100
AcDbSymbolTableRecord
100
AcDbLinetypeTableRecord
  2
AM_ISO08W050
 70
     0
  3
____ . ____ . ____ . ____ . ____ . ____ . ____
 72
    65
 73
     4
 40
18.0
 49
12.0
 74
     0
 49
-1.5
 74
     0
 49
3.0
 74
     0
 49
-1.5
 74
     0
  0
LTYPE
  5
3D5
330
325
100
AcDbSymbolTableRecord
100
AcDbLinetypeTableRecord
  2
AM_ISO09W050
 70
     0
  3
_____ . . _____ . . _____ . . ____ .. ____
 72
    65
 73
     6
 40
22.5
 49
12.0
 74
     0
 49
-1.5
 74
     0
 49
3.0
 74
     0
 49
-1.5
 74
     0
 49
3.0
 74
     0
 49
-1.5
 74
     0
  0
LTYPE
  5
3D6
330
325
100
AcDbSymbolTableRecord
100
AcDbLinetypeTableRecord
  2
Amconstr
 70
     0
  3
_______________________
 72
    65
 73
     2
 40
9999.0
 49
9999.0
 74
     0
 49
0.0
 74
     0
  0
LTYPE
  5
3D7
330
325
100
AcDbSymbolTableRecord
100
AcDbLinetypeTableRecord
  2
AM_ISO08W050x2
 70
     0
  3
__ . __ . __ . __ . __ . __
 72
    65
 73
     4
 40
9.0
 49
6.0
 74
     0
 49
-0.75
 74
     0
 49
1.5
 74
     0
 49
-0.75
 74
     0
  0
LTYPE
  5
3D8
330
325
100
AcDbSymbolTableRecord
100
AcDbLinetypeTableRecord
  2
AM_ISO02W050x2
 70
     0
  3
 _ _ _ _ _ _ _ _ _ _ _ _
 72
    65
 73
     2
 40
3.75
 49
3.0
 74
     0
 49
-0.75
 74
     0
  0
LTYPE
  5
3DB
330
325
100
AcDbSymbolTableRecord
100
AcDbLinetypeTableRecord
  2
Amzigzag
 70
     0
  3
/\/-/\/-/\/-/\/-/\/-/\/
 72
    65
 73
     2
 40
11.0001
 49
0.0001
 74
     4
 75
   136
340
3DA
 46
0.04
 50
0.0
 44
0.0
 45
0.0
 49
-11.0
 74
     0
  0
LTYPE
  5
3EC
330
325
100
AcDbSymbolTableRecord
100
AcDbLinetypeTableRecord
  2
ACANSTGB
 70
     0
  3
__ . . __ . .
 72
    65
 73
     6
 40
0.35433070866
 49
0.15748031496
 74
     0
 49
-0.03937007874
 74
     0
 49
0.03937007874
 74
     0
 49
-0.03937007874
 74
     0
 49
0.03937007874
 74
     0
 49
-0.03937007874
 74
     0
  0
LTYPE
  5
3ED
330
325
100
AcDbSymbolTableRecord
100
AcDbLinetypeTableRecord
  2
ACANSTGL
 70
     0
  3
_ _ _ _ _
 72
    65
 73
     2
 40
0.11811023622
 49
0.07874015748
 74
     0
 49
-0.03937007874
 74
     0
  0
ENDTAB
  0
TABLE
  2
LAYER
  5
322
330
0
100
AcDbSymbolTable
 70
     5
  0
LAYER
  5
345
102
{ACAD_XDICTIONARY
360
4C2
102
}
330
322
100
AcDbSymbolTableRecord
100
AcDbLayerTableRecord
  2
0
 70
     0
 62
     7
  6
CONTINUOUS
370
    -3
390
32F
  0
LAYER
  5
35A
102
{ACAD_XDICTIONARY
360
4C4
102
}
330
322
100
AcDbSymbolTableRecord
100
AcDbLayerTableRecord
  2
DIMS
 70
     0
 62
     3
  6
CONTINUOUS
370
    -3
390
32F
  0
LAYER
  5
35D
102
{ACAD_XDICTIONARY
360
4C6
102
}
330
322
100
AcDbSymbolTableRecord
100
AcDbLayerTableRecord
  2
HIDDEN
 70
     0
 62
     5
  6
CONTINUOUS
370
    -3
390
32F
  0
LAYER
  5
35E
102
{ACAD_XDICTIONARY
360
4C8
102
}
330
322
100
AcDbSymbolTableRecord
100
AcDbLayerTableRecord
  2
OBJECT
 70
     0
 62
     7
  6
CONTINUOUS
370
    -3
390
32F
  0
ENDTAB
  0
TABLE
  2
STYLE
  5
323
330
0
100
AcDbSymbolTable
 70
     5
  0
STYLE
  5
346
330
323
100
AcDbSymbolTableRecord
100
AcDbTextStyleTableRecord
  2
STANDARD
 70
     0
 40
0.0
 41
1.0
 50
0.0
 71
     0
 42
0.2
  3
txt
  4

  0
STYLE
  5
3DA
330
323
100
AcDbSymbolTableRecord
100
AcDbTextStyleTableRecord
  2

 70
     1
 40
0.0
 41
1.0
 50
0.0
 71
     0
 42
0.2
  3
genltshp.shx
  4

  0
STYLE
  5
3DE
330
323
100
AcDbSymbolTableRecord
100
AcDbTextStyleTableRecord
  2
ACANSTS
 70
     0
 40
1.0
 41
1.0
 50
0.0
 71
     0
 42
0.2
  3
romans.shx
  4

  0
STYLE
  5
3EB
330
323
100
AcDbSymbolTableRecord
100
AcDbTextStyleTableRecord
  2
ACANSGDT
 70
     0
 40
0.0
 41
1.0
 50
0.0
 71
     0
 42
0.2
  3
amgdt.shx
  4

  0
ENDTAB
  0
TABLE
  2
VIEW
  5
326
330
0
100
AcDbSymbolTable
 70
     0
  0
ENDTAB
  0
TABLE
  2
UCS
  5
327
330
0
100
AcDbSymbolTable
 70
     0
  0
ENDTAB
  0
TABLE
  2
APPID
  5
329
330
0
100
AcDbSymbolTable
 70
    10
  0
APPID
  5
347
330
329
100
AcDbSymbolTableRecord
100
AcDbRegAppTableRecord
  2
ACAD
 70
     0
  0
APPID
  5
36F
330
329
100
AcDbSymbolTableRecord
100
AcDbRegAppTableRecord
  2
MCAD_NO_VIS
 70
     0
  0
APPID
  5
370
330
329
100
AcDbSymbolTableRecord
100
AcDbRegAppTableRecord
  2
ACAD_TEMP_GRAPHIC
 70
     0
  0
APPID
  5
3A0
330
329
100
AcDbSymbolTableRecord
100
AcDbRegAppTableRecord
  2
AD_DRAW
 70
     0
  0
APPID
  5
3A3
330
329
100
AcDbSymbolTableRecord
100
AcDbRegAppTableRecord
  2
ACATTRIBSERVICES
 70
     0
  0
APPID
  5
3C4
330
329
100
AcDbSymbolTableRecord
100
AcDbRegAppTableRecord
  2
DESIGNERASSEMBLIES
 70
     0
  0
APPID
  5
3CA
330
329
100
AcDbSymbolTableRecord
100
AcDbRegAppTableRecord
  2
ACADM_DIM_EDIT
 70
     0
  0
APPID
  5
3CB
330
329
100
AcDbSymbolTableRecord
100
AcDbRegAppTableRecord
  2
AMDT_DM_ADJ
 70
     0
  0
APPID
  5
41F
330
329
100
AcDbSymbolTableRecord
100
AcDbRegAppTableRecord
  2
ACAD_DSTYLE_DIMARC_LENGTH_SYMBOL
 70
     0
  0
APPID
  5
447
330
329
100
AcDbSymbolTableRecord
100
AcDbRegAppTableRecord
  2
ACAD_MLEADERVER
 70
     0
  0
ENDTAB
  0
TABLE
  2
DIMSTYLE
  5
32A
330
0
100
AcDbSymbolTable
 70
     7
100
AcDbDimStyleTable
 71
     0
  0
DIMSTYLE
105
361
330
32A
100
AcDbSymbolTableRecord
100
AcDbDimStyleTableRecord
  2
STANDARD
 70
     0
271
     5
272
     5
273
     5
274
     1
277
     5
279
     2
284
     3
285
     3
286
     3
340
346
  0
DIMSTYLE
105
3F8
330
32A
100
AcDbSymbolTableRecord
100
AcDbDimStyleTableRecord
  2
AM_ANSI
 70
     0
  4
mm
 41
0.1
 42
0.05
 43
0.5
 44
0.1
 47
0.1
 48
0.1
 78
     7
 79
     2
140
0.12
141
0.0
146
0.71
147
0.06
176
   256
177
   256
178
     2
274
     4
284
     7
340
346
371
    -1
372
    -1
1001
ACAD_DSTYLE_DIMARC_LENGTH_SYMBOL
1070
   379
1070
     1
  0
DIMSTYLE
105
3F9
330
32A
100
AcDbSymbolTableRecord
100
AcDbDimStyleTableRecord
  2
AM_ANSI$3
 70
     0
  4
mm
 41
0.1
 42
0.05
 43
0.5
 44
0.1
 47
0.1
 48
0.1
 78
     7
 79
     2
140
0.12
141
0.0
146
0.71
147
0.06
176
   256
177
   256
178
     2
274
     4
284
     7
288
     1
289
     0
340
346
371
    -1
372
    -1
1001
ACAD_DSTYLE_DIMARC_LENGTH_SYMBOL
1070
   379
1070
     1
  0
DIMSTYLE
105
3FA
330
32A
100
AcDbSymbolTableRecord
100
AcDbDimStyleTableRecord
  2
AM_ANSI$4
 70
     0
  4
mm
 41
0.1
 42
0.05
 43
0.5
 44
0.1
 47
0.1
 48
0.1
 78
     7
 79
     2
140
0.12
141
0.0
146
0.71
147
0.06
176
   256
177
   256
178
     2
274
     4
284
     7
288
     1
289
     0
340
346
371
    -1
372
    -1
1001
ACAD_DSTYLE_DIMARC_LENGTH_SYMBOL
1070
   379
1070
     1
  0
DIMSTYLE
105
3FB
330
32A
100
AcDbSymbolTableRecord
100
AcDbDimStyleTableRecord
  2
AM_ANSI$7
 70
     0
  4
mm
 41
0.1
 42
0.05
 43
0.5
 44
0.1
 47
0.1
 48
0.1
 78
     7
 79
     2
140
0.24
141
0.0
146
0.71
147
0.06
176
   256
177
   256
178
     2
274
     4
284
     7
340
346
371
    -1
372
    -1
1001
ACAD_DSTYLE_DIMARC_LENGTH_SYMBOL
1070
   379
1070
     1
  0
DIMSTYLE
105
3FC
330
32A
100
AcDbSymbolTableRecord
100
AcDbDimStyleTableRecord
  2
AM_ANSI$SF
 70
     0
  4
mm
 41
0.1
 42
0.05
 43
0.5
 44
0.1
 47
0.1
 48
0.1
 75
     1
 76
     1
 78
     7
 79
     2
140
0.12
141
0.0
146
0.71
147
0.06
176
   256
177
   256
178
     2
274
     4
284
     7
340
346
371
    -1
372
    -1
1001
ACAD_DSTYLE_DIMARC_LENGTH_SYMBOL
1070
   379
1070
     1
  0
DIMSTYLE
105
401
330
32A
100
AcDbSymbolTableRecord
100
AcDbDimStyleTableRecord
  2
AM_ANSI$SH
 70
     0
  4
mm
 41
0.1
 42
0.05
 43
0.5
 44
0.1
 47
0.1
 48
0.1
 75
     1
 76
     1
 78
     7
 79
     2
140
0.12
141
0.0
146
0.71
147
0.06
173
     1
176
   256
177
   256
178
     2
274
     4
284
     7
340
346
343
3FD
371
    -1
372
    -1
1001
ACAD_DSTYLE_DIMARC_LENGTH_SYMBOL
1070
   379
1070
     1
  0
ENDTAB
  0
TABLE
  2
BLOCK_RECORD
  5
321
330
0
100
AcDbSymbolTable
 70
     4
  0
BLOCK_RECORD
  5
356
330
321
100
AcDbSymbolTableRecord
100
AcDbBlockTableRecord
  2
*Model_Space
340
359
  0
BLOCK_RECORD
  5
352
330
321
100
AcDbSymbolTableRecord
100
AcDbBlockTableRecord
  2
*Paper_Space
340
355
  0
BLOCK_RECORD
  5
3FD
330
321
100
AcDbSymbolTableRecord
100
AcDbBlockTableRecord
  2
GENAXEH
340
0
  0
ENDTAB
  0
ENDSEC
  0
SECTION
  2
BLOCKS
  0
BLOCK
  5
357
330
356
100
AcDbEntity
  8
0
100
AcDbBlockBegin
  2
*Model_Space
 70
     0
 10
0.0
 20
0.0
 30
0.0
  3
*Model_Space
  1

  0
ENDBLK
  5
358
330
356
100
AcDbEntity
  8
0
100
AcDbBlockEnd
  0
BLOCK
  5
353
330
352
100
AcDbEntity
 67
     1
  8
0
100
AcDbBlockBegin
  2
*Paper_Space
 70
     0
 10
0.0
 20
0.0
 30
0.0
  3
*Paper_Space
  1

  0
ENDBLK
  5
354
330
352
100
AcDbEntity
 67
     1
  8
0
100
AcDbBlockEnd
  0
BLOCK
  5
3FF
330
3FD
100
AcDbEntity
  8
0
100
AcDbBlockBegin
  2
GENAXEH
 70
     0
 10
0.0
 20
0.0
 30
0.0
  3
GENAXEH
  1

  0
LINE
  5
3FE
330
3FD
100
AcDbEntity
  8
0
100
AcDbLine
 10
-1.0
 20
0.0
 30
0.0
 11
1.0
 21
0.0
 31
0.0
  0
ENDBLK
  5
400
330
3FD
100
AcDbEntity
  8
0
100
AcDbBlockEnd
  0
ENDSEC
  0
SECTION
  2
ENTITIES
  0
LINE
  5
37
330
356
100
AcDbEntity
  8
OBJECT
100
AcDbLine
 10
14.27961777287491
 20
-1.904689977685004
 30
0.0
 11
10.79723451915565
 21
-1.904689977685004
 31
0.0
  0
LINE
  5
38
330
356
100
AcDbEntity
  8
OBJECT
100
AcDbLine
 10
10.79723451915565
 20
1.095310022314992
 30
0.0
 11
14.27961777287491
 21
1.095310022314992
 31
0.0
  0
LINE
  5
39
330
356
100
AcDbEntity
  8
HIDDEN
  6
HIDDEN2
100
AcDbLine
 10
12.38931420387966
 20
-1.234457492141846
 30
0.0
 11
12.36382921251704
 21
-1.234457492141846
 31
0.0
  0
LINE
  5
3A
330
356
100
AcDbEntity
  8
HIDDEN
  6
HIDDEN2
100
AcDbLine
 10
12.38931420387966
 20
-1.328207492141846
 30
0.0
 11
12.36382921251704
 21
-1.328207492141846
 31
0.0
  0
LINE
  5
3B
330
356
100
AcDbEntity
  8
HIDDEN
  6
HIDDEN2
100
AcDbLine
 10
12.38931420387966
 20
0.515542507858152
 30
0.0
 11
12.36382921251704
 21
0.5155425078581528
 31
0.0
  0
LINE
  5
3C
330
356
100
AcDbEntity
  8
HIDDEN
  6
HIDDEN2
100
AcDbLine
 10
12.38931420387966
 20
0.421792507858152
 30
0.0
 11
12.36382921251704
 21
0.4217925078581528
 31
0.0
  0
LINE
  5
3D
330
356
100
AcDbEntity
  8
HIDDEN
  6
HIDDEN2
100
AcDbLine
 10
12.38931420387966
 20
3.443752610954339
 30
0.0
 11
12.34902853983899
 21
3.443752610954339
 31
0.0
  0
LINE
  5
3E
330
356
100
AcDbEntity
  8
HIDDEN
  6
HIDDEN2
100
AcDbLine
 10
12.38931420387966
 20
3.537502610954339
 30
0.0
 11
12.34982401826711
 21
3.537502610954339
 31
0.0
  0
LINE
  5
3F
330
356
100
AcDbEntity
  8
HIDDEN
  6
HIDDEN2
100
AcDbLine
 10
12.46053416636673
 20
-0.2188324921418463
 30
0.0
 11
12.26235497383436
 21
-0.2188324921418463
 31
0.0
  0
LINE
  5
40
330
356
100
AcDbEntity
  8
HIDDEN
  6
HIDDEN2
100
AcDbLine
 10
12.26235497383436
 20
-0.5938324921418463
 30
0.0
 11
12.45768196559803
 21
-0.5938324921418463
 31
0.0
  0
LINE
  5
41
330
356
100
AcDbEntity
  8
HIDDEN
  6
HIDDEN2
100
AcDbLine
 10
12.33351529422504
 20
3.678127610954337
 30
0.0
 11
12.46053416636673
 21
3.678127610954337
 31
0.0
  0
LINE
  5
42
330
356
100
AcDbEntity
  8
HIDDEN
  6
HIDDEN2
100
AcDbLine
 10
12.33027347890805
 20
3.303127610954339
 30
0.0
 11
12.45768196559803
 21
3.303127610954339
 31
0.0
  0
ARC
  5
43
330
356
100
AcDbEntity
  8
OBJECT
100
AcDbCircle
 10
11.4006176778161
 20
3.498678349884435
 30
0.0
 40
1.074999999999999
100
AcDbArc
 50
305.3563942060409
 51
40.42122476072957
  0
ARC
  5
44
330
356
100
AcDbEntity
  8
OBJECT
100
AcDbCircle
 10
11.4006176778161
 20
3.498678349884435
 30
0.0
 40
0.95
100
AcDbArc
 50
305.4657102551451
 51
123.6406953120216
  0
LINE
  5
45
330
356
100
AcDbEntity
  8
OBJECT
100
AcDbLine
 10
11.47363781589874
 20
4.633832220262539
 30
0.0
 11
14.36936767781611
 21
4.633832220262539
 31
0.0
  0
LINE
  5
46
330
356
100
AcDbEntity
  8
OBJECT
100
AcDbLine
 10
13.1506176778161
 20
4.508832220262539
 30
0.0
 11
12.27373350557215
 21
4.349139194140766
 31
0.0
  0
CIRCLE
  5
47
330
356
100
AcDbEntity
  8
OBJECT
100
AcDbCircle
 10
9.971749090565264
 20
-0.4063324921418463
 30
0.0
 40
0.5
  0
LINE
  5
48
330
356
100
AcDbEntity
  8
OBJECT
100
AcDbLine
 10
10.79723451915565
 20
-1.904689977685004
 30
0.0
 11
10.79723451915565
 21
-0.5938324921418463
 31
0.0
  0
LINE
  5
49
330
356
100
AcDbEntity
  8
HIDDEN
  6
HIDDEN2
100
AcDbLine
 10
12.36382921251704
 20
1.095310022314992
 30
0.0
 11
12.36382921251704
 21
-1.904689977685004
 31
0.0
  0
LINE
  5
4A
330
356
100
AcDbEntity
  8
OBJECT
100
AcDbLine
 10
10.88897239210459
 20
-0.5938324921418463
 30
0.0
 11
10.88897239210459
 21
-1.904689977685004
 31
0.0
  0
LINE
  5
4B
330
356
100
AcDbEntity
  8
OBJECT
100
AcDbLine
 10
11.99816223356144
 20
1.095310022314992
 30
0.0
 11
11.99816223356144
 21
-1.904689977685004
 31
0.0
  0
LINE
  5
4C
330
356
100
AcDbEntity
  8
OBJECT
100
AcDbLine
 10
11.93721773706885
 20
1.095310022314992
 30
0.0
 11
11.93721773706885
 21
-1.904689977685004
 31
0.0
  0
LINE
  5
4D
330
356
100
AcDbEntity
  8
OBJECT
100
AcDbLine
 10
10.86018219712979
 20
-0.5938324921418463
 30
0.0
 11
11.01047501516448
 21
-0.5938324921418463
 31
0.0
  0
LINE
  5
4E
330
356
100
AcDbEntity
  8
OBJECT
100
AcDbLine
 10
11.09172315353188
 20
-0.2188324921418463
 30
0.0
 11
10.86018219712979
 21
-0.2188324921418463
 31
0.0
  0
LINE
  5
4F
330
356
100
AcDbEntity
  8
HIDDEN
  6
HIDDEN2
100
AcDbLine
 10
10.79723451915565
 20
-0.2188324921418463
 30
0.0
 11
10.79723451915565
 21
-0.5938324921418463
 31
0.0
  0
LINE
  5
50
330
356
100
AcDbEntity
  8
OBJECT
100
AcDbLine
 10
10.86018219712979
 20
-0.1196507759603911
 30
0.0
 11
10.86018219712979
 21
-0.6916507759603912
 31
0.0
  0
LINE
  5
51
330
356
100
AcDbEntity
  8
OBJECT
100
AcDbLine
 10
10.82893219712979
 20
-0.6916507759603912
 30
0.0
 11
10.82893219712979
 21
-0.1196507759603911
 31
0.0
  0
LINE
  5
52
330
356
100
AcDbEntity
  8
OBJECT
100
AcDbLine
 10
10.43526149600874
 20
-0.5938324921418463
 30
0.0
 11
10.82893219712979
 21
-0.5938324921418463
 31
0.0
  0
LINE
  5
53
330
356
100
AcDbEntity
  8
HIDDEN
100
AcDbLine
 10
10.82893219712979
 20
-0.5938324921418463
 30
0.0
 11
10.86018219712979
 21
-0.5938324921418463
 31
0.0
  0
ARC
  5
54
330
356
100
AcDbEntity
  8
OBJECT
100
AcDbCircle
 10
10.84293219712978
 20
-0.6916507759603916
 30
0.0
 40
0.0139999999999997
100
AcDbArc
 50
179.9999999999986
 51
270.0
  0
LINE
  5
55
330
356
100
AcDbEntity
  8
OBJECT
100
AcDbLine
 10
10.84618219712979
 20
-0.7056507759603914
 30
0.0
 11
10.84293219712978
 21
-0.7056507759603914
 31
0.0
  0
LINE
  5
56
330
356
100
AcDbEntity
  8
OBJECT
100
AcDbLine
 10
10.83600450349351
 20
-0.7028659064967555
 30
0.0
 11
10.83303270219318
 21
-0.7015502708970032
 31
0.0
  0
ARC
  5
57
330
356
100
AcDbEntity
  8
OBJECT
100
AcDbCircle
 10
10.84618219712979
 20
-0.6916507759603916
 30
0.0
 40
0.0139999999999994
100
AcDbArc
 50
270.0
 51
0.0000000000013631
  0
LINE
  5
58
330
356
100
AcDbEntity
  8
OBJECT
100
AcDbLine
 10
10.79723451915565
 20
-0.2188324921418463
 30
0.0
 11
10.79723451915565
 21
1.095310022314992
 31
0.0
  0
LINE
  5
59
330
356
100
AcDbEntity
  8
OBJECT
100
AcDbLine
 10
10.88897239210459
 20
1.095310022314992
 30
0.0
 11
10.88897239210459
 21
-0.1079513270917982
 31
0.0
  0
LINE
  5
5A
330
356
100
AcDbEntity
  8
OBJECT
100
AcDbLine
 10
10.82893219712979
 20
-0.2188324921418463
 30
0.0
 11
10.43526149600874
 21
-0.2188324921418463
 31
0.0
  0
LINE
  5
5B
330
356
100
AcDbEntity
  8
HIDDEN
100
AcDbLine
 10
10.82893219712979
 20
-0.2188324921418463
 30
0.0
 11
10.86018219712979
 21
-0.2188324921418463
 31
0.0
  0
ARC
  5
5C
330
356
100
AcDbEntity
  8
OBJECT
100
AcDbCircle
 10
10.87298380273123
 20
-0.1139834226076135
 30
0.0
 40
0.0139999999999998
100
AcDbArc
 50
113.8792810754185
 51
203.8792810754193
  0
LINE
  5
5D
330
356
100
AcDbEntity
  8
OBJECT
100
AcDbLine
 10
10.87028825067879
 20
-0.0998661814064232
 30
0.0
 11
10.86731644937845
 21
-0.1011818170061756
 31
0.0
  0
ARC
  5
5E
330
356
100
AcDbEntity
  8
OBJECT
100
AcDbCircle
 10
10.87595560403156
 20
-0.1126677870078612
 30
0.0
 40
0.0139999999999994
100
AcDbArc
 50
23.87928107541759
 51
113.8792810754185
  0
LINE
  5
5F
330
356
100
AcDbEntity
  8
OBJECT
100
AcDbLine
 10
10.84293219712978
 20
-0.1056507759603913
 30
0.0
 11
10.84618219712979
 21
-0.1056507759603913
 31
0.0
  0
ARC
  5
60
330
356
100
AcDbEntity
  8
OBJECT
100
AcDbCircle
 10
10.84293219712978
 20
-0.1196507759603911
 30
0.0
 40
0.0139999999999994
100
AcDbArc
 50
90.0
 51
180.0000000000009
  0
ARC
  5
61
330
356
100
AcDbEntity
  8
OBJECT
100
AcDbCircle
 10
10.84618219712979
 20
-0.1196507759603911
 30
0.0
 40
0.0139999999999998
100
AcDbArc
 50
359.9999999999988
 51
90.0
  0
LINE
  5
62
330
356
100
AcDbEntity
  8
OBJECT
100
AcDbLine
 10
10.91406425016927
 20
-0.2188324921418459
 30
0.0
 11
10.888757209633
 21
-0.107000433655084
 31
0.0
  0
LINE
  5
63
330
356
100
AcDbEntity
  8
OBJECT
100
AcDbLine
 10
10.86018219712979
 20
-0.1196507759603906
 30
0.0
 11
10.8831570080095
 21
-0.2188324921418463
 31
0.0
  0
LINE
  5
64
330
356
100
AcDbEntity
  8
HIDDEN
  6
HIDDEN2
100
AcDbLine
 10
12.16812645350109
 20
-0.1235273975780036
 30
0.0
 11
12.0444225659202
 21
-0.6944814991116162
 31
0.0
  0
LINE
  5
65
330
356
100
AcDbEntity
  8
HIDDEN
  6
HIDDEN2
100
AcDbLine
 10
12.01584755341699
 20
-0.6818311568063096
 30
0.0
 11
12.13955144099789
 21
-0.110877055272697
 31
0.0
  0
LINE
  5
66
330
356
100
AcDbEntity
  8
HIDDEN
  6
HIDDEN2
100
AcDbLine
 10
12.16860497383436
 20
-0.6908324921418463
 30
0.0
 11
12.16860497383436
 21
-0.1188324921418462
 31
0.0
  0
LINE
  5
67
330
356
100
AcDbEntity
  8
HIDDEN
  6
HIDDEN2
100
AcDbLine
 10
12.19985497383436
 20
-0.1188324921418462
 30
0.0
 11
12.19985497383436
 21
-0.6908324921418463
 31
0.0
  0
LINE
  5
68
330
356
100
AcDbEntity
  8
HIDDEN
  6
HIDDEN2
100
AcDbLine
 10
12.19985497383436
 20
-0.7485824921418463
 30
0.0
 11
12.19985497383436
 21
-0.0610824921418463
 31
0.0
  0
LINE
  5
69
330
356
100
AcDbEntity
  8
HIDDEN
  6
HIDDEN2
100
AcDbLine
 10
12.26235497383436
 20
-0.0610824921418463
 30
0.0
 11
12.26235497383436
 21
-0.7485824921418463
 31
0.0
  0
LINE
  5
6A
330
356
100
AcDbEntity
  8
OBJECT
100
AcDbLine
 10
11.26235497383436
 20
-0.5938324921418463
 30
0.0
 11
11.26235497383436
 21
-0.2188324921418467
 31
0.0
  0
LINE
  5
6B
330
356
100
AcDbEntity
  8
OBJECT
100
AcDbLine
 10
11.75981895233345
 20
-0.6798928459975029
 30
0.0
 11
11.88352283991434
 21
-0.1089387444638903
 31
0.0
  0
LINE
  5
6C
330
356
100
AcDbEntity
  8
OBJECT
100
AcDbLine
 10
11.91209785241754
 20
-0.1215890867691969
 30
0.0
 11
11.78839396483666
 21
-0.6925431883028095
 31
0.0
  0
LINE
  5
6D
330
356
100
AcDbEntity
  8
OBJECT
100
AcDbLine
 10
11.5037903512499
 20
-0.6779545351886962
 30
0.0
 11
11.62749423883079
 21
-0.1070004336550836
 31
0.0
  0
LINE
  5
6E
330
356
100
AcDbEntity
  8
OBJECT
100
AcDbLine
 10
11.656069251334
 20
-0.1196507759603902
 30
0.0
 11
11.53236536375311
 21
-0.6906048774940028
 31
0.0
  0
LINE
  5
6F
330
356
100
AcDbEntity
  8
OBJECT
100
AcDbLine
 10
10.9922489901159
 20
-0.6779545351886968
 30
0.0
 11
11.11595287769679
 21
-0.107000433655084
 31
0.0
  0
LINE
  5
70
330
356
100
AcDbEntity
  8
OBJECT
100
AcDbLine
 10
11.2480196706829
 20
-0.6653041928833896
 30
0.0
 11
11.37146563774725
 21
-0.1089387444638903
 31
0.0
  0
LINE
  5
71
330
356
100
AcDbEntity
  8
OBJECT
100
AcDbLine
 10
11.400298570767
 20
-0.1070004336550836
 30
0.0
 11
11.27659468318611
 21
-0.6779545351886962
 31
0.0
  0
LINE
  5
72
330
356
100
AcDbEntity
  8
OBJECT
100
AcDbLine
 10
11.1445278902
 20
-0.1196507759603906
 30
0.0
 11
11.02082400261911
 21
-0.6906048774940034
 31
0.0
  0
LINE
  5
73
330
356
100
AcDbEntity
  8
OBJECT
100
AcDbLine
 10
11.76492357870691
 20
-0.6563324921418463
 30
0.0
 11
11.53979087710584
 21
-0.6563324921418463
 31
0.0
  0
ARC
  5
74
330
356
100
AcDbEntity
  8
OBJECT
100
AcDbCircle
 10
11.32485497383436
 20
-0.5938324921418463
 30
0.0
 40
0.0625
100
AcDbArc
 50
229.7634780343314
 51
270.0
  0
LINE
  5
75
330
356
100
AcDbEntity
  8
OBJECT
100
AcDbLine
 10
11.0417908723664
 20
-0.5938324921418463
 30
0.0
 11
11.26235497383436
 21
-0.5938324921418463
 31
0.0
  0
ARC
  5
76
330
356
100
AcDbEntity
  8
OBJECT
100
AcDbCircle
 10
11.26082127628434
 20
-0.6709715462361672
 30
0.0
 40
0.0139999999999997
100
AcDbArc
 50
156.1207189245801
 51
246.1207189245814
  0
ARC
  5
77
330
356
100
AcDbEntity
  8
OBJECT
100
AcDbCircle
 10
11.26379307758467
 20
-0.6722871818359196
 30
0.0
 40
0.0139999999999994
100
AcDbArc
 50
246.1207189245814
 51
336.1207189245829
  0
ARC
  5
78
330
356
100
AcDbEntity
  8
OBJECT
100
AcDbCircle
 10
11.00802239701767
 20
-0.6849375241412266
 30
0.0
 40
0.0139999999999994
100
AcDbArc
 50
246.1207189245814
 51
336.1207189245829
  0
ARC
  5
79
330
356
100
AcDbEntity
  8
OBJECT
100
AcDbCircle
 10
11.00505059571734
 20
-0.6836218885414742
 30
0.0
 40
0.0139999999999997
100
AcDbArc
 50
156.1207189245801
 51
246.1207189245814
  0
ARC
  5
7A
330
356
100
AcDbEntity
  8
OBJECT
100
AcDbCircle
 10
11.32485497383436
 20
-0.5938324921418463
 30
0.0
 40
0.0625
100
AcDbArc
 50
180.0
 51
185.225631442014
  0
LINE
  5
7B
330
356
100
AcDbEntity
  8
OBJECT
100
AcDbLine
 10
11.00482554829094
 20
-0.6199075520773492
 30
0.0
 11
10.99892489146943
 21
-0.5938324921418463
 31
0.0
  0
LINE
  5
7C
330
356
100
AcDbEntity
  8
OBJECT
100
AcDbLine
 10
10.97002336212795
 20
-0.5938324921418463
 30
0.0
 11
10.99199106959936
 21
-0.6886665666851971
 31
0.0
  0
LINE
  5
7D
330
356
100
AcDbEntity
  8
OBJECT
100
AcDbLine
 10
11.26074915331103
 20
-0.6079329844189112
 30
0.0
 11
11.25755828179828
 21
-0.5938324921418463
 31
0.0
  0
LINE
  5
7E
330
356
100
AcDbEntity
  8
OBJECT
100
AcDbLine
 10
11.2287244136667
 20
-0.5938324921418463
 30
0.0
 11
11.24776175016636
 21
-0.67601622437989
 31
0.0
  0
ARC
  5
7F
330
356
100
AcDbEntity
  8
OBJECT
100
AcDbCircle
 10
11.51956375815166
 20
-0.6849375241412261
 30
0.0
 40
0.0139999999999994
100
AcDbArc
 50
246.1207189245814
 51
336.1207189245829
  0
ARC
  5
80
330
356
100
AcDbEntity
  8
OBJECT
100
AcDbCircle
 10
11.51659195685134
 20
-0.6836218885414738
 30
0.0
 40
0.0139999999999997
100
AcDbArc
 50
156.1207189245801
 51
246.1207189245814
  0
LINE
  5
81
330
356
100
AcDbEntity
  8
OBJECT
100
AcDbLine
 10
11.50847501990392
 20
-0.6563324921418463
 30
0.0
 11
11.32485497383436
 21
-0.6563324921418463
 31
0.0
  0
LINE
  5
82
330
356
100
AcDbEntity
  8
OBJECT
100
AcDbLine
 10
11.49604244894836
 20
-0.6563324921418463
 30
0.0
 11
11.50353243073336
 21
-0.6886665666851966
 31
0.0
  0
LINE
  5
83
330
356
100
AcDbEntity
  8
HIDDEN
  6
HIDDEN2
100
AcDbLine
 10
12.00720165648552
 20
-0.6563324921418463
 30
0.0
 11
12.01558963290045
 21
-0.69254318830281
 31
0.0
  0
ARC
  5
84
330
356
100
AcDbEntity
  8
HIDDEN
  6
HIDDEN2
100
AcDbCircle
 10
12.02864915901843
 20
-0.6874985101590873
 30
0.0
 40
0.0139999999999997
100
AcDbArc
 50
156.1207189245801
 51
246.1207189245814
  0
LINE
  5
85
330
356
100
AcDbEntity
  8
HIDDEN
  6
HIDDEN2
100
AcDbLine
 10
12.0213721375099
 20
-0.6563324921418463
 30
0.0
 11
11.99816223356145
 21
-0.6563324921418463
 31
0.0
  0
LINE
  5
86
330
356
100
AcDbEntity
  8
HIDDEN
100
AcDbLine
 10
11.93721773706885
 20
-0.6563324921418463
 30
0.0
 11
11.99816223356145
 21
-0.6563324921418463
 31
0.0
  0
LINE
  5
87
330
356
100
AcDbEntity
  8
OBJECT
100
AcDbLine
 10
11.93721773706885
 20
-0.6563324921418463
 30
0.0
 11
11.79623943590883
 21
-0.6563324921418463
 31
0.0
  0
ARC
  5
88
330
356
100
AcDbEntity
  8
OBJECT
100
AcDbCircle
 10
11.77559235923522
 20
-0.6868758349500328
 30
0.0
 40
0.0139999999999994
100
AcDbArc
 50
246.1207189245814
 51
336.1207189245829
  0
ARC
  5
89
330
356
100
AcDbEntity
  8
OBJECT
100
AcDbCircle
 10
11.77262055793488
 20
-0.6855601993502805
 30
0.0
 40
0.0139999999999997
100
AcDbArc
 50
156.1207189245801
 51
246.1207189245814
  0
LINE
  5
8A
330
356
100
AcDbEntity
  8
OBJECT
100
AcDbLine
 10
11.75162205271695
 20
-0.6563324921418463
 30
0.0
 11
11.7595610318169
 21
-0.6906048774940034
 31
0.0
  0
LINE
  5
8B
330
356
100
AcDbEntity
  8
HIDDEN
  6
HIDDEN2
100
AcDbLine
 10
12.16860497383436
 20
-0.6563324921418463
 30
0.0
 11
12.05268799471183
 21
-0.6563324921418463
 31
0.0
  0
ARC
  5
8C
330
356
100
AcDbEntity
  8
HIDDEN
  6
HIDDEN2
100
AcDbCircle
 10
12.03162096031877
 20
-0.6888141457588395
 30
0.0
 40
0.0139999999999994
100
AcDbArc
 50
246.1207189245814
 51
336.1207189245829
  0
ARC
  5
8D
330
356
100
AcDbEntity
  8
HIDDEN
  6
HIDDEN2
100
AcDbCircle
 10
12.18585497383436
 20
-0.6908324921418468
 30
0.0
 40
0.0139999999999994
100
AcDbArc
 50
270.0
 51
0.0000000000013631
  0
LINE
  5
8E
330
356
100
AcDbEntity
  8
HIDDEN
  6
HIDDEN2
100
AcDbLine
 10
12.18585497383436
 20
-0.7048324921418463
 30
0.0
 11
12.18260497383436
 21
-0.7048324921418463
 31
0.0
  0
ARC
  5
8F
330
356
100
AcDbEntity
  8
HIDDEN
  6
HIDDEN2
100
AcDbCircle
 10
12.18260497383436
 20
-0.6908324921418468
 30
0.0
 40
0.0139999999999997
100
AcDbArc
 50
179.9999999999986
 51
270.0
  0
LINE
  5
90
330
356
100
AcDbEntity
  8
HIDDEN
  6
HIDDEN2
100
AcDbLine
 10
12.26235497383436
 20
-0.7485824921418463
 30
0.0
 11
12.19985497383436
 21
-0.7485824921418463
 31
0.0
  0
LINE
  5
91
330
356
100
AcDbEntity
  8
OBJECT
100
AcDbLine
 10
11.87325442986344
 20
-0.1563324921418467
 30
0.0
 11
11.64812172826236
 21
-0.1563324921418472
 31
0.0
  0
ARC
  5
92
330
356
100
AcDbEntity
  8
OBJECT
100
AcDbCircle
 10
11.32485497383436
 20
-0.2188324921418467
 30
0.0
 40
0.0625
100
AcDbArc
 50
90.0
 51
180.0
  0
ARC
  5
93
330
356
100
AcDbEntity
  8
OBJECT
100
AcDbCircle
 10
11.13172628459856
 20
-0.1000174447025541
 30
0.0
 40
0.0139999999999994
100
AcDbArc
 50
23.87928107541759
 51
113.8792810754185
  0
LINE
  5
94
330
356
100
AcDbEntity
  8
OBJECT
100
AcDbLine
 10
11.12605893124579
 20
-0.0872158391011162
 30
0.0
 11
11.12308712994545
 21
-0.0885314747008685
 31
0.0
  0
ARC
  5
95
330
356
100
AcDbEntity
  8
OBJECT
100
AcDbCircle
 10
11.12875448329823
 20
-0.1013330803023065
 30
0.0
 40
0.0139999999999998
100
AcDbArc
 50
113.8792810754185
 51
203.8792810754193
  0
LINE
  5
96
330
356
100
AcDbEntity
  8
OBJECT
100
AcDbLine
 10
11.1321340783833
 20
-0.1768542950151235
 30
0.0
 11
11.14185805954827
 21
-0.2188324921418463
 31
0.0
  0
LINE
  5
97
330
356
100
AcDbEntity
  8
OBJECT
100
AcDbLine
 10
11.26235497383436
 20
-0.2188324921418463
 30
0.0
 11
11.12303901073379
 21
-0.2188324921418463
 31
0.0
  0
LINE
  5
98
330
356
100
AcDbEntity
  8
OBJECT
100
AcDbLine
 10
11.17269764049813
 20
-0.2188324921418463
 30
0.0
 11
11.1445278902
 21
-0.094350091349777
 31
0.0
  0
ARC
  5
99
330
356
100
AcDbEntity
  8
OBJECT
100
AcDbCircle
 10
11.64029584443223
 20
-0.1126677870078607
 30
0.0
 40
0.0139999999999994
100
AcDbArc
 50
66.12071892458148
 51
156.1207189245824
  0
LINE
  5
9A
330
356
100
AcDbEntity
  8
OBJECT
100
AcDbLine
 10
11.645963197785
 20
-0.0998661814064228
 30
0.0
 11
11.64893499908534
 21
-0.1011818170061751
 31
0.0
  0
ARC
  5
9B
330
356
100
AcDbEntity
  8
OBJECT
100
AcDbCircle
 10
11.64326764573256
 20
-0.1139834226076131
 30
0.0
 40
0.0139999999999998
100
AcDbArc
 50
336.1207189245805
 51
66.12071892458148
  0
LINE
  5
9C
330
356
100
AcDbEntity
  8
OBJECT
100
AcDbLine
 10
11.38182961181279
 20
-0.0998661814064228
 30
0.0
 11
11.37885781051245
 21
-0.1011818170061751
 31
0.0
  0
ARC
  5
9D
330
356
100
AcDbEntity
  8
OBJECT
100
AcDbCircle
 10
11.38749696516556
 20
-0.1126677870078607
 30
0.0
 40
0.0139999999999994
100
AcDbArc
 50
23.87928107541759
 51
113.8792810754185
  0
LINE
  5
9E
330
356
100
AcDbEntity
  8
OBJECT
100
AcDbLine
 10
11.6670521420414
 20
-0.1563324921418463
 30
0.0
 11
11.65632717185055
 21
-0.1089387444638903
 31
0.0
  0
LINE
  5
9F
330
356
100
AcDbEntity
  8
OBJECT
100
AcDbLine
 10
11.36094994696967
 20
-0.1563324921418472
 30
0.0
 11
11.32485497383436
 21
-0.1563324921418467
 31
0.0
  0
LINE
  5
A0
330
356
100
AcDbEntity
  8
OBJECT
100
AcDbLine
 10
11.41146217108658
 20
-0.1563324921418467
 30
0.0
 11
11.400298570767
 21
-0.1070004336550836
 31
0.0
  0
LINE
  5
A1
330
356
100
AcDbEntity
  8
OBJECT
100
AcDbLine
 10
11.61680587106044
 20
-0.1563324921418472
 30
0.0
 11
11.38961020299665
 21
-0.1563324921418472
 31
0.0
  0
LINE
  5
A2
330
356
100
AcDbEntity
  8
HIDDEN
  6
HIDDEN2
100
AcDbLine
 10
12.12970298866643
 20
-0.1563324921418463
 30
0.0
 11
11.94940661520116
 21
-0.1563324921418463
 31
0.0
  0
LINE
  5
A3
330
356
100
AcDbEntity
  8
OBJECT
100
AcDbLine
 10
11.93721773706885
 20
-0.1563324921418463
 30
0.0
 11
11.90457028706535
 21
-0.1563324921418463
 31
0.0
  0
ARC
  5
A4
330
356
100
AcDbEntity
  8
OBJECT
100
AcDbCircle
 10
11.89632444551578
 20
-0.1146060978166674
 30
0.0
 40
0.0139999999999994
100
AcDbArc
 50
66.12071892458148
 51
156.1207189245824
  0
LINE
  5
A5
330
356
100
AcDbEntity
  8
OBJECT
100
AcDbLine
 10
11.90199179886855
 20
-0.1018044922152295
 30
0.0
 11
11.90496360016888
 21
-0.1031201278149818
 31
0.0
  0
ARC
  5
A6
330
356
100
AcDbEntity
  8
OBJECT
100
AcDbCircle
 10
11.89929624681611
 20
-0.1159217334164198
 30
0.0
 40
0.0139999999999998
100
AcDbArc
 50
336.1207189245805
 51
66.12071892458148
  0
LINE
  5
A7
330
356
100
AcDbEntity
  8
OBJECT
100
AcDbLine
 10
11.9226421129962
 20
-0.1563324921418463
 30
0.0
 11
11.91235577293409
 21
-0.110877055272697
 31
0.0
  0
LINE
  5
A8
330
356
100
AcDbEntity
  8
HIDDEN
  6
HIDDEN2
100
AcDbLine
 10
12.16860497383436
 20
-0.1563324921418463
 30
0.0
 11
12.16101884586835
 21
-0.1563324921418463
 31
0.0
  0
ARC
  5
A9
330
356
100
AcDbEntity
  8
HIDDEN
  6
HIDDEN2
100
AcDbCircle
 10
12.15532484789966
 20
-0.1178600442252264
 30
0.0
 40
0.0139999999999998
100
AcDbArc
 50
336.1207189245805
 51
66.12071892458148
  0
LINE
  5
AA
330
356
100
AcDbEntity
  8
HIDDEN
  6
HIDDEN2
100
AcDbLine
 10
12.1580203999521
 20
-0.1037428030240362
 30
0.0
 11
12.16099220125244
 21
-0.1050584386237885
 31
0.0
  0
ARC
  5
AB
330
356
100
AcDbEntity
  8
HIDDEN
  6
HIDDEN2
100
AcDbCircle
 10
12.15235304659932
 20
-0.1165444086254741
 30
0.0
 40
0.0139999999999994
100
AcDbArc
 50
66.12071892458148
 51
156.1207189245824
  0
ARC
  5
AC
330
356
100
AcDbEntity
  8
HIDDEN
  6
HIDDEN2
100
AcDbCircle
 10
12.18260497383436
 20
-0.1188324921418458
 30
0.0
 40
0.0139999999999994
100
AcDbArc
 50
90.0
 51
180.0000000000009
  0
LINE
  5
AD
330
356
100
AcDbEntity
  8
HIDDEN
  6
HIDDEN2
100
AcDbLine
 10
12.18260497383436
 20
-0.1048324921418464
 30
0.0
 11
12.18585497383436
 21
-0.1048324921418464
 31
0.0
  0
ARC
  5
AE
330
356
100
AcDbEntity
  8
HIDDEN
  6
HIDDEN2
100
AcDbCircle
 10
12.18585497383436
 20
-0.1188324921418458
 30
0.0
 40
0.0139999999999998
100
AcDbArc
 50
359.9999999999988
 51
90.0
  0
LINE
  5
AF
330
356
100
AcDbEntity
  8
HIDDEN
  6
HIDDEN2
100
AcDbLine
 10
12.19985497383436
 20
-0.0610824921418463
 30
0.0
 11
12.26235497383436
 21
-0.0610824921418463
 31
0.0
  0
CIRCLE
  5
B0
330
356
100
AcDbEntity
  8
OBJECT
100
AcDbCircle
 10
9.971749090565264
 20
3.490627610954339
 30
0.0
 40
0.5
  0
LINE
  5
B1
330
356
100
AcDbEntity
  8
OBJECT
100
AcDbLine
 10
10.86018219712979
 20
3.303127610954339
 30
0.0
 11
11.01047501516448
 21
3.303127610954339
 31
0.0
  0
LINE
  5
B2
330
356
100
AcDbEntity
  8
OBJECT
100
AcDbLine
 10
11.09172315353188
 20
3.678127610954337
 30
0.0
 11
10.86018219712979
 21
3.678127610954337
 31
0.0
  0
ARC
  5
B3
330
356
100
AcDbEntity
  8
OBJECT
100
AcDbCircle
 10
11.4006176778161
 20
3.498678349884435
 30
0.0
 40
1.137499999999999
100
AcDbArc
 50
86.31945101019148
 51
120.3076658180792
  0
LINE
  5
B4
330
356
100
AcDbEntity
  8
OBJECT
100
AcDbLine
 10
10.86018219712979
 20
3.777309327135794
 30
0.0
 11
10.8831570080095
 21
3.678127610954337
 31
0.0
  0
LINE
  5
B5
330
356
100
AcDbEntity
  8
OBJECT
100
AcDbLine
 10
10.91406425016927
 20
3.678127610954339
 30
0.0
 11
10.888757209633
 21
3.7899596694411
 31
0.0
  0
LINE
  5
B6
330
356
100
AcDbEntity
  8
OBJECT
100
AcDbLine
 10
10.82893219712979
 20
3.205309327135794
 30
0.0
 11
10.82893219712979
 21
3.777309327135794
 31
0.0
  0
LINE
  5
B7
330
356
100
AcDbEntity
  8
OBJECT
100
AcDbLine
 10
10.86018219712979
 20
3.777309327135794
 30
0.0
 11
10.86018219712979
 21
3.205309327135794
 31
0.0
  0
LINE
  5
B8
330
356
100
AcDbEntity
  8
OBJECT
100
AcDbLine
 10
10.43526149600874
 20
3.303127610954339
 30
0.0
 11
10.82893219712979
 21
3.303127610954339
 31
0.0
  0
LINE
  5
B9
330
356
100
AcDbEntity
  8
OBJECT
100
AcDbLine
 10
10.82893219712979
 20
3.678127610954337
 30
0.0
 11
10.43526149600874
 21
3.678127610954337
 31
0.0
  0
ARC
  5
BA
330
356
100
AcDbEntity
  8
OBJECT
100
AcDbCircle
 10
10.84618219712979
 20
3.205309327135794
 30
0.0
 40
0.0139999999999994
100
AcDbArc
 50
270.0
 51
0.0000000000013631
  0
LINE
  5
BB
330
356
100
AcDbEntity
  8
OBJECT
100
AcDbLine
 10
10.83600450349351
 20
3.194094196599428
 30
0.0
 11
10.83303270219318
 21
3.195409832199183
 31
0.0
  0
LINE
  5
BC
330
356
100
AcDbEntity
  8
OBJECT
100
AcDbLine
 10
10.84618219712979
 20
3.191309327135793
 30
0.0
 11
10.84293219712978
 21
3.191309327135793
 31
0.0
  0
ARC
  5
BD
330
356
100
AcDbEntity
  8
OBJECT
100
AcDbCircle
 10
10.84293219712978
 20
3.205309327135794
 30
0.0
 40
0.0139999999999997
100
AcDbArc
 50
179.9999999999986
 51
270.0
  0
ARC
  5
BE
330
356
100
AcDbEntity
  8
OBJECT
100
AcDbCircle
 10
10.8581263063574
 20
4.426755993130328
 30
0.0
 40
0.0625
100
AcDbArc
 50
120.3076658180785
 51
213.6406953120224
  0
ARC
  5
BF
330
356
100
AcDbEntity
  8
OBJECT
100
AcDbCircle
 10
10.84618219712979
 20
3.777309327135794
 30
0.0
 40
0.0139999999999998
100
AcDbArc
 50
359.9999999999988
 51
90.0
  0
ARC
  5
C0
330
356
100
AcDbEntity
  8
OBJECT
100
AcDbCircle
 10
10.84293219712978
 20
3.777309327135794
 30
0.0
 40
0.0139999999999994
100
AcDbArc
 50
90.0
 51
180.0000000000009
  0
LINE
  5
C1
330
356
100
AcDbEntity
  8
OBJECT
100
AcDbLine
 10
10.84293219712978
 20
3.791309327135793
 30
0.0
 11
10.84618219712979
 21
3.791309327135793
 31
0.0
  0
ARC
  5
C2
330
356
100
AcDbEntity
  8
OBJECT
100
AcDbCircle
 10
10.87595560403156
 20
3.784292316088323
 30
0.0
 40
0.0139999999999994
100
AcDbArc
 50
23.87928107541759
 51
113.8792810754185
  0
LINE
  5
C3
330
356
100
AcDbEntity
  8
OBJECT
100
AcDbLine
 10
10.87028825067879
 20
3.797093921689761
 30
0.0
 11
10.86731644937845
 21
3.795778286090008
 31
0.0
  0
ARC
  5
C4
330
356
100
AcDbEntity
  8
OBJECT
100
AcDbCircle
 10
10.87298380273123
 20
3.782976680488569
 30
0.0
 40
0.0139999999999998
100
AcDbArc
 50
113.8792810754185
 51
203.8792810754193
  0
LINE
  5
C5
330
356
100
AcDbEntity
  8
OBJECT
100
AcDbLine
 10
10.80609330793307
 20
4.392132055240879
 30
0.0
 11
10.87433382189651
 21
4.289579925934451
 31
0.0
  0
LINE
  5
C6
330
356
100
AcDbEntity
  8
OBJECT
100
AcDbLine
 10
11.1445278902
 20
3.777309327135794
 30
0.0
 11
11.02082400261911
 21
3.206355225602181
 31
0.0
  0
LINE
  5
C7
330
356
100
AcDbEntity
  8
OBJECT
100
AcDbLine
 10
11.17269764049813
 20
3.678127610954337
 30
0.0
 11
11.1445278902
 21
3.802610011746408
 31
0.0
  0
LINE
  5
C8
330
356
100
AcDbEntity
  8
OBJECT
100
AcDbLine
 10
11.400298570767
 20
3.7899596694411
 30
0.0
 11
11.27659468318611
 21
3.219005567907489
 31
0.0
  0
LINE
  5
C9
330
356
100
AcDbEntity
  8
OBJECT
100
AcDbLine
 10
11.2480196706829
 20
3.231655910212796
 30
0.0
 11
11.37146563774725
 21
3.788021358632295
 31
0.0
  0
LINE
  5
CA
330
356
100
AcDbEntity
  8
OBJECT
100
AcDbLine
 10
10.9922489901159
 20
3.219005567907489
 30
0.0
 11
11.11595287769679
 21
3.7899596694411
 31
0.0
  0
LINE
  5
CB
330
356
100
AcDbEntity
  8
OBJECT
100
AcDbLine
 10
11.656069251334
 20
3.777309327135794
 30
0.0
 11
11.53236536375311
 21
3.206355225602183
 31
0.0
  0
LINE
  5
CC
330
356
100
AcDbEntity
  8
OBJECT
100
AcDbLine
 10
11.5037903512499
 20
3.219005567907489
 30
0.0
 11
11.62749423883079
 21
3.7899596694411
 31
0.0
  0
LINE
  5
CD
330
356
100
AcDbEntity
  8
OBJECT
100
AcDbLine
 10
11.91209785241754
 20
3.775371016326988
 30
0.0
 11
11.78839396483666
 21
3.204416914793374
 31
0.0
  0
LINE
  5
CE
330
356
100
AcDbEntity
  8
OBJECT
100
AcDbLine
 10
11.75981895233345
 20
3.217067257098682
 30
0.0
 11
11.88352283991434
 21
3.788021358632295
 31
0.0
  0
LINE
  5
CF
330
356
100
AcDbEntity
  8
OBJECT
100
AcDbLine
 10
12.16812645350109
 20
3.773432705518181
 30
0.0
 11
12.0444225659202
 21
3.202478603984568
 31
0.0
  0
LINE
  5
D0
330
356
100
AcDbEntity
  8
OBJECT
100
AcDbLine
 10
12.01584755341699
 20
3.215128946289874
 30
0.0
 11
12.13955144099789
 21
3.786083047823488
 31
0.0
  0
LINE
  5
D1
330
356
100
AcDbEntity
  8
OBJECT
100
AcDbLine
 10
12.16860497383436
 20
3.206127610954339
 30
0.0
 11
12.16860497383436
 21
3.778127610954338
 31
0.0
  0
LINE
  5
D2
330
356
100
AcDbEntity
  8
OBJECT
100
AcDbLine
 10
12.19985497383436
 20
3.778127610954338
 30
0.0
 11
12.19985497383436
 21
3.206127610954339
 31
0.0
  0
ARC
  5
D3
330
356
100
AcDbEntity
  8
OBJECT
100
AcDbCircle
 10
11.32485497383436
 20
3.678127610954337
 30
0.0
 40
0.0625
100
AcDbArc
 50
90.0
 51
180.0
  0
LINE
  5
D4
330
356
100
AcDbEntity
  8
OBJECT
100
AcDbLine
 10
12.19985497383436
 20
3.148377610954337
 30
0.0
 11
12.19985497383436
 21
3.835877610954339
 31
0.0
  0
LINE
  5
D5
330
356
100
AcDbEntity
  8
OBJECT
100
AcDbLine
 10
12.26235497383436
 20
3.835877610954339
 30
0.0
 11
12.26235497383436
 21
3.148377610954337
 31
0.0
  0
LINE
  5
D6
330
356
100
AcDbEntity
  8
OBJECT
100
AcDbLine
 10
11.76492357870691
 20
3.240627610954339
 30
0.0
 11
11.53979087710584
 21
3.240627610954339
 31
0.0
  0
ARC
  5
D7
330
356
100
AcDbEntity
  8
OBJECT
100
AcDbCircle
 10
11.32485497383436
 20
3.303127610954339
 30
0.0
 40
0.0625
100
AcDbArc
 50
229.7634780343314
 51
270.0
  0
LINE
  5
D8
330
356
100
AcDbEntity
  8
OBJECT
100
AcDbLine
 10
11.0417908723664
 20
3.303127610954339
 30
0.0
 11
11.26235497383436
 21
3.303127610954339
 31
0.0
  0
LINE
  5
D9
330
356
100
AcDbEntity
  8
OBJECT
100
AcDbLine
 10
11.26235497383436
 20
3.678127610954337
 30
0.0
 11
11.12303901073379
 21
3.678127610954337
 31
0.0
  0
LINE
  5
DA
330
356
100
AcDbEntity
  8
OBJECT
100
AcDbLine
 10
11.2287244136667
 20
3.303127610954339
 30
0.0
 11
11.24776175016636
 21
3.220943878716294
 31
0.0
  0
LINE
  5
DB
330
356
100
AcDbEntity
  8
OBJECT
100
AcDbLine
 10
11.1321340783833
 20
3.720105808081061
 30
0.0
 11
11.14185805954827
 21
3.678127610954337
 31
0.0
  0
LINE
  5
DC
330
356
100
AcDbEntity
  8
OBJECT
100
AcDbLine
 10
11.26074915331103
 20
3.289027118677275
 30
0.0
 11
11.25755828179828
 21
3.303127610954339
 31
0.0
  0
LINE
  5
DD
330
356
100
AcDbEntity
  8
OBJECT
100
AcDbLine
 10
10.97002336212795
 20
3.303127610954339
 30
0.0
 11
10.99199106959936
 21
3.208293536410988
 31
0.0
  0
LINE
  5
DE
330
356
100
AcDbEntity
  8
OBJECT
100
AcDbLine
 10
11.00482554829094
 20
3.277052551018837
 30
0.0
 11
10.99892489146943
 21
3.303127610954339
 31
0.0
  0
ARC
  5
DF
330
356
100
AcDbEntity
  8
OBJECT
100
AcDbCircle
 10
11.32485497383436
 20
3.303127610954339
 30
0.0
 40
0.0625
100
AcDbArc
 50
180.0
 51
185.225631442014
  0
ARC
  5
E0
330
356
100
AcDbEntity
  8
OBJECT
100
AcDbCircle
 10
11.00505059571734
 20
3.213338214554711
 30
0.0
 40
0.0139999999999997
100
AcDbArc
 50
156.1207189245801
 51
246.1207189245814
  0
ARC
  5
E1
330
356
100
AcDbEntity
  8
OBJECT
100
AcDbCircle
 10
11.00802239701767
 20
3.212022578954958
 30
0.0
 40
0.0139999999999994
100
AcDbArc
 50
246.1207189245814
 51
336.1207189245829
  0
ARC
  5
E2
330
356
100
AcDbEntity
  8
OBJECT
100
AcDbCircle
 10
11.26379307758467
 20
3.224672921260264
 30
0.0
 40
0.0139999999999994
100
AcDbArc
 50
246.1207189245814
 51
336.1207189245829
  0
ARC
  5
E3
330
356
100
AcDbEntity
  8
OBJECT
100
AcDbCircle
 10
11.26082127628434
 20
3.225988556860018
 30
0.0
 40
0.0139999999999997
100
AcDbArc
 50
156.1207189245801
 51
246.1207189245814
  0
LINE
  5
E4
330
356
100
AcDbEntity
  8
OBJECT
100
AcDbLine
 10
11.26235497383436
 20
3.303127610954339
 30
0.0
 11
11.26235497383436
 21
3.678127610954337
 31
0.0
  0
LINE
  5
E5
330
356
100
AcDbEntity
  8
OBJECT
100
AcDbLine
 10
11.49604244894836
 20
3.240627610954339
 30
0.0
 11
11.50353243073336
 21
3.208293536410988
 31
0.0
  0
LINE
  5
E6
330
356
100
AcDbEntity
  8
OBJECT
100
AcDbLine
 10
11.50847501990392
 20
3.240627610954339
 30
0.0
 11
11.32485497383436
 21
3.240627610954339
 31
0.0
  0
ARC
  5
E7
330
356
100
AcDbEntity
  8
OBJECT
100
AcDbCircle
 10
11.51659195685134
 20
3.213338214554711
 30
0.0
 40
0.0139999999999997
100
AcDbArc
 50
156.1207189245801
 51
246.1207189245814
  0
ARC
  5
E8
330
356
100
AcDbEntity
  8
OBJECT
100
AcDbCircle
 10
11.51956375815166
 20
3.21202257895496
 30
0.0
 40
0.0139999999999994
100
AcDbArc
 50
246.1207189245814
 51
336.1207189245829
  0
ARC
  5
E9
330
356
100
AcDbEntity
  8
OBJECT
100
AcDbCircle
 10
12.00459472046553
 20
2.647428801013798
 30
0.0
 40
0.03125
100
AcDbArc
 50
213.6406953120213
 51
305.3563942060392
  0
LINE
  5
EA
330
356
100
AcDbEntity
  8
OBJECT
100
AcDbLine
 10
11.94393776445122
 20
2.682174655184394
 30
0.0
 11
11.97857822125336
 21
2.630116832069075
 31
0.0
  0
ARC
  5
EB
330
356
100
AcDbEntity
  8
OBJECT
100
AcDbCircle
 10
11.96995426366338
 20
2.699486624129115
 30
0.0
 40
0.03125
100
AcDbArc
 50
125.4657102551463
 51
213.6406953120206
  0
LINE
  5
EC
330
356
100
AcDbEntity
  8
OBJECT
100
AcDbLine
 10
12.0213721375099
 20
3.240627610954339
 30
0.0
 11
11.79623943590883
 21
3.240627610954339
 31
0.0
  0
LINE
  5
ED
330
356
100
AcDbEntity
  8
OBJECT
100
AcDbLine
 10
11.75162205271695
 20
3.240627610954339
 30
0.0
 11
11.7595610318169
 21
3.206355225602181
 31
0.0
  0
LINE
  5
EE
330
356
100
AcDbEntity
  8
OBJECT
100
AcDbLine
 10
12.00720165648552
 20
3.240627610954339
 30
0.0
 11
12.01558963290045
 21
3.204416914793374
 31
0.0
  0
ARC
  5
EF
330
356
100
AcDbEntity
  8
OBJECT
100
AcDbCircle
 10
11.77262055793488
 20
3.211399903745904
 30
0.0
 40
0.0139999999999997
100
AcDbArc
 50
156.1207189245801
 51
246.1207189245814
  0
ARC
  5
F0
330
356
100
AcDbEntity
  8
OBJECT
100
AcDbCircle
 10
11.77559235923522
 20
3.210084268146152
 30
0.0
 40
0.0139999999999994
100
AcDbArc
 50
246.1207189245814
 51
336.1207189245829
  0
ARC
  5
F1
330
356
100
AcDbEntity
  8
OBJECT
100
AcDbCircle
 10
12.02864915901843
 20
3.209461592937098
 30
0.0
 40
0.0139999999999997
100
AcDbArc
 50
156.1207189245801
 51
246.1207189245814
  0
LINE
  5
F2
330
356
100
AcDbEntity
  8
OBJECT
100
AcDbLine
 10
12.16860497383436
 20
3.240627610954339
 30
0.0
 11
12.05268799471183
 21
3.240627610954339
 31
0.0
  0
ARC
  5
F3
330
356
100
AcDbEntity
  8
OBJECT
100
AcDbCircle
 10
12.03162096031877
 20
3.208145957337345
 30
0.0
 40
0.0139999999999994
100
AcDbArc
 50
246.1207189245814
 51
336.1207189245829
  0
ARC
  5
F4
330
356
100
AcDbEntity
  8
OBJECT
100
AcDbCircle
 10
12.18585497383436
 20
3.206127610954339
 30
0.0
 40
0.0139999999999994
100
AcDbArc
 50
270.0
 51
0.0000000000013631
  0
LINE
  5
F5
330
356
100
AcDbEntity
  8
OBJECT
100
AcDbLine
 10
12.18585497383436
 20
3.192127610954338
 30
0.0
 11
12.18260497383436
 21
3.192127610954338
 31
0.0
  0
ARC
  5
F6
330
356
100
AcDbEntity
  8
OBJECT
100
AcDbCircle
 10
12.18260497383436
 20
3.206127610954339
 30
0.0
 40
0.0139999999999997
100
AcDbArc
 50
179.9999999999986
 51
270.0
  0
LINE
  5
F7
330
356
100
AcDbEntity
  8
OBJECT
100
AcDbLine
 10
12.26235497383436
 20
3.303127610954339
 30
0.0
 11
12.33027347890805
 21
3.303127610954339
 31
0.0
  0
LINE
  5
F8
330
356
100
AcDbEntity
  8
OBJECT
100
AcDbLine
 10
12.33351529422504
 20
3.678127610954337
 30
0.0
 11
12.26235497383436
 21
3.678127610954337
 31
0.0
  0
LINE
  5
F9
330
356
100
AcDbEntity
  8
OBJECT
100
AcDbLine
 10
12.26235497383436
 20
3.148377610954337
 30
0.0
 11
12.19985497383436
 21
3.148377610954337
 31
0.0
  0
LINE
  5
FA
330
356
100
AcDbEntity
  8
OBJECT
100
AcDbLine
 10
11.87325442986344
 20
3.740627610954337
 30
0.0
 11
11.64812172826236
 21
3.740627610954337
 31
0.0
  0
ARC
  5
FB
330
356
100
AcDbEntity
  8
OBJECT
100
AcDbCircle
 10
11.12875448329823
 20
3.795627022793877
 30
0.0
 40
0.0139999999999998
100
AcDbArc
 50
113.8792810754185
 51
203.8792810754193
  0
LINE
  5
FC
330
356
100
AcDbEntity
  8
OBJECT
100
AcDbLine
 10
11.12605893124579
 20
3.809744263995068
 30
0.0
 11
11.12308712994545
 21
3.808428628395316
 31
0.0
  0
ARC
  5
FD
330
356
100
AcDbEntity
  8
OBJECT
100
AcDbCircle
 10
11.13172628459856
 20
3.796942658393631
 30
0.0
 40
0.0139999999999994
100
AcDbArc
 50
23.87928107541759
 51
113.8792810754185
  0
LINE
  5
FE
330
356
100
AcDbEntity
  8
OBJECT
100
AcDbLine
 10
11.61680587106044
 20
3.740627610954337
 30
0.0
 11
11.38961020299665
 21
3.740627610954337
 31
0.0
  0
LINE
  5
FF
330
356
100
AcDbEntity
  8
OBJECT
100
AcDbLine
 10
11.41146217108658
 20
3.740627610954337
 30
0.0
 11
11.400298570767
 21
3.7899596694411
 31
0.0
  0
LINE
  5
100
330
356
100
AcDbEntity
  8
OBJECT
100
AcDbLine
 10
11.36094994696967
 20
3.740627610954337
 30
0.0
 11
11.32485497383436
 21
3.740627610954337
 31
0.0
  0
LINE
  5
101
330
356
100
AcDbEntity
  8
OBJECT
100
AcDbLine
 10
11.6670521420414
 20
3.740627610954337
 30
0.0
 11
11.65632717185055
 21
3.788021358632295
 31
0.0
  0
ARC
  5
102
330
356
100
AcDbEntity
  8
OBJECT
100
AcDbCircle
 10
11.38749696516556
 20
3.784292316088323
 30
0.0
 40
0.0139999999999994
100
AcDbArc
 50
23.87928107541759
 51
113.8792810754185
  0
LINE
  5
103
330
356
100
AcDbEntity
  8
OBJECT
100
AcDbLine
 10
11.38182961181279
 20
3.797093921689763
 30
0.0
 11
11.37885781051245
 21
3.795778286090011
 31
0.0
  0
ARC
  5
104
330
356
100
AcDbEntity
  8
OBJECT
100
AcDbCircle
 10
11.64326764573256
 20
3.782976680488573
 30
0.0
 40
0.0139999999999998
100
AcDbArc
 50
336.1207189245805
 51
66.12071892458148
  0
LINE
  5
105
330
356
100
AcDbEntity
  8
OBJECT
100
AcDbLine
 10
11.645963197785
 20
3.797093921689763
 30
0.0
 11
11.64893499908534
 21
3.795778286090011
 31
0.0
  0
ARC
  5
106
330
356
100
AcDbEntity
  8
OBJECT
100
AcDbCircle
 10
11.64029584443223
 20
3.784292316088323
 30
0.0
 40
0.0139999999999994
100
AcDbArc
 50
66.12071892458148
 51
156.1207189245824
  0
LINE
  5
107
330
356
100
AcDbEntity
  8
HIDDEN
  6
HIDDEN2
100
AcDbLine
 10
11.2443676778161
 20
4.625395788952456
 30
0.0
 11
11.3537426778161
 21
4.508832220262539
 31
0.0
  0
LINE
  5
108
330
356
100
AcDbEntity
  8
HIDDEN
  6
HIDDEN2
100
AcDbLine
 10
11.3537426778161
 20
4.508832220262539
 30
0.0
 11
11.3537426778161
 21
4.447521189544938
 31
0.0
  0
LINE
  5
109
330
356
100
AcDbEntity
  8
HIDDEN
  6
HIDDEN2
100
AcDbLine
 10
11.44749267781611
 20
4.508832220262539
 30
0.0
 11
11.44749267781611
 21
4.447521189544938
 31
0.0
  0
LINE
  5
10A
330
356
100
AcDbEntity
  8
HIDDEN
  6
HIDDEN2
100
AcDbLine
 10
11.5568676778161
 20
4.633832220262539
 30
0.0
 11
11.44749267781611
 21
4.508832220262539
 31
0.0
  0
POLYLINE
  5
10B
330
356
100
AcDbEntity
  8
OBJECT
100
AcDb2dPolyline
 66
     1
 10
0.0
 20
0.0
 30
0.0
  0
VERTEX
  5
316
330
10B
100
AcDbEntity
  8
OBJECT
100
AcDbVertex
100
AcDb2dVertex
 10
11.32759753973348
 20
4.633832220262539
 30
0.0
  0
VERTEX
  5
317
330
10B
100
AcDbEntity
  8
OBJECT
100
AcDbVertex
100
AcDb2dVertex
 10
11.32759753973348
 20
4.633832220262539
 30
0.0
  0
SEQEND
  5
318
330
10B
100
AcDbEntity
  8
OBJECT
  0
LINE
  5
10F
330
356
100
AcDbEntity
  8
OBJECT
100
AcDbLine
 10
12.12970298866643
 20
3.740627610954337
 30
0.0
 11
11.90457028706535
 21
3.740627610954337
 31
0.0
  0
LINE
  5
110
330
356
100
AcDbEntity
  8
OBJECT
100
AcDbLine
 10
11.9226421129962
 20
3.740627610954337
 30
0.0
 11
11.91235577293409
 21
3.786083047823488
 31
0.0
  0
ARC
  5
111
330
356
100
AcDbEntity
  8
OBJECT
100
AcDbCircle
 10
11.89929624681611
 20
3.781038369679765
 30
0.0
 40
0.0139999999999998
100
AcDbArc
 50
336.1207189245805
 51
66.12071892458148
  0
LINE
  5
112
330
356
100
AcDbEntity
  8
OBJECT
100
AcDbLine
 10
11.90199179886855
 20
3.795155610880955
 30
0.0
 11
11.90496360016888
 21
3.793839975281203
 31
0.0
  0
ARC
  5
113
330
356
100
AcDbEntity
  8
OBJECT
100
AcDbCircle
 10
11.89632444551578
 20
3.782354005279517
 30
0.0
 40
0.0139999999999994
100
AcDbArc
 50
66.12071892458148
 51
156.1207189245824
  0
LINE
  5
114
330
356
100
AcDbEntity
  8
OBJECT
100
AcDbLine
 10
12.16860497383436
 20
3.740627610954337
 30
0.0
 11
12.16101884586835
 21
3.740627610954337
 31
0.0
  0
ARC
  5
115
330
356
100
AcDbEntity
  8
OBJECT
100
AcDbCircle
 10
12.15532484789966
 20
3.779100058870958
 30
0.0
 40
0.0139999999999998
100
AcDbArc
 50
336.1207189245805
 51
66.12071892458148
  0
LINE
  5
116
330
356
100
AcDbEntity
  8
OBJECT
100
AcDbLine
 10
12.1580203999521
 20
3.793217300072151
 30
0.0
 11
12.16099220125244
 21
3.791901664472396
 31
0.0
  0
ARC
  5
117
330
356
100
AcDbEntity
  8
OBJECT
100
AcDbCircle
 10
12.15235304659932
 20
3.780415694470712
 30
0.0
 40
0.0139999999999994
100
AcDbArc
 50
66.12071892458148
 51
156.1207189245824
  0
ARC
  5
118
330
356
100
AcDbEntity
  8
OBJECT
100
AcDbCircle
 10
12.18260497383436
 20
3.778127610954338
 30
0.0
 40
0.0139999999999994
100
AcDbArc
 50
90.0
 51
180.0000000000009
  0
LINE
  5
119
330
356
100
AcDbEntity
  8
OBJECT
100
AcDbLine
 10
12.18260497383436
 20
3.792127610954337
 30
0.0
 11
12.18585497383436
 21
3.792127610954337
 31
0.0
  0
ARC
  5
11A
330
356
100
AcDbEntity
  8
OBJECT
100
AcDbCircle
 10
12.18585497383436
 20
3.778127610954338
 30
0.0
 40
0.0139999999999998
100
AcDbArc
 50
359.9999999999988
 51
90.0
  0
LINE
  5
11B
330
356
100
AcDbEntity
  8
OBJECT
100
AcDbLine
 10
12.19985497383436
 20
3.835877610954339
 30
0.0
 11
12.26235497383436
 21
3.835877610954339
 31
0.0
  0
ARC
  5
11C
330
356
100
AcDbEntity
  8
OBJECT
100
AcDbCircle
 10
12.2905752320995
 20
4.256660243846236
 30
0.0
 40
0.094
100
AcDbArc
 50
100.3212613542721
 51
220.4212247607297
  0
LINE
  5
11E
330
356
100
AcDbEntity
  8
OBJECT
100
AcDbLine
 10
14.40461777287491
 20
0.9703100223149927
 30
0.0
 11
14.40461777287491
 21
-1.779689977685004
 31
0.0
  0
LINE
  5
11F
330
356
100
AcDbEntity
  8
OBJECT
100
AcDbLine
 10
13.14391873587299
 20
-0.5938324921418463
 30
0.0
 11
13.14391873587299
 21
-1.904689977685004
 31
0.0
  0
LINE
  5
120
330
356
100
AcDbEntity
  8
OBJECT
100
AcDbLine
 10
12.47352930091216
 20
1.095310022314992
 30
0.0
 11
12.47352930091216
 21
-1.904689977685004
 31
0.0
  0
ARC
  5
121
330
356
100
AcDbEntity
  8
OBJECT
100
AcDbCircle
 10
14.27961777287491
 20
-1.779689977685004
 30
0.0
 40
0.125
100
AcDbArc
 50
270.0
 51
0.0000000000000382
  0
CIRCLE
  5
122
330
356
100
AcDbEntity
  8
OBJECT
100
AcDbCircle
 10
13.83811767781611
 20
-0.4063324921418463
 30
0.0
 40
0.375
  0
LINE
  5
123
330
356
100
AcDbEntity
  8
HIDDEN
  6
HIDDEN2
100
AcDbLine
 10
13.14391873587299
 20
-0.2188324921418463
 30
0.0
 11
13.14391873587299
 21
-0.5938324921418463
 31
0.0
  0
ARC
  5
124
330
356
100
AcDbEntity
  8
OBJECT
100
AcDbCircle
 10
13.28574909056527
 20
-0.4048324921418466
 30
0.0
 40
0.186
100
AcDbArc
 50
0.0
 51
90.0
  0
LINE
  5
125
330
356
100
AcDbEntity
  8
OBJECT
100
AcDbLine
 10
12.45768196559803
 20
-0.5938324921418463
 30
0.0
 11
13.28574909056526
 21
-0.5938324921418463
 31
0.0
  0
LINE
  5
126
330
356
100
AcDbEntity
  8
HIDDEN
  6
HIDDEN2
100
AcDbLine
 10
12.47352930091216
 20
-1.401895702045286
 30
0.0
 11
12.38931420387966
 21
-1.328207492141846
 31
0.0
  0
LINE
  5
127
330
356
100
AcDbEntity
  8
HIDDEN
  6
HIDDEN2
100
AcDbLine
 10
12.47352930091216
 20
-1.155436007629534
 30
0.0
 11
12.38931420387966
 21
-1.234457492141846
 31
0.0
  0
ARC
  5
128
330
356
100
AcDbEntity
  8
OBJECT
100
AcDbCircle
 10
13.28574909056526
 20
-0.4078324921418466
 30
0.0
 40
0.186
100
AcDbArc
 50
270.0
 51
0.0
  0
LINE
  5
129
330
356
100
AcDbEntity
  8
OBJECT
100
AcDbLine
 10
13.47174909056526
 20
-0.4078324921418466
 30
0.0
 11
13.47174909056527
 21
-0.4048324921418466
 31
0.0
  0
LINE
  5
12A
330
356
100
AcDbEntity
  8
OBJECT
100
AcDbLine
 10
13.28574909056527
 20
-0.2188324921418463
 30
0.0
 11
12.46053416636673
 21
-0.2188324921418463
 31
0.0
  0
LINE
  5
12B
330
356
100
AcDbEntity
  8
HIDDEN
  6
HIDDEN2
100
AcDbLine
 10
12.47352930091216
 20
0.3481042979547134
 30
0.0
 11
12.38931420387966
 21
0.421792507858152
 31
0.0
  0
LINE
  5
12C
330
356
100
AcDbEntity
  8
HIDDEN
  6
HIDDEN2
100
AcDbLine
 10
12.47352930091216
 20
0.5945639923704658
 30
0.0
 11
12.38931420387966
 21
0.515542507858152
 31
0.0
  0
LINE
  5
12D
330
356
100
AcDbEntity
  8
OBJECT
100
AcDbLine
 10
13.14391873587299
 20
1.095310022314992
 30
0.0
 11
13.14391873587299
 21
-0.2188324921418463
 31
0.0
  0
ARC
  5
12E
330
356
100
AcDbEntity
  8
OBJECT
100
AcDbCircle
 10
14.27961777287491
 20
0.9703100223149927
 30
0.0
 40
0.125
100
AcDbArc
 50
0.0
 51
90.0
  0
ARC
  5
12F
330
356
100
AcDbEntity
  8
OBJECT
100
AcDbCircle
 10
13.83811767781611
 20
4.571332220262539
 30
0.0
 40
0.125
100
AcDbArc
 50
30.00000000000014
 51
149.9999999999998
  0
LINE
  5
130
330
356
100
AcDbEntity
  8
OBJECT
100
AcDbLine
 10
13.4631176778161
 20
4.508832220262539
 30
0.0
 11
14.21311767781611
 21
4.508832220262539
 31
0.0
  0
LINE
  5
131
330
356
100
AcDbEntity
  8
OBJECT
100
AcDbLine
 10
14.21311767781611
 20
4.383832220262539
 30
0.0
 11
13.4631176778161
 21
4.383832220262539
 31
0.0
  0
LINE
  5
132
330
356
100
AcDbEntity
  8
OBJECT
100
AcDbLine
 10
14.36936767781611
 20
4.508832220262539
 30
0.0
 11
13.1506176778161
 21
4.508832220262539
 31
0.0
  0
LINE
  5
133
330
356
100
AcDbEntity
  8
OBJECT
100
AcDbLine
 10
12.45768196559803
 20
3.303127610954339
 30
0.0
 11
13.28574909056526
 21
3.303127610954339
 31
0.0
  0
LINE
  5
134
330
356
100
AcDbEntity
  8
OBJECT
100
AcDbLine
 10
13.28574909056527
 20
3.678127610954337
 30
0.0
 11
12.46053416636673
 21
3.678127610954337
 31
0.0
  0
LINE
  5
135
330
356
100
AcDbEntity
  8
HIDDEN
  6
HIDDEN2
100
AcDbLine
 10
12.4684249468168
 20
3.374530710884343
 30
0.0
 11
12.38931420387966
 21
3.443752610954339
 31
0.0
  0
LINE
  5
136
330
356
100
AcDbEntity
  8
HIDDEN
  6
HIDDEN2
100
AcDbLine
 10
12.46954454761531
 20
3.612785085098816
 30
0.0
 11
12.38931420387966
 21
3.537502610954339
 31
0.0
  0
ARC
  5
137
330
356
100
AcDbEntity
  8
OBJECT
100
AcDbCircle
 10
13.28574909056526
 20
3.489127610954337
 30
0.0
 40
0.186
100
AcDbArc
 50
270.0
 51
0.0
  0
ARC
  5
138
330
356
100
AcDbEntity
  8
OBJECT
100
AcDbCircle
 10
13.28574909056527
 20
3.492127610954339
 30
0.0
 40
0.186
100
AcDbArc
 50
0.0
 51
90.0
  0
LINE
  5
139
330
356
100
AcDbEntity
  8
OBJECT
100
AcDbLine
 10
13.47174909056526
 20
3.489127610954337
 30
0.0
 11
13.47174909056527
 21
3.492127610954339
 31
0.0
  0
LINE
  5
13A
330
356
100
AcDbEntity
  8
OBJECT
100
AcDbLine
 10
13.4631176778161
 20
4.383832220262539
 30
0.0
 11
13.4631176778161
 21
4.508832220262539
 31
0.0
  0
LINE
  5
13B
330
356
100
AcDbEntity
  8
HIDDEN
  6
HIDDEN2
100
AcDbLine
 10
13.7756176778161
 20
4.633832220262539
 30
0.0
 11
13.7756176778161
 21
4.508832220262539
 31
0.0
  0
LINE
  5
13C
330
356
100
AcDbEntity
  8
OBJECT
100
AcDbLine
 10
14.21311767781611
 20
4.508832220262539
 30
0.0
 11
14.21311767781611
 21
4.383832220262539
 31
0.0
  0
LINE
  5
13D
330
356
100
AcDbEntity
  8
HIDDEN
  6
HIDDEN2
100
AcDbLine
 10
13.90061767781611
 20
4.633832220262539
 30
0.0
 11
13.90061767781611
 21
4.508832220262539
 31
0.0
  0
ARC
  5
13E
330
356
100
AcDbEntity
  8
OBJECT
100
AcDbCircle
 10
14.36936767781611
 20
4.540082220262539
 30
0.0
 40
0.03125
100
AcDbArc
 50
270.0
 51
0.0
  0
LINE
  5
13F
330
356
100
AcDbEntity
  8
OBJECT
100
AcDbLine
 10
14.4006176778161
 20
4.602582220262539
 30
0.0
 11
14.4006176778161
 21
4.540082220262539
 31
0.0
  0
ARC
  5
140
330
356
100
AcDbEntity
  8
OBJECT
100
AcDbCircle
 10
14.36936767781611
 20
4.602582220262539
 30
0.0
 40
0.03125
100
AcDbArc
 50
0.0
 51
90.0
  0
ENDSEC
  0
SECTION
  2
OBJECTS
  0
DICTIONARY
  5
32C
330
0
100
AcDbDictionary
281
     1
  3
ACAD_2007HEADERVARS_RT
350
577
  3
ACAD_COLOR
350
34F
  3
ACAD_GROUP
350
32D
  3
ACAD_LAYOUT
350
34E
  3
ACAD_MATERIAL
350
330
  3
ACAD_MLEADERSTYLE
350
445
  3
ACAD_MLINESTYLE
350
34B
  3
ACAD_PLOTSETTINGS
350
34D
  3
ACAD_PLOTSTYLENAME
350
32E
  3
ACAD_SCALELIST
350
423
  3
ACAD_TABLESTYLE
350
350
  3
ACAD_VISUALSTYLE
350
334
  3
ACDB_RECOMPOSE_DATA
350
4CC
  3
AcDbVariableDictionary
350
420
  3
AcmDictionary
350
3C5
  3
AMG
350
36A
  3
AMGSNAPSETTINGS
350
404
  3
DWGPROPS
350
576
  0
DICTIONARY
  5
4C2
330
345
100
AcDbDictionary
280
     1
281
     1
  3
ADSK_XREC_LAYER_RECONCILED
360
4C3
  0
DICTIONARY
  5
4C4
330
35A
100
AcDbDictionary
280
     1
281
     1
  3
ADSK_XREC_LAYER_RECONCILED
360
4C5
  0
DICTIONARY
  5
4C6
330
35D
100
AcDbDictionary
280
     1
281
     1
  3
ADSK_XREC_LAYER_RECONCILED
360
4C7
  0
DICTIONARY
  5
4C8
330
35E
100
AcDbDictionary
280
     1
281
     1
  3
ADSK_XREC_LAYER_RECONCILED
360
4C9
  0
DICTIONARY
  5
577
102
{ACAD_REACTORS
330
32C
102
}
330
32C
100
AcDbDictionary
281
     1
  3
DIMARCSYM
350
578
  0
DICTIONARY
  5
34F
102
{ACAD_REACTORS
330
32C
102
}
330
32C
100
AcDbDictionary
281
     1
  0
DICTIONARY
  5
32D
102
{ACAD_REACTORS
330
32C
102
}
330
32C
100
AcDbDictionary
281
     1
  0
DICTIONARY
  5
34E
102
{ACAD_REACTORS
330
32C
102
}
330
32C
100
AcDbDictionary
281
     1
  3
Layout1
350
355
  3
Model
350
359
  0
DICTIONARY
  5
330
102
{ACAD_REACTORS
330
32C
102
}
330
32C
100
AcDbDictionary
281
     1
  3
ByBlock
350
332
  3
ByLayer
350
331
  3
Global
350
333
  0
DICTIONARY
  5
445
102
{ACAD_REACTORS
330
32C
102
}
330
32C
100
AcDbDictionary
281
     1
  3
Standard
350
446
  0
DICTIONARY
  5
34B
102
{ACAD_REACTORS
330
32C
102
}
330
32C
100
AcDbDictionary
281
     1
  3
Standard
350
34C
  0
DICTIONARY
  5
34D
102
{ACAD_REACTORS
330
32C
102
}
330
32C
100
AcDbDictionary
281
     1
  0
ACDBDICTIONARYWDFLT
  5
32E
102
{ACAD_REACTORS
330
32C
102
}
330
32C
100
AcDbDictionary
281
     1
  3
Normal
350
32F
100
AcDbDictionaryWithDefault
340
32F
  0
DICTIONARY
  5
423
102
{ACAD_REACTORS
330
32C
102
}
330
32C
100
AcDbDictionary
281
     1
  3
A0
350
424
  3
A1
350
425
  3
A2
350
426
  3
A3
350
427
  3
A4
350
428
  3
A5
350
429
  3
A6
350
42A
  3
A7
350
42B
  3
A8
350
42C
  3
A9
350
42D
  3
B0
350
42E
  3
B1
350
42F
  3
B2
350
430
  3
B3
350
431
  3
B4
350
432
  3
B5
350
433
  3
B6
350
434
  3
B7
350
435
  3
B8
350
436
  3
B9
350
437
  3
C0
350
438
  3
C1
350
439
  3
C2
350
43A
  3
C3
350
43B
  3
C4
350
43C
  3
C5
350
43D
  3
C6
350
43E
  3
C7
350
43F
  3
C8
350
440
  3
C9
350
441
  3
D0
350
442
  3
D1
350
443
  3
D2
350
444
  0
DICTIONARY
  5
350
102
{ACAD_REACTORS
330
32C
102
}
330
32C
100
AcDbDictionary
281
     1
  3
Standard
350
4F5
  0
DICTIONARY
  5
334
102
{ACAD_REACTORS
330
32C
102
}
330
32C
100
AcDbDictionary
281
     1
  3
2dWireframe
350
33A
  3
3D Hidden
350
33C
  3
3dWireframe
350
33B
  3
Basic
350
339
  3
Brighten
350
340
  3
ColorChange
350
344
  3
Conceptual
350
33D
  3
Dim
350
33F
  3
Facepattern
350
343
  3
Flat
350
335
  3
FlatWithEdges
350
336
  3
Gouraud
350
337
  3
GouraudWithEdges
350
338
  3
Linepattern
350
342
  3
Realistic
350
33E
  3
Thicken
350
341
  0
XRECORD
  5
4CC
102
{ACAD_REACTORS
330
32C
102
}
330
32C
100
AcDbXrecord
280
     1
 90
        1
330
351
  0
DICTIONARY
  5
420
102
{ACAD_REACTORS
330
32C
102
}
330
32C
100
AcDbDictionary
281
     1
  3
CANNOSCALE
350
4E3
  3
CMLEADERSTYLE
350
4E2
  3
CTABLESTYLE
350
421
  3
DIMASSOC
350
4E6
  3
INDEXCTL
350
4E5
  3
SORTENTS
350
4E4
  0
DICTIONARY
  5
3C5
102
{ACAD_REACTORS
330
32C
102
}
330
32C
100
AcDbDictionary
281
     1
  3
AcmStdDictionary
350
3D0
  3
AMDTSECTSYM_ARROWCOLOR
350
3EF
  0
DICTIONARY
  5
36A
102
{ACAD_REACTORS
330
32C
102
}
330
32C
100
AcDbDictionary
281
     1
  0
DICTIONARY
  5
404
102
{ACAD_REACTORS
330
32C
102
}
330
32C
100
AcDbDictionary
281
     1
  0
XRECORD
  5
576
102
{ACAD_REACTORS
330
32C
102
}
330
32C
100
AcDbXrecord
280
     1
  1
DWGPROPS COOKIE
  2

  3

  4

  6

  7

  8
rflom
  9

300
=
301
=
302
=
303
=
304
=
305
=
306
=
307
=
308
=
309
=
 40
0.0618472916666667
 41
2450280.612363032
 42
2454475.474839792
  1

 90
        0
  0
XRECORD
  5
4C3
102
{ACAD_REACTORS
330
4C2
102
}
330
4C2
100
AcDbXrecord
280
     1
290
     1
  0
XRECORD
  5
4C5
102
{ACAD_REACTORS
330
4C4
102
}
330
4C4
100
AcDbXrecord
280
     1
290
     1
  0
XRECORD
  5
4C7
102
{ACAD_REACTORS
330
4C6
102
}
330
4C6
100
AcDbXrecord
280
     1
290
     1
  0
XRECORD
  5
4C9
102
{ACAD_REACTORS
330
4C8
102
}
330
4C8
100
AcDbXrecord
280
     1
290
     1
  0
XRECORD
  5
578
102
{ACAD_REACTORS
330
577
102
}
330
577
100
AcDbXrecord
280
     1
 70
     1
  0
LAYOUT
  5
355
102
{ACAD_XDICTIONARY
360
579
102
}
102
{ACAD_REACTORS
330
34E
102
}
330
34E
100
AcDbPlotSettings
  1

  2
HP LaserJet 2100 PCL6
  4

  6

 40
0.0
 41
0.0
 42
0.0
 43
0.0
 44
0.0
 45
0.0
 46
0.0
 47
0.0
 48
0.0
 49
0.0
140
0.0
141
0.0
142
1.0
143
1.0
 70
   688
 72
     0
 73
     0
 74
     5
  7

 75
    16
147
1.0
148
0.0
149
0.0
100
AcDbLayout
  1
Layout1
 70
     1
 71
     1
 10
0.0
 20
0.0
 11
12.0
 21
9.0
 12
0.0
 22
0.0
 32
0.0
 14
1.000000000000000E+20
 24
1.000000000000000E+20
 34
1.000000000000000E+20
 15
-1.000000000000000E+20
 25
-1.000000000000000E+20
 35
-1.000000000000000E+20
146
0.0
 13
0.0
 23
0.0
 33
0.0
 16
1.0
 26
0.0
 36
0.0
 17
0.0
 27
1.0
 37
0.0
 76
     0
330
352
  0
LAYOUT
  5
359
102
{ACAD_XDICTIONARY
360
57B
102
}
102
{ACAD_REACTORS
330
34E
102
}
330
34E
100
AcDbPlotSettings
  1

  2
HP LaserJet 2100 PCL6
  4

  6

 40
0.0
 41
0.0
 42
0.0
 43
0.0
 44
0.0
 45
0.0
 46
0.0
 47
0.0
 48
0.0
 49
0.0
140
0.0
141
0.0
142
1.0
143
1.0
 70
  1712
 72
     0
 73
     0
 74
     0
  7

 75
     0
147
1.0
148
0.0
149
0.0
100
AcDbLayout
  1
Model
 70
     1
 71
     0
 10
0.0
 20
0.0
 11
12.0
 21
9.0
 12
0.0
 22
0.0
 32
0.0
 14
0.0
 24
0.0
 34
0.0
 15
0.0
 25
0.0
 35
0.0
146
0.0
 13
0.0
 23
0.0
 33
0.0
 16
1.0
 26
0.0
 36
0.0
 17
0.0
 27
1.0
 37
0.0
 76
     0
330
356
331
35B
  0
MATERIAL
  5
332
102
{ACAD_XDICTIONARY
360
4EB
102
}
102
{ACAD_REACTORS
330
330
102
}
330
330
100
AcDbMaterial
  1
ByBlock
  0
MATERIAL
  5
331
102
{ACAD_XDICTIONARY
360
4ED
102
}
102
{ACAD_REACTORS
330
330
102
}
330
330
100
AcDbMaterial
  1
ByLayer
  0
MATERIAL
  5
333
102
{ACAD_XDICTIONARY
360
4EF
102
}
102
{ACAD_REACTORS
330
330
102
}
330
330
100
AcDbMaterial
  1
Global
  0
ACAD_PROXY_OBJECT
  5
446
102
{ACAD_REACTORS
330
445
102
}
330
445
100
AcDbProxyObject
 90
      499
 91
      574
 95
       23
 70
     0
 93
      618
310
40901902A4063FBFFFFFE056BD1B81E855B9FC0AD7A3703D0AD73F4254DD185B99185C990000AD7A3703D0AC73F90141901A02B5E8DC0F42B1CFC02B5E8DC0F42B1CFE5764000000000000300FFF
340
348
340
0
340
346
340
0
 94
        0
1001
ACAD_MLEADERVER
1070
     2
1001
ACAD
1000
AcRTDxfName
1000
MLEADERSTYLE
  0
MLINESTYLE
  5
34C
102
{ACAD_REACTORS
330
34B
102
}
330
34B
100
AcDbMlineStyle
  2
STANDARD
 70
     0
  3

 62
   256
 51
90.0
 52
90.0
 71
     2
 49
0.5
 62
   256
  6
BYLAYER
 49
-0.5
 62
   256
  6
BYLAYER
  0
ACDBPLACEHOLDER
  5
32F
102
{ACAD_REACTORS
330
32E
102
}
330
32E
  0
ACAD_PROXY_OBJECT
  5
424
102
{ACAD_REACTORS
330
423
102
}
330
423
100
AcDbProxyObject
 90
      499
 91
      573
 95
       23
 70
     0
 93
       49
310
904313A31005FF
 94
        0
1001
ACAD
1000
AcRTDxfName
1000
SCALE
  0
ACAD_PROXY_OBJECT
  5
425
102
{ACAD_REACTORS
330
423
102
}
330
423
100
AcDbProxyObject
 90
      499
 91
      573
 95
       23
 70
     0
 93
      113
310
904313A3200400000000000000407F
 94
        0
1001
ACAD
1000
AcRTDxfName
1000
SCALE
  0
ACAD_PROXY_OBJECT
  5
426
102
{ACAD_REACTORS
330
423
102
}
330
423
100
AcDbProxyObject
 90
      499
 91
      573
 95
       23
 70
     0
 93
      113
310
904313A3400400000000000010407F
 94
        0
1001
ACAD
1000
AcRTDxfName
1000
SCALE
  0
ACAD_PROXY_OBJECT
  5
427
102
{ACAD_REACTORS
330
423
102
}
330
423
100
AcDbProxyObject
 90
      499
 91
      573
 95
       23
 70
     0
 93
      113
310
904313A3500400000000000014407F
 94
        0
1001
ACAD
1000
AcRTDxfName
1000
SCALE
  0
ACAD_PROXY_OBJECT
  5
428
102
{ACAD_REACTORS
330
423
102
}
330
423
100
AcDbProxyObject
 90
      499
 91
      573
 95
       23
 70
     0
 93
      113
310
904313A3800400000000000020407F
 94
        0
1001
ACAD
1000
AcRTDxfName
1000
SCALE
  0
ACAD_PROXY_OBJECT
  5
429
102
{ACAD_REACTORS
330
423
102
}
330
423
100
AcDbProxyObject
 90
      499
 91
      573
 95
       23
 70
     0
 93
      121
310
905313A313000400000000000024407F
 94
        0
1001
ACAD
1000
AcRTDxfName
1000
SCALE
  0
ACAD_PROXY_OBJECT
  5
42A
102
{ACAD_REACTORS
330
423
102
}
330
423
100
AcDbProxyObject
 90
      499
 91
      573
 95
       23
 70
     0
 93
      121
310
905313A313600400000000000030407F
 94
        0
1001
ACAD
1000
AcRTDxfName
1000
SCALE
  0
ACAD_PROXY_OBJECT
  5
42B
102
{ACAD_REACTORS
330
423
102
}
330
423
100
AcDbProxyObject
 90
      499
 91
      573
 95
       23
 70
     0
 93
      121
310
905313A323000400000000000034407F
 94
        0
1001
ACAD
1000
AcRTDxfName
1000
SCALE
  0
ACAD_PROXY_OBJECT
  5
42C
102
{ACAD_REACTORS
330
423
102
}
330
423
100
AcDbProxyObject
 90
      499
 91
      573
 95
       23
 70
     0
 93
      121
310
905313A33300040000000000003E407F
 94
        0
1001
ACAD
1000
AcRTDxfName
1000
SCALE
  0
ACAD_PROXY_OBJECT
  5
42D
102
{ACAD_REACTORS
330
423
102
}
330
423
100
AcDbProxyObject
 90
      499
 91
      573
 95
       23
 70
     0
 93
      121
310
905313A343000400000000000044407F
 94
        0
1001
ACAD
1000
AcRTDxfName
1000
SCALE
  0
ACAD_PROXY_OBJECT
  5
42E
102
{ACAD_REACTORS
330
423
102
}
330
423
100
AcDbProxyObject
 90
      499
 91
      573
 95
       23
 70
     0
 93
      121
310
905313A353000400000000000049407F
 94
        0
1001
ACAD
1000
AcRTDxfName
1000
SCALE
  0
ACAD_PROXY_OBJECT
  5
42F
102
{ACAD_REACTORS
330
423
102
}
330
423
100
AcDbProxyObject
 90
      499
 91
      573
 95
       23
 70
     0
 93
      129
310
906313A31303000400000000000059407F
 94
        0
1001
ACAD
1000
AcRTDxfName
1000
SCALE
  0
ACAD_PROXY_OBJECT
  5
430
102
{ACAD_REACTORS
330
423
102
}
330
423
100
AcDbProxyObject
 90
      499
 91
      573
 95
       23
 70
     0
 93
      113
310
904323A3100000000000000001017F
 94
        0
1001
ACAD
1000
AcRTDxfName
1000
SCALE
  0
ACAD_PROXY_OBJECT
  5
431
102
{ACAD_REACTORS
330
423
102
}
330
423
100
AcDbProxyObject
 90
      499
 91
      573
 95
       23
 70
     0
 93
      113
310
904343A3100000000000000041017F
 94
        0
1001
ACAD
1000
AcRTDxfName
1000
SCALE
  0
ACAD_PROXY_OBJECT
  5
432
102
{ACAD_REACTORS
330
423
102
}
330
423
100
AcDbProxyObject
 90
      499
 91
      573
 95
       23
 70
     0
 93
      113
310
904383A3100000000000000081017F
 94
        0
1001
ACAD
1000
AcRTDxfName
1000
SCALE
  0
ACAD_PROXY_OBJECT
  5
433
102
{ACAD_REACTORS
330
423
102
}
330
423
100
AcDbProxyObject
 90
      499
 91
      573
 95
       23
 70
     0
 93
      121
310
90531303A3100000000000000091017F
 94
        0
1001
ACAD
1000
AcRTDxfName
1000
SCALE
  0
ACAD_PROXY_OBJECT
  5
434
102
{ACAD_REACTORS
330
423
102
}
330
423
100
AcDbProxyObject
 90
      499
 91
      573
 95
       23
 70
     0
 93
      129
310
9063130303A3100000000000000165017F
 94
        0
1001
ACAD
1000
AcRTDxfName
1000
SCALE
  0
ACAD_PROXY_OBJECT
  5
435
102
{ACAD_REACTORS
330
423
102
}
330
423
100
AcDbProxyObject
 90
      499
 91
      573
 95
       23
 70
     0
 93
      265
310
90F312F31323822203D2031272D302200000000000000200FC00000000000028407F
 94
        0
1001
ACAD
1000
AcRTDxfName
1000
SCALE
  0
ACAD_PROXY_OBJECT
  5
436
102
{ACAD_REACTORS
330
423
102
}
330
423
100
AcDbProxyObject
 90
      499
 91
      573
 95
       23
 70
     0
 93
      257
310
90E312F363422203D2031272D302200000000000000240FC00000000000028407F
 94
        0
1001
ACAD
1000
AcRTDxfName
1000
SCALE
  0
ACAD_PROXY_OBJECT
  5
437
102
{ACAD_REACTORS
330
423
102
}
330
423
100
AcDbProxyObject
 90
      499
 91
      573
 95
       23
 70
     0
 93
      257
310
90E312F333222203D2031272D302200000000000000280FC00000000000028407F
 94
        0
1001
ACAD
1000
AcRTDxfName
1000
SCALE
  0
ACAD_PROXY_OBJECT
  5
438
102
{ACAD_REACTORS
330
423
102
}
330
423
100
AcDbProxyObject
 90
      499
 91
      573
 95
       23
 70
     0
 93
      257
310
90E312F313622203D2031272D3022000000000000002C0FC00000000000028407F
 94
        0
1001
ACAD
1000
AcRTDxfName
1000
SCALE
  0
ACAD_PROXY_OBJECT
  5
439
102
{ACAD_REACTORS
330
423
102
}
330
423
100
AcDbProxyObject
 90
      499
 91
      573
 95
       23
 70
     0
 93
      257
310
90E332F333222203D2031272D3022000000000000002E0FC00000000000028407F
 94
        0
1001
ACAD
1000
AcRTDxfName
1000
SCALE
  0
ACAD_PROXY_OBJECT
  5
43A
102
{ACAD_REACTORS
330
423
102
}
330
423
100
AcDbProxyObject
 90
      499
 91
      573
 95
       23
 70
     0
 93
      249
310
90D312F3822203D2031272D302200000000000000300FC00000000000028407F
 94
        0
1001
ACAD
1000
AcRTDxfName
1000
SCALE
  0
ACAD_PROXY_OBJECT
  5
43B
102
{ACAD_REACTORS
330
423
102
}
330
423
100
AcDbProxyObject
 90
      499
 91
      573
 95
       23
 70
     0
 93
      257
310
90E332F313622203D2031272D302200000000000000320FC00000000000028407F
 94
        0
1001
ACAD
1000
AcRTDxfName
1000
SCALE
  0
ACAD_PROXY_OBJECT
  5
43C
102
{ACAD_REACTORS
330
423
102
}
330
423
100
AcDbProxyObject
 90
      499
 91
      573
 95
       23
 70
     0
 93
      249
310
90D312F3422203D2031272D302200000000000000340FC00000000000028407F
 94
        0
1001
ACAD
1000
AcRTDxfName
1000
SCALE
  0
ACAD_PROXY_OBJECT
  5
43D
102
{ACAD_REACTORS
330
423
102
}
330
423
100
AcDbProxyObject
 90
      499
 91
      573
 95
       23
 70
     0
 93
      249
310
90D332F3822203D2031272D302200000000000000360FC00000000000028407F
 94
        0
1001
ACAD
1000
AcRTDxfName
1000
SCALE
  0
ACAD_PROXY_OBJECT
  5
43E
102
{ACAD_REACTORS
330
423
102
}
330
423
100
AcDbProxyObject
 90
      499
 91
      573
 95
       23
 70
     0
 93
      249
310
90D312F3222203D2031272D302200000000000000380FC00000000000028407F
 94
        0
1001
ACAD
1000
AcRTDxfName
1000
SCALE
  0
ACAD_PROXY_OBJECT
  5
43F
102
{ACAD_REACTORS
330
423
102
}
330
423
100
AcDbProxyObject
 90
      499
 91
      573
 95
       23
 70
     0
 93
      249
310
90D332F3422203D2031272D3022000000000000003A0FC00000000000028407F
 94
        0
1001
ACAD
1000
AcRTDxfName
1000
SCALE
  0
ACAD_PROXY_OBJECT
  5
440
102
{ACAD_REACTORS
330
423
102
}
330
423
100
AcDbProxyObject
 90
      499
 91
      573
 95
       23
 70
     0
 93
      169
310
90B3122203D2031272D302200400000000000028407F
 94
        0
1001
ACAD
1000
AcRTDxfName
1000
SCALE
  0
ACAD_PROXY_OBJECT
  5
441
102
{ACAD_REACTORS
330
423
102
}
330
423
100
AcDbProxyObject
 90
      499
 91
      573
 95
       23
 70
     0
 93
      265
310
90F312D312F3222203D2031272D3022000000000000003E0FC00000000000028407F
 94
        0
1001
ACAD
1000
AcRTDxfName
1000
SCALE
  0
ACAD_PROXY_OBJECT
  5
442
102
{ACAD_REACTORS
330
423
102
}
330
423
100
AcDbProxyObject
 90
      499
 91
      573
 95
       23
 70
     0
 93
      233
310
90B3322203D2031272D3022000000000000000210000000000000028407F
 94
        0
1001
ACAD
1000
AcRTDxfName
1000
SCALE
  0
ACAD_PROXY_OBJECT
  5
443
102
{ACAD_REACTORS
330
423
102
}
330
423
100
AcDbProxyObject
 90
      499
 91
      573
 95
       23
 70
     0
 93
      233
310
90B3622203D2031272D3022000000000000000610000000000000028407F
 94
        0
1001
ACAD
1000
AcRTDxfName
1000
SCALE
  0
ACAD_PROXY_OBJECT
  5
444
102
{ACAD_REACTORS
330
423
102
}
330
423
100
AcDbProxyObject
 90
      499
 91
      573
 95
       23
 70
     0
 93
      257
310
90E31272D3022203D2031272D3022000000000000000A10000000000000028407F
 94
        0
1001
ACAD
1000
AcRTDxfName
1000
SCALE
  0
TABLESTYLE
  5
4F5
102
{ACAD_XDICTIONARY
360
57D
102
}
102
{ACAD_REACTORS
330
350
102
}
330
350
100
AcDbTableStyle
  3
Standard
 70
     0
 71
     0
 40
0.06
 41
0.06
280
     0
281
     0
  7
STANDARD
140
0.18
170
     2
 62
     0
 63
     7
283
     0
274
    -2
284
     1
 64
     0
275
    -2
285
     1
 65
     0
276
    -2
286
     1
 66
     0
277
    -2
287
     1
 67
     0
278
    -2
288
     1
 68
     0
279
    -2
289
     1
 69
     0
  7
STANDARD
140
0.25
170
     5
 62
     0
 63
     7
283
     0
274
    -2
284
     1
 64
     0
275
    -2
285
     1
 65
     0
276
    -2
286
     1
 66
     0
277
    -2
287
     1
 67
     0
278
    -2
288
     1
 68
     0
279
    -2
289
     1
 69
     0
  7
STANDARD
140
0.18
170
     5
 62
     0
 63
     7
283
     0
274
    -2
284
     1
 64
     0
275
    -2
285
     1
 65
     0
276
    -2
286
     1
 66
     0
277
    -2
287
     1
 67
     0
278
    -2
288
     1
 68
     0
279
    -2
289
     1
 69
     0
  0
VISUALSTYLE
  5
33A
102
{ACAD_REACTORS
330
334
102
}
330
334
100
AcDbVisualStyle
  2
2dWireframe
 70
     4
 71
     0
 72
     2
 73
     0
 90
        0
 40
-0.6
 41
-30.0
 62
     5
 63
     7
 74
     1
 91
        4
 64
     7
 65
   257
 75
     1
175
     1
 42
1.0
 92
        0
 66
   257
 43
1.0
 76
     1
 77
     6
 78
     2
 67
     7
 79
     5
170
     0
171
     0
290
     0
174
     0
 93
        1
 44
0.0
173
     0
291
     0
 45
0.0
1001
ACAD
1000
AcDbSavedByObjectVersion
1070
     0
1000
AcDbSavedByObjectVersion
1070
     0
  0
VISUALSTYLE
  5
33C
102
{ACAD_REACTORS
330
334
102
}
330
334
100
AcDbVisualStyle
  2
3D Hidden
 70
     6
 71
     1
 72
     2
 73
     2
 90
        0
 40
-0.6
 41
-30.0
 62
     5
 63
     7
 74
     2
 91
        2
 64
     7
 65
   257
 75
     2
175
     1
 42
40.0
 92
        0
 66
   257
 43
1.0
 76
     1
 77
     6
 78
     2
 67
     7
 79
     3
170
     0
171
     0
290
     0
174
     0
 93
        1
 44
0.0
173
     0
291
     0
 45
0.0
1001
ACAD
1000
AcDbSavedByObjectVersion
1070
     0
1000
AcDbSavedByObjectVersion
1070
     0
  0
VISUALSTYLE
  5
33B
102
{ACAD_REACTORS
330
334
102
}
330
334
100
AcDbVisualStyle
  2
3dWireframe
 70
     5
 71
     0
 72
     2
 73
     0
 90
        0
 40
-0.6
 41
-30.0
 62
     5
 63
     7
 74
     1
 91
        4
 64
     7
 65
   257
 75
     1
175
     1
 42
1.0
 92
        0
 66
   257
 43
1.0
 76
     1
 77
     6
 78
     2
 67
     7
 79
     5
170
     0
171
     0
290
     0
174
     0
 93
        1
 44
0.0
173
     0
291
     0
 45
0.0
1001
ACAD
1000
AcDbSavedByObjectVersion
1070
     0
1000
AcDbSavedByObjectVersion
1070
     0
  0
VISUALSTYLE
  5
339
102
{ACAD_REACTORS
330
334
102
}
330
334
100
AcDbVisualStyle
  2
Basic
 70
     7
 71
     1
 72
     0
 73
     1
 90
        0
 40
-0.6
 41
-30.0
 62
     5
 63
     7
 74
     0
 91
        4
 64
     7
 65
   257
 75
     1
175
     1
 42
1.0
 92
        8
 66
     7
 43
1.0
 76
     1
 77
     6
 78
     2
 67
     7
 79
     5
170
     0
171
     0
290
     0
174
     0
 93
        1
 44
0.0
173
     0
291
     1
 45
0.0
1001
ACAD
1000
AcDbSavedByObjectVersion
1070
     0
1000
AcDbSavedByObjectVersion
1070
     0
  0
VISUALSTYLE
  5
340
102
{ACAD_REACTORS
330
334
102
}
330
334
100
AcDbVisualStyle
  2
Brighten
 70
    12
 71
     2
 72
     2
 73
     0
 90
        0
 40
-0.6
 41
-30.0
 62
     5
 63
     7
 74
     1
 91
        4
 64
     7
 65
   257
 75
     1
175
     1
 42
1.0
 92
        8
 66
     7
 43
1.0
 76
     1
 77
     6
 78
     2
 67
     7
 79
     5
170
     0
171
     0
290
     0
174
     0
 93
        1
 44
50.0
173
     0
291
     1
 45
0.0
1001
ACAD
1000
AcDbSavedByObjectVersion
1070
     0
1000
AcDbSavedByObjectVersion
1070
     0
  0
VISUALSTYLE
  5
344
102
{ACAD_REACTORS
330
334
102
}
330
334
100
AcDbVisualStyle
  2
ColorChange
 70
    16
 71
     2
 72
     2
 73
     3
 90
        0
 40
-0.6
 41
-30.0
 62
     5
 63
     8
 74
     1
 91
        4
 64
     7
 65
   257
 75
     1
175
     1
 42
1.0
 92
        8
 66
     8
 43
1.0
 76
     1
 77
     6
 78
     2
 67
     7
 79
     5
170
     0
171
     0
290
     0
174
     0
 93
        1
 44
0.0
173
     0
291
     1
 45
0.0
1001
ACAD
1000
AcDbSavedByObjectVersion
1070
     0
1000
AcDbSavedByObjectVersion
1070
     0
  0
VISUALSTYLE
  5
33D
102
{ACAD_REACTORS
330
334
102
}
330
334
100
AcDbVisualStyle
  2
Conceptual
 70
     9
 71
     3
 72
     2
 73
     0
 90
        0
 40
-0.6
 41
-30.0
 62
     5
 63
     7
 74
     2
 91
        2
 64
     7
 65
   257
 75
     1
175
     1
 42
40.0
 92
        8
 66
     7
 43
1.0
 76
     1
 77
     6
 78
     2
 67
     7
 79
     3
170
     0
171
     0
290
     0
174
     0
 93
        1
 44
0.0
173
     0
291
     0
 45
0.0
1001
ACAD
1000
AcDbSavedByObjectVersion
1070
     0
1000
AcDbSavedByObjectVersion
1070
     0
  0
VISUALSTYLE
  5
33F
102
{ACAD_REACTORS
330
334
102
}
330
334
100
AcDbVisualStyle
  2
Dim
 70
    11
 71
     2
 72
     2
 73
     0
 90
        0
 40
-0.6
 41
-30.0
 62
     5
 63
     7
 74
     1
 91
        4
 64
     7
 65
   257
 75
     1
175
     1
 42
1.0
 92
        8
 66
     7
 43
1.0
 76
     1
 77
     6
 78
     2
 67
     7
 79
     5
170
     0
171
     0
290
     0
174
     0
 93
        1
 44
-50.0
173
     0
291
     1
 45
0.0
1001
ACAD
1000
AcDbSavedByObjectVersion
1070
     0
1000
AcDbSavedByObjectVersion
1070
     0
  0
VISUALSTYLE
  5
343
102
{ACAD_REACTORS
330
334
102
}
330
334
100
AcDbVisualStyle
  2
Facepattern
 70
    15
 71
     2
 72
     2
 73
     0
 90
        0
 40
-0.6
 41
-30.0
 62
     5
 63
     7
 74
     1
 91
        4
 64
     7
 65
   257
 75
     1
175
     1
 42
1.0
 92
        8
 66
     7
 43
1.0
 76
     1
 77
     6
 78
     2
 67
     7
 79
     5
170
     0
171
     0
290
     0
174
     0
 93
        1
 44
0.0
173
     0
291
     1
 45
0.0
1001
ACAD
1000
AcDbSavedByObjectVersion
1070
     0
1000
AcDbSavedByObjectVersion
1070
     0
  0
VISUALSTYLE
  5
335
102
{ACAD_REACTORS
330
334
102
}
330
334
100
AcDbVisualStyle
  2
Flat
 70
     0
 71
     2
 72
     1
 73
     1
 90
        2
 40
-0.6
 41
30.0
 62
     5
 63
     7
 74
     0
 91
        4
 64
     7
 65
   257
 75
     1
175
     1
 42
1.0
 92
        8
 66
     7
 43
1.0
 76
     1
 77
     6
 78
     2
 67
     7
 79
     5
170
     0
171
     0
290
     0
174
     0
 93
       13
 44
0.0
173
     0
291
     1
 45
0.0
1001
ACAD
1000
AcDbSavedByObjectVersion
1070
     0
1000
AcDbSavedByObjectVersion
1070
     0
  0
VISUALSTYLE
  5
336
102
{ACAD_REACTORS
330
334
102
}
330
334
100
AcDbVisualStyle
  2
FlatWithEdges
 70
     1
 71
     2
 72
     1
 73
     1
 90
        2
 40
-0.6
 41
30.0
 62
     5
 63
     7
 74
     1
 91
        4
 64
     7
 65
   257
 75
     1
175
     1
 42
1.0
 92
        0
 66
   257
 43
1.0
 76
     1
 77
     6
 78
     2
 67
     7
 79
     5
170
     0
171
     0
290
     0
174
     0
 93
       13
 44
0.0
173
     0
291
     1
 45
0.0
1001
ACAD
1000
AcDbSavedByObjectVersion
1070
     0
1000
AcDbSavedByObjectVersion
1070
     0
  0
VISUALSTYLE
  5
337
102
{ACAD_REACTORS
330
334
102
}
330
334
100
AcDbVisualStyle
  2
Gouraud
 70
     2
 71
     2
 72
     2
 73
     1
 90
        2
 40
-0.6
 41
30.0
 62
     5
 63
     7
 74
     0
 91
        4
 64
     7
 65
   257
 75
     1
175
     1
 42
1.0
 92
        0
 66
     7
 43
1.0
 76
     1
 77
     6
 78
     2
 67
     7
 79
     5
170
     0
171
     0
290
     0
174
     0
 93
       13
 44
0.0
173
     0
291
     1
 45
0.0
1001
ACAD
1000
AcDbSavedByObjectVersion
1070
     0
1000
AcDbSavedByObjectVersion
1070
     0
  0
VISUALSTYLE
  5
338
102
{ACAD_REACTORS
330
334
102
}
330
334
100
AcDbVisualStyle
  2
GouraudWithEdges
 70
     3
 71
     2
 72
     2
 73
     1
 90
        2
 40
-0.6
 41
30.0
 62
     5
 63
     7
 74
     1
 91
        4
 64
     7
 65
   257
 75
     1
175
     1
 42
1.0
 92
        0
 66
   257
 43
1.0
 76
     1
 77
     6
 78
     2
 67
     7
 79
     5
170
     0
171
     0
290
     0
174
     0
 93
       13
 44
0.0
173
     0
291
     1
 45
0.0
1001
ACAD
1000
AcDbSavedByObjectVersion
1070
     0
1000
AcDbSavedByObjectVersion
1070
     0
  0
VISUALSTYLE
  5
342
102
{ACAD_REACTORS
330
334
102
}
330
334
100
AcDbVisualStyle
  2
Linepattern
 70
    14
 71
     2
 72
     2
 73
     0
 90
        0
 40
-0.6
 41
-30.0
 62
     5
 63
     7
 74
     1
 91
        4
 64
     7
 65
   257
 75
     7
175
     7
 42
1.0
 92
        8
 66
     7
 43
1.0
 76
     1
 77
     6
 78
     2
 67
     7
 79
     5
170
     0
171
     0
290
     0
174
     0
 93
        1
 44
0.0
173
     0
291
     1
 45
0.0
1001
ACAD
1000
AcDbSavedByObjectVersion
1070
     0
1000
AcDbSavedByObjectVersion
1070
     0
  0
VISUALSTYLE
  5
33E
102
{ACAD_REACTORS
330
334
102
}
330
334
100
AcDbVisualStyle
  2
Realistic
 70
     8
 71
     2
 72
     2
 73
     0
 90
        0
 40
-0.6
 41
-30.0
 62
     5
 63
     7
 74
     1
 91
        0
 64
     7
 65
   257
 75
     1
175
     1
 42
1.0
 92
        8
 66
     8
 43
1.0
 76
     1
 77
     6
 78
     2
 67
     7
 79
     5
170
     0
171
     0
290
     0
174
     0
 93
       13
 44
0.0
173
     0
291
     0
 45
0.0
1001
ACAD
1000
AcDbSavedByObjectVersion
1070
     0
1000
AcDbSavedByObjectVersion
1070
     0
  0
VISUALSTYLE
  5
341
102
{ACAD_REACTORS
330
334
102
}
330
334
100
AcDbVisualStyle
  2
Thicken
 70
    13
 71
     2
 72
     2
 73
     0
 90
        0
 40
-0.6
 41
-30.0
 62
     5
 63
     7
 74
     1
 91
        4
 64
     7
 65
   257
 75
     1
175
     1
 42
1.0
 92
       12
 66
     7
 43
1.0
 76
     1
 77
     6
 78
     2
 67
     7
 79
     5
170
     0
171
     0
290
     0
174
     0
 93
        1
 44
0.0
173
     0
291
     1
 45
0.0
1001
ACAD
1000
AcDbSavedByObjectVersion
1070
     0
1000
AcDbSavedByObjectVersion
1070
     0
  0
DICTIONARYVAR
  5
4E3
102
{ACAD_REACTORS
330
420
102
}
330
420
100
DictionaryVariables
280
     0
  1
1:1
  0
DICTIONARYVAR
  5
4E2
102
{ACAD_REACTORS
330
420
102
}
330
420
100
DictionaryVariables
280
     0
  1
STANDARD
  0
DICTIONARYVAR
  5
421
102
{ACAD_REACTORS
330
420
102
}
330
420
100
DictionaryVariables
280
     0
  1
STANDARD
  0
DICTIONARYVAR
  5
4E6
102
{ACAD_REACTORS
330
420
102
}
330
420
100
DictionaryVariables
280
     0
  1
1
  0
DICTIONARYVAR
  5
4E5
102
{ACAD_REACTORS
330
420
102
}
330
420
100
DictionaryVariables
280
     0
  1
0
  0
DICTIONARYVAR
  5
4E4
102
{ACAD_REACTORS
330
420
102
}
330
420
100
DictionaryVariables
280
     0
  1
127
  0
DICTIONARY
  5
3D0
102
{ACAD_REACTORS
330
3C5
102
}
330
3C5
100
AcDbDictionary
281
     1
  0
XRECORD
  5
3EF
102
{ACAD_REACTORS
330
3C5
102
}
330
3C5
100
AcDbXrecord
280
     1
 90
-1023410169
  0
DICTIONARY
  5
579
330
355
100
AcDbDictionary
280
     1
281
     1
  3
ACAD_XREC_ROUNDTRIP
360
57A
  0
DICTIONARY
  5
57B
330
359
100
AcDbDictionary
280
     1
281
     1
  3
ACAD_XREC_ROUNDTRIP
360
57C
  0
DICTIONARY
  5
4EB
330
332
100
AcDbDictionary
280
     1
281
     1
  3
ACAD_XREC_ROUNDTRIP
360
4EC
  0
DICTIONARY
  5
4ED
330
331
100
AcDbDictionary
280
     1
281
     1
  3
ACAD_XREC_ROUNDTRIP
360
4EE
  0
DICTIONARY
  5
4EF
330
333
100
AcDbDictionary
280
     1
281
     1
  3
ACAD_XREC_ROUNDTRIP
360
4F0
  0
DICTIONARY
  5
57D
330
4F5
100
AcDbDictionary
280
     1
281
     1
  3
ACAD_XREC_ROUNDTRIP
360
57E
  0
XRECORD
  5
57A
102
{ACAD_REACTORS
330
579
102
}
330
579
100
AcDbXrecord
280
     1
102
SHADEPLOT
 70
     0
102
SHADEPLOTRESLEVEL
 70
     2
102
SHADEPLOTCUSTOMDPI
 70
   300
  0
XRECORD
  5
57C
102
{ACAD_REACTORS
330
57B
102
}
330
57B
100
AcDbXrecord
280
     1
102
SHADEPLOT
 70
     0
102
SHADEPLOTRESLEVEL
 70
     2
102
SHADEPLOTCUSTOMDPI
 70
   300
  0
XRECORD
  5
4EC
102
{ACAD_REACTORS
330
4EB
102
}
330
4EB
100
AcDbXrecord
280
     1
102
MATERIAL
148
0.0
149
0.0
149
0.0
 93
        0
 94
       63
282
     0
 72
     1
 77
     1
171
     1
175
     1
179
     1
273
     0
  0
XRECORD
  5
4EE
102
{ACAD_REACTORS
330
4ED
102
}
330
4ED
100
AcDbXrecord
280
     1
102
MATERIAL
148
0.0
149
0.0
149
0.0
 93
        0
 94
       63
282
     0
 72
     1
 77
     1
171
     1
175
     1
179
     1
273
     0
  0
XRECORD
  5
4F0
102
{ACAD_REACTORS
330
4EF
102
}
330
4EF
100
AcDbXrecord
280
     1
102
MATERIAL
148
0.0
149
0.0
149
0.0
 93
        0
 94
       63
282
     0
 72
     1
 77
     1
171
     1
175
     1
179
     1
273
     0
  0
XRECORD
  5
57E
102
{ACAD_REACTORS
330
57D
102
}
330
57D
100
AcDbXrecord
280
     1
102
ACAD_ROUNDTRIP_PRE2007_TABLESTYLE
 90
      512
 91
        0
  1

 92
      512
 93
        0
  2

 94
      512
 95
        0
  3

  0
ENDSEC
  0
EOF
