  0
SECTION
  2
HEADER
  9
$ACADVER
  1
AC1009
  9
$INSBASE
 10
0.0
 20
0.0
 30
0.0
  9
$EXTMIN
 10
11.53018825742757
 20
0.3107476651768555
 30
0.0
  9
$EXTMAX
 10
17.842688257427572
 20
9.8267244651550918
 30
0.0
  9
$LIMMIN
 10
0.0
 20
0.0
  9
$LIMMAX
 10
12.0
 20
9.0
  9
$ORTHOMODE
 70
     1
  9
$REGENMODE
 70
     0
  9
$FILLMODE
 70
     1
  9
$QTEXTMODE
 70
     0
  9
$MIRRTEXT
 70
     0
  9
$DRAGMODE
 70
     2
  9
$LTSCALE
 40
1.0
  9
$OSMODE
 70
    55
  9
$ATTMODE
 70
     1
  9
$TEXTSIZE
 40
0.2
  9
$TRACEWID
 40
0.05
  9
$TEXTSTYLE
  7
STANDARD
  9
$CLAYER
  8
0
  9
$CELTYPE
  6
BYLAYER
  9
$CECOLOR
 62
   256
  9
$DIMSCALE
 40
1.0
  9
$DIMASZ
 40
0.125
  9
$DIMEXO
 40
0.0625
  9
$DIMDLI
 40
0.38
  9
$DIMRND
 40
0.0
  9
$DIMDLE
 40
0.0
  9
$DIMEXE
 40
0.18
  9
$DIMTP
 40
0.0
  9
$DIMTM
 40
0.0
  9
$DIMTXT
 40
0.09375
  9
$DIMCEN
 40
-0.125
  9
$DIMTSZ
 40
0.0
  9
$DIMTOL
 70
     0
  9
$DIMLIM
 70
     0
  9
$DIMTIH
 70
     0
  9
$DIMTOH
 70
     0
  9
$DIMSE1
 70
     0
  9
$DIMSE2
 70
     0
  9
$DIMTAD
 70
     0
  9
$DIMZIN
 70
     3
  9
$DIMBLK
  1

  9
$DIMASO
 70
     0
  9
$DIMSHO
 70
     1
  9
$DIMPOST
  1

  9
$DIMAPOST
  1

  9
$DIMALT
 70
     0
  9
$DIMALTD
 70
     2
  9
$DIMALTF
 40
25.399999999999999
  9
$DIMLFAC
 40
1.0
  9
$DIMTOFL
 70
     1
  9
$DIMTVP
 40
0.0
  9
$DIMTIX
 70
     0
  9
$DIMSOXD
 70
     0
  9
$DIMSAH
 70
     0
  9
$DIMBLK1
  1

  9
$DIMBLK2
  1

  9
$DIMSTYLE
  2
STANDARD
  9
$DIMCLRD
 70
     0
  9
$DIMCLRE
 70
     0
  9
$DIMCLRT
 70
     0
  9
$DIMTFAC
 40
1.0
  9
$DIMGAP
 40
0.09
  9
$LUNITS
 70
     4
  9
$LUPREC
 70
     4
  9
$SKETCHINC
 40
0.1
  9
$FILLETRAD
 40
0.0
  9
$AUNITS
 70
     0
  9
$AUPREC
 70
     4
  9
$MENU
  1
.
  9
$ELEVATION
 40
0.0
  9
$PELEVATION
 40
0.0
  9
$THICKNESS
 40
0.0
  9
$LIMCHECK
 70
     0
  9
$BLIPMODE
 70
     0
  9
$CHAMFERA
 40
0.125
  9
$CHAMFERB
 40
0.5
  9
$SKPOLY
 70
     0
  9
$TDCREATE
 40
2451086.9109346061
  9
$TDUPDATE
 40
2453913.577502396
  9
$TDINDWG
 40
0.1248576505
  9
$TDUSRTIMER
 40
0.1248576505
  9
$USRTIMER
 70
     1
  9
$ANGBASE
 50
0.0
  9
$ANGDIR
 70
     0
  9
$PDMODE
 70
    34
  9
$PDSIZE
 40
3.0
  9
$PLINEWID
 40
0.0
  9
$COORDS
 70
     1
  9
$SPLFRAME
 70
     0
  9
$SPLINETYPE
 70
     6
  9
$SPLINESEGS
 70
     8
  9
$ATTDIA
 70
     0
  9
$ATTREQ
 70
     1
  9
$HANDLING
 70
     1
  9
$HANDSEED
  5
DAF
  9
$SURFTAB1
 70
     6
  9
$SURFTAB2
 70
     6
  9
$SURFTYPE
 70
     6
  9
$SURFU
 70
     6
  9
$SURFV
 70
     6
  9
$UCSNAME
  2

  9
$UCSORG
 10
0.0
 20
0.0
 30
0.0
  9
$UCSXDIR
 10
1.0
 20
0.0
 30
0.0
  9
$UCSYDIR
 10
0.0
 20
1.0
 30
0.0
  9
$PUCSNAME
  2

  9
$PUCSORG
 10
0.0
 20
0.0
 30
0.0
  9
$PUCSXDIR
 10
1.0
 20
0.0
 30
0.0
  9
$PUCSYDIR
 10
0.0
 20
1.0
 30
0.0
  9
$USERI1
 70
     0
  9
$USERI2
 70
     0
  9
$USERI3
 70
     0
  9
$USERI4
 70
     0
  9
$USERI5
 70
     0
  9
$USERR1
 40
0.0
  9
$USERR2
 40
0.0
  9
$USERR3
 40
0.0
  9
$USERR4
 40
0.0
  9
$USERR5
 40
0.0
  9
$WORLDVIEW
 70
     1
  9
$SHADEDGE
 70
     3
  9
$SHADEDIF
 70
    70
  9
$TILEMODE
 70
     1
  9
$MAXACTVP
 70
    48
  9
$PLIMCHECK
 70
     0
  9
$PEXTMIN
 10
11.014563257427559
 20
-0.064252334823145
 30
0.0
  9
$PEXTMAX
 10
18.358313257427572
 20
7.98761682036577
 30
0.0
  9
$PLIMMIN
 10
-0.1579164520023376
 20
-0.2812499887361301
  9
$PLIMMAX
 10
10.84208330770177
 20
8.2187497709679782
  9
$UNITMODE
 70
     0
  9
$VISRETAIN
 70
     1
  9
$PLINEGEN
 70
     0
  9
$PSLTSCALE
 70
     1
  0
ENDSEC
  0
SECTION
  2
TABLES
  0
TABLE
  2
VPORT
 70
     2
  0
VPORT
  2
*ACTIVE
 70
     0
 10
0.0
 20
0.0
 11
1.0
 21
1.0
 12
8.8091108994231462
 22
0.0
 13
0.0
 23
0.0
 14
0.5
 24
0.5
 15
0.5
 25
0.5
 16
0.0
 26
0.0
 36
1.0
 17
8.9213441287137876
 27
5.0253140978197921
 37
0.0
 40
10.050628195639581
 41
2.5367647058823519
 42
50.0
 43
0.0
 44
0.0
 50
0.0
 51
0.0
 71
     0
 72
   100
 73
     1
 74
     1
 75
     0
 76
     0
 77
     0
 78
     0
  0
ENDTAB
  0
TABLE
  2
LTYPE
 70
    18
  0
LTYPE
  2
CONTINUOUS
 70
     0
  3
Solid line
 72
    65
 73
     0
 40
0.0
  0
LTYPE
  2
HIDDEN
 70
     0
  3
__ __ __ __ __ __ __ __ __ __ __ __ __ __ __ __
 72
    65
 73
     2
 40
0.375
 49
0.25
 49
-0.125
  0
LTYPE
  2
PHANTOM2
 70
     0
  3
Phantom (.5x) ___ _ _ ___ _ _ ___ _ _ ___ _ _
 72
    65
 73
     6
 40
1.25
 49
0.625
 49
-0.125
 49
0.125
 49
-0.125
 49
0.125
 49
-0.125
  0
LTYPE
  2
CENTER
 70
     0
  3
Center ____ _ ____ _ ____ _ ____ _ ____ _ ____
 72
    65
 73
     4
 40
2.0
 49
1.25
 49
-0.25
 49
0.25
 49
-0.25
  0
LTYPE
  2
ASULTYPE
 70
     0
  3
Solid line
 72
    65
 73
     2
 40
3.0
 49
2.5
 49
0.5
  0
LTYPE
  2
ASVLTYPE
 70
     0
  3
__ __ __ __ __ __ __ __ __ __ __ __ __ __ __ __ __ __ __ __ __
 72
    65
 73
     2
 40
0.75
 49
0.5
 49
-0.25
  0
LTYPE
  2
AM_ISO02W050
 70
     0
  3
__ __ __ __ __ __ __ __ __ __ __ __ __ __ __
 72
    65
 73
     2
 40
7.5
 49
6.0
 49
-1.5
  0
LTYPE
  2
AM_ISO08W050
 70
     0
  3
____ . ____ . ____ . ____ . ____ . ____ . ____
 72
    65
 73
     4
 40
18.0
 49
12.0
 49
-1.5
 49
3.0
 49
-1.5
  0
LTYPE
  2
AM_ISO09W050
 70
     0
  3
_____ . . _____ . . _____ . . ____ .. ____
 72
    65
 73
     6
 40
22.5
 49
12.0
 49
-1.5
 49
3.0
 49
-1.5
 49
3.0
 49
-1.5
  0
LTYPE
  2
AMCONSTR
 70
     0
  3
_______________________
 72
    65
 73
     2
 40
9999.0
 49
9999.0
 49
0.0
  0
LTYPE
  2
AM_ISO08W050X2
 70
     0
  3
__ . __ . __ . __ . __ . __
 72
    65
 73
     4
 40
9.0
 49
6.0
 49
-0.75
 49
1.5
 49
-0.75
  0
LTYPE
  2
AM_ISO02W050X2
 70
     0
  3
 _ _ _ _ _ _ _ _ _ _ _ _
 72
    65
 73
     2
 40
3.75
 49
3.0
 49
-0.75
  0
LTYPE
  2
AMZIGZAG
 70
     0
  3
/\/-/\/-/\/-/\/-/\/-/\/
 72
    65
 73
     2
 40
11.0001
 49
0.0001
 49
-11.0
  0
LTYPE
  2
CENTER2
 70
     0
  3
Center (.5x) ___ _ ___ _ ___ _ ___ _ ___ _ ___
 72
    65
 73
     4
 40
1.125
 49
0.75
 49
-0.125
 49
0.125
 49
-0.125
  0
LTYPE
  2
HIDDEN2
 70
     0
  3
Hidden (.5x) _ _ _ _ _ _ _ _ _ _ _ _ _ _ _ _ _
 72
    65
 73
     2
 40
0.1875
 49
0.125
 49
-0.0625
  0
LTYPE
  2
AMZIGZAG2
 70
     0
  3
/\/-/\/-/\/-/\/-/\/-/\/
 72
    65
 73
     2
 40
0.4401
 49
0.0001
 49
-0.4400000000000001
  0
LTYPE
  2
ACANSTGB
 70
     0
  3
__ . . __ . .
 72
    65
 73
     6
 40
0.35433070866
 49
0.15748031496
 49
-0.03937007874
 49
0.03937007874
 49
-0.03937007874
 49
0.03937007874
 49
-0.03937007874
  0
LTYPE
  2
ACANSTGL
 70
     0
  3
_ _ _ _ _
 72
    65
 73
     2
 40
0.11811023622
 49
0.07874015748
 49
-0.03937007874
  0
ENDTAB
  0
TABLE
  2
LAYER
 70
     3
  0
LAYER
  2
0
 70
     0
 62
     7
  6
CONTINUOUS
  0
LAYER
  2
AM_VIS
 70
     0
 62
     7
  6
CONTINUOUS
  0
LAYER
  2
AM_HID
 70
     0
 62
     7
  6
HIDDEN
  0
ENDTAB
  0
TABLE
  2
STYLE
 70
     4
  0
STYLE
  2
STANDARD
 70
     0
 40
0.0
 41
1.0
 50
0.0
 71
     0
 42
0.2
  3
txt
  4

  0
STYLE
  2

 70
     1
 40
0.0
 41
1.0
 50
0.0
 71
     0
 42
0.2
  3
ltypeshp.shx
  4

  0
STYLE
  2
ACANSTS
 70
     0
 40
1.0
 41
1.0
 50
0.0
 71
     0
 42
0.2
  3
romans.shx
  4

  0
STYLE
  2
ACANSGDT
 70
     0
 40
0.0
 41
1.0
 50
0.0
 71
     0
 42
0.2
  3
amgdtans.shx
  4

  0
ENDTAB
  0
TABLE
  2
VIEW
 70
     0
  0
ENDTAB
  0
TABLE
  2
UCS
 70
     0
  0
ENDTAB
  0
TABLE
  2
APPID
 70
    13
  0
APPID
  2
ACAD
 70
     0
  0
APPID
  2
GENIUS_GENDIM_13
 70
     0
  0
APPID
  2
GENIUS_GENDTOL_13
 70
     0
  0
APPID
  2
GENIUS_GE3DTOL_13
 70
     0
  0
APPID
  2
MCAD_NO_VIS
 70
     0
  0
APPID
  2
ACAD_TEMP_GRAPHIC
 70
     0
  0
APPID
  2
AD_DRAW
 70
     0
  0
APPID
  2
ACATTRIBSERVICES
 70
     0
  0
APPID
  2
ASURF_PCURVE_APPNAME
 70
     0
  0
APPID
  2
AMG_3D2D_5_0
 70
     0
  0
APPID
  2
DESIGNERASSEMBLIES
 70
     0
  0
APPID
  2
ACADM_DIM_EDIT
 70
     0
  0
APPID
  2
AMDT_DM_ADJ
 70
     0
  0
ENDTAB
  0
TABLE
  2
DIMSTYLE
 70
     7
  0
DIMSTYLE
  2
STANDARD
 70
     0
  3

  4

  5

  6

  7

 40
1.0
 41
0.18
 42
0.0625
 43
0.38
 44
0.18
 45
0.0
 46
0.0
 47
0.0
 48
0.0
140
0.18
141
0.09
142
0.0
143
25.399999999999999
144
1.0
145
0.0
146
1.0
147
0.09
 71
     0
 72
     0
 73
     1
 74
     1
 75
     0
 76
     0
 77
     0
 78
     0
170
     0
171
     2
172
     0
173
     0
174
     0
175
     0
176
     0
177
     0
178
     0
  0
DIMSTYLE
  2
AM_ANSI
 70
     0
  3

  4
mm
  5

  6

  7

 40
1.0
 41
0.1
 42
0.05
 43
0.5
 44
0.1
 45
0.0
 46
0.0
 47
0.1
 48
0.1
140
0.12
141
0.0
142
0.0
143
25.399999999999999
144
1.0
145
0.0
146
0.71
147
0.06
 71
     0
 72
     0
 73
     1
 74
     1
 75
     0
 76
     0
 77
     0
 78
     7
170
     0
171
     2
172
     0
173
     0
174
     0
175
     0
176
   256
177
   256
178
     2
  0
DIMSTYLE
  2
AM_ANSI$3
 70
     0
  3

  4
mm
  5

  6

  7

 40
1.0
 41
0.1
 42
0.05
 43
0.5
 44
0.1
 45
0.0
 46
0.0
 47
0.1
 48
0.1
140
0.12
141
0.0
142
0.0
143
25.399999999999999
144
1.0
145
0.0
146
0.71
147
0.06
 71
     0
 72
     0
 73
     1
 74
     1
 75
     0
 76
     0
 77
     0
 78
     7
170
     0
171
     2
172
     0
173
     0
174
     0
175
     0
176
   256
177
   256
178
     2
  0
DIMSTYLE
  2
AM_ANSI$4
 70
     0
  3

  4
mm
  5

  6

  7

 40
1.0
 41
0.1
 42
0.05
 43
0.5
 44
0.1
 45
0.0
 46
0.0
 47
0.1
 48
0.1
140
0.12
141
0.0
142
0.0
143
25.399999999999999
144
1.0
145
0.0
146
0.71
147
0.06
 71
     0
 72
     0
 73
     1
 74
     1
 75
     0
 76
     0
 77
     0
 78
     7
170
     0
171
     2
172
     0
173
     0
174
     0
175
     0
176
   256
177
   256
178
     2
  0
DIMSTYLE
  2
AM_ANSI$7
 70
     0
  3

  4
mm
  5

  6

  7

 40
1.0
 41
0.1
 42
0.05
 43
0.5
 44
0.1
 45
0.0
 46
0.0
 47
0.1
 48
0.1
140
0.24
141
0.0
142
0.0
143
25.399999999999999
144
1.0
145
0.0
146
0.71
147
0.06
 71
     0
 72
     0
 73
     1
 74
     1
 75
     0
 76
     0
 77
     0
 78
     7
170
     0
171
     2
172
     0
173
     0
174
     0
175
     0
176
   256
177
   256
178
     2
  0
DIMSTYLE
  2
AM_ANSI$SF
 70
     0
  3

  4
mm
  5

  6

  7

 40
1.0
 41
0.1
 42
0.05
 43
0.5
 44
0.1
 45
0.0
 46
0.0
 47
0.1
 48
0.1
140
0.12
141
0.0
142
0.0
143
25.399999999999999
144
1.0
145
0.0
146
0.71
147
0.06
 71
     0
 72
     0
 73
     1
 74
     1
 75
     1
 76
     1
 77
     0
 78
     7
170
     0
171
     2
172
     0
173
     0
174
     0
175
     0
176
   256
177
   256
178
     2
  0
DIMSTYLE
  2
AM_ANSI$SH
 70
     0
  3

  4
mm
  5

  6
GENAXEH
  7

 40
1.0
 41
0.1
 42
0.05
 43
0.5
 44
0.1
 45
0.0
 46
0.0
 47
0.1
 48
0.1
140
0.12
141
0.0
142
0.0
143
25.399999999999999
144
1.0
145
0.0
146
0.71
147
0.06
 71
     0
 72
     0
 73
     1
 74
     1
 75
     1
 76
     1
 77
     0
 78
     7
170
     0
171
     2
172
     0
173
     1
174
     0
175
     0
176
   256
177
   256
178
     2
  0
ENDTAB
  0
ENDSEC
  0
SECTION
  2
BLOCKS
  0
BLOCK
  8
0
  2
$MODEL_SPACE
 70
     0
 10
0.0
 20
0.0
 30
0.0
  3
$MODEL_SPACE
  1

  0
ENDBLK
  5
A
  8
0
  0
BLOCK
 67
     1
  8
0
  2
$PAPER_SPACE
 70
     0
 10
0.0
 20
0.0
 30
0.0
  3
$PAPER_SPACE
  1

  0
ENDBLK
  5
F
 67
     1
  8
0
  0
BLOCK
  8
0
  2
*U0
 70
     1
 10
0.0
 20
0.0
 30
0.0
  3
*U0
  1

  0
ENDBLK
  5
131
  8
0
  0
BLOCK
  8
0
  2
GENAXEH
 70
     0
 10
0.0
 20
0.0
 30
0.0
  3
GENAXEH
  1

  0
LINE
  5
16F
  8
0
 10
-1.0
 20
0.0
 30
0.0
 11
1.0
 21
0.0
 31
0.0
  0
ENDBLK
  5
171
  8
0
  0
BLOCK
  8
0
  2
*U2
 70
     1
 10
0.0
 20
0.0
 30
0.0
  3
*U2
  1

  0
TEXT
  5
19C
  8
0
 10
14.40518825742757
 20
9.5998494651550921
 30
0.0
 40
0.09375
  1
6-5/16"
  0
ENDBLK
  5
19E
  8
0
  0
ENDSEC
  0
SECTION
  2
ENTITIES
  0
POINT
  5
25
  8
0
 10
0.0
 20
0.0
 30
0.0
  0
LINE
  5
26
  8
AM_VIS
 10
12.10831325742757
 20
2.935747665176855
 30
0.0
 11
12.85831325742757
 21
2.935747665176855
 31
0.0
  0
ARC
  5
28
  8
AM_VIS
 10
12.10831325742757
 20
2.748247665176855
 30
0.0
 40
0.1875
 50
90.0
 51
270.0
  0
LINE
  5
29
  8
AM_VIS
 10
12.85831325742757
 20
2.560747665176855
 30
0.0
 11
12.10831325742757
 21
2.560747665176855
 31
0.0
  0
ARC
  5
2A
  8
AM_VIS
 10
12.85831325742757
 20
2.748247665176855
 30
0.0
 40
0.1875
 50
270.0
 51
90.0
  0
LINE
  5
2B
  8
AM_VIS
 10
16.514563257427572
 20
2.935747665176855
 30
0.0
 11
17.264563257427572
 21
2.935747665176855
 31
0.0
  0
ARC
  5
2C
  8
AM_VIS
 10
17.264563257427572
 20
2.748247665176855
 30
0.0
 40
0.1875
 50
270.0
 51
90.0
  0
LINE
  5
2D
  8
AM_VIS
 10
17.264563257427572
 20
2.560747665176855
 30
0.0
 11
16.514563257427572
 21
2.560747665176855
 31
0.0
  0
ARC
  5
2E
  8
AM_VIS
 10
16.514563257427572
 20
2.748247665176855
 30
0.0
 40
0.1875
 50
90.0
 51
270.0
  0
POLYLINE
  8
AM_VIS
  5
19F
  66
     1
 10
0.000000
 20
0.000000
 30
0.000000
  70
     8
  0
VERTEX
  8
AM_VIS
  5
1A0
 10
15.1471
 20
3.18075
 30
0.000000
  70
    32
  0
VERTEX
  8
AM_VIS
  5
1A1
 10
15.1471
 20
3.18291
 30
0.000000
  70
    32
  0
VERTEX
  8
AM_VIS
  5
1A2
 10
15.1471
 20
3.18508
 30
0.000000
  70
    32
  0
VERTEX
  8
AM_VIS
  5
1A3
 10
15.1471
 20
3.18724
 30
0.000000
  70
    32
  0
VERTEX
  8
AM_VIS
  5
1A4
 10
15.1471
 20
3.18941
 30
0.000000
  70
    32
  0
VERTEX
  8
AM_VIS
  5
1A5
 10
15.1470
 20
3.19157
 30
0.000000
  70
    32
  0
VERTEX
  8
AM_VIS
  5
1A6
 10
15.1470
 20
3.19373
 30
0.000000
  70
    32
  0
VERTEX
  8
AM_VIS
  5
1A7
 10
15.1469
 20
3.19590
 30
0.000000
  70
    32
  0
VERTEX
  8
AM_VIS
  5
1A8
 10
15.1469
 20
3.19806
 30
0.000000
  70
    32
  0
VERTEX
  8
AM_VIS
  5
1A9
 10
15.1468
 20
3.20022
 30
0.000000
  70
    32
  0
VERTEX
  8
AM_VIS
  5
1AA
 10
15.1468
 20
3.20238
 30
0.000000
  70
    32
  0
VERTEX
  8
AM_VIS
  5
1AB
 10
15.1467
 20
3.20454
 30
0.000000
  70
    32
  0
VERTEX
  8
AM_VIS
  5
1AC
 10
15.1466
 20
3.20670
 30
0.000000
  70
    32
  0
VERTEX
  8
AM_VIS
  5
1AD
 10
15.1465
 20
3.20885
 30
0.000000
  70
    32
  0
VERTEX
  8
AM_VIS
  5
1AE
 10
15.1464
 20
3.21101
 30
0.000000
  70
    32
  0
VERTEX
  8
AM_VIS
  5
1AF
 10
15.1463
 20
3.21317
 30
0.000000
  70
    32
  0
VERTEX
  8
AM_VIS
  5
1B0
 10
15.1462
 20
3.21532
 30
0.000000
  70
    32
  0
VERTEX
  8
AM_VIS
  5
1B1
 10
15.1460
 20
3.21748
 30
0.000000
  70
    32
  0
VERTEX
  8
AM_VIS
  5
1B2
 10
15.1459
 20
3.21963
 30
0.000000
  70
    32
  0
VERTEX
  8
AM_VIS
  5
1B3
 10
15.1458
 20
3.22178
 30
0.000000
  70
    32
  0
VERTEX
  8
AM_VIS
  5
1B4
 10
15.1456
 20
3.22394
 30
0.000000
  70
    32
  0
VERTEX
  8
AM_VIS
  5
1B5
 10
15.1455
 20
3.22609
 30
0.000000
  70
    32
  0
VERTEX
  8
AM_VIS
  5
1B6
 10
15.1453
 20
3.22824
 30
0.000000
  70
    32
  0
VERTEX
  8
AM_VIS
  5
1B7
 10
15.1451
 20
3.23039
 30
0.000000
  70
    32
  0
VERTEX
  8
AM_VIS
  5
1B8
 10
15.1450
 20
3.23253
 30
0.000000
  70
    32
  0
VERTEX
  8
AM_VIS
  5
1B9
 10
15.1448
 20
3.23468
 30
0.000000
  70
    32
  0
VERTEX
  8
AM_VIS
  5
1BA
 10
15.1446
 20
3.23683
 30
0.000000
  70
    32
  0
VERTEX
  8
AM_VIS
  5
1BB
 10
15.1444
 20
3.23897
 30
0.000000
  70
    32
  0
VERTEX
  8
AM_VIS
  5
1BC
 10
15.1442
 20
3.24112
 30
0.000000
  70
    32
  0
VERTEX
  8
AM_VIS
  5
1BD
 10
15.1440
 20
3.24326
 30
0.000000
  70
    32
  0
VERTEX
  8
AM_VIS
  5
1BE
 10
15.1438
 20
3.24540
 30
0.000000
  70
    32
  0
VERTEX
  8
AM_VIS
  5
1BF
 10
15.1435
 20
3.24754
 30
0.000000
  70
    32
  0
VERTEX
  8
AM_VIS
  5
1C0
 10
15.1433
 20
3.24968
 30
0.000000
  70
    32
  0
VERTEX
  8
AM_VIS
  5
1C1
 10
15.1431
 20
3.25182
 30
0.000000
  70
    32
  0
VERTEX
  8
AM_VIS
  5
1C2
 10
15.1428
 20
3.25396
 30
0.000000
  70
    32
  0
VERTEX
  8
AM_VIS
  5
1C3
 10
15.1425
 20
3.25609
 30
0.000000
  70
    32
  0
VERTEX
  8
AM_VIS
  5
1C4
 10
15.1423
 20
3.25823
 30
0.000000
  70
    32
  0
VERTEX
  8
AM_VIS
  5
1C5
 10
15.1420
 20
3.26036
 30
0.000000
  70
    32
  0
VERTEX
  8
AM_VIS
  5
1C6
 10
15.1417
 20
3.26249
 30
0.000000
  70
    32
  0
VERTEX
  8
AM_VIS
  5
1C7
 10
15.1414
 20
3.26462
 30
0.000000
  70
    32
  0
VERTEX
  8
AM_VIS
  5
1C8
 10
15.1412
 20
3.26675
 30
0.000000
  70
    32
  0
VERTEX
  8
AM_VIS
  5
1C9
 10
15.1409
 20
3.26888
 30
0.000000
  70
    32
  0
VERTEX
  8
AM_VIS
  5
1CA
 10
15.1405
 20
3.27100
 30
0.000000
  70
    32
  0
VERTEX
  8
AM_VIS
  5
1CB
 10
15.1402
 20
3.27313
 30
0.000000
  70
    32
  0
VERTEX
  8
AM_VIS
  5
1CC
 10
15.1399
 20
3.27525
 30
0.000000
  70
    32
  0
VERTEX
  8
AM_VIS
  5
1CD
 10
15.1396
 20
3.27737
 30
0.000000
  70
    32
  0
VERTEX
  8
AM_VIS
  5
1CE
 10
15.1392
 20
3.27950
 30
0.000000
  70
    32
  0
VERTEX
  8
AM_VIS
  5
1CF
 10
15.1389
 20
3.28161
 30
0.000000
  70
    32
  0
VERTEX
  8
AM_VIS
  5
1D0
 10
15.1385
 20
3.28373
 30
0.000000
  70
    32
  0
VERTEX
  8
AM_VIS
  5
1D1
 10
15.1382
 20
3.28585
 30
0.000000
  70
    32
  0
VERTEX
  8
AM_VIS
  5
1D2
 10
15.1378
 20
3.28796
 30
0.000000
  70
    32
  0
VERTEX
  8
AM_VIS
  5
1D3
 10
15.1374
 20
3.29008
 30
0.000000
  70
    32
  0
VERTEX
  8
AM_VIS
  5
1D4
 10
15.1371
 20
3.29219
 30
0.000000
  70
    32
  0
VERTEX
  8
AM_VIS
  5
1D5
 10
15.1367
 20
3.29430
 30
0.000000
  70
    32
  0
VERTEX
  8
AM_VIS
  5
1D6
 10
15.1363
 20
3.29641
 30
0.000000
  70
    32
  0
VERTEX
  8
AM_VIS
  5
1D7
 10
15.1359
 20
3.29851
 30
0.000000
  70
    32
  0
VERTEX
  8
AM_VIS
  5
1D8
 10
15.1355
 20
3.30062
 30
0.000000
  70
    32
  0
VERTEX
  8
AM_VIS
  5
1D9
 10
15.1350
 20
3.30272
 30
0.000000
  70
    32
  0
VERTEX
  8
AM_VIS
  5
1DA
 10
15.1346
 20
3.30482
 30
0.000000
  70
    32
  0
VERTEX
  8
AM_VIS
  5
1DB
 10
15.1342
 20
3.30692
 30
0.000000
  70
    32
  0
VERTEX
  8
AM_VIS
  5
1DC
 10
15.1337
 20
3.30902
 30
0.000000
  70
    32
  0
VERTEX
  8
AM_VIS
  5
1DD
 10
15.1333
 20
3.31112
 30
0.000000
  70
    32
  0
VERTEX
  8
AM_VIS
  5
1DE
 10
15.1328
 20
3.31321
 30
0.000000
  70
    32
  0
VERTEX
  8
AM_VIS
  5
1DF
 10
15.1324
 20
3.31530
 30
0.000000
  70
    32
  0
VERTEX
  8
AM_VIS
  5
1E0
 10
15.1319
 20
3.31739
 30
0.000000
  70
    32
  0
VERTEX
  8
AM_VIS
  5
1E1
 10
15.1314
 20
3.31948
 30
0.000000
  70
    32
  0
VERTEX
  8
AM_VIS
  5
1E2
 10
15.1310
 20
3.32157
 30
0.000000
  70
    32
  0
VERTEX
  8
AM_VIS
  5
1E3
 10
15.1305
 20
3.32366
 30
0.000000
  70
    32
  0
VERTEX
  8
AM_VIS
  5
1E4
 10
15.1300
 20
3.32574
 30
0.000000
  70
    32
  0
VERTEX
  8
AM_VIS
  5
1E5
 10
15.1295
 20
3.32782
 30
0.000000
  70
    32
  0
VERTEX
  8
AM_VIS
  5
1E6
 10
15.1289
 20
3.32990
 30
0.000000
  70
    32
  0
VERTEX
  8
AM_VIS
  5
1E7
 10
15.1284
 20
3.33198
 30
0.000000
  70
    32
  0
VERTEX
  8
AM_VIS
  5
1E8
 10
15.1279
 20
3.33405
 30
0.000000
  70
    32
  0
VERTEX
  8
AM_VIS
  5
1E9
 10
15.1274
 20
3.33613
 30
0.000000
  70
    32
  0
VERTEX
  8
AM_VIS
  5
1EA
 10
15.1268
 20
3.33820
 30
0.000000
  70
    32
  0
VERTEX
  8
AM_VIS
  5
1EB
 10
15.1263
 20
3.34027
 30
0.000000
  70
    32
  0
VERTEX
  8
AM_VIS
  5
1EC
 10
15.1257
 20
3.34234
 30
0.000000
  70
    32
  0
VERTEX
  8
AM_VIS
  5
1ED
 10
15.1252
 20
3.34440
 30
0.000000
  70
    32
  0
VERTEX
  8
AM_VIS
  5
1EE
 10
15.1246
 20
3.34646
 30
0.000000
  70
    32
  0
VERTEX
  8
AM_VIS
  5
1EF
 10
15.1240
 20
3.34852
 30
0.000000
  70
    32
  0
VERTEX
  8
AM_VIS
  5
1F0
 10
15.1234
 20
3.35058
 30
0.000000
  70
    32
  0
VERTEX
  8
AM_VIS
  5
1F1
 10
15.1228
 20
3.35264
 30
0.000000
  70
    32
  0
VERTEX
  8
AM_VIS
  5
1F2
 10
15.1222
 20
3.35469
 30
0.000000
  70
    32
  0
VERTEX
  8
AM_VIS
  5
1F3
 10
15.1216
 20
3.35675
 30
0.000000
  70
    32
  0
VERTEX
  8
AM_VIS
  5
1F4
 10
15.1210
 20
3.35880
 30
0.000000
  70
    32
  0
VERTEX
  8
AM_VIS
  5
1F5
 10
15.1204
 20
3.36084
 30
0.000000
  70
    32
  0
VERTEX
  8
AM_VIS
  5
1F6
 10
15.1198
 20
3.36289
 30
0.000000
  70
    32
  0
VERTEX
  8
AM_VIS
  5
1F7
 10
15.1191
 20
3.36493
 30
0.000000
  70
    32
  0
VERTEX
  8
AM_VIS
  5
1F8
 10
15.1185
 20
3.36697
 30
0.000000
  70
    32
  0
VERTEX
  8
AM_VIS
  5
1F9
 10
15.1179
 20
3.36901
 30
0.000000
  70
    32
  0
VERTEX
  8
AM_VIS
  5
1FA
 10
15.1172
 20
3.37105
 30
0.000000
  70
    32
  0
VERTEX
  8
AM_VIS
  5
1FB
 10
15.1165
 20
3.37308
 30
0.000000
  70
    32
  0
VERTEX
  8
AM_VIS
  5
1FC
 10
15.1159
 20
3.37511
 30
0.000000
  70
    32
  0
VERTEX
  8
AM_VIS
  5
1FD
 10
15.1152
 20
3.37714
 30
0.000000
  70
    32
  0
VERTEX
  8
AM_VIS
  5
1FE
 10
15.1145
 20
3.37917
 30
0.000000
  70
    32
  0
VERTEX
  8
AM_VIS
  5
1FF
 10
15.1138
 20
3.38119
 30
0.000000
  70
    32
  0
VERTEX
  8
AM_VIS
  5
200
 10
15.1131
 20
3.38321
 30
0.000000
  70
    32
  0
VERTEX
  8
AM_VIS
  5
201
 10
15.1124
 20
3.38523
 30
0.000000
  70
    32
  0
VERTEX
  8
AM_VIS
  5
202
 10
15.1117
 20
3.38725
 30
0.000000
  70
    32
  0
VERTEX
  8
AM_VIS
  5
203
 10
15.1110
 20
3.38926
 30
0.000000
  70
    32
  0
VERTEX
  8
AM_VIS
  5
204
 10
15.1103
 20
3.39127
 30
0.000000
  70
    32
  0
VERTEX
  8
AM_VIS
  5
205
 10
15.1095
 20
3.39328
 30
0.000000
  70
    32
  0
VERTEX
  8
AM_VIS
  5
206
 10
15.1088
 20
3.39529
 30
0.000000
  70
    32
  0
VERTEX
  8
AM_VIS
  5
207
 10
15.1080
 20
3.39729
 30
0.000000
  70
    32
  0
VERTEX
  8
AM_VIS
  5
208
 10
15.1073
 20
3.39929
 30
0.000000
  70
    32
  0
VERTEX
  8
AM_VIS
  5
209
 10
15.1065
 20
3.40129
 30
0.000000
  70
    32
  0
VERTEX
  8
AM_VIS
  5
20A
 10
15.1058
 20
3.40328
 30
0.000000
  70
    32
  0
VERTEX
  8
AM_VIS
  5
20B
 10
15.1050
 20
3.40527
 30
0.000000
  70
    32
  0
VERTEX
  8
AM_VIS
  5
20C
 10
15.1042
 20
3.40726
 30
0.000000
  70
    32
  0
VERTEX
  8
AM_VIS
  5
20D
 10
15.1034
 20
3.40925
 30
0.000000
  70
    32
  0
VERTEX
  8
AM_VIS
  5
20E
 10
15.1026
 20
3.41123
 30
0.000000
  70
    32
  0
VERTEX
  8
AM_VIS
  5
20F
 10
15.1018
 20
3.41320
 30
0.000000
  70
    32
  0
VERTEX
  8
AM_VIS
  5
210
 10
15.1010
 20
3.41517
 30
0.000000
  70
    32
  0
VERTEX
  8
AM_VIS
  5
211
 10
15.1002
 20
3.41714
 30
0.000000
  70
    32
  0
VERTEX
  8
AM_VIS
  5
212
 10
15.0994
 20
3.41910
 30
0.000000
  70
    32
  0
VERTEX
  8
AM_VIS
  5
213
 10
15.0985
 20
3.42106
 30
0.000000
  70
    32
  0
VERTEX
  8
AM_VIS
  5
214
 10
15.0977
 20
3.42302
 30
0.000000
  70
    32
  0
VERTEX
  8
AM_VIS
  5
215
 10
15.0969
 20
3.42497
 30
0.000000
  70
    32
  0
VERTEX
  8
AM_VIS
  5
216
 10
15.0960
 20
3.42692
 30
0.000000
  70
    32
  0
VERTEX
  8
AM_VIS
  5
217
 10
15.0952
 20
3.42886
 30
0.000000
  70
    32
  0
VERTEX
  8
AM_VIS
  5
218
 10
15.0943
 20
3.43080
 30
0.000000
  70
    32
  0
VERTEX
  8
AM_VIS
  5
219
 10
15.0934
 20
3.43273
 30
0.000000
  70
    32
  0
VERTEX
  8
AM_VIS
  5
21A
 10
15.0926
 20
3.43466
 30
0.000000
  70
    32
  0
VERTEX
  8
AM_VIS
  5
21B
 10
15.0917
 20
3.43659
 30
0.000000
  70
    32
  0
VERTEX
  8
AM_VIS
  5
21C
 10
15.0908
 20
3.43851
 30
0.000000
  70
    32
  0
VERTEX
  8
AM_VIS
  5
21D
 10
15.0899
 20
3.44043
 30
0.000000
  70
    32
  0
VERTEX
  8
AM_VIS
  5
21E
 10
15.0890
 20
3.44234
 30
0.000000
  70
    32
  0
VERTEX
  8
AM_VIS
  5
21F
 10
15.0881
 20
3.44425
 30
0.000000
  70
    32
  0
VERTEX
  8
AM_VIS
  5
220
 10
15.0872
 20
3.44615
 30
0.000000
  70
    32
  0
VERTEX
  8
AM_VIS
  5
221
 10
15.0863
 20
3.44805
 30
0.000000
  70
    32
  0
VERTEX
  8
AM_VIS
  5
222
 10
15.0854
 20
3.44995
 30
0.000000
  70
    32
  0
VERTEX
  8
AM_VIS
  5
223
 10
15.0844
 20
3.45184
 30
0.000000
  70
    32
  0
VERTEX
  8
AM_VIS
  5
224
 10
15.0835
 20
3.45372
 30
0.000000
  70
    32
  0
VERTEX
  8
AM_VIS
  5
225
 10
15.0826
 20
3.45561
 30
0.000000
  70
    32
  0
VERTEX
  8
AM_VIS
  5
226
 10
15.0816
 20
3.45748
 30
0.000000
  70
    32
  0
VERTEX
  8
AM_VIS
  5
227
 10
15.0807
 20
3.45936
 30
0.000000
  70
    32
  0
VERTEX
  8
AM_VIS
  5
228
 10
15.0797
 20
3.46122
 30
0.000000
  70
    32
  0
VERTEX
  8
AM_VIS
  5
229
 10
15.0787
 20
3.46309
 30
0.000000
  70
    32
  0
VERTEX
  8
AM_VIS
  5
22A
 10
15.0778
 20
3.46495
 30
0.000000
  70
    32
  0
VERTEX
  8
AM_VIS
  5
22B
 10
15.0768
 20
3.46680
 30
0.000000
  70
    32
  0
VERTEX
  8
AM_VIS
  5
22C
 10
15.0758
 20
3.46865
 30
0.000000
  70
    32
  0
VERTEX
  8
AM_VIS
  5
22D
 10
15.0748
 20
3.47049
 30
0.000000
  70
    32
  0
VERTEX
  8
AM_VIS
  5
22E
 10
15.0738
 20
3.47233
 30
0.000000
  70
    32
  0
VERTEX
  8
AM_VIS
  5
22F
 10
15.0728
 20
3.47417
 30
0.000000
  70
    32
  0
VERTEX
  8
AM_VIS
  5
230
 10
15.0718
 20
3.47600
 30
0.000000
  70
    32
  0
VERTEX
  8
AM_VIS
  5
231
 10
15.0708
 20
3.47783
 30
0.000000
  70
    32
  0
VERTEX
  8
AM_VIS
  5
232
 10
15.0698
 20
3.47965
 30
0.000000
  70
    32
  0
VERTEX
  8
AM_VIS
  5
233
 10
15.0688
 20
3.48146
 30
0.000000
  70
    32
  0
VERTEX
  8
AM_VIS
  5
234
 10
15.0677
 20
3.48328
 30
0.000000
  70
    32
  0
VERTEX
  8
AM_VIS
  5
235
 10
15.0667
 20
3.48508
 30
0.000000
  70
    32
  0
VERTEX
  8
AM_VIS
  5
236
 10
15.0657
 20
3.48689
 30
0.000000
  70
    32
  0
VERTEX
  8
AM_VIS
  5
237
 10
15.0646
 20
3.48868
 30
0.000000
  70
    32
  0
VERTEX
  8
AM_VIS
  5
238
 10
15.0636
 20
3.49047
 30
0.000000
  70
    32
  0
VERTEX
  8
AM_VIS
  5
239
 10
15.0625
 20
3.49226
 30
0.000000
  70
    32
  0
VERTEX
  8
AM_VIS
  5
23A
 10
15.0614
 20
3.49404
 30
0.000000
  70
    32
  0
VERTEX
  8
AM_VIS
  5
23B
 10
15.0604
 20
3.49582
 30
0.000000
  70
    32
  0
VERTEX
  8
AM_VIS
  5
23C
 10
15.0593
 20
3.49759
 30
0.000000
  70
    32
  0
VERTEX
  8
AM_VIS
  5
23D
 10
15.0582
 20
3.49936
 30
0.000000
  70
    32
  0
VERTEX
  8
AM_VIS
  5
23E
 10
15.0571
 20
3.50112
 30
0.000000
  70
    32
  0
VERTEX
  8
AM_VIS
  5
23F
 10
15.0560
 20
3.50288
 30
0.000000
  70
    32
  0
VERTEX
  8
AM_VIS
  5
240
 10
15.0549
 20
3.50463
 30
0.000000
  70
    32
  0
VERTEX
  8
AM_VIS
  5
241
 10
15.0538
 20
3.50638
 30
0.000000
  70
    32
  0
VERTEX
  8
AM_VIS
  5
242
 10
15.0527
 20
3.50812
 30
0.000000
  70
    32
  0
VERTEX
  8
AM_VIS
  5
243
 10
15.0516
 20
3.50986
 30
0.000000
  70
    32
  0
VERTEX
  8
AM_VIS
  5
244
 10
15.0504
 20
3.51159
 30
0.000000
  70
    32
  0
VERTEX
  8
AM_VIS
  5
245
 10
15.0493
 20
3.51332
 30
0.000000
  70
    32
  0
VERTEX
  8
AM_VIS
  5
246
 10
15.0482
 20
3.51504
 30
0.000000
  70
    32
  0
VERTEX
  8
AM_VIS
  5
247
 10
15.0470
 20
3.51675
 30
0.000000
  70
    32
  0
VERTEX
  8
AM_VIS
  5
248
 10
15.0459
 20
3.51846
 30
0.000000
  70
    32
  0
VERTEX
  8
AM_VIS
  5
249
 10
15.0447
 20
3.52017
 30
0.000000
  70
    32
  0
VERTEX
  8
AM_VIS
  5
24A
 10
15.0436
 20
3.52187
 30
0.000000
  70
    32
  0
VERTEX
  8
AM_VIS
  5
24B
 10
15.0424
 20
3.52357
 30
0.000000
  70
    32
  0
VERTEX
  8
AM_VIS
  5
24C
 10
15.0413
 20
3.52525
 30
0.000000
  70
    32
  0
VERTEX
  8
AM_VIS
  5
24D
 10
15.0401
 20
3.52694
 30
0.000000
  70
    32
  0
VERTEX
  8
AM_VIS
  5
24E
 10
15.0389
 20
3.52862
 30
0.000000
  70
    32
  0
VERTEX
  8
AM_VIS
  5
24F
 10
15.0377
 20
3.53029
 30
0.000000
  70
    32
  0
VERTEX
  8
AM_VIS
  5
250
 10
15.0365
 20
3.53196
 30
0.000000
  70
    32
  0
VERTEX
  8
AM_VIS
  5
251
 10
15.0353
 20
3.53362
 30
0.000000
  70
    32
  0
VERTEX
  8
AM_VIS
  5
252
 10
15.0341
 20
3.53528
 30
0.000000
  70
    32
  0
VERTEX
  8
AM_VIS
  5
253
 10
15.0329
 20
3.53693
 30
0.000000
  70
    32
  0
VERTEX
  8
AM_VIS
  5
254
 10
15.0317
 20
3.53858
 30
0.000000
  70
    32
  0
VERTEX
  8
AM_VIS
  5
255
 10
15.0305
 20
3.54022
 30
0.000000
  70
    32
  0
VERTEX
  8
AM_VIS
  5
256
 10
15.0293
 20
3.54185
 30
0.000000
  70
    32
  0
VERTEX
  8
AM_VIS
  5
257
 10
15.0281
 20
3.54348
 30
0.000000
  70
    32
  0
VERTEX
  8
AM_VIS
  5
258
 10
15.0268
 20
3.54511
 30
0.000000
  70
    32
  0
VERTEX
  8
AM_VIS
  5
259
 10
15.0256
 20
3.54673
 30
0.000000
  70
    32
  0
VERTEX
  8
AM_VIS
  5
25A
 10
15.0243
 20
3.54834
 30
0.000000
  70
    32
  0
VERTEX
  8
AM_VIS
  5
25B
 10
15.0231
 20
3.54995
 30
0.000000
  70
    32
  0
VERTEX
  8
AM_VIS
  5
25C
 10
15.0218
 20
3.55155
 30
0.000000
  70
    32
  0
VERTEX
  8
AM_VIS
  5
25D
 10
15.0206
 20
3.55314
 30
0.000000
  70
    32
  0
VERTEX
  8
AM_VIS
  5
25E
 10
15.0193
 20
3.55473
 30
0.000000
  70
    32
  0
VERTEX
  8
AM_VIS
  5
25F
 10
15.0180
 20
3.55632
 30
0.000000
  70
    32
  0
VERTEX
  8
AM_VIS
  5
260
 10
15.0168
 20
3.55790
 30
0.000000
  70
    32
  0
VERTEX
  8
AM_VIS
  5
261
 10
15.0155
 20
3.55947
 30
0.000000
  70
    32
  0
VERTEX
  8
AM_VIS
  5
262
 10
15.0142
 20
3.56104
 30
0.000000
  70
    32
  0
VERTEX
  8
AM_VIS
  5
263
 10
15.0129
 20
3.56260
 30
0.000000
  70
    32
  0
VERTEX
  8
AM_VIS
  5
264
 10
15.0116
 20
3.56415
 30
0.000000
  70
    32
  0
VERTEX
  8
AM_VIS
  5
265
 10
15.0103
 20
3.56570
 30
0.000000
  70
    32
  0
VERTEX
  8
AM_VIS
  5
266
 10
15.0090
 20
3.56725
 30
0.000000
  70
    32
  0
VERTEX
  8
AM_VIS
  5
267
 10
15.0077
 20
3.56878
 30
0.000000
  70
    32
  0
VERTEX
  8
AM_VIS
  5
268
 10
15.0064
 20
3.57032
 30
0.000000
  70
    32
  0
VERTEX
  8
AM_VIS
  5
269
 10
15.0051
 20
3.57184
 30
0.000000
  70
    32
  0
VERTEX
  8
AM_VIS
  5
26A
 10
15.0037
 20
3.57336
 30
0.000000
  70
    32
  0
VERTEX
  8
AM_VIS
  5
26B
 10
15.0024
 20
3.57488
 30
0.000000
  70
    32
  0
VERTEX
  8
AM_VIS
  5
26C
 10
15.0011
 20
3.57638
 30
0.000000
  70
    32
  0
VERTEX
  8
AM_VIS
  5
26D
 10
14.9997
 20
3.57789
 30
0.000000
  70
    32
  0
VERTEX
  8
AM_VIS
  5
26E
 10
14.9984
 20
3.57938
 30
0.000000
  70
    32
  0
VERTEX
  8
AM_VIS
  5
26F
 10
14.9970
 20
3.58087
 30
0.000000
  70
    32
  0
VERTEX
  8
AM_VIS
  5
270
 10
14.9957
 20
3.58236
 30
0.000000
  70
    32
  0
VERTEX
  8
AM_VIS
  5
271
 10
14.9943
 20
3.58383
 30
0.000000
  70
    32
  0
VERTEX
  8
AM_VIS
  5
272
 10
14.9930
 20
3.58530
 30
0.000000
  70
    32
  0
VERTEX
  8
AM_VIS
  5
273
 10
14.9916
 20
3.58677
 30
0.000000
  70
    32
  0
VERTEX
  8
AM_VIS
  5
274
 10
14.9902
 20
3.58823
 30
0.000000
  70
    32
  0
VERTEX
  8
AM_VIS
  5
275
 10
14.9888
 20
3.58968
 30
0.000000
  70
    32
  0
VERTEX
  8
AM_VIS
  5
276
 10
14.9875
 20
3.59113
 30
0.000000
  70
    32
  0
VERTEX
  8
AM_VIS
  5
277
 10
14.9861
 20
3.59257
 30
0.000000
  70
    32
  0
VERTEX
  8
AM_VIS
  5
278
 10
14.9847
 20
3.59400
 30
0.000000
  70
    32
  0
VERTEX
  8
AM_VIS
  5
279
 10
14.9833
 20
3.59543
 30
0.000000
  70
    32
  0
VERTEX
  8
AM_VIS
  5
27A
 10
14.9819
 20
3.59686
 30
0.000000
  70
    32
  0
VERTEX
  8
AM_VIS
  5
27B
 10
14.9805
 20
3.59828
 30
0.000000
  70
    32
  0
VERTEX
  8
AM_VIS
  5
27C
 10
14.9790
 20
3.59969
 30
0.000000
  70
    32
  0
VERTEX
  8
AM_VIS
  5
27D
 10
14.9776
 20
3.60110
 30
0.000000
  70
    32
  0
VERTEX
  8
AM_VIS
  5
27E
 10
14.9762
 20
3.60250
 30
0.000000
  70
    32
  0
VERTEX
  8
AM_VIS
  5
27F
 10
14.9748
 20
3.60390
 30
0.000000
  70
    32
  0
VERTEX
  8
AM_VIS
  5
280
 10
14.9733
 20
3.60529
 30
0.000000
  70
    32
  0
VERTEX
  8
AM_VIS
  5
281
 10
14.9719
 20
3.60667
 30
0.000000
  70
    32
  0
VERTEX
  8
AM_VIS
  5
282
 10
14.9704
 20
3.60805
 30
0.000000
  70
    32
  0
VERTEX
  8
AM_VIS
  5
283
 10
14.9690
 20
3.60943
 30
0.000000
  70
    32
  0
VERTEX
  8
AM_VIS
  5
284
 10
14.9675
 20
3.61079
 30
0.000000
  70
    32
  0
VERTEX
  8
AM_VIS
  5
285
 10
14.9660
 20
3.61216
 30
0.000000
  70
    32
  0
VERTEX
  8
AM_VIS
  5
286
 10
14.9646
 20
3.61351
 30
0.000000
  70
    32
  0
VERTEX
  8
AM_VIS
  5
287
 10
14.9631
 20
3.61486
 30
0.000000
  70
    32
  0
VERTEX
  8
AM_VIS
  5
288
 10
14.9616
 20
3.61621
 30
0.000000
  70
    32
  0
VERTEX
  8
AM_VIS
  5
289
 10
14.9601
 20
3.61754
 30
0.000000
  70
    32
  0
VERTEX
  8
AM_VIS
  5
28A
 10
14.9586
 20
3.61888
 30
0.000000
  70
    32
  0
VERTEX
  8
AM_VIS
  5
28B
 10
14.9571
 20
3.62020
 30
0.000000
  70
    32
  0
VERTEX
  8
AM_VIS
  5
28C
 10
14.9556
 20
3.62152
 30
0.000000
  70
    32
  0
VERTEX
  8
AM_VIS
  5
28D
 10
14.9541
 20
3.62283
 30
0.000000
  70
    32
  0
VERTEX
  8
AM_VIS
  5
28E
 10
14.9526
 20
3.62414
 30
0.000000
  70
    32
  0
VERTEX
  8
AM_VIS
  5
28F
 10
14.9511
 20
3.62544
 30
0.000000
  70
    32
  0
VERTEX
  8
AM_VIS
  5
290
 10
14.9495
 20
3.62674
 30
0.000000
  70
    32
  0
VERTEX
  8
AM_VIS
  5
291
 10
14.9480
 20
3.62803
 30
0.000000
  70
    32
  0
VERTEX
  8
AM_VIS
  5
292
 10
14.9465
 20
3.62931
 30
0.000000
  70
    32
  0
VERTEX
  8
AM_VIS
  5
293
 10
14.9449
 20
3.63059
 30
0.000000
  70
    32
  0
VERTEX
  8
AM_VIS
  5
294
 10
14.9434
 20
3.63185
 30
0.000000
  70
    32
  0
VERTEX
  8
AM_VIS
  5
295
 10
14.9418
 20
3.63312
 30
0.000000
  70
    32
  0
VERTEX
  8
AM_VIS
  5
296
 10
14.9403
 20
3.63437
 30
0.000000
  70
    32
  0
VERTEX
  8
AM_VIS
  5
297
 10
14.9387
 20
3.63562
 30
0.000000
  70
    32
  0
VERTEX
  8
AM_VIS
  5
298
 10
14.9371
 20
3.63687
 30
0.000000
  70
    32
  0
VERTEX
  8
AM_VIS
  5
299
 10
14.9356
 20
3.63810
 30
0.000000
  70
    32
  0
VERTEX
  8
AM_VIS
  5
29A
 10
14.9340
 20
3.63934
 30
0.000000
  70
    32
  0
VERTEX
  8
AM_VIS
  5
29B
 10
14.9324
 20
3.64056
 30
0.000000
  70
    32
  0
VERTEX
  8
AM_VIS
  5
29C
 10
14.9308
 20
3.64178
 30
0.000000
  70
    32
  0
VERTEX
  8
AM_VIS
  5
29D
 10
14.9292
 20
3.64299
 30
0.000000
  70
    32
  0
VERTEX
  8
AM_VIS
  5
29E
 10
14.9276
 20
3.64419
 30
0.000000
  70
    32
  0
VERTEX
  8
AM_VIS
  5
29F
 10
14.9260
 20
3.64539
 30
0.000000
  70
    32
  0
VERTEX
  8
AM_VIS
  5
2A0
 10
14.9244
 20
3.64657
 30
0.000000
  70
    32
  0
VERTEX
  8
AM_VIS
  5
2A1
 10
14.9228
 20
3.64776
 30
0.000000
  70
    32
  0
VERTEX
  8
AM_VIS
  5
2A2
 10
14.9212
 20
3.64893
 30
0.000000
  70
    32
  0
VERTEX
  8
AM_VIS
  5
2A3
 10
14.9195
 20
3.65010
 30
0.000000
  70
    32
  0
VERTEX
  8
AM_VIS
  5
2A4
 10
14.9179
 20
3.65126
 30
0.000000
  70
    32
  0
VERTEX
  8
AM_VIS
  5
2A5
 10
14.9163
 20
3.65242
 30
0.000000
  70
    32
  0
VERTEX
  8
AM_VIS
  5
2A6
 10
14.9146
 20
3.65357
 30
0.000000
  70
    32
  0
VERTEX
  8
AM_VIS
  5
2A7
 10
14.9130
 20
3.65471
 30
0.000000
  70
    32
  0
VERTEX
  8
AM_VIS
  5
2A8
 10
14.9113
 20
3.65584
 30
0.000000
  70
    32
  0
VERTEX
  8
AM_VIS
  5
2A9
 10
14.9097
 20
3.65697
 30
0.000000
  70
    32
  0
VERTEX
  8
AM_VIS
  5
2AA
 10
14.9080
 20
3.65808
 30
0.000000
  70
    32
  0
VERTEX
  8
AM_VIS
  5
2AB
 10
14.9064
 20
3.65920
 30
0.000000
  70
    32
  0
VERTEX
  8
AM_VIS
  5
2AC
 10
14.9047
 20
3.66030
 30
0.000000
  70
    32
  0
VERTEX
  8
AM_VIS
  5
2AD
 10
14.9030
 20
3.66140
 30
0.000000
  70
    32
  0
VERTEX
  8
AM_VIS
  5
2AE
 10
14.9013
 20
3.66249
 30
0.000000
  70
    32
  0
VERTEX
  8
AM_VIS
  5
2AF
 10
14.8996
 20
3.66357
 30
0.000000
  70
    32
  0
VERTEX
  8
AM_VIS
  5
2B0
 10
14.8980
 20
3.66464
 30
0.000000
  70
    32
  0
VERTEX
  8
AM_VIS
  5
2B1
 10
14.8963
 20
3.66571
 30
0.000000
  70
    32
  0
VERTEX
  8
AM_VIS
  5
2B2
 10
14.8946
 20
3.66677
 30
0.000000
  70
    32
  0
VERTEX
  8
AM_VIS
  5
2B3
 10
14.8929
 20
3.66782
 30
0.000000
  70
    32
  0
VERTEX
  8
AM_VIS
  5
2B4
 10
14.8911
 20
3.66886
 30
0.000000
  70
    32
  0
VERTEX
  8
AM_VIS
  5
2B5
 10
14.8894
 20
3.66990
 30
0.000000
  70
    32
  0
VERTEX
  8
AM_VIS
  5
2B6
 10
14.8877
 20
3.67093
 30
0.000000
  70
    32
  0
VERTEX
  8
AM_VIS
  5
2B7
 10
14.8860
 20
3.67195
 30
0.000000
  70
    32
  0
VERTEX
  8
AM_VIS
  5
2B8
 10
14.8843
 20
3.67296
 30
0.000000
  70
    32
  0
VERTEX
  8
AM_VIS
  5
2B9
 10
14.8825
 20
3.67397
 30
0.000000
  70
    32
  0
VERTEX
  8
AM_VIS
  5
2BA
 10
14.8808
 20
3.67497
 30
0.000000
  70
    32
  0
VERTEX
  8
AM_VIS
  5
2BB
 10
14.8790
 20
3.67596
 30
0.000000
  70
    32
  0
VERTEX
  8
AM_VIS
  5
2BC
 10
14.8773
 20
3.67694
 30
0.000000
  70
    32
  0
VERTEX
  8
AM_VIS
  5
2BD
 10
14.8755
 20
3.67791
 30
0.000000
  70
    32
  0
VERTEX
  8
AM_VIS
  5
2BE
 10
14.8738
 20
3.67888
 30
0.000000
  70
    32
  0
VERTEX
  8
AM_VIS
  5
2BF
 10
14.8720
 20
3.67984
 30
0.000000
  70
    32
  0
VERTEX
  8
AM_VIS
  5
2C0
 10
14.8702
 20
3.68079
 30
0.000000
  70
    32
  0
VERTEX
  8
AM_VIS
  5
2C1
 10
14.8685
 20
3.68173
 30
0.000000
  70
    32
  0
VERTEX
  8
AM_VIS
  5
2C2
 10
14.8667
 20
3.68266
 30
0.000000
  70
    32
  0
VERTEX
  8
AM_VIS
  5
2C3
 10
14.8649
 20
3.68359
 30
0.000000
  70
    32
  0
VERTEX
  8
AM_VIS
  5
2C4
 10
14.8631
 20
3.68450
 30
0.000000
  70
    32
  0
VERTEX
  8
AM_VIS
  5
2C5
 10
14.8613
 20
3.68541
 30
0.000000
  70
    32
  0
VERTEX
  8
AM_VIS
  5
2C6
 10
14.8595
 20
3.68631
 30
0.000000
  70
    32
  0
VERTEX
  8
AM_VIS
  5
2C7
 10
14.8577
 20
3.68721
 30
0.000000
  70
    32
  0
VERTEX
  8
AM_VIS
  5
2C8
 10
14.8559
 20
3.68809
 30
0.000000
  70
    32
  0
VERTEX
  8
AM_VIS
  5
2C9
 10
14.8541
 20
3.68896
 30
0.000000
  70
    32
  0
VERTEX
  8
AM_VIS
  5
2CA
 10
14.8523
 20
3.68983
 30
0.000000
  70
    32
  0
VERTEX
  8
AM_VIS
  5
2CB
 10
14.8505
 20
3.69069
 30
0.000000
  70
    32
  0
VERTEX
  8
AM_VIS
  5
2CC
 10
14.8487
 20
3.69154
 30
0.000000
  70
    32
  0
VERTEX
  8
AM_VIS
  5
2CD
 10
14.8468
 20
3.69238
 30
0.000000
  70
    32
  0
VERTEX
  8
AM_VIS
  5
2CE
 10
14.8450
 20
3.69321
 30
0.000000
  70
    32
  0
VERTEX
  8
AM_VIS
  5
2CF
 10
14.8432
 20
3.69404
 30
0.000000
  70
    32
  0
VERTEX
  8
AM_VIS
  5
2D0
 10
14.8413
 20
3.69485
 30
0.000000
  70
    32
  0
VERTEX
  8
AM_VIS
  5
2D1
 10
14.8395
 20
3.69566
 30
0.000000
  70
    32
  0
VERTEX
  8
AM_VIS
  5
2D2
 10
14.8376
 20
3.69646
 30
0.000000
  70
    32
  0
VERTEX
  8
AM_VIS
  5
2D3
 10
14.8358
 20
3.69725
 30
0.000000
  70
    32
  0
VERTEX
  8
AM_VIS
  5
2D4
 10
14.8339
 20
3.69803
 30
0.000000
  70
    32
  0
VERTEX
  8
AM_VIS
  5
2D5
 10
14.8320
 20
3.69880
 30
0.000000
  70
    32
  0
VERTEX
  8
AM_VIS
  5
2D6
 10
14.8302
 20
3.69956
 30
0.000000
  70
    32
  0
VERTEX
  8
AM_VIS
  5
2D7
 10
14.8283
 20
3.70031
 30
0.000000
  70
    32
  0
VERTEX
  8
AM_VIS
  5
2D8
 10
14.8264
 20
3.70105
 30
0.000000
  70
    32
  0
VERTEX
  8
AM_VIS
  5
2D9
 10
14.8246
 20
3.70178
 30
0.000000
  70
    32
  0
VERTEX
  8
AM_VIS
  5
2DA
 10
14.8227
 20
3.70251
 30
0.000000
  70
    32
  0
VERTEX
  8
AM_VIS
  5
2DB
 10
14.8208
 20
3.70322
 30
0.000000
  70
    32
  0
VERTEX
  8
AM_VIS
  5
2DC
 10
14.8189
 20
3.70393
 30
0.000000
  70
    32
  0
VERTEX
  8
AM_VIS
  5
2DD
 10
14.8170
 20
3.70462
 30
0.000000
  70
    32
  0
VERTEX
  8
AM_VIS
  5
2DE
 10
14.8151
 20
3.70531
 30
0.000000
  70
    32
  0
VERTEX
  8
AM_VIS
  5
2DF
 10
14.8132
 20
3.70598
 30
0.000000
  70
    32
  0
VERTEX
  8
AM_VIS
  5
2E0
 10
14.8113
 20
3.70665
 30
0.000000
  70
    32
  0
VERTEX
  8
AM_VIS
  5
2E1
 10
14.8094
 20
3.70730
 30
0.000000
  70
    32
  0
VERTEX
  8
AM_VIS
  5
2E2
 10
14.8075
 20
3.70795
 30
0.000000
  70
    32
  0
VERTEX
  8
AM_VIS
  5
2E3
 10
14.8056
 20
3.70859
 30
0.000000
  70
    32
  0
VERTEX
  8
AM_VIS
  5
2E4
 10
14.8037
 20
3.70922
 30
0.000000
  70
    32
  0
VERTEX
  8
AM_VIS
  5
2E5
 10
14.8018
 20
3.70983
 30
0.000000
  70
    32
  0
VERTEX
  8
AM_VIS
  5
2E6
 10
14.7999
 20
3.71044
 30
0.000000
  70
    32
  0
VERTEX
  8
AM_VIS
  5
2E7
 10
14.7980
 20
3.71104
 30
0.000000
  70
    32
  0
VERTEX
  8
AM_VIS
  5
2E8
 10
14.7960
 20
3.71163
 30
0.000000
  70
    32
  0
VERTEX
  8
AM_VIS
  5
2E9
 10
14.7941
 20
3.71221
 30
0.000000
  70
    32
  0
VERTEX
  8
AM_VIS
  5
2EA
 10
14.7922
 20
3.71278
 30
0.000000
  70
    32
  0
VERTEX
  8
AM_VIS
  5
2EB
 10
14.7902
 20
3.71334
 30
0.000000
  70
    32
  0
VERTEX
  8
AM_VIS
  5
2EC
 10
14.7883
 20
3.71388
 30
0.000000
  70
    32
  0
VERTEX
  8
AM_VIS
  5
2ED
 10
14.7864
 20
3.71442
 30
0.000000
  70
    32
  0
VERTEX
  8
AM_VIS
  5
2EE
 10
14.7844
 20
3.71495
 30
0.000000
  70
    32
  0
VERTEX
  8
AM_VIS
  5
2EF
 10
14.7825
 20
3.71547
 30
0.000000
  70
    32
  0
VERTEX
  8
AM_VIS
  5
2F0
 10
14.7805
 20
3.71598
 30
0.000000
  70
    32
  0
VERTEX
  8
AM_VIS
  5
2F1
 10
14.7786
 20
3.71648
 30
0.000000
  70
    32
  0
VERTEX
  8
AM_VIS
  5
2F2
 10
14.7766
 20
3.71697
 30
0.000000
  70
    32
  0
VERTEX
  8
AM_VIS
  5
2F3
 10
14.7747
 20
3.71745
 30
0.000000
  70
    32
  0
VERTEX
  8
AM_VIS
  5
2F4
 10
14.7727
 20
3.71791
 30
0.000000
  70
    32
  0
VERTEX
  8
AM_VIS
  5
2F5
 10
14.7707
 20
3.71837
 30
0.000000
  70
    32
  0
VERTEX
  8
AM_VIS
  5
2F6
 10
14.7688
 20
3.71882
 30
0.000000
  70
    32
  0
VERTEX
  8
AM_VIS
  5
2F7
 10
14.7668
 20
3.71926
 30
0.000000
  70
    32
  0
VERTEX
  8
AM_VIS
  5
2F8
 10
14.7648
 20
3.71969
 30
0.000000
  70
    32
  0
VERTEX
  8
AM_VIS
  5
2F9
 10
14.7629
 20
3.72010
 30
0.000000
  70
    32
  0
VERTEX
  8
AM_VIS
  5
2FA
 10
14.7609
 20
3.72051
 30
0.000000
  70
    32
  0
VERTEX
  8
AM_VIS
  5
2FB
 10
14.7589
 20
3.72091
 30
0.000000
  70
    32
  0
VERTEX
  8
AM_VIS
  5
2FC
 10
14.7569
 20
3.72129
 30
0.000000
  70
    32
  0
VERTEX
  8
AM_VIS
  5
2FD
 10
14.7549
 20
3.72167
 30
0.000000
  70
    32
  0
VERTEX
  8
AM_VIS
  5
2FE
 10
14.7530
 20
3.72203
 30
0.000000
  70
    32
  0
VERTEX
  8
AM_VIS
  5
2FF
 10
14.7510
 20
3.72239
 30
0.000000
  70
    32
  0
VERTEX
  8
AM_VIS
  5
300
 10
14.7490
 20
3.72273
 30
0.000000
  70
    32
  0
VERTEX
  8
AM_VIS
  5
301
 10
14.7470
 20
3.72307
 30
0.000000
  70
    32
  0
VERTEX
  8
AM_VIS
  5
302
 10
14.7450
 20
3.72339
 30
0.000000
  70
    32
  0
VERTEX
  8
AM_VIS
  5
303
 10
14.7430
 20
3.72370
 30
0.000000
  70
    32
  0
VERTEX
  8
AM_VIS
  5
304
 10
14.7410
 20
3.72400
 30
0.000000
  70
    32
  0
VERTEX
  8
AM_VIS
  5
305
 10
14.7390
 20
3.72429
 30
0.000000
  70
    32
  0
VERTEX
  8
AM_VIS
  5
306
 10
14.7370
 20
3.72457
 30
0.000000
  70
    32
  0
VERTEX
  8
AM_VIS
  5
307
 10
14.7349
 20
3.72484
 30
0.000000
  70
    32
  0
VERTEX
  8
AM_VIS
  5
308
 10
14.7329
 20
3.72510
 30
0.000000
  70
    32
  0
VERTEX
  8
AM_VIS
  5
309
 10
14.7309
 20
3.72535
 30
0.000000
  70
    32
  0
VERTEX
  8
AM_VIS
  5
30A
 10
14.7289
 20
3.72559
 30
0.000000
  70
    32
  0
VERTEX
  8
AM_VIS
  5
30B
 10
14.7269
 20
3.72581
 30
0.000000
  70
    32
  0
VERTEX
  8
AM_VIS
  5
30C
 10
14.7249
 20
3.72603
 30
0.000000
  70
    32
  0
VERTEX
  8
AM_VIS
  5
30D
 10
14.7229
 20
3.72623
 30
0.000000
  70
    32
  0
VERTEX
  8
AM_VIS
  5
30E
 10
14.7209
 20
3.72643
 30
0.000000
  70
    32
  0
VERTEX
  8
AM_VIS
  5
30F
 10
14.7188
 20
3.72661
 30
0.000000
  70
    32
  0
VERTEX
  8
AM_VIS
  5
310
 10
14.7168
 20
3.72678
 30
0.000000
  70
    32
  0
VERTEX
  8
AM_VIS
  5
311
 10
14.7148
 20
3.72694
 30
0.000000
  70
    32
  0
VERTEX
  8
AM_VIS
  5
312
 10
14.7128
 20
3.72709
 30
0.000000
  70
    32
  0
VERTEX
  8
AM_VIS
  5
313
 10
14.7108
 20
3.72723
 30
0.000000
  70
    32
  0
VERTEX
  8
AM_VIS
  5
314
 10
14.7087
 20
3.72735
 30
0.000000
  70
    32
  0
VERTEX
  8
AM_VIS
  5
315
 10
14.7067
 20
3.72747
 30
0.000000
  70
    32
  0
VERTEX
  8
AM_VIS
  5
316
 10
14.7047
 20
3.72758
 30
0.000000
  70
    32
  0
VERTEX
  8
AM_VIS
  5
317
 10
14.7027
 20
3.72767
 30
0.000000
  70
    32
  0
VERTEX
  8
AM_VIS
  5
318
 10
14.7006
 20
3.72775
 30
0.000000
  70
    32
  0
VERTEX
  8
AM_VIS
  5
319
 10
14.6986
 20
3.72783
 30
0.000000
  70
    32
  0
VERTEX
  8
AM_VIS
  5
31A
 10
14.6966
 20
3.72789
 30
0.000000
  70
    32
  0
VERTEX
  8
AM_VIS
  5
31B
 10
14.6946
 20
3.72794
 30
0.000000
  70
    32
  0
VERTEX
  8
AM_VIS
  5
31C
 10
14.6925
 20
3.72798
 30
0.000000
  70
    32
  0
VERTEX
  8
AM_VIS
  5
31D
 10
14.6905
 20
3.72800
 30
0.000000
  70
    32
  0
VERTEX
  8
AM_VIS
  5
31E
 10
14.6885
 20
3.72802
 30
0.000000
  70
    32
  0
VERTEX
  8
AM_VIS
  5
31F
 10
14.6864
 20
3.72803
 30
0.000000
  70
    32
  0
SEQEND
  8
AM_VIS
  5
320
  0
POLYLINE
  8
AM_VIS
  5
321
  66
     1
 10
0.000000
 20
0.000000
 30
0.000000
  70
     8
  0
VERTEX
  8
AM_VIS
  5
322
 10
14.6864
 20
2.63347
 30
0.000000
  70
    32
  0
VERTEX
  8
AM_VIS
  5
323
 10
14.6885
 20
2.63348
 30
0.000000
  70
    32
  0
VERTEX
  8
AM_VIS
  5
324
 10
14.6906
 20
2.63349
 30
0.000000
  70
    32
  0
VERTEX
  8
AM_VIS
  5
325
 10
14.6927
 20
2.63352
 30
0.000000
  70
    32
  0
VERTEX
  8
AM_VIS
  5
326
 10
14.6947
 20
2.63356
 30
0.000000
  70
    32
  0
VERTEX
  8
AM_VIS
  5
327
 10
14.6968
 20
2.63362
 30
0.000000
  70
    32
  0
VERTEX
  8
AM_VIS
  5
328
 10
14.6989
 20
2.63368
 30
0.000000
  70
    32
  0
VERTEX
  8
AM_VIS
  5
329
 10
14.7010
 20
2.63375
 30
0.000000
  70
    32
  0
VERTEX
  8
AM_VIS
  5
32A
 10
14.7030
 20
2.63384
 30
0.000000
  70
    32
  0
VERTEX
  8
AM_VIS
  5
32B
 10
14.7051
 20
2.63394
 30
0.000000
  70
    32
  0
VERTEX
  8
AM_VIS
  5
32C
 10
14.7071
 20
2.63405
 30
0.000000
  70
    32
  0
VERTEX
  8
AM_VIS
  5
32D
 10
14.7092
 20
2.63417
 30
0.000000
  70
    32
  0
VERTEX
  8
AM_VIS
  5
32E
 10
14.7113
 20
2.63430
 30
0.000000
  70
    32
  0
VERTEX
  8
AM_VIS
  5
32F
 10
14.7133
 20
2.63445
 30
0.000000
  70
    32
  0
VERTEX
  8
AM_VIS
  5
330
 10
14.7154
 20
2.63460
 30
0.000000
  70
    32
  0
VERTEX
  8
AM_VIS
  5
331
 10
14.7174
 20
2.63477
 30
0.000000
  70
    32
  0
VERTEX
  8
AM_VIS
  5
332
 10
14.7195
 20
2.63494
 30
0.000000
  70
    32
  0
VERTEX
  8
AM_VIS
  5
333
 10
14.7216
 20
2.63513
 30
0.000000
  70
    32
  0
VERTEX
  8
AM_VIS
  5
334
 10
14.7236
 20
2.63533
 30
0.000000
  70
    32
  0
VERTEX
  8
AM_VIS
  5
335
 10
14.7257
 20
2.63555
 30
0.000000
  70
    32
  0
VERTEX
  8
AM_VIS
  5
336
 10
14.7277
 20
2.63577
 30
0.000000
  70
    32
  0
VERTEX
  8
AM_VIS
  5
337
 10
14.7297
 20
2.63600
 30
0.000000
  70
    32
  0
VERTEX
  8
AM_VIS
  5
338
 10
14.7318
 20
2.63625
 30
0.000000
  70
    32
  0
VERTEX
  8
AM_VIS
  5
339
 10
14.7338
 20
2.63650
 30
0.000000
  70
    32
  0
VERTEX
  8
AM_VIS
  5
33A
 10
14.7359
 20
2.63677
 30
0.000000
  70
    32
  0
VERTEX
  8
AM_VIS
  5
33B
 10
14.7379
 20
2.63705
 30
0.000000
  70
    32
  0
VERTEX
  8
AM_VIS
  5
33C
 10
14.7399
 20
2.63734
 30
0.000000
  70
    32
  0
VERTEX
  8
AM_VIS
  5
33D
 10
14.7420
 20
2.63764
 30
0.000000
  70
    32
  0
VERTEX
  8
AM_VIS
  5
33E
 10
14.7440
 20
2.63795
 30
0.000000
  70
    32
  0
VERTEX
  8
AM_VIS
  5
33F
 10
14.7460
 20
2.63828
 30
0.000000
  70
    32
  0
VERTEX
  8
AM_VIS
  5
340
 10
14.7481
 20
2.63861
 30
0.000000
  70
    32
  0
VERTEX
  8
AM_VIS
  5
341
 10
14.7501
 20
2.63895
 30
0.000000
  70
    32
  0
VERTEX
  8
AM_VIS
  5
342
 10
14.7521
 20
2.63931
 30
0.000000
  70
    32
  0
VERTEX
  8
AM_VIS
  5
343
 10
14.7541
 20
2.63968
 30
0.000000
  70
    32
  0
VERTEX
  8
AM_VIS
  5
344
 10
14.7562
 20
2.64006
 30
0.000000
  70
    32
  0
VERTEX
  8
AM_VIS
  5
345
 10
14.7582
 20
2.64044
 30
0.000000
  70
    32
  0
VERTEX
  8
AM_VIS
  5
346
 10
14.7602
 20
2.64084
 30
0.000000
  70
    32
  0
VERTEX
  8
AM_VIS
  5
347
 10
14.7622
 20
2.64125
 30
0.000000
  70
    32
  0
VERTEX
  8
AM_VIS
  5
348
 10
14.7642
 20
2.64168
 30
0.000000
  70
    32
  0
VERTEX
  8
AM_VIS
  5
349
 10
14.7662
 20
2.64211
 30
0.000000
  70
    32
  0
VERTEX
  8
AM_VIS
  5
34A
 10
14.7682
 20
2.64255
 30
0.000000
  70
    32
  0
VERTEX
  8
AM_VIS
  5
34B
 10
14.7702
 20
2.64301
 30
0.000000
  70
    32
  0
VERTEX
  8
AM_VIS
  5
34C
 10
14.7722
 20
2.64347
 30
0.000000
  70
    32
  0
VERTEX
  8
AM_VIS
  5
34D
 10
14.7742
 20
2.64395
 30
0.000000
  70
    32
  0
VERTEX
  8
AM_VIS
  5
34E
 10
14.7762
 20
2.64443
 30
0.000000
  70
    32
  0
VERTEX
  8
AM_VIS
  5
34F
 10
14.7782
 20
2.64493
 30
0.000000
  70
    32
  0
VERTEX
  8
AM_VIS
  5
350
 10
14.7802
 20
2.64544
 30
0.000000
  70
    32
  0
VERTEX
  8
AM_VIS
  5
351
 10
14.7822
 20
2.64595
 30
0.000000
  70
    32
  0
VERTEX
  8
AM_VIS
  5
352
 10
14.7842
 20
2.64648
 30
0.000000
  70
    32
  0
VERTEX
  8
AM_VIS
  5
353
 10
14.7862
 20
2.64702
 30
0.000000
  70
    32
  0
VERTEX
  8
AM_VIS
  5
354
 10
14.7882
 20
2.64757
 30
0.000000
  70
    32
  0
VERTEX
  8
AM_VIS
  5
355
 10
14.7902
 20
2.64813
 30
0.000000
  70
    32
  0
VERTEX
  8
AM_VIS
  5
356
 10
14.7921
 20
2.64870
 30
0.000000
  70
    32
  0
VERTEX
  8
AM_VIS
  5
357
 10
14.7941
 20
2.64929
 30
0.000000
  70
    32
  0
VERTEX
  8
AM_VIS
  5
358
 10
14.7961
 20
2.64988
 30
0.000000
  70
    32
  0
VERTEX
  8
AM_VIS
  5
359
 10
14.7980
 20
2.65048
 30
0.000000
  70
    32
  0
VERTEX
  8
AM_VIS
  5
35A
 10
14.8000
 20
2.65109
 30
0.000000
  70
    32
  0
VERTEX
  8
AM_VIS
  5
35B
 10
14.8020
 20
2.65172
 30
0.000000
  70
    32
  0
VERTEX
  8
AM_VIS
  5
35C
 10
14.8039
 20
2.65235
 30
0.000000
  70
    32
  0
VERTEX
  8
AM_VIS
  5
35D
 10
14.8059
 20
2.65300
 30
0.000000
  70
    32
  0
VERTEX
  8
AM_VIS
  5
35E
 10
14.8079
 20
2.65365
 30
0.000000
  70
    32
  0
VERTEX
  8
AM_VIS
  5
35F
 10
14.8098
 20
2.65432
 30
0.000000
  70
    32
  0
VERTEX
  8
AM_VIS
  5
360
 10
14.8118
 20
2.65499
 30
0.000000
  70
    32
  0
VERTEX
  8
AM_VIS
  5
361
 10
14.8137
 20
2.65568
 30
0.000000
  70
    32
  0
VERTEX
  8
AM_VIS
  5
362
 10
14.8157
 20
2.65638
 30
0.000000
  70
    32
  0
VERTEX
  8
AM_VIS
  5
363
 10
14.8176
 20
2.65708
 30
0.000000
  70
    32
  0
VERTEX
  8
AM_VIS
  5
364
 10
14.8195
 20
2.65780
 30
0.000000
  70
    32
  0
VERTEX
  8
AM_VIS
  5
365
 10
14.8215
 20
2.65853
 30
0.000000
  70
    32
  0
VERTEX
  8
AM_VIS
  5
366
 10
14.8234
 20
2.65926
 30
0.000000
  70
    32
  0
VERTEX
  8
AM_VIS
  5
367
 10
14.8253
 20
2.66001
 30
0.000000
  70
    32
  0
VERTEX
  8
AM_VIS
  5
368
 10
14.8272
 20
2.66076
 30
0.000000
  70
    32
  0
VERTEX
  8
AM_VIS
  5
369
 10
14.8292
 20
2.66153
 30
0.000000
  70
    32
  0
VERTEX
  8
AM_VIS
  5
36A
 10
14.8311
 20
2.66230
 30
0.000000
  70
    32
  0
VERTEX
  8
AM_VIS
  5
36B
 10
14.8330
 20
2.66308
 30
0.000000
  70
    32
  0
VERTEX
  8
AM_VIS
  5
36C
 10
14.8349
 20
2.66388
 30
0.000000
  70
    32
  0
VERTEX
  8
AM_VIS
  5
36D
 10
14.8368
 20
2.66468
 30
0.000000
  70
    32
  0
VERTEX
  8
AM_VIS
  5
36E
 10
14.8387
 20
2.66549
 30
0.000000
  70
    32
  0
VERTEX
  8
AM_VIS
  5
36F
 10
14.8406
 20
2.66631
 30
0.000000
  70
    32
  0
VERTEX
  8
AM_VIS
  5
370
 10
14.8425
 20
2.66714
 30
0.000000
  70
    32
  0
VERTEX
  8
AM_VIS
  5
371
 10
14.8443
 20
2.66798
 30
0.000000
  70
    32
  0
VERTEX
  8
AM_VIS
  5
372
 10
14.8462
 20
2.66883
 30
0.000000
  70
    32
  0
VERTEX
  8
AM_VIS
  5
373
 10
14.8481
 20
2.66969
 30
0.000000
  70
    32
  0
VERTEX
  8
AM_VIS
  5
374
 10
14.8499
 20
2.67055
 30
0.000000
  70
    32
  0
VERTEX
  8
AM_VIS
  5
375
 10
14.8518
 20
2.67143
 30
0.000000
  70
    32
  0
VERTEX
  8
AM_VIS
  5
376
 10
14.8537
 20
2.67231
 30
0.000000
  70
    32
  0
VERTEX
  8
AM_VIS
  5
377
 10
14.8555
 20
2.67321
 30
0.000000
  70
    32
  0
VERTEX
  8
AM_VIS
  5
378
 10
14.8574
 20
2.67411
 30
0.000000
  70
    32
  0
VERTEX
  8
AM_VIS
  5
379
 10
14.8592
 20
2.67502
 30
0.000000
  70
    32
  0
VERTEX
  8
AM_VIS
  5
37A
 10
14.8610
 20
2.67594
 30
0.000000
  70
    32
  0
VERTEX
  8
AM_VIS
  5
37B
 10
14.8629
 20
2.67687
 30
0.000000
  70
    32
  0
VERTEX
  8
AM_VIS
  5
37C
 10
14.8647
 20
2.67781
 30
0.000000
  70
    32
  0
VERTEX
  8
AM_VIS
  5
37D
 10
14.8665
 20
2.67875
 30
0.000000
  70
    32
  0
VERTEX
  8
AM_VIS
  5
37E
 10
14.8684
 20
2.67971
 30
0.000000
  70
    32
  0
VERTEX
  8
AM_VIS
  5
37F
 10
14.8702
 20
2.68067
 30
0.000000
  70
    32
  0
VERTEX
  8
AM_VIS
  5
380
 10
14.8720
 20
2.68164
 30
0.000000
  70
    32
  0
VERTEX
  8
AM_VIS
  5
381
 10
14.8738
 20
2.68262
 30
0.000000
  70
    32
  0
VERTEX
  8
AM_VIS
  5
382
 10
14.8756
 20
2.68361
 30
0.000000
  70
    32
  0
VERTEX
  8
AM_VIS
  5
383
 10
14.8774
 20
2.68461
 30
0.000000
  70
    32
  0
VERTEX
  8
AM_VIS
  5
384
 10
14.8792
 20
2.68561
 30
0.000000
  70
    32
  0
VERTEX
  8
AM_VIS
  5
385
 10
14.8809
 20
2.68663
 30
0.000000
  70
    32
  0
VERTEX
  8
AM_VIS
  5
386
 10
14.8827
 20
2.68765
 30
0.000000
  70
    32
  0
VERTEX
  8
AM_VIS
  5
387
 10
14.8845
 20
2.68868
 30
0.000000
  70
    32
  0
VERTEX
  8
AM_VIS
  5
388
 10
14.8863
 20
2.68972
 30
0.000000
  70
    32
  0
VERTEX
  8
AM_VIS
  5
389
 10
14.8880
 20
2.69076
 30
0.000000
  70
    32
  0
VERTEX
  8
AM_VIS
  5
38A
 10
14.8898
 20
2.69182
 30
0.000000
  70
    32
  0
VERTEX
  8
AM_VIS
  5
38B
 10
14.8916
 20
2.69288
 30
0.000000
  70
    32
  0
VERTEX
  8
AM_VIS
  5
38C
 10
14.8933
 20
2.69395
 30
0.000000
  70
    32
  0
VERTEX
  8
AM_VIS
  5
38D
 10
14.8950
 20
2.69503
 30
0.000000
  70
    32
  0
VERTEX
  8
AM_VIS
  5
38E
 10
14.8968
 20
2.69612
 30
0.000000
  70
    32
  0
VERTEX
  8
AM_VIS
  5
38F
 10
14.8985
 20
2.69722
 30
0.000000
  70
    32
  0
VERTEX
  8
AM_VIS
  5
390
 10
14.9002
 20
2.69832
 30
0.000000
  70
    32
  0
VERTEX
  8
AM_VIS
  5
391
 10
14.9020
 20
2.69943
 30
0.000000
  70
    32
  0
VERTEX
  8
AM_VIS
  5
392
 10
14.9037
 20
2.70055
 30
0.000000
  70
    32
  0
VERTEX
  8
AM_VIS
  5
393
 10
14.9054
 20
2.70167
 30
0.000000
  70
    32
  0
VERTEX
  8
AM_VIS
  5
394
 10
14.9071
 20
2.70281
 30
0.000000
  70
    32
  0
VERTEX
  8
AM_VIS
  5
395
 10
14.9088
 20
2.70395
 30
0.000000
  70
    32
  0
VERTEX
  8
AM_VIS
  5
396
 10
14.9105
 20
2.70510
 30
0.000000
  70
    32
  0
VERTEX
  8
AM_VIS
  5
397
 10
14.9122
 20
2.70626
 30
0.000000
  70
    32
  0
VERTEX
  8
AM_VIS
  5
398
 10
14.9139
 20
2.70742
 30
0.000000
  70
    32
  0
VERTEX
  8
AM_VIS
  5
399
 10
14.9156
 20
2.70859
 30
0.000000
  70
    32
  0
VERTEX
  8
AM_VIS
  5
39A
 10
14.9173
 20
2.70977
 30
0.000000
  70
    32
  0
VERTEX
  8
AM_VIS
  5
39B
 10
14.9189
 20
2.71096
 30
0.000000
  70
    32
  0
VERTEX
  8
AM_VIS
  5
39C
 10
14.9206
 20
2.71215
 30
0.000000
  70
    32
  0
VERTEX
  8
AM_VIS
  5
39D
 10
14.9223
 20
2.71335
 30
0.000000
  70
    32
  0
VERTEX
  8
AM_VIS
  5
39E
 10
14.9239
 20
2.71456
 30
0.000000
  70
    32
  0
VERTEX
  8
AM_VIS
  5
39F
 10
14.9256
 20
2.71578
 30
0.000000
  70
    32
  0
VERTEX
  8
AM_VIS
  5
3A0
 10
14.9272
 20
2.71700
 30
0.000000
  70
    32
  0
VERTEX
  8
AM_VIS
  5
3A1
 10
14.9289
 20
2.71823
 30
0.000000
  70
    32
  0
VERTEX
  8
AM_VIS
  5
3A2
 10
14.9305
 20
2.71947
 30
0.000000
  70
    32
  0
VERTEX
  8
AM_VIS
  5
3A3
 10
14.9321
 20
2.72072
 30
0.000000
  70
    32
  0
VERTEX
  8
AM_VIS
  5
3A4
 10
14.9337
 20
2.72197
 30
0.000000
  70
    32
  0
VERTEX
  8
AM_VIS
  5
3A5
 10
14.9354
 20
2.72323
 30
0.000000
  70
    32
  0
VERTEX
  8
AM_VIS
  5
3A6
 10
14.9370
 20
2.72449
 30
0.000000
  70
    32
  0
VERTEX
  8
AM_VIS
  5
3A7
 10
14.9386
 20
2.72577
 30
0.000000
  70
    32
  0
VERTEX
  8
AM_VIS
  5
3A8
 10
14.9402
 20
2.72705
 30
0.000000
  70
    32
  0
VERTEX
  8
AM_VIS
  5
3A9
 10
14.9418
 20
2.72833
 30
0.000000
  70
    32
  0
VERTEX
  8
AM_VIS
  5
3AA
 10
14.9434
 20
2.72963
 30
0.000000
  70
    32
  0
VERTEX
  8
AM_VIS
  5
3AB
 10
14.9450
 20
2.73093
 30
0.000000
  70
    32
  0
VERTEX
  8
AM_VIS
  5
3AC
 10
14.9465
 20
2.73223
 30
0.000000
  70
    32
  0
VERTEX
  8
AM_VIS
  5
3AD
 10
14.9481
 20
2.73355
 30
0.000000
  70
    32
  0
VERTEX
  8
AM_VIS
  5
3AE
 10
14.9497
 20
2.73487
 30
0.000000
  70
    32
  0
VERTEX
  8
AM_VIS
  5
3AF
 10
14.9512
 20
2.73619
 30
0.000000
  70
    32
  0
VERTEX
  8
AM_VIS
  5
3B0
 10
14.9528
 20
2.73753
 30
0.000000
  70
    32
  0
VERTEX
  8
AM_VIS
  5
3B1
 10
14.9543
 20
2.73887
 30
0.000000
  70
    32
  0
VERTEX
  8
AM_VIS
  5
3B2
 10
14.9559
 20
2.74021
 30
0.000000
  70
    32
  0
VERTEX
  8
AM_VIS
  5
3B3
 10
14.9574
 20
2.74156
 30
0.000000
  70
    32
  0
VERTEX
  8
AM_VIS
  5
3B4
 10
14.9590
 20
2.74292
 30
0.000000
  70
    32
  0
VERTEX
  8
AM_VIS
  5
3B5
 10
14.9605
 20
2.74429
 30
0.000000
  70
    32
  0
VERTEX
  8
AM_VIS
  5
3B6
 10
14.9620
 20
2.74566
 30
0.000000
  70
    32
  0
VERTEX
  8
AM_VIS
  5
3B7
 10
14.9635
 20
2.74704
 30
0.000000
  70
    32
  0
VERTEX
  8
AM_VIS
  5
3B8
 10
14.9650
 20
2.74842
 30
0.000000
  70
    32
  0
VERTEX
  8
AM_VIS
  5
3B9
 10
14.9666
 20
2.74981
 30
0.000000
  70
    32
  0
VERTEX
  8
AM_VIS
  5
3BA
 10
14.9681
 20
2.75121
 30
0.000000
  70
    32
  0
VERTEX
  8
AM_VIS
  5
3BB
 10
14.9695
 20
2.75261
 30
0.000000
  70
    32
  0
VERTEX
  8
AM_VIS
  5
3BC
 10
14.9710
 20
2.75402
 30
0.000000
  70
    32
  0
VERTEX
  8
AM_VIS
  5
3BD
 10
14.9725
 20
2.75544
 30
0.000000
  70
    32
  0
VERTEX
  8
AM_VIS
  5
3BE
 10
14.9740
 20
2.75686
 30
0.000000
  70
    32
  0
VERTEX
  8
AM_VIS
  5
3BF
 10
14.9755
 20
2.75829
 30
0.000000
  70
    32
  0
VERTEX
  8
AM_VIS
  5
3C0
 10
14.9769
 20
2.75972
 30
0.000000
  70
    32
  0
VERTEX
  8
AM_VIS
  5
3C1
 10
14.9784
 20
2.76116
 30
0.000000
  70
    32
  0
VERTEX
  8
AM_VIS
  5
3C2
 10
14.9798
 20
2.76260
 30
0.000000
  70
    32
  0
VERTEX
  8
AM_VIS
  5
3C3
 10
14.9813
 20
2.76405
 30
0.000000
  70
    32
  0
VERTEX
  8
AM_VIS
  5
3C4
 10
14.9827
 20
2.76551
 30
0.000000
  70
    32
  0
VERTEX
  8
AM_VIS
  5
3C5
 10
14.9842
 20
2.76697
 30
0.000000
  70
    32
  0
VERTEX
  8
AM_VIS
  5
3C6
 10
14.9856
 20
2.76844
 30
0.000000
  70
    32
  0
VERTEX
  8
AM_VIS
  5
3C7
 10
14.9870
 20
2.76992
 30
0.000000
  70
    32
  0
VERTEX
  8
AM_VIS
  5
3C8
 10
14.9885
 20
2.77140
 30
0.000000
  70
    32
  0
VERTEX
  8
AM_VIS
  5
3C9
 10
14.9899
 20
2.77288
 30
0.000000
  70
    32
  0
VERTEX
  8
AM_VIS
  5
3CA
 10
14.9913
 20
2.77437
 30
0.000000
  70
    32
  0
VERTEX
  8
AM_VIS
  5
3CB
 10
14.9927
 20
2.77587
 30
0.000000
  70
    32
  0
VERTEX
  8
AM_VIS
  5
3CC
 10
14.9941
 20
2.77737
 30
0.000000
  70
    32
  0
VERTEX
  8
AM_VIS
  5
3CD
 10
14.9955
 20
2.77888
 30
0.000000
  70
    32
  0
VERTEX
  8
AM_VIS
  5
3CE
 10
14.9968
 20
2.78040
 30
0.000000
  70
    32
  0
VERTEX
  8
AM_VIS
  5
3CF
 10
14.9982
 20
2.78192
 30
0.000000
  70
    32
  0
VERTEX
  8
AM_VIS
  5
3D0
 10
14.9996
 20
2.78344
 30
0.000000
  70
    32
  0
VERTEX
  8
AM_VIS
  5
3D1
 10
15.0010
 20
2.78497
 30
0.000000
  70
    32
  0
VERTEX
  8
AM_VIS
  5
3D2
 10
15.0023
 20
2.78651
 30
0.000000
  70
    32
  0
VERTEX
  8
AM_VIS
  5
3D3
 10
15.0037
 20
2.78805
 30
0.000000
  70
    32
  0
VERTEX
  8
AM_VIS
  5
3D4
 10
15.0050
 20
2.78959
 30
0.000000
  70
    32
  0
VERTEX
  8
AM_VIS
  5
3D5
 10
15.0064
 20
2.79115
 30
0.000000
  70
    32
  0
VERTEX
  8
AM_VIS
  5
3D6
 10
15.0077
 20
2.79270
 30
0.000000
  70
    32
  0
VERTEX
  8
AM_VIS
  5
3D7
 10
15.0090
 20
2.79427
 30
0.000000
  70
    32
  0
VERTEX
  8
AM_VIS
  5
3D8
 10
15.0104
 20
2.79583
 30
0.000000
  70
    32
  0
VERTEX
  8
AM_VIS
  5
3D9
 10
15.0117
 20
2.79741
 30
0.000000
  70
    32
  0
VERTEX
  8
AM_VIS
  5
3DA
 10
15.0130
 20
2.79898
 30
0.000000
  70
    32
  0
VERTEX
  8
AM_VIS
  5
3DB
 10
15.0143
 20
2.80057
 30
0.000000
  70
    32
  0
VERTEX
  8
AM_VIS
  5
3DC
 10
15.0156
 20
2.80215
 30
0.000000
  70
    32
  0
VERTEX
  8
AM_VIS
  5
3DD
 10
15.0169
 20
2.80375
 30
0.000000
  70
    32
  0
VERTEX
  8
AM_VIS
  5
3DE
 10
15.0182
 20
2.80535
 30
0.000000
  70
    32
  0
VERTEX
  8
AM_VIS
  5
3DF
 10
15.0195
 20
2.80695
 30
0.000000
  70
    32
  0
VERTEX
  8
AM_VIS
  5
3E0
 10
15.0207
 20
2.80856
 30
0.000000
  70
    32
  0
VERTEX
  8
AM_VIS
  5
3E1
 10
15.0220
 20
2.81017
 30
0.000000
  70
    32
  0
VERTEX
  8
AM_VIS
  5
3E2
 10
15.0233
 20
2.81179
 30
0.000000
  70
    32
  0
VERTEX
  8
AM_VIS
  5
3E3
 10
15.0245
 20
2.81341
 30
0.000000
  70
    32
  0
VERTEX
  8
AM_VIS
  5
3E4
 10
15.0258
 20
2.81504
 30
0.000000
  70
    32
  0
VERTEX
  8
AM_VIS
  5
3E5
 10
15.0270
 20
2.81667
 30
0.000000
  70
    32
  0
VERTEX
  8
AM_VIS
  5
3E6
 10
15.0283
 20
2.81831
 30
0.000000
  70
    32
  0
VERTEX
  8
AM_VIS
  5
3E7
 10
15.0295
 20
2.81995
 30
0.000000
  70
    32
  0
VERTEX
  8
AM_VIS
  5
3E8
 10
15.0307
 20
2.82159
 30
0.000000
  70
    32
  0
VERTEX
  8
AM_VIS
  5
3E9
 10
15.0320
 20
2.82325
 30
0.000000
  70
    32
  0
VERTEX
  8
AM_VIS
  5
3EA
 10
15.0332
 20
2.82490
 30
0.000000
  70
    32
  0
VERTEX
  8
AM_VIS
  5
3EB
 10
15.0344
 20
2.82656
 30
0.000000
  70
    32
  0
VERTEX
  8
AM_VIS
  5
3EC
 10
15.0356
 20
2.82823
 30
0.000000
  70
    32
  0
VERTEX
  8
AM_VIS
  5
3ED
 10
15.0368
 20
2.82990
 30
0.000000
  70
    32
  0
VERTEX
  8
AM_VIS
  5
3EE
 10
15.0380
 20
2.83157
 30
0.000000
  70
    32
  0
VERTEX
  8
AM_VIS
  5
3EF
 10
15.0392
 20
2.83325
 30
0.000000
  70
    32
  0
VERTEX
  8
AM_VIS
  5
3F0
 10
15.0403
 20
2.83493
 30
0.000000
  70
    32
  0
VERTEX
  8
AM_VIS
  5
3F1
 10
15.0415
 20
2.83662
 30
0.000000
  70
    32
  0
VERTEX
  8
AM_VIS
  5
3F2
 10
15.0427
 20
2.83831
 30
0.000000
  70
    32
  0
VERTEX
  8
AM_VIS
  5
3F3
 10
15.0438
 20
2.84000
 30
0.000000
  70
    32
  0
VERTEX
  8
AM_VIS
  5
3F4
 10
15.0450
 20
2.84170
 30
0.000000
  70
    32
  0
VERTEX
  8
AM_VIS
  5
3F5
 10
15.0461
 20
2.84341
 30
0.000000
  70
    32
  0
VERTEX
  8
AM_VIS
  5
3F6
 10
15.0473
 20
2.84512
 30
0.000000
  70
    32
  0
VERTEX
  8
AM_VIS
  5
3F7
 10
15.0484
 20
2.84683
 30
0.000000
  70
    32
  0
VERTEX
  8
AM_VIS
  5
3F8
 10
15.0496
 20
2.84855
 30
0.000000
  70
    32
  0
VERTEX
  8
AM_VIS
  5
3F9
 10
15.0507
 20
2.85027
 30
0.000000
  70
    32
  0
VERTEX
  8
AM_VIS
  5
3FA
 10
15.0518
 20
2.85199
 30
0.000000
  70
    32
  0
VERTEX
  8
AM_VIS
  5
3FB
 10
15.0529
 20
2.85372
 30
0.000000
  70
    32
  0
VERTEX
  8
AM_VIS
  5
3FC
 10
15.0540
 20
2.85545
 30
0.000000
  70
    32
  0
VERTEX
  8
AM_VIS
  5
3FD
 10
15.0551
 20
2.85719
 30
0.000000
  70
    32
  0
VERTEX
  8
AM_VIS
  5
3FE
 10
15.0562
 20
2.85893
 30
0.000000
  70
    32
  0
VERTEX
  8
AM_VIS
  5
3FF
 10
15.0573
 20
2.86068
 30
0.000000
  70
    32
  0
VERTEX
  8
AM_VIS
  5
400
 10
15.0584
 20
2.86242
 30
0.000000
  70
    32
  0
VERTEX
  8
AM_VIS
  5
401
 10
15.0594
 20
2.86418
 30
0.000000
  70
    32
  0
VERTEX
  8
AM_VIS
  5
402
 10
15.0605
 20
2.86593
 30
0.000000
  70
    32
  0
VERTEX
  8
AM_VIS
  5
403
 10
15.0616
 20
2.86769
 30
0.000000
  70
    32
  0
VERTEX
  8
AM_VIS
  5
404
 10
15.0626
 20
2.86946
 30
0.000000
  70
    32
  0
VERTEX
  8
AM_VIS
  5
405
 10
15.0637
 20
2.87123
 30
0.000000
  70
    32
  0
VERTEX
  8
AM_VIS
  5
406
 10
15.0647
 20
2.87300
 30
0.000000
  70
    32
  0
VERTEX
  8
AM_VIS
  5
407
 10
15.0657
 20
2.87478
 30
0.000000
  70
    32
  0
VERTEX
  8
AM_VIS
  5
408
 10
15.0668
 20
2.87656
 30
0.000000
  70
    32
  0
VERTEX
  8
AM_VIS
  5
409
 10
15.0678
 20
2.87834
 30
0.000000
  70
    32
  0
VERTEX
  8
AM_VIS
  5
40A
 10
15.0688
 20
2.88013
 30
0.000000
  70
    32
  0
VERTEX
  8
AM_VIS
  5
40B
 10
15.0698
 20
2.88192
 30
0.000000
  70
    32
  0
VERTEX
  8
AM_VIS
  5
40C
 10
15.0708
 20
2.88372
 30
0.000000
  70
    32
  0
VERTEX
  8
AM_VIS
  5
40D
 10
15.0718
 20
2.88552
 30
0.000000
  70
    32
  0
VERTEX
  8
AM_VIS
  5
40E
 10
15.0728
 20
2.88732
 30
0.000000
  70
    32
  0
VERTEX
  8
AM_VIS
  5
40F
 10
15.0738
 20
2.88913
 30
0.000000
  70
    32
  0
VERTEX
  8
AM_VIS
  5
410
 10
15.0748
 20
2.89094
 30
0.000000
  70
    32
  0
VERTEX
  8
AM_VIS
  5
411
 10
15.0758
 20
2.89276
 30
0.000000
  70
    32
  0
VERTEX
  8
AM_VIS
  5
412
 10
15.0767
 20
2.89458
 30
0.000000
  70
    32
  0
VERTEX
  8
AM_VIS
  5
413
 10
15.0777
 20
2.89640
 30
0.000000
  70
    32
  0
VERTEX
  8
AM_VIS
  5
414
 10
15.0786
 20
2.89822
 30
0.000000
  70
    32
  0
VERTEX
  8
AM_VIS
  5
415
 10
15.0796
 20
2.90005
 30
0.000000
  70
    32
  0
VERTEX
  8
AM_VIS
  5
416
 10
15.0805
 20
2.90189
 30
0.000000
  70
    32
  0
VERTEX
  8
AM_VIS
  5
417
 10
15.0815
 20
2.90372
 30
0.000000
  70
    32
  0
VERTEX
  8
AM_VIS
  5
418
 10
15.0824
 20
2.90556
 30
0.000000
  70
    32
  0
VERTEX
  8
AM_VIS
  5
419
 10
15.0833
 20
2.90741
 30
0.000000
  70
    32
  0
VERTEX
  8
AM_VIS
  5
41A
 10
15.0842
 20
2.90926
 30
0.000000
  70
    32
  0
VERTEX
  8
AM_VIS
  5
41B
 10
15.0852
 20
2.91111
 30
0.000000
  70
    32
  0
VERTEX
  8
AM_VIS
  5
41C
 10
15.0861
 20
2.91296
 30
0.000000
  70
    32
  0
VERTEX
  8
AM_VIS
  5
41D
 10
15.0870
 20
2.91482
 30
0.000000
  70
    32
  0
VERTEX
  8
AM_VIS
  5
41E
 10
15.0879
 20
2.91668
 30
0.000000
  70
    32
  0
VERTEX
  8
AM_VIS
  5
41F
 10
15.0887
 20
2.91855
 30
0.000000
  70
    32
  0
VERTEX
  8
AM_VIS
  5
420
 10
15.0896
 20
2.92041
 30
0.000000
  70
    32
  0
VERTEX
  8
AM_VIS
  5
421
 10
15.0905
 20
2.92229
 30
0.000000
  70
    32
  0
VERTEX
  8
AM_VIS
  5
422
 10
15.0914
 20
2.92416
 30
0.000000
  70
    32
  0
VERTEX
  8
AM_VIS
  5
423
 10
15.0922
 20
2.92604
 30
0.000000
  70
    32
  0
VERTEX
  8
AM_VIS
  5
424
 10
15.0931
 20
2.92792
 30
0.000000
  70
    32
  0
VERTEX
  8
AM_VIS
  5
425
 10
15.0939
 20
2.92980
 30
0.000000
  70
    32
  0
VERTEX
  8
AM_VIS
  5
426
 10
15.0948
 20
2.93169
 30
0.000000
  70
    32
  0
VERTEX
  8
AM_VIS
  5
427
 10
15.0956
 20
2.93358
 30
0.000000
  70
    32
  0
VERTEX
  8
AM_VIS
  5
428
 10
15.0964
 20
2.93548
 30
0.000000
  70
    32
  0
VERTEX
  8
AM_VIS
  5
429
 10
15.0972
 20
2.93738
 30
0.000000
  70
    32
  0
VERTEX
  8
AM_VIS
  5
42A
 10
15.0981
 20
2.93928
 30
0.000000
  70
    32
  0
VERTEX
  8
AM_VIS
  5
42B
 10
15.0989
 20
2.94118
 30
0.000000
  70
    32
  0
VERTEX
  8
AM_VIS
  5
42C
 10
15.0997
 20
2.94309
 30
0.000000
  70
    32
  0
VERTEX
  8
AM_VIS
  5
42D
 10
15.1005
 20
2.94500
 30
0.000000
  70
    32
  0
VERTEX
  8
AM_VIS
  5
42E
 10
15.1012
 20
2.94691
 30
0.000000
  70
    32
  0
VERTEX
  8
AM_VIS
  5
42F
 10
15.1020
 20
2.94883
 30
0.000000
  70
    32
  0
VERTEX
  8
AM_VIS
  5
430
 10
15.1028
 20
2.95074
 30
0.000000
  70
    32
  0
VERTEX
  8
AM_VIS
  5
431
 10
15.1036
 20
2.95267
 30
0.000000
  70
    32
  0
VERTEX
  8
AM_VIS
  5
432
 10
15.1043
 20
2.95459
 30
0.000000
  70
    32
  0
VERTEX
  8
AM_VIS
  5
433
 10
15.1051
 20
2.95652
 30
0.000000
  70
    32
  0
VERTEX
  8
AM_VIS
  5
434
 10
15.1058
 20
2.95845
 30
0.000000
  70
    32
  0
VERTEX
  8
AM_VIS
  5
435
 10
15.1066
 20
2.96038
 30
0.000000
  70
    32
  0
VERTEX
  8
AM_VIS
  5
436
 10
15.1073
 20
2.96232
 30
0.000000
  70
    32
  0
VERTEX
  8
AM_VIS
  5
437
 10
15.1081
 20
2.96426
 30
0.000000
  70
    32
  0
VERTEX
  8
AM_VIS
  5
438
 10
15.1088
 20
2.96620
 30
0.000000
  70
    32
  0
VERTEX
  8
AM_VIS
  5
439
 10
15.1095
 20
2.96815
 30
0.000000
  70
    32
  0
VERTEX
  8
AM_VIS
  5
43A
 10
15.1102
 20
2.97009
 30
0.000000
  70
    32
  0
VERTEX
  8
AM_VIS
  5
43B
 10
15.1109
 20
2.97205
 30
0.000000
  70
    32
  0
VERTEX
  8
AM_VIS
  5
43C
 10
15.1116
 20
2.97400
 30
0.000000
  70
    32
  0
VERTEX
  8
AM_VIS
  5
43D
 10
15.1123
 20
2.97595
 30
0.000000
  70
    32
  0
VERTEX
  8
AM_VIS
  5
43E
 10
15.1130
 20
2.97791
 30
0.000000
  70
    32
  0
VERTEX
  8
AM_VIS
  5
43F
 10
15.1137
 20
2.97987
 30
0.000000
  70
    32
  0
VERTEX
  8
AM_VIS
  5
440
 10
15.1143
 20
2.98184
 30
0.000000
  70
    32
  0
VERTEX
  8
AM_VIS
  5
441
 10
15.1150
 20
2.98380
 30
0.000000
  70
    32
  0
VERTEX
  8
AM_VIS
  5
442
 10
15.1157
 20
2.98577
 30
0.000000
  70
    32
  0
VERTEX
  8
AM_VIS
  5
443
 10
15.1163
 20
2.98775
 30
0.000000
  70
    32
  0
VERTEX
  8
AM_VIS
  5
444
 10
15.1170
 20
2.98972
 30
0.000000
  70
    32
  0
VERTEX
  8
AM_VIS
  5
445
 10
15.1176
 20
2.99170
 30
0.000000
  70
    32
  0
VERTEX
  8
AM_VIS
  5
446
 10
15.1182
 20
2.99368
 30
0.000000
  70
    32
  0
VERTEX
  8
AM_VIS
  5
447
 10
15.1189
 20
2.99566
 30
0.000000
  70
    32
  0
VERTEX
  8
AM_VIS
  5
448
 10
15.1195
 20
2.99764
 30
0.000000
  70
    32
  0
VERTEX
  8
AM_VIS
  5
449
 10
15.1201
 20
2.99963
 30
0.000000
  70
    32
  0
VERTEX
  8
AM_VIS
  5
44A
 10
15.1207
 20
3.00162
 30
0.000000
  70
    32
  0
VERTEX
  8
AM_VIS
  5
44B
 10
15.1213
 20
3.00361
 30
0.000000
  70
    32
  0
VERTEX
  8
AM_VIS
  5
44C
 10
15.1219
 20
3.00560
 30
0.000000
  70
    32
  0
VERTEX
  8
AM_VIS
  5
44D
 10
15.1225
 20
3.00760
 30
0.000000
  70
    32
  0
VERTEX
  8
AM_VIS
  5
44E
 10
15.1230
 20
3.00959
 30
0.000000
  70
    32
  0
VERTEX
  8
AM_VIS
  5
44F
 10
15.1236
 20
3.01160
 30
0.000000
  70
    32
  0
VERTEX
  8
AM_VIS
  5
450
 10
15.1242
 20
3.01360
 30
0.000000
  70
    32
  0
VERTEX
  8
AM_VIS
  5
451
 10
15.1247
 20
3.01560
 30
0.000000
  70
    32
  0
VERTEX
  8
AM_VIS
  5
452
 10
15.1253
 20
3.01761
 30
0.000000
  70
    32
  0
VERTEX
  8
AM_VIS
  5
453
 10
15.1258
 20
3.01962
 30
0.000000
  70
    32
  0
VERTEX
  8
AM_VIS
  5
454
 10
15.1264
 20
3.02163
 30
0.000000
  70
    32
  0
VERTEX
  8
AM_VIS
  5
455
 10
15.1269
 20
3.02364
 30
0.000000
  70
    32
  0
VERTEX
  8
AM_VIS
  5
456
 10
15.1274
 20
3.02566
 30
0.000000
  70
    32
  0
VERTEX
  8
AM_VIS
  5
457
 10
15.1280
 20
3.02768
 30
0.000000
  70
    32
  0
VERTEX
  8
AM_VIS
  5
458
 10
15.1285
 20
3.02970
 30
0.000000
  70
    32
  0
VERTEX
  8
AM_VIS
  5
459
 10
15.1290
 20
3.03172
 30
0.000000
  70
    32
  0
VERTEX
  8
AM_VIS
  5
45A
 10
15.1295
 20
3.03374
 30
0.000000
  70
    32
  0
VERTEX
  8
AM_VIS
  5
45B
 10
15.1300
 20
3.03577
 30
0.000000
  70
    32
  0
VERTEX
  8
AM_VIS
  5
45C
 10
15.1304
 20
3.03780
 30
0.000000
  70
    32
  0
VERTEX
  8
AM_VIS
  5
45D
 10
15.1309
 20
3.03983
 30
0.000000
  70
    32
  0
VERTEX
  8
AM_VIS
  5
45E
 10
15.1314
 20
3.04186
 30
0.000000
  70
    32
  0
VERTEX
  8
AM_VIS
  5
45F
 10
15.1319
 20
3.04389
 30
0.000000
  70
    32
  0
VERTEX
  8
AM_VIS
  5
460
 10
15.1323
 20
3.04593
 30
0.000000
  70
    32
  0
VERTEX
  8
AM_VIS
  5
461
 10
15.1328
 20
3.04797
 30
0.000000
  70
    32
  0
VERTEX
  8
AM_VIS
  5
462
 10
15.1332
 20
3.05000
 30
0.000000
  70
    32
  0
VERTEX
  8
AM_VIS
  5
463
 10
15.1336
 20
3.05205
 30
0.000000
  70
    32
  0
VERTEX
  8
AM_VIS
  5
464
 10
15.1341
 20
3.05409
 30
0.000000
  70
    32
  0
VERTEX
  8
AM_VIS
  5
465
 10
15.1345
 20
3.05613
 30
0.000000
  70
    32
  0
VERTEX
  8
AM_VIS
  5
466
 10
15.1349
 20
3.05818
 30
0.000000
  70
    32
  0
VERTEX
  8
AM_VIS
  5
467
 10
15.1353
 20
3.06023
 30
0.000000
  70
    32
  0
VERTEX
  8
AM_VIS
  5
468
 10
15.1357
 20
3.06228
 30
0.000000
  70
    32
  0
VERTEX
  8
AM_VIS
  5
469
 10
15.1361
 20
3.06433
 30
0.000000
  70
    32
  0
VERTEX
  8
AM_VIS
  5
46A
 10
15.1365
 20
3.06638
 30
0.000000
  70
    32
  0
VERTEX
  8
AM_VIS
  5
46B
 10
15.1369
 20
3.06844
 30
0.000000
  70
    32
  0
VERTEX
  8
AM_VIS
  5
46C
 10
15.1373
 20
3.07049
 30
0.000000
  70
    32
  0
VERTEX
  8
AM_VIS
  5
46D
 10
15.1376
 20
3.07255
 30
0.000000
  70
    32
  0
VERTEX
  8
AM_VIS
  5
46E
 10
15.1380
 20
3.07461
 30
0.000000
  70
    32
  0
VERTEX
  8
AM_VIS
  5
46F
 10
15.1383
 20
3.07667
 30
0.000000
  70
    32
  0
VERTEX
  8
AM_VIS
  5
470
 10
15.1387
 20
3.07873
 30
0.000000
  70
    32
  0
VERTEX
  8
AM_VIS
  5
471
 10
15.1390
 20
3.08079
 30
0.000000
  70
    32
  0
VERTEX
  8
AM_VIS
  5
472
 10
15.1394
 20
3.08285
 30
0.000000
  70
    32
  0
VERTEX
  8
AM_VIS
  5
473
 10
15.1397
 20
3.08492
 30
0.000000
  70
    32
  0
VERTEX
  8
AM_VIS
  5
474
 10
15.1400
 20
3.08698
 30
0.000000
  70
    32
  0
VERTEX
  8
AM_VIS
  5
475
 10
15.1403
 20
3.08905
 30
0.000000
  70
    32
  0
VERTEX
  8
AM_VIS
  5
476
 10
15.1406
 20
3.09112
 30
0.000000
  70
    32
  0
VERTEX
  8
AM_VIS
  5
477
 10
15.1409
 20
3.09318
 30
0.000000
  70
    32
  0
VERTEX
  8
AM_VIS
  5
478
 10
15.1412
 20
3.09525
 30
0.000000
  70
    32
  0
VERTEX
  8
AM_VIS
  5
479
 10
15.1415
 20
3.09732
 30
0.000000
  70
    32
  0
VERTEX
  8
AM_VIS
  5
47A
 10
15.1418
 20
3.09939
 30
0.000000
  70
    32
  0
VERTEX
  8
AM_VIS
  5
47B
 10
15.1420
 20
3.10147
 30
0.000000
  70
    32
  0
VERTEX
  8
AM_VIS
  5
47C
 10
15.1423
 20
3.10354
 30
0.000000
  70
    32
  0
VERTEX
  8
AM_VIS
  5
47D
 10
15.1426
 20
3.10561
 30
0.000000
  70
    32
  0
VERTEX
  8
AM_VIS
  5
47E
 10
15.1428
 20
3.10769
 30
0.000000
  70
    32
  0
VERTEX
  8
AM_VIS
  5
47F
 10
15.1431
 20
3.10976
 30
0.000000
  70
    32
  0
VERTEX
  8
AM_VIS
  5
480
 10
15.1433
 20
3.11184
 30
0.000000
  70
    32
  0
VERTEX
  8
AM_VIS
  5
481
 10
15.1435
 20
3.11392
 30
0.000000
  70
    32
  0
VERTEX
  8
AM_VIS
  5
482
 10
15.1437
 20
3.11600
 30
0.000000
  70
    32
  0
VERTEX
  8
AM_VIS
  5
483
 10
15.1440
 20
3.11808
 30
0.000000
  70
    32
  0
VERTEX
  8
AM_VIS
  5
484
 10
15.1442
 20
3.12016
 30
0.000000
  70
    32
  0
VERTEX
  8
AM_VIS
  5
485
 10
15.1444
 20
3.12224
 30
0.000000
  70
    32
  0
VERTEX
  8
AM_VIS
  5
486
 10
15.1446
 20
3.12432
 30
0.000000
  70
    32
  0
VERTEX
  8
AM_VIS
  5
487
 10
15.1447
 20
3.12640
 30
0.000000
  70
    32
  0
VERTEX
  8
AM_VIS
  5
488
 10
15.1449
 20
3.12848
 30
0.000000
  70
    32
  0
VERTEX
  8
AM_VIS
  5
489
 10
15.1451
 20
3.13057
 30
0.000000
  70
    32
  0
VERTEX
  8
AM_VIS
  5
48A
 10
15.1453
 20
3.13265
 30
0.000000
  70
    32
  0
VERTEX
  8
AM_VIS
  5
48B
 10
15.1454
 20
3.13474
 30
0.000000
  70
    32
  0
VERTEX
  8
AM_VIS
  5
48C
 10
15.1456
 20
3.13682
 30
0.000000
  70
    32
  0
VERTEX
  8
AM_VIS
  5
48D
 10
15.1457
 20
3.13891
 30
0.000000
  70
    32
  0
VERTEX
  8
AM_VIS
  5
48E
 10
15.1459
 20
3.14099
 30
0.000000
  70
    32
  0
VERTEX
  8
AM_VIS
  5
48F
 10
15.1460
 20
3.14308
 30
0.000000
  70
    32
  0
VERTEX
  8
AM_VIS
  5
490
 10
15.1461
 20
3.14517
 30
0.000000
  70
    32
  0
VERTEX
  8
AM_VIS
  5
491
 10
15.1462
 20
3.14726
 30
0.000000
  70
    32
  0
VERTEX
  8
AM_VIS
  5
492
 10
15.1463
 20
3.14935
 30
0.000000
  70
    32
  0
VERTEX
  8
AM_VIS
  5
493
 10
15.1464
 20
3.15144
 30
0.000000
  70
    32
  0
VERTEX
  8
AM_VIS
  5
494
 10
15.1465
 20
3.15353
 30
0.000000
  70
    32
  0
VERTEX
  8
AM_VIS
  5
495
 10
15.1466
 20
3.15562
 30
0.000000
  70
    32
  0
VERTEX
  8
AM_VIS
  5
496
 10
15.1467
 20
3.15771
 30
0.000000
  70
    32
  0
VERTEX
  8
AM_VIS
  5
497
 10
15.1468
 20
3.15980
 30
0.000000
  70
    32
  0
VERTEX
  8
AM_VIS
  5
498
 10
15.1468
 20
3.16190
 30
0.000000
  70
    32
  0
VERTEX
  8
AM_VIS
  5
499
 10
15.1469
 20
3.16399
 30
0.000000
  70
    32
  0
VERTEX
  8
AM_VIS
  5
49A
 10
15.1470
 20
3.16608
 30
0.000000
  70
    32
  0
VERTEX
  8
AM_VIS
  5
49B
 10
15.1470
 20
3.16818
 30
0.000000
  70
    32
  0
VERTEX
  8
AM_VIS
  5
49C
 10
15.1470
 20
3.17027
 30
0.000000
  70
    32
  0
VERTEX
  8
AM_VIS
  5
49D
 10
15.1471
 20
3.17237
 30
0.000000
  70
    32
  0
VERTEX
  8
AM_VIS
  5
49E
 10
15.1471
 20
3.17446
 30
0.000000
  70
    32
  0
VERTEX
  8
AM_VIS
  5
49F
 10
15.1471
 20
3.17656
 30
0.000000
  70
    32
  0
VERTEX
  8
AM_VIS
  5
4A0
 10
15.1471
 20
3.17865
 30
0.000000
  70
    32
  0
VERTEX
  8
AM_VIS
  5
4A1
 10
15.1471
 20
3.18075
 30
0.000000
  70
    32
  0
SEQEND
  8
AM_VIS
  5
4A2
  0
POLYLINE
  8
AM_VIS
  5
4A3
  66
     1
 10
0.000000
 20
0.000000
 30
0.000000
  70
     8
  0
VERTEX
  8
AM_VIS
  5
4A4
 10
14.2258
 20
3.18075
 30
0.000000
  70
    32
  0
VERTEX
  8
AM_VIS
  5
4A5
 10
14.2258
 20
3.17858
 30
0.000000
  70
    32
  0
VERTEX
  8
AM_VIS
  5
4A6
 10
14.2258
 20
3.17642
 30
0.000000
  70
    32
  0
VERTEX
  8
AM_VIS
  5
4A7
 10
14.2258
 20
3.17425
 30
0.000000
  70
    32
  0
VERTEX
  8
AM_VIS
  5
4A8
 10
14.2258
 20
3.17209
 30
0.000000
  70
    32
  0
VERTEX
  8
AM_VIS
  5
4A9
 10
14.2258
 20
3.16993
 30
0.000000
  70
    32
  0
VERTEX
  8
AM_VIS
  5
4AA
 10
14.2259
 20
3.16776
 30
0.000000
  70
    32
  0
VERTEX
  8
AM_VIS
  5
4AB
 10
14.2259
 20
3.16560
 30
0.000000
  70
    32
  0
VERTEX
  8
AM_VIS
  5
4AC
 10
14.2260
 20
3.16344
 30
0.000000
  70
    32
  0
VERTEX
  8
AM_VIS
  5
4AD
 10
14.2261
 20
3.16128
 30
0.000000
  70
    32
  0
VERTEX
  8
AM_VIS
  5
4AE
 10
14.2261
 20
3.15912
 30
0.000000
  70
    32
  0
VERTEX
  8
AM_VIS
  5
4AF
 10
14.2262
 20
3.15696
 30
0.000000
  70
    32
  0
VERTEX
  8
AM_VIS
  5
4B0
 10
14.2263
 20
3.15480
 30
0.000000
  70
    32
  0
VERTEX
  8
AM_VIS
  5
4B1
 10
14.2264
 20
3.15265
 30
0.000000
  70
    32
  0
VERTEX
  8
AM_VIS
  5
4B2
 10
14.2265
 20
3.15049
 30
0.000000
  70
    32
  0
VERTEX
  8
AM_VIS
  5
4B3
 10
14.2266
 20
3.14833
 30
0.000000
  70
    32
  0
VERTEX
  8
AM_VIS
  5
4B4
 10
14.2267
 20
3.14618
 30
0.000000
  70
    32
  0
VERTEX
  8
AM_VIS
  5
4B5
 10
14.2268
 20
3.14402
 30
0.000000
  70
    32
  0
VERTEX
  8
AM_VIS
  5
4B6
 10
14.2270
 20
3.14187
 30
0.000000
  70
    32
  0
VERTEX
  8
AM_VIS
  5
4B7
 10
14.2271
 20
3.13972
 30
0.000000
  70
    32
  0
VERTEX
  8
AM_VIS
  5
4B8
 10
14.2272
 20
3.13757
 30
0.000000
  70
    32
  0
VERTEX
  8
AM_VIS
  5
4B9
 10
14.2274
 20
3.13542
 30
0.000000
  70
    32
  0
VERTEX
  8
AM_VIS
  5
4BA
 10
14.2276
 20
3.13327
 30
0.000000
  70
    32
  0
VERTEX
  8
AM_VIS
  5
4BB
 10
14.2277
 20
3.13112
 30
0.000000
  70
    32
  0
VERTEX
  8
AM_VIS
  5
4BC
 10
14.2279
 20
3.12897
 30
0.000000
  70
    32
  0
VERTEX
  8
AM_VIS
  5
4BD
 10
14.2281
 20
3.12682
 30
0.000000
  70
    32
  0
VERTEX
  8
AM_VIS
  5
4BE
 10
14.2283
 20
3.12468
 30
0.000000
  70
    32
  0
VERTEX
  8
AM_VIS
  5
4BF
 10
14.2285
 20
3.12253
 30
0.000000
  70
    32
  0
VERTEX
  8
AM_VIS
  5
4C0
 10
14.2287
 20
3.12039
 30
0.000000
  70
    32
  0
VERTEX
  8
AM_VIS
  5
4C1
 10
14.2289
 20
3.11825
 30
0.000000
  70
    32
  0
VERTEX
  8
AM_VIS
  5
4C2
 10
14.2291
 20
3.11611
 30
0.000000
  70
    32
  0
VERTEX
  8
AM_VIS
  5
4C3
 10
14.2293
 20
3.11397
 30
0.000000
  70
    32
  0
VERTEX
  8
AM_VIS
  5
4C4
 10
14.2296
 20
3.11183
 30
0.000000
  70
    32
  0
VERTEX
  8
AM_VIS
  5
4C5
 10
14.2298
 20
3.10969
 30
0.000000
  70
    32
  0
VERTEX
  8
AM_VIS
  5
4C6
 10
14.2301
 20
3.10755
 30
0.000000
  70
    32
  0
VERTEX
  8
AM_VIS
  5
4C7
 10
14.2303
 20
3.10542
 30
0.000000
  70
    32
  0
VERTEX
  8
AM_VIS
  5
4C8
 10
14.2306
 20
3.10328
 30
0.000000
  70
    32
  0
VERTEX
  8
AM_VIS
  5
4C9
 10
14.2309
 20
3.10115
 30
0.000000
  70
    32
  0
VERTEX
  8
AM_VIS
  5
4CA
 10
14.2311
 20
3.09902
 30
0.000000
  70
    32
  0
VERTEX
  8
AM_VIS
  5
4CB
 10
14.2314
 20
3.09689
 30
0.000000
  70
    32
  0
VERTEX
  8
AM_VIS
  5
4CC
 10
14.2317
 20
3.09476
 30
0.000000
  70
    32
  0
VERTEX
  8
AM_VIS
  5
4CD
 10
14.2320
 20
3.09263
 30
0.000000
  70
    32
  0
VERTEX
  8
AM_VIS
  5
4CE
 10
14.2323
 20
3.09051
 30
0.000000
  70
    32
  0
VERTEX
  8
AM_VIS
  5
4CF
 10
14.2326
 20
3.08838
 30
0.000000
  70
    32
  0
VERTEX
  8
AM_VIS
  5
4D0
 10
14.2330
 20
3.08626
 30
0.000000
  70
    32
  0
VERTEX
  8
AM_VIS
  5
4D1
 10
14.2333
 20
3.08414
 30
0.000000
  70
    32
  0
VERTEX
  8
AM_VIS
  5
4D2
 10
14.2336
 20
3.08202
 30
0.000000
  70
    32
  0
VERTEX
  8
AM_VIS
  5
4D3
 10
14.2340
 20
3.07990
 30
0.000000
  70
    32
  0
VERTEX
  8
AM_VIS
  5
4D4
 10
14.2343
 20
3.07778
 30
0.000000
  70
    32
  0
VERTEX
  8
AM_VIS
  5
4D5
 10
14.2347
 20
3.07566
 30
0.000000
  70
    32
  0
VERTEX
  8
AM_VIS
  5
4D6
 10
14.2351
 20
3.07355
 30
0.000000
  70
    32
  0
VERTEX
  8
AM_VIS
  5
4D7
 10
14.2354
 20
3.07144
 30
0.000000
  70
    32
  0
VERTEX
  8
AM_VIS
  5
4D8
 10
14.2358
 20
3.06933
 30
0.000000
  70
    32
  0
VERTEX
  8
AM_VIS
  5
4D9
 10
14.2362
 20
3.06722
 30
0.000000
  70
    32
  0
VERTEX
  8
AM_VIS
  5
4DA
 10
14.2366
 20
3.06511
 30
0.000000
  70
    32
  0
VERTEX
  8
AM_VIS
  5
4DB
 10
14.2370
 20
3.06300
 30
0.000000
  70
    32
  0
VERTEX
  8
AM_VIS
  5
4DC
 10
14.2374
 20
3.06090
 30
0.000000
  70
    32
  0
VERTEX
  8
AM_VIS
  5
4DD
 10
14.2378
 20
3.05880
 30
0.000000
  70
    32
  0
VERTEX
  8
AM_VIS
  5
4DE
 10
14.2383
 20
3.05669
 30
0.000000
  70
    32
  0
VERTEX
  8
AM_VIS
  5
4DF
 10
14.2387
 20
3.05459
 30
0.000000
  70
    32
  0
VERTEX
  8
AM_VIS
  5
4E0
 10
14.2391
 20
3.05250
 30
0.000000
  70
    32
  0
VERTEX
  8
AM_VIS
  5
4E1
 10
14.2396
 20
3.05040
 30
0.000000
  70
    32
  0
VERTEX
  8
AM_VIS
  5
4E2
 10
14.2400
 20
3.04831
 30
0.000000
  70
    32
  0
VERTEX
  8
AM_VIS
  5
4E3
 10
14.2405
 20
3.04621
 30
0.000000
  70
    32
  0
VERTEX
  8
AM_VIS
  5
4E4
 10
14.2410
 20
3.04412
 30
0.000000
  70
    32
  0
VERTEX
  8
AM_VIS
  5
4E5
 10
14.2414
 20
3.04204
 30
0.000000
  70
    32
  0
VERTEX
  8
AM_VIS
  5
4E6
 10
14.2419
 20
3.03995
 30
0.000000
  70
    32
  0
VERTEX
  8
AM_VIS
  5
4E7
 10
14.2424
 20
3.03786
 30
0.000000
  70
    32
  0
VERTEX
  8
AM_VIS
  5
4E8
 10
14.2429
 20
3.03578
 30
0.000000
  70
    32
  0
VERTEX
  8
AM_VIS
  5
4E9
 10
14.2434
 20
3.03370
 30
0.000000
  70
    32
  0
VERTEX
  8
AM_VIS
  5
4EA
 10
14.2439
 20
3.03162
 30
0.000000
  70
    32
  0
VERTEX
  8
AM_VIS
  5
4EB
 10
14.2444
 20
3.02954
 30
0.000000
  70
    32
  0
VERTEX
  8
AM_VIS
  5
4EC
 10
14.2450
 20
3.02747
 30
0.000000
  70
    32
  0
VERTEX
  8
AM_VIS
  5
4ED
 10
14.2455
 20
3.02540
 30
0.000000
  70
    32
  0
VERTEX
  8
AM_VIS
  5
4EE
 10
14.2460
 20
3.02332
 30
0.000000
  70
    32
  0
VERTEX
  8
AM_VIS
  5
4EF
 10
14.2466
 20
3.02126
 30
0.000000
  70
    32
  0
VERTEX
  8
AM_VIS
  5
4F0
 10
14.2471
 20
3.01919
 30
0.000000
  70
    32
  0
VERTEX
  8
AM_VIS
  5
4F1
 10
14.2477
 20
3.01712
 30
0.000000
  70
    32
  0
VERTEX
  8
AM_VIS
  5
4F2
 10
14.2483
 20
3.01506
 30
0.000000
  70
    32
  0
VERTEX
  8
AM_VIS
  5
4F3
 10
14.2489
 20
3.01300
 30
0.000000
  70
    32
  0
VERTEX
  8
AM_VIS
  5
4F4
 10
14.2494
 20
3.01094
 30
0.000000
  70
    32
  0
VERTEX
  8
AM_VIS
  5
4F5
 10
14.2500
 20
3.00889
 30
0.000000
  70
    32
  0
VERTEX
  8
AM_VIS
  5
4F6
 10
14.2506
 20
3.00683
 30
0.000000
  70
    32
  0
VERTEX
  8
AM_VIS
  5
4F7
 10
14.2512
 20
3.00478
 30
0.000000
  70
    32
  0
VERTEX
  8
AM_VIS
  5
4F8
 10
14.2518
 20
3.00273
 30
0.000000
  70
    32
  0
VERTEX
  8
AM_VIS
  5
4F9
 10
14.2525
 20
3.00068
 30
0.000000
  70
    32
  0
VERTEX
  8
AM_VIS
  5
4FA
 10
14.2531
 20
2.99864
 30
0.000000
  70
    32
  0
VERTEX
  8
AM_VIS
  5
4FB
 10
14.2537
 20
2.99660
 30
0.000000
  70
    32
  0
VERTEX
  8
AM_VIS
  5
4FC
 10
14.2544
 20
2.99456
 30
0.000000
  70
    32
  0
VERTEX
  8
AM_VIS
  5
4FD
 10
14.2550
 20
2.99252
 30
0.000000
  70
    32
  0
VERTEX
  8
AM_VIS
  5
4FE
 10
14.2557
 20
2.99048
 30
0.000000
  70
    32
  0
VERTEX
  8
AM_VIS
  5
4FF
 10
14.2563
 20
2.98845
 30
0.000000
  70
    32
  0
VERTEX
  8
AM_VIS
  5
500
 10
14.2570
 20
2.98642
 30
0.000000
  70
    32
  0
VERTEX
  8
AM_VIS
  5
501
 10
14.2577
 20
2.98439
 30
0.000000
  70
    32
  0
VERTEX
  8
AM_VIS
  5
502
 10
14.2584
 20
2.98237
 30
0.000000
  70
    32
  0
VERTEX
  8
AM_VIS
  5
503
 10
14.2590
 20
2.98034
 30
0.000000
  70
    32
  0
VERTEX
  8
AM_VIS
  5
504
 10
14.2597
 20
2.97832
 30
0.000000
  70
    32
  0
VERTEX
  8
AM_VIS
  5
505
 10
14.2604
 20
2.97630
 30
0.000000
  70
    32
  0
VERTEX
  8
AM_VIS
  5
506
 10
14.2612
 20
2.97429
 30
0.000000
  70
    32
  0
VERTEX
  8
AM_VIS
  5
507
 10
14.2619
 20
2.97227
 30
0.000000
  70
    32
  0
VERTEX
  8
AM_VIS
  5
508
 10
14.2626
 20
2.97026
 30
0.000000
  70
    32
  0
VERTEX
  8
AM_VIS
  5
509
 10
14.2633
 20
2.96825
 30
0.000000
  70
    32
  0
VERTEX
  8
AM_VIS
  5
50A
 10
14.2641
 20
2.96625
 30
0.000000
  70
    32
  0
VERTEX
  8
AM_VIS
  5
50B
 10
14.2648
 20
2.96425
 30
0.000000
  70
    32
  0
VERTEX
  8
AM_VIS
  5
50C
 10
14.2656
 20
2.96225
 30
0.000000
  70
    32
  0
VERTEX
  8
AM_VIS
  5
50D
 10
14.2663
 20
2.96025
 30
0.000000
  70
    32
  0
VERTEX
  8
AM_VIS
  5
50E
 10
14.2671
 20
2.95825
 30
0.000000
  70
    32
  0
VERTEX
  8
AM_VIS
  5
50F
 10
14.2679
 20
2.95626
 30
0.000000
  70
    32
  0
VERTEX
  8
AM_VIS
  5
510
 10
14.2687
 20
2.95427
 30
0.000000
  70
    32
  0
VERTEX
  8
AM_VIS
  5
511
 10
14.2694
 20
2.95229
 30
0.000000
  70
    32
  0
VERTEX
  8
AM_VIS
  5
512
 10
14.2702
 20
2.95031
 30
0.000000
  70
    32
  0
VERTEX
  8
AM_VIS
  5
513
 10
14.2710
 20
2.94834
 30
0.000000
  70
    32
  0
VERTEX
  8
AM_VIS
  5
514
 10
14.2719
 20
2.94636
 30
0.000000
  70
    32
  0
VERTEX
  8
AM_VIS
  5
515
 10
14.2727
 20
2.94440
 30
0.000000
  70
    32
  0
VERTEX
  8
AM_VIS
  5
516
 10
14.2735
 20
2.94243
 30
0.000000
  70
    32
  0
VERTEX
  8
AM_VIS
  5
517
 10
14.2743
 20
2.94047
 30
0.000000
  70
    32
  0
VERTEX
  8
AM_VIS
  5
518
 10
14.2751
 20
2.93852
 30
0.000000
  70
    32
  0
VERTEX
  8
AM_VIS
  5
519
 10
14.2760
 20
2.93657
 30
0.000000
  70
    32
  0
VERTEX
  8
AM_VIS
  5
51A
 10
14.2768
 20
2.93462
 30
0.000000
  70
    32
  0
VERTEX
  8
AM_VIS
  5
51B
 10
14.2777
 20
2.93268
 30
0.000000
  70
    32
  0
VERTEX
  8
AM_VIS
  5
51C
 10
14.2785
 20
2.93074
 30
0.000000
  70
    32
  0
VERTEX
  8
AM_VIS
  5
51D
 10
14.2794
 20
2.92880
 30
0.000000
  70
    32
  0
VERTEX
  8
AM_VIS
  5
51E
 10
14.2803
 20
2.92687
 30
0.000000
  70
    32
  0
VERTEX
  8
AM_VIS
  5
51F
 10
14.2812
 20
2.92495
 30
0.000000
  70
    32
  0
VERTEX
  8
AM_VIS
  5
520
 10
14.2820
 20
2.92303
 30
0.000000
  70
    32
  0
VERTEX
  8
AM_VIS
  5
521
 10
14.2829
 20
2.92111
 30
0.000000
  70
    32
  0
VERTEX
  8
AM_VIS
  5
522
 10
14.2838
 20
2.91920
 30
0.000000
  70
    32
  0
VERTEX
  8
AM_VIS
  5
523
 10
14.2847
 20
2.91729
 30
0.000000
  70
    32
  0
VERTEX
  8
AM_VIS
  5
524
 10
14.2856
 20
2.91538
 30
0.000000
  70
    32
  0
VERTEX
  8
AM_VIS
  5
525
 10
14.2866
 20
2.91348
 30
0.000000
  70
    32
  0
VERTEX
  8
AM_VIS
  5
526
 10
14.2875
 20
2.91159
 30
0.000000
  70
    32
  0
VERTEX
  8
AM_VIS
  5
527
 10
14.2884
 20
2.90970
 30
0.000000
  70
    32
  0
VERTEX
  8
AM_VIS
  5
528
 10
14.2893
 20
2.90781
 30
0.000000
  70
    32
  0
VERTEX
  8
AM_VIS
  5
529
 10
14.2903
 20
2.90593
 30
0.000000
  70
    32
  0
VERTEX
  8
AM_VIS
  5
52A
 10
14.2912
 20
2.90405
 30
0.000000
  70
    32
  0
VERTEX
  8
AM_VIS
  5
52B
 10
14.2922
 20
2.90218
 30
0.000000
  70
    32
  0
VERTEX
  8
AM_VIS
  5
52C
 10
14.2931
 20
2.90031
 30
0.000000
  70
    32
  0
VERTEX
  8
AM_VIS
  5
52D
 10
14.2941
 20
2.89845
 30
0.000000
  70
    32
  0
VERTEX
  8
AM_VIS
  5
52E
 10
14.2951
 20
2.89659
 30
0.000000
  70
    32
  0
VERTEX
  8
AM_VIS
  5
52F
 10
14.2961
 20
2.89474
 30
0.000000
  70
    32
  0
VERTEX
  8
AM_VIS
  5
530
 10
14.2970
 20
2.89289
 30
0.000000
  70
    32
  0
VERTEX
  8
AM_VIS
  5
531
 10
14.2980
 20
2.89104
 30
0.000000
  70
    32
  0
VERTEX
  8
AM_VIS
  5
532
 10
14.2990
 20
2.88920
 30
0.000000
  70
    32
  0
VERTEX
  8
AM_VIS
  5
533
 10
14.3000
 20
2.88737
 30
0.000000
  70
    32
  0
VERTEX
  8
AM_VIS
  5
534
 10
14.3010
 20
2.88553
 30
0.000000
  70
    32
  0
VERTEX
  8
AM_VIS
  5
535
 10
14.3020
 20
2.88371
 30
0.000000
  70
    32
  0
VERTEX
  8
AM_VIS
  5
536
 10
14.3031
 20
2.88189
 30
0.000000
  70
    32
  0
VERTEX
  8
AM_VIS
  5
537
 10
14.3041
 20
2.88007
 30
0.000000
  70
    32
  0
VERTEX
  8
AM_VIS
  5
538
 10
14.3051
 20
2.87826
 30
0.000000
  70
    32
  0
VERTEX
  8
AM_VIS
  5
539
 10
14.3062
 20
2.87645
 30
0.000000
  70
    32
  0
VERTEX
  8
AM_VIS
  5
53A
 10
14.3072
 20
2.87465
 30
0.000000
  70
    32
  0
VERTEX
  8
AM_VIS
  5
53B
 10
14.3082
 20
2.87285
 30
0.000000
  70
    32
  0
VERTEX
  8
AM_VIS
  5
53C
 10
14.3093
 20
2.87106
 30
0.000000
  70
    32
  0
VERTEX
  8
AM_VIS
  5
53D
 10
14.3104
 20
2.86927
 30
0.000000
  70
    32
  0
VERTEX
  8
AM_VIS
  5
53E
 10
14.3114
 20
2.86749
 30
0.000000
  70
    32
  0
VERTEX
  8
AM_VIS
  5
53F
 10
14.3125
 20
2.86571
 30
0.000000
  70
    32
  0
VERTEX
  8
AM_VIS
  5
540
 10
14.3136
 20
2.86394
 30
0.000000
  70
    32
  0
VERTEX
  8
AM_VIS
  5
541
 10
14.3147
 20
2.86217
 30
0.000000
  70
    32
  0
VERTEX
  8
AM_VIS
  5
542
 10
14.3158
 20
2.86041
 30
0.000000
  70
    32
  0
VERTEX
  8
AM_VIS
  5
543
 10
14.3168
 20
2.85865
 30
0.000000
  70
    32
  0
VERTEX
  8
AM_VIS
  5
544
 10
14.3179
 20
2.85690
 30
0.000000
  70
    32
  0
VERTEX
  8
AM_VIS
  5
545
 10
14.3191
 20
2.85515
 30
0.000000
  70
    32
  0
VERTEX
  8
AM_VIS
  5
546
 10
14.3202
 20
2.85341
 30
0.000000
  70
    32
  0
VERTEX
  8
AM_VIS
  5
547
 10
14.3213
 20
2.85167
 30
0.000000
  70
    32
  0
VERTEX
  8
AM_VIS
  5
548
 10
14.3224
 20
2.84994
 30
0.000000
  70
    32
  0
VERTEX
  8
AM_VIS
  5
549
 10
14.3235
 20
2.84822
 30
0.000000
  70
    32
  0
VERTEX
  8
AM_VIS
  5
54A
 10
14.3247
 20
2.84650
 30
0.000000
  70
    32
  0
VERTEX
  8
AM_VIS
  5
54B
 10
14.3258
 20
2.84478
 30
0.000000
  70
    32
  0
VERTEX
  8
AM_VIS
  5
54C
 10
14.3270
 20
2.84307
 30
0.000000
  70
    32
  0
VERTEX
  8
AM_VIS
  5
54D
 10
14.3281
 20
2.84136
 30
0.000000
  70
    32
  0
VERTEX
  8
AM_VIS
  5
54E
 10
14.3293
 20
2.83966
 30
0.000000
  70
    32
  0
VERTEX
  8
AM_VIS
  5
54F
 10
14.3304
 20
2.83797
 30
0.000000
  70
    32
  0
VERTEX
  8
AM_VIS
  5
550
 10
14.3316
 20
2.83628
 30
0.000000
  70
    32
  0
VERTEX
  8
AM_VIS
  5
551
 10
14.3328
 20
2.83459
 30
0.000000
  70
    32
  0
VERTEX
  8
AM_VIS
  5
552
 10
14.3339
 20
2.83291
 30
0.000000
  70
    32
  0
VERTEX
  8
AM_VIS
  5
553
 10
14.3351
 20
2.83124
 30
0.000000
  70
    32
  0
VERTEX
  8
AM_VIS
  5
554
 10
14.3363
 20
2.82957
 30
0.000000
  70
    32
  0
VERTEX
  8
AM_VIS
  5
555
 10
14.3375
 20
2.82791
 30
0.000000
  70
    32
  0
VERTEX
  8
AM_VIS
  5
556
 10
14.3387
 20
2.82625
 30
0.000000
  70
    32
  0
VERTEX
  8
AM_VIS
  5
557
 10
14.3399
 20
2.82460
 30
0.000000
  70
    32
  0
VERTEX
  8
AM_VIS
  5
558
 10
14.3411
 20
2.82295
 30
0.000000
  70
    32
  0
VERTEX
  8
AM_VIS
  5
559
 10
14.3423
 20
2.82131
 30
0.000000
  70
    32
  0
VERTEX
  8
AM_VIS
  5
55A
 10
14.3436
 20
2.81968
 30
0.000000
  70
    32
  0
VERTEX
  8
AM_VIS
  5
55B
 10
14.3448
 20
2.81805
 30
0.000000
  70
    32
  0
VERTEX
  8
AM_VIS
  5
55C
 10
14.3460
 20
2.81642
 30
0.000000
  70
    32
  0
VERTEX
  8
AM_VIS
  5
55D
 10
14.3473
 20
2.81480
 30
0.000000
  70
    32
  0
VERTEX
  8
AM_VIS
  5
55E
 10
14.3485
 20
2.81319
 30
0.000000
  70
    32
  0
VERTEX
  8
AM_VIS
  5
55F
 10
14.3498
 20
2.81158
 30
0.000000
  70
    32
  0
VERTEX
  8
AM_VIS
  5
560
 10
14.3510
 20
2.80998
 30
0.000000
  70
    32
  0
VERTEX
  8
AM_VIS
  5
561
 10
14.3523
 20
2.80839
 30
0.000000
  70
    32
  0
VERTEX
  8
AM_VIS
  5
562
 10
14.3535
 20
2.80680
 30
0.000000
  70
    32
  0
VERTEX
  8
AM_VIS
  5
563
 10
14.3548
 20
2.80521
 30
0.000000
  70
    32
  0
VERTEX
  8
AM_VIS
  5
564
 10
14.3561
 20
2.80363
 30
0.000000
  70
    32
  0
VERTEX
  8
AM_VIS
  5
565
 10
14.3574
 20
2.80206
 30
0.000000
  70
    32
  0
VERTEX
  8
AM_VIS
  5
566
 10
14.3586
 20
2.80049
 30
0.000000
  70
    32
  0
VERTEX
  8
AM_VIS
  5
567
 10
14.3599
 20
2.79893
 30
0.000000
  70
    32
  0
VERTEX
  8
AM_VIS
  5
568
 10
14.3612
 20
2.79737
 30
0.000000
  70
    32
  0
VERTEX
  8
AM_VIS
  5
569
 10
14.3625
 20
2.79583
 30
0.000000
  70
    32
  0
VERTEX
  8
AM_VIS
  5
56A
 10
14.3638
 20
2.79428
 30
0.000000
  70
    32
  0
VERTEX
  8
AM_VIS
  5
56B
 10
14.3651
 20
2.79274
 30
0.000000
  70
    32
  0
VERTEX
  8
AM_VIS
  5
56C
 10
14.3665
 20
2.79121
 30
0.000000
  70
    32
  0
VERTEX
  8
AM_VIS
  5
56D
 10
14.3678
 20
2.78968
 30
0.000000
  70
    32
  0
VERTEX
  8
AM_VIS
  5
56E
 10
14.3691
 20
2.78816
 30
0.000000
  70
    32
  0
VERTEX
  8
AM_VIS
  5
56F
 10
14.3704
 20
2.78665
 30
0.000000
  70
    32
  0
VERTEX
  8
AM_VIS
  5
570
 10
14.3718
 20
2.78514
 30
0.000000
  70
    32
  0
VERTEX
  8
AM_VIS
  5
571
 10
14.3731
 20
2.78364
 30
0.000000
  70
    32
  0
VERTEX
  8
AM_VIS
  5
572
 10
14.3745
 20
2.78214
 30
0.000000
  70
    32
  0
VERTEX
  8
AM_VIS
  5
573
 10
14.3758
 20
2.78065
 30
0.000000
  70
    32
  0
VERTEX
  8
AM_VIS
  5
574
 10
14.3772
 20
2.77917
 30
0.000000
  70
    32
  0
VERTEX
  8
AM_VIS
  5
575
 10
14.3785
 20
2.77769
 30
0.000000
  70
    32
  0
VERTEX
  8
AM_VIS
  5
576
 10
14.3799
 20
2.77622
 30
0.000000
  70
    32
  0
VERTEX
  8
AM_VIS
  5
577
 10
14.3813
 20
2.77475
 30
0.000000
  70
    32
  0
VERTEX
  8
AM_VIS
  5
578
 10
14.3826
 20
2.77330
 30
0.000000
  70
    32
  0
VERTEX
  8
AM_VIS
  5
579
 10
14.3840
 20
2.77184
 30
0.000000
  70
    32
  0
VERTEX
  8
AM_VIS
  5
57A
 10
14.3854
 20
2.77040
 30
0.000000
  70
    32
  0
VERTEX
  8
AM_VIS
  5
57B
 10
14.3868
 20
2.76895
 30
0.000000
  70
    32
  0
VERTEX
  8
AM_VIS
  5
57C
 10
14.3882
 20
2.76752
 30
0.000000
  70
    32
  0
VERTEX
  8
AM_VIS
  5
57D
 10
14.3896
 20
2.76609
 30
0.000000
  70
    32
  0
VERTEX
  8
AM_VIS
  5
57E
 10
14.3910
 20
2.76467
 30
0.000000
  70
    32
  0
VERTEX
  8
AM_VIS
  5
57F
 10
14.3924
 20
2.76325
 30
0.000000
  70
    32
  0
VERTEX
  8
AM_VIS
  5
580
 10
14.3938
 20
2.76183
 30
0.000000
  70
    32
  0
VERTEX
  8
AM_VIS
  5
581
 10
14.3952
 20
2.76043
 30
0.000000
  70
    32
  0
VERTEX
  8
AM_VIS
  5
582
 10
14.3967
 20
2.75902
 30
0.000000
  70
    32
  0
VERTEX
  8
AM_VIS
  5
583
 10
14.3981
 20
2.75763
 30
0.000000
  70
    32
  0
VERTEX
  8
AM_VIS
  5
584
 10
14.3995
 20
2.75624
 30
0.000000
  70
    32
  0
VERTEX
  8
AM_VIS
  5
585
 10
14.4010
 20
2.75485
 30
0.000000
  70
    32
  0
VERTEX
  8
AM_VIS
  5
586
 10
14.4024
 20
2.75347
 30
0.000000
  70
    32
  0
VERTEX
  8
AM_VIS
  5
587
 10
14.4039
 20
2.75210
 30
0.000000
  70
    32
  0
VERTEX
  8
AM_VIS
  5
588
 10
14.4053
 20
2.75073
 30
0.000000
  70
    32
  0
VERTEX
  8
AM_VIS
  5
589
 10
14.4068
 20
2.74937
 30
0.000000
  70
    32
  0
VERTEX
  8
AM_VIS
  5
58A
 10
14.4083
 20
2.74801
 30
0.000000
  70
    32
  0
VERTEX
  8
AM_VIS
  5
58B
 10
14.4098
 20
2.74666
 30
0.000000
  70
    32
  0
VERTEX
  8
AM_VIS
  5
58C
 10
14.4112
 20
2.74532
 30
0.000000
  70
    32
  0
VERTEX
  8
AM_VIS
  5
58D
 10
14.4127
 20
2.74398
 30
0.000000
  70
    32
  0
VERTEX
  8
AM_VIS
  5
58E
 10
14.4142
 20
2.74265
 30
0.000000
  70
    32
  0
VERTEX
  8
AM_VIS
  5
58F
 10
14.4157
 20
2.74132
 30
0.000000
  70
    32
  0
VERTEX
  8
AM_VIS
  5
590
 10
14.4172
 20
2.74000
 30
0.000000
  70
    32
  0
VERTEX
  8
AM_VIS
  5
591
 10
14.4187
 20
2.73869
 30
0.000000
  70
    32
  0
VERTEX
  8
AM_VIS
  5
592
 10
14.4202
 20
2.73738
 30
0.000000
  70
    32
  0
VERTEX
  8
AM_VIS
  5
593
 10
14.4218
 20
2.73608
 30
0.000000
  70
    32
  0
VERTEX
  8
AM_VIS
  5
594
 10
14.4233
 20
2.73479
 30
0.000000
  70
    32
  0
VERTEX
  8
AM_VIS
  5
595
 10
14.4248
 20
2.73350
 30
0.000000
  70
    32
  0
VERTEX
  8
AM_VIS
  5
596
 10
14.4264
 20
2.73222
 30
0.000000
  70
    32
  0
VERTEX
  8
AM_VIS
  5
597
 10
14.4279
 20
2.73094
 30
0.000000
  70
    32
  0
VERTEX
  8
AM_VIS
  5
598
 10
14.4295
 20
2.72967
 30
0.000000
  70
    32
  0
VERTEX
  8
AM_VIS
  5
599
 10
14.4310
 20
2.72841
 30
0.000000
  70
    32
  0
VERTEX
  8
AM_VIS
  5
59A
 10
14.4326
 20
2.72715
 30
0.000000
  70
    32
  0
VERTEX
  8
AM_VIS
  5
59B
 10
14.4341
 20
2.72590
 30
0.000000
  70
    32
  0
VERTEX
  8
AM_VIS
  5
59C
 10
14.4357
 20
2.72466
 30
0.000000
  70
    32
  0
VERTEX
  8
AM_VIS
  5
59D
 10
14.4373
 20
2.72342
 30
0.000000
  70
    32
  0
VERTEX
  8
AM_VIS
  5
59E
 10
14.4388
 20
2.72219
 30
0.000000
  70
    32
  0
VERTEX
  8
AM_VIS
  5
59F
 10
14.4404
 20
2.72097
 30
0.000000
  70
    32
  0
VERTEX
  8
AM_VIS
  5
5A0
 10
14.4420
 20
2.71975
 30
0.000000
  70
    32
  0
VERTEX
  8
AM_VIS
  5
5A1
 10
14.4436
 20
2.71854
 30
0.000000
  70
    32
  0
VERTEX
  8
AM_VIS
  5
5A2
 10
14.4452
 20
2.71734
 30
0.000000
  70
    32
  0
VERTEX
  8
AM_VIS
  5
5A3
 10
14.4468
 20
2.71614
 30
0.000000
  70
    32
  0
VERTEX
  8
AM_VIS
  5
5A4
 10
14.4484
 20
2.71495
 30
0.000000
  70
    32
  0
VERTEX
  8
AM_VIS
  5
5A5
 10
14.4500
 20
2.71377
 30
0.000000
  70
    32
  0
VERTEX
  8
AM_VIS
  5
5A6
 10
14.4517
 20
2.71259
 30
0.000000
  70
    32
  0
VERTEX
  8
AM_VIS
  5
5A7
 10
14.4533
 20
2.71142
 30
0.000000
  70
    32
  0
VERTEX
  8
AM_VIS
  5
5A8
 10
14.4549
 20
2.71026
 30
0.000000
  70
    32
  0
VERTEX
  8
AM_VIS
  5
5A9
 10
14.4566
 20
2.70911
 30
0.000000
  70
    32
  0
VERTEX
  8
AM_VIS
  5
5AA
 10
14.4582
 20
2.70796
 30
0.000000
  70
    32
  0
VERTEX
  8
AM_VIS
  5
5AB
 10
14.4598
 20
2.70682
 30
0.000000
  70
    32
  0
VERTEX
  8
AM_VIS
  5
5AC
 10
14.4615
 20
2.70569
 30
0.000000
  70
    32
  0
VERTEX
  8
AM_VIS
  5
5AD
 10
14.4631
 20
2.70456
 30
0.000000
  70
    32
  0
VERTEX
  8
AM_VIS
  5
5AE
 10
14.4648
 20
2.70344
 30
0.000000
  70
    32
  0
VERTEX
  8
AM_VIS
  5
5AF
 10
14.4665
 20
2.70233
 30
0.000000
  70
    32
  0
VERTEX
  8
AM_VIS
  5
5B0
 10
14.4681
 20
2.70123
 30
0.000000
  70
    32
  0
VERTEX
  8
AM_VIS
  5
5B1
 10
14.4698
 20
2.70013
 30
0.000000
  70
    32
  0
VERTEX
  8
AM_VIS
  5
5B2
 10
14.4715
 20
2.69904
 30
0.000000
  70
    32
  0
VERTEX
  8
AM_VIS
  5
5B3
 10
14.4732
 20
2.69796
 30
0.000000
  70
    32
  0
VERTEX
  8
AM_VIS
  5
5B4
 10
14.4749
 20
2.69688
 30
0.000000
  70
    32
  0
VERTEX
  8
AM_VIS
  5
5B5
 10
14.4766
 20
2.69582
 30
0.000000
  70
    32
  0
VERTEX
  8
AM_VIS
  5
5B6
 10
14.4783
 20
2.69476
 30
0.000000
  70
    32
  0
VERTEX
  8
AM_VIS
  5
5B7
 10
14.4800
 20
2.69370
 30
0.000000
  70
    32
  0
VERTEX
  8
AM_VIS
  5
5B8
 10
14.4817
 20
2.69266
 30
0.000000
  70
    32
  0
VERTEX
  8
AM_VIS
  5
5B9
 10
14.4834
 20
2.69162
 30
0.000000
  70
    32
  0
VERTEX
  8
AM_VIS
  5
5BA
 10
14.4851
 20
2.69059
 30
0.000000
  70
    32
  0
VERTEX
  8
AM_VIS
  5
5BB
 10
14.4868
 20
2.68957
 30
0.000000
  70
    32
  0
VERTEX
  8
AM_VIS
  5
5BC
 10
14.4886
 20
2.68856
 30
0.000000
  70
    32
  0
VERTEX
  8
AM_VIS
  5
5BD
 10
14.4903
 20
2.68755
 30
0.000000
  70
    32
  0
VERTEX
  8
AM_VIS
  5
5BE
 10
14.4920
 20
2.68656
 30
0.000000
  70
    32
  0
VERTEX
  8
AM_VIS
  5
5BF
 10
14.4938
 20
2.68557
 30
0.000000
  70
    32
  0
VERTEX
  8
AM_VIS
  5
5C0
 10
14.4955
 20
2.68459
 30
0.000000
  70
    32
  0
VERTEX
  8
AM_VIS
  5
5C1
 10
14.4973
 20
2.68361
 30
0.000000
  70
    32
  0
VERTEX
  8
AM_VIS
  5
5C2
 10
14.4991
 20
2.68265
 30
0.000000
  70
    32
  0
VERTEX
  8
AM_VIS
  5
5C3
 10
14.5008
 20
2.68169
 30
0.000000
  70
    32
  0
VERTEX
  8
AM_VIS
  5
5C4
 10
14.5026
 20
2.68074
 30
0.000000
  70
    32
  0
VERTEX
  8
AM_VIS
  5
5C5
 10
14.5044
 20
2.67980
 30
0.000000
  70
    32
  0
VERTEX
  8
AM_VIS
  5
5C6
 10
14.5061
 20
2.67886
 30
0.000000
  70
    32
  0
VERTEX
  8
AM_VIS
  5
5C7
 10
14.5079
 20
2.67794
 30
0.000000
  70
    32
  0
VERTEX
  8
AM_VIS
  5
5C8
 10
14.5097
 20
2.67702
 30
0.000000
  70
    32
  0
VERTEX
  8
AM_VIS
  5
5C9
 10
14.5115
 20
2.67611
 30
0.000000
  70
    32
  0
VERTEX
  8
AM_VIS
  5
5CA
 10
14.5133
 20
2.67521
 30
0.000000
  70
    32
  0
VERTEX
  8
AM_VIS
  5
5CB
 10
14.5151
 20
2.67432
 30
0.000000
  70
    32
  0
VERTEX
  8
AM_VIS
  5
5CC
 10
14.5169
 20
2.67343
 30
0.000000
  70
    32
  0
VERTEX
  8
AM_VIS
  5
5CD
 10
14.5187
 20
2.67256
 30
0.000000
  70
    32
  0
VERTEX
  8
AM_VIS
  5
5CE
 10
14.5205
 20
2.67169
 30
0.000000
  70
    32
  0
VERTEX
  8
AM_VIS
  5
5CF
 10
14.5223
 20
2.67083
 30
0.000000
  70
    32
  0
VERTEX
  8
AM_VIS
  5
5D0
 10
14.5242
 20
2.66998
 30
0.000000
  70
    32
  0
VERTEX
  8
AM_VIS
  5
5D1
 10
14.5260
 20
2.66914
 30
0.000000
  70
    32
  0
VERTEX
  8
AM_VIS
  5
5D2
 10
14.5278
 20
2.66831
 30
0.000000
  70
    32
  0
VERTEX
  8
AM_VIS
  5
5D3
 10
14.5297
 20
2.66748
 30
0.000000
  70
    32
  0
VERTEX
  8
AM_VIS
  5
5D4
 10
14.5315
 20
2.66667
 30
0.000000
  70
    32
  0
VERTEX
  8
AM_VIS
  5
5D5
 10
14.5333
 20
2.66586
 30
0.000000
  70
    32
  0
VERTEX
  8
AM_VIS
  5
5D6
 10
14.5352
 20
2.66506
 30
0.000000
  70
    32
  0
VERTEX
  8
AM_VIS
  5
5D7
 10
14.5371
 20
2.66427
 30
0.000000
  70
    32
  0
VERTEX
  8
AM_VIS
  5
5D8
 10
14.5389
 20
2.66349
 30
0.000000
  70
    32
  0
VERTEX
  8
AM_VIS
  5
5D9
 10
14.5408
 20
2.66272
 30
0.000000
  70
    32
  0
VERTEX
  8
AM_VIS
  5
5DA
 10
14.5426
 20
2.66196
 30
0.000000
  70
    32
  0
VERTEX
  8
AM_VIS
  5
5DB
 10
14.5445
 20
2.66121
 30
0.000000
  70
    32
  0
VERTEX
  8
AM_VIS
  5
5DC
 10
14.5464
 20
2.66047
 30
0.000000
  70
    32
  0
VERTEX
  8
AM_VIS
  5
5DD
 10
14.5483
 20
2.65973
 30
0.000000
  70
    32
  0
VERTEX
  8
AM_VIS
  5
5DE
 10
14.5501
 20
2.65901
 30
0.000000
  70
    32
  0
VERTEX
  8
AM_VIS
  5
5DF
 10
14.5520
 20
2.65830
 30
0.000000
  70
    32
  0
VERTEX
  8
AM_VIS
  5
5E0
 10
14.5539
 20
2.65759
 30
0.000000
  70
    32
  0
VERTEX
  8
AM_VIS
  5
5E1
 10
14.5558
 20
2.65689
 30
0.000000
  70
    32
  0
VERTEX
  8
AM_VIS
  5
5E2
 10
14.5577
 20
2.65621
 30
0.000000
  70
    32
  0
VERTEX
  8
AM_VIS
  5
5E3
 10
14.5596
 20
2.65553
 30
0.000000
  70
    32
  0
VERTEX
  8
AM_VIS
  5
5E4
 10
14.5615
 20
2.65486
 30
0.000000
  70
    32
  0
VERTEX
  8
AM_VIS
  5
5E5
 10
14.5634
 20
2.65421
 30
0.000000
  70
    32
  0
VERTEX
  8
AM_VIS
  5
5E6
 10
14.5653
 20
2.65356
 30
0.000000
  70
    32
  0
VERTEX
  8
AM_VIS
  5
5E7
 10
14.5672
 20
2.65292
 30
0.000000
  70
    32
  0
VERTEX
  8
AM_VIS
  5
5E8
 10
14.5691
 20
2.65229
 30
0.000000
  70
    32
  0
VERTEX
  8
AM_VIS
  5
5E9
 10
14.5710
 20
2.65167
 30
0.000000
  70
    32
  0
VERTEX
  8
AM_VIS
  5
5EA
 10
14.5730
 20
2.65106
 30
0.000000
  70
    32
  0
VERTEX
  8
AM_VIS
  5
5EB
 10
14.5749
 20
2.65046
 30
0.000000
  70
    32
  0
VERTEX
  8
AM_VIS
  5
5EC
 10
14.5768
 20
2.64987
 30
0.000000
  70
    32
  0
VERTEX
  8
AM_VIS
  5
5ED
 10
14.5788
 20
2.64929
 30
0.000000
  70
    32
  0
VERTEX
  8
AM_VIS
  5
5EE
 10
14.5807
 20
2.64872
 30
0.000000
  70
    32
  0
VERTEX
  8
AM_VIS
  5
5EF
 10
14.5826
 20
2.64816
 30
0.000000
  70
    32
  0
VERTEX
  8
AM_VIS
  5
5F0
 10
14.5846
 20
2.64761
 30
0.000000
  70
    32
  0
VERTEX
  8
AM_VIS
  5
5F1
 10
14.5865
 20
2.64707
 30
0.000000
  70
    32
  0
VERTEX
  8
AM_VIS
  5
5F2
 10
14.5885
 20
2.64654
 30
0.000000
  70
    32
  0
VERTEX
  8
AM_VIS
  5
5F3
 10
14.5904
 20
2.64602
 30
0.000000
  70
    32
  0
VERTEX
  8
AM_VIS
  5
5F4
 10
14.5924
 20
2.64551
 30
0.000000
  70
    32
  0
VERTEX
  8
AM_VIS
  5
5F5
 10
14.5943
 20
2.64501
 30
0.000000
  70
    32
  0
VERTEX
  8
AM_VIS
  5
5F6
 10
14.5963
 20
2.64452
 30
0.000000
  70
    32
  0
VERTEX
  8
AM_VIS
  5
5F7
 10
14.5982
 20
2.64404
 30
0.000000
  70
    32
  0
VERTEX
  8
AM_VIS
  5
5F8
 10
14.6002
 20
2.64357
 30
0.000000
  70
    32
  0
VERTEX
  8
AM_VIS
  5
5F9
 10
14.6022
 20
2.64311
 30
0.000000
  70
    32
  0
VERTEX
  8
AM_VIS
  5
5FA
 10
14.6041
 20
2.64266
 30
0.000000
  70
    32
  0
VERTEX
  8
AM_VIS
  5
5FB
 10
14.6061
 20
2.64222
 30
0.000000
  70
    32
  0
VERTEX
  8
AM_VIS
  5
5FC
 10
14.6081
 20
2.64180
 30
0.000000
  70
    32
  0
VERTEX
  8
AM_VIS
  5
5FD
 10
14.6101
 20
2.64138
 30
0.000000
  70
    32
  0
VERTEX
  8
AM_VIS
  5
5FE
 10
14.6121
 20
2.64097
 30
0.000000
  70
    32
  0
VERTEX
  8
AM_VIS
  5
5FF
 10
14.6141
 20
2.64057
 30
0.000000
  70
    32
  0
VERTEX
  8
AM_VIS
  5
600
 10
14.6160
 20
2.64019
 30
0.000000
  70
    32
  0
VERTEX
  8
AM_VIS
  5
601
 10
14.6180
 20
2.63981
 30
0.000000
  70
    32
  0
VERTEX
  8
AM_VIS
  5
602
 10
14.6200
 20
2.63944
 30
0.000000
  70
    32
  0
VERTEX
  8
AM_VIS
  5
603
 10
14.6220
 20
2.63909
 30
0.000000
  70
    32
  0
VERTEX
  8
AM_VIS
  5
604
 10
14.6240
 20
2.63875
 30
0.000000
  70
    32
  0
VERTEX
  8
AM_VIS
  5
605
 10
14.6260
 20
2.63841
 30
0.000000
  70
    32
  0
VERTEX
  8
AM_VIS
  5
606
 10
14.6280
 20
2.63809
 30
0.000000
  70
    32
  0
VERTEX
  8
AM_VIS
  5
607
 10
14.6300
 20
2.63778
 30
0.000000
  70
    32
  0
VERTEX
  8
AM_VIS
  5
608
 10
14.6320
 20
2.63748
 30
0.000000
  70
    32
  0
VERTEX
  8
AM_VIS
  5
609
 10
14.6340
 20
2.63719
 30
0.000000
  70
    32
  0
VERTEX
  8
AM_VIS
  5
60A
 10
14.6360
 20
2.63691
 30
0.000000
  70
    32
  0
VERTEX
  8
AM_VIS
  5
60B
 10
14.6380
 20
2.63664
 30
0.000000
  70
    32
  0
VERTEX
  8
AM_VIS
  5
60C
 10
14.6400
 20
2.63638
 30
0.000000
  70
    32
  0
VERTEX
  8
AM_VIS
  5
60D
 10
14.6420
 20
2.63614
 30
0.000000
  70
    32
  0
VERTEX
  8
AM_VIS
  5
60E
 10
14.6440
 20
2.63590
 30
0.000000
  70
    32
  0
VERTEX
  8
AM_VIS
  5
60F
 10
14.6460
 20
2.63567
 30
0.000000
  70
    32
  0
VERTEX
  8
AM_VIS
  5
610
 10
14.6480
 20
2.63546
 30
0.000000
  70
    32
  0
VERTEX
  8
AM_VIS
  5
611
 10
14.6501
 20
2.63526
 30
0.000000
  70
    32
  0
VERTEX
  8
AM_VIS
  5
612
 10
14.6521
 20
2.63506
 30
0.000000
  70
    32
  0
VERTEX
  8
AM_VIS
  5
613
 10
14.6541
 20
2.63488
 30
0.000000
  70
    32
  0
VERTEX
  8
AM_VIS
  5
614
 10
14.6561
 20
2.63471
 30
0.000000
  70
    32
  0
VERTEX
  8
AM_VIS
  5
615
 10
14.6581
 20
2.63455
 30
0.000000
  70
    32
  0
VERTEX
  8
AM_VIS
  5
616
 10
14.6601
 20
2.63440
 30
0.000000
  70
    32
  0
VERTEX
  8
AM_VIS
  5
617
 10
14.6621
 20
2.63427
 30
0.000000
  70
    32
  0
VERTEX
  8
AM_VIS
  5
618
 10
14.6642
 20
2.63414
 30
0.000000
  70
    32
  0
VERTEX
  8
AM_VIS
  5
619
 10
14.6662
 20
2.63402
 30
0.000000
  70
    32
  0
VERTEX
  8
AM_VIS
  5
61A
 10
14.6682
 20
2.63392
 30
0.000000
  70
    32
  0
VERTEX
  8
AM_VIS
  5
61B
 10
14.6702
 20
2.63382
 30
0.000000
  70
    32
  0
VERTEX
  8
AM_VIS
  5
61C
 10
14.6723
 20
2.63374
 30
0.000000
  70
    32
  0
VERTEX
  8
AM_VIS
  5
61D
 10
14.6743
 20
2.63367
 30
0.000000
  70
    32
  0
VERTEX
  8
AM_VIS
  5
61E
 10
14.6763
 20
2.63361
 30
0.000000
  70
    32
  0
VERTEX
  8
AM_VIS
  5
61F
 10
14.6783
 20
2.63356
 30
0.000000
  70
    32
  0
VERTEX
  8
AM_VIS
  5
620
 10
14.6804
 20
2.63352
 30
0.000000
  70
    32
  0
VERTEX
  8
AM_VIS
  5
621
 10
14.6824
 20
2.63349
 30
0.000000
  70
    32
  0
VERTEX
  8
AM_VIS
  5
622
 10
14.6844
 20
2.63348
 30
0.000000
  70
    32
  0
VERTEX
  8
AM_VIS
  5
623
 10
14.6864
 20
2.63347
 30
0.000000
  70
    32
  0
SEQEND
  8
AM_VIS
  5
624
  0
POLYLINE
  8
AM_VIS
  5
625
  66
     1
 10
0.000000
 20
0.000000
 30
0.000000
  70
     8
  0
VERTEX
  8
AM_VIS
  5
626
 10
14.6864
 20
3.72803
 30
0.000000
  70
    32
  0
VERTEX
  8
AM_VIS
  5
627
 10
14.6844
 20
3.72802
 30
0.000000
  70
    32
  0
VERTEX
  8
AM_VIS
  5
628
 10
14.6823
 20
3.72800
 30
0.000000
  70
    32
  0
VERTEX
  8
AM_VIS
  5
629
 10
14.6802
 20
3.72797
 30
0.000000
  70
    32
  0
VERTEX
  8
AM_VIS
  5
62A
 10
14.6781
 20
3.72793
 30
0.000000
  70
    32
  0
VERTEX
  8
AM_VIS
  5
62B
 10
14.6761
 20
3.72788
 30
0.000000
  70
    32
  0
VERTEX
  8
AM_VIS
  5
62C
 10
14.6740
 20
3.72782
 30
0.000000
  70
    32
  0
VERTEX
  8
AM_VIS
  5
62D
 10
14.6719
 20
3.72774
 30
0.000000
  70
    32
  0
VERTEX
  8
AM_VIS
  5
62E
 10
14.6699
 20
3.72765
 30
0.000000
  70
    32
  0
VERTEX
  8
AM_VIS
  5
62F
 10
14.6678
 20
3.72756
 30
0.000000
  70
    32
  0
VERTEX
  8
AM_VIS
  5
630
 10
14.6657
 20
3.72745
 30
0.000000
  70
    32
  0
VERTEX
  8
AM_VIS
  5
631
 10
14.6637
 20
3.72733
 30
0.000000
  70
    32
  0
VERTEX
  8
AM_VIS
  5
632
 10
14.6616
 20
3.72719
 30
0.000000
  70
    32
  0
VERTEX
  8
AM_VIS
  5
633
 10
14.6595
 20
3.72705
 30
0.000000
  70
    32
  0
VERTEX
  8
AM_VIS
  5
634
 10
14.6575
 20
3.72689
 30
0.000000
  70
    32
  0
VERTEX
  8
AM_VIS
  5
635
 10
14.6554
 20
3.72673
 30
0.000000
  70
    32
  0
VERTEX
  8
AM_VIS
  5
636
 10
14.6534
 20
3.72655
 30
0.000000
  70
    32
  0
VERTEX
  8
AM_VIS
  5
637
 10
14.6513
 20
3.72636
 30
0.000000
  70
    32
  0
VERTEX
  8
AM_VIS
  5
638
 10
14.6493
 20
3.72616
 30
0.000000
  70
    32
  0
VERTEX
  8
AM_VIS
  5
639
 10
14.6472
 20
3.72595
 30
0.000000
  70
    32
  0
VERTEX
  8
AM_VIS
  5
63A
 10
14.6452
 20
3.72573
 30
0.000000
  70
    32
  0
VERTEX
  8
AM_VIS
  5
63B
 10
14.6431
 20
3.72549
 30
0.000000
  70
    32
  0
VERTEX
  8
AM_VIS
  5
63C
 10
14.6411
 20
3.72525
 30
0.000000
  70
    32
  0
VERTEX
  8
AM_VIS
  5
63D
 10
14.6390
 20
3.72499
 30
0.000000
  70
    32
  0
VERTEX
  8
AM_VIS
  5
63E
 10
14.6370
 20
3.72472
 30
0.000000
  70
    32
  0
VERTEX
  8
AM_VIS
  5
63F
 10
14.6350
 20
3.72444
 30
0.000000
  70
    32
  0
VERTEX
  8
AM_VIS
  5
640
 10
14.6329
 20
3.72415
 30
0.000000
  70
    32
  0
VERTEX
  8
AM_VIS
  5
641
 10
14.6309
 20
3.72385
 30
0.000000
  70
    32
  0
VERTEX
  8
AM_VIS
  5
642
 10
14.6289
 20
3.72354
 30
0.000000
  70
    32
  0
VERTEX
  8
AM_VIS
  5
643
 10
14.6268
 20
3.72322
 30
0.000000
  70
    32
  0
VERTEX
  8
AM_VIS
  5
644
 10
14.6248
 20
3.72288
 30
0.000000
  70
    32
  0
VERTEX
  8
AM_VIS
  5
645
 10
14.6228
 20
3.72254
 30
0.000000
  70
    32
  0
VERTEX
  8
AM_VIS
  5
646
 10
14.6207
 20
3.72218
 30
0.000000
  70
    32
  0
VERTEX
  8
AM_VIS
  5
647
 10
14.6187
 20
3.72182
 30
0.000000
  70
    32
  0
VERTEX
  8
AM_VIS
  5
648
 10
14.6167
 20
3.72144
 30
0.000000
  70
    32
  0
VERTEX
  8
AM_VIS
  5
649
 10
14.6147
 20
3.72105
 30
0.000000
  70
    32
  0
VERTEX
  8
AM_VIS
  5
64A
 10
14.6127
 20
3.72065
 30
0.000000
  70
    32
  0
VERTEX
  8
AM_VIS
  5
64B
 10
14.6107
 20
3.72024
 30
0.000000
  70
    32
  0
VERTEX
  8
AM_VIS
  5
64C
 10
14.6086
 20
3.71982
 30
0.000000
  70
    32
  0
VERTEX
  8
AM_VIS
  5
64D
 10
14.6066
 20
3.71939
 30
0.000000
  70
    32
  0
VERTEX
  8
AM_VIS
  5
64E
 10
14.6046
 20
3.71894
 30
0.000000
  70
    32
  0
VERTEX
  8
AM_VIS
  5
64F
 10
14.6026
 20
3.71849
 30
0.000000
  70
    32
  0
VERTEX
  8
AM_VIS
  5
650
 10
14.6006
 20
3.71802
 30
0.000000
  70
    32
  0
VERTEX
  8
AM_VIS
  5
651
 10
14.5986
 20
3.71755
 30
0.000000
  70
    32
  0
VERTEX
  8
AM_VIS
  5
652
 10
14.5966
 20
3.71706
 30
0.000000
  70
    32
  0
VERTEX
  8
AM_VIS
  5
653
 10
14.5946
 20
3.71657
 30
0.000000
  70
    32
  0
VERTEX
  8
AM_VIS
  5
654
 10
14.5926
 20
3.71606
 30
0.000000
  70
    32
  0
VERTEX
  8
AM_VIS
  5
655
 10
14.5907
 20
3.71554
 30
0.000000
  70
    32
  0
VERTEX
  8
AM_VIS
  5
656
 10
14.5887
 20
3.71501
 30
0.000000
  70
    32
  0
VERTEX
  8
AM_VIS
  5
657
 10
14.5867
 20
3.71447
 30
0.000000
  70
    32
  0
VERTEX
  8
AM_VIS
  5
658
 10
14.5847
 20
3.71392
 30
0.000000
  70
    32
  0
VERTEX
  8
AM_VIS
  5
659
 10
14.5827
 20
3.71336
 30
0.000000
  70
    32
  0
VERTEX
  8
AM_VIS
  5
65A
 10
14.5807
 20
3.71279
 30
0.000000
  70
    32
  0
VERTEX
  8
AM_VIS
  5
65B
 10
14.5788
 20
3.71221
 30
0.000000
  70
    32
  0
VERTEX
  8
AM_VIS
  5
65C
 10
14.5768
 20
3.71162
 30
0.000000
  70
    32
  0
VERTEX
  8
AM_VIS
  5
65D
 10
14.5748
 20
3.71101
 30
0.000000
  70
    32
  0
VERTEX
  8
AM_VIS
  5
65E
 10
14.5729
 20
3.71040
 30
0.000000
  70
    32
  0
VERTEX
  8
AM_VIS
  5
65F
 10
14.5709
 20
3.70978
 30
0.000000
  70
    32
  0
VERTEX
  8
AM_VIS
  5
660
 10
14.5689
 20
3.70914
 30
0.000000
  70
    32
  0
VERTEX
  8
AM_VIS
  5
661
 10
14.5670
 20
3.70850
 30
0.000000
  70
    32
  0
VERTEX
  8
AM_VIS
  5
662
 10
14.5650
 20
3.70784
 30
0.000000
  70
    32
  0
VERTEX
  8
AM_VIS
  5
663
 10
14.5631
 20
3.70718
 30
0.000000
  70
    32
  0
VERTEX
  8
AM_VIS
  5
664
 10
14.5611
 20
3.70650
 30
0.000000
  70
    32
  0
VERTEX
  8
AM_VIS
  5
665
 10
14.5592
 20
3.70582
 30
0.000000
  70
    32
  0
VERTEX
  8
AM_VIS
  5
666
 10
14.5572
 20
3.70512
 30
0.000000
  70
    32
  0
VERTEX
  8
AM_VIS
  5
667
 10
14.5553
 20
3.70441
 30
0.000000
  70
    32
  0
VERTEX
  8
AM_VIS
  5
668
 10
14.5533
 20
3.70370
 30
0.000000
  70
    32
  0
VERTEX
  8
AM_VIS
  5
669
 10
14.5514
 20
3.70297
 30
0.000000
  70
    32
  0
VERTEX
  8
AM_VIS
  5
66A
 10
14.5495
 20
3.70223
 30
0.000000
  70
    32
  0
VERTEX
  8
AM_VIS
  5
66B
 10
14.5476
 20
3.70149
 30
0.000000
  70
    32
  0
VERTEX
  8
AM_VIS
  5
66C
 10
14.5456
 20
3.70073
 30
0.000000
  70
    32
  0
VERTEX
  8
AM_VIS
  5
66D
 10
14.5437
 20
3.69997
 30
0.000000
  70
    32
  0
VERTEX
  8
AM_VIS
  5
66E
 10
14.5418
 20
3.69919
 30
0.000000
  70
    32
  0
VERTEX
  8
AM_VIS
  5
66F
 10
14.5399
 20
3.69841
 30
0.000000
  70
    32
  0
VERTEX
  8
AM_VIS
  5
670
 10
14.5380
 20
3.69762
 30
0.000000
  70
    32
  0
VERTEX
  8
AM_VIS
  5
671
 10
14.5361
 20
3.69682
 30
0.000000
  70
    32
  0
VERTEX
  8
AM_VIS
  5
672
 10
14.5342
 20
3.69600
 30
0.000000
  70
    32
  0
VERTEX
  8
AM_VIS
  5
673
 10
14.5323
 20
3.69518
 30
0.000000
  70
    32
  0
VERTEX
  8
AM_VIS
  5
674
 10
14.5304
 20
3.69435
 30
0.000000
  70
    32
  0
VERTEX
  8
AM_VIS
  5
675
 10
14.5285
 20
3.69351
 30
0.000000
  70
    32
  0
VERTEX
  8
AM_VIS
  5
676
 10
14.5267
 20
3.69267
 30
0.000000
  70
    32
  0
VERTEX
  8
AM_VIS
  5
677
 10
14.5248
 20
3.69181
 30
0.000000
  70
    32
  0
VERTEX
  8
AM_VIS
  5
678
 10
14.5229
 20
3.69094
 30
0.000000
  70
    32
  0
VERTEX
  8
AM_VIS
  5
679
 10
14.5211
 20
3.69007
 30
0.000000
  70
    32
  0
VERTEX
  8
AM_VIS
  5
67A
 10
14.5192
 20
3.68918
 30
0.000000
  70
    32
  0
VERTEX
  8
AM_VIS
  5
67B
 10
14.5174
 20
3.68829
 30
0.000000
  70
    32
  0
VERTEX
  8
AM_VIS
  5
67C
 10
14.5155
 20
3.68739
 30
0.000000
  70
    32
  0
VERTEX
  8
AM_VIS
  5
67D
 10
14.5137
 20
3.68648
 30
0.000000
  70
    32
  0
VERTEX
  8
AM_VIS
  5
67E
 10
14.5118
 20
3.68556
 30
0.000000
  70
    32
  0
VERTEX
  8
AM_VIS
  5
67F
 10
14.5100
 20
3.68463
 30
0.000000
  70
    32
  0
VERTEX
  8
AM_VIS
  5
680
 10
14.5082
 20
3.68369
 30
0.000000
  70
    32
  0
VERTEX
  8
AM_VIS
  5
681
 10
14.5063
 20
3.68274
 30
0.000000
  70
    32
  0
VERTEX
  8
AM_VIS
  5
682
 10
14.5045
 20
3.68179
 30
0.000000
  70
    32
  0
VERTEX
  8
AM_VIS
  5
683
 10
14.5027
 20
3.68083
 30
0.000000
  70
    32
  0
VERTEX
  8
AM_VIS
  5
684
 10
14.5009
 20
3.67985
 30
0.000000
  70
    32
  0
VERTEX
  8
AM_VIS
  5
685
 10
14.4991
 20
3.67887
 30
0.000000
  70
    32
  0
VERTEX
  8
AM_VIS
  5
686
 10
14.4973
 20
3.67788
 30
0.000000
  70
    32
  0
VERTEX
  8
AM_VIS
  5
687
 10
14.4955
 20
3.67689
 30
0.000000
  70
    32
  0
VERTEX
  8
AM_VIS
  5
688
 10
14.4937
 20
3.67588
 30
0.000000
  70
    32
  0
VERTEX
  8
AM_VIS
  5
689
 10
14.4919
 20
3.67487
 30
0.000000
  70
    32
  0
VERTEX
  8
AM_VIS
  5
68A
 10
14.4901
 20
3.67385
 30
0.000000
  70
    32
  0
VERTEX
  8
AM_VIS
  5
68B
 10
14.4884
 20
3.67282
 30
0.000000
  70
    32
  0
VERTEX
  8
AM_VIS
  5
68C
 10
14.4866
 20
3.67178
 30
0.000000
  70
    32
  0
VERTEX
  8
AM_VIS
  5
68D
 10
14.4848
 20
3.67073
 30
0.000000
  70
    32
  0
VERTEX
  8
AM_VIS
  5
68E
 10
14.4831
 20
3.66968
 30
0.000000
  70
    32
  0
VERTEX
  8
AM_VIS
  5
68F
 10
14.4813
 20
3.66861
 30
0.000000
  70
    32
  0
VERTEX
  8
AM_VIS
  5
690
 10
14.4796
 20
3.66754
 30
0.000000
  70
    32
  0
VERTEX
  8
AM_VIS
  5
691
 10
14.4778
 20
3.66646
 30
0.000000
  70
    32
  0
VERTEX
  8
AM_VIS
  5
692
 10
14.4761
 20
3.66537
 30
0.000000
  70
    32
  0
VERTEX
  8
AM_VIS
  5
693
 10
14.4744
 20
3.66428
 30
0.000000
  70
    32
  0
VERTEX
  8
AM_VIS
  5
694
 10
14.4726
 20
3.66318
 30
0.000000
  70
    32
  0
VERTEX
  8
AM_VIS
  5
695
 10
14.4709
 20
3.66207
 30
0.000000
  70
    32
  0
VERTEX
  8
AM_VIS
  5
696
 10
14.4692
 20
3.66095
 30
0.000000
  70
    32
  0
VERTEX
  8
AM_VIS
  5
697
 10
14.4675
 20
3.65982
 30
0.000000
  70
    32
  0
VERTEX
  8
AM_VIS
  5
698
 10
14.4658
 20
3.65869
 30
0.000000
  70
    32
  0
VERTEX
  8
AM_VIS
  5
699
 10
14.4641
 20
3.65755
 30
0.000000
  70
    32
  0
VERTEX
  8
AM_VIS
  5
69A
 10
14.4624
 20
3.65640
 30
0.000000
  70
    32
  0
VERTEX
  8
AM_VIS
  5
69B
 10
14.4607
 20
3.65524
 30
0.000000
  70
    32
  0
VERTEX
  8
AM_VIS
  5
69C
 10
14.4590
 20
3.65407
 30
0.000000
  70
    32
  0
VERTEX
  8
AM_VIS
  5
69D
 10
14.4573
 20
3.65290
 30
0.000000
  70
    32
  0
VERTEX
  8
AM_VIS
  5
69E
 10
14.4556
 20
3.65172
 30
0.000000
  70
    32
  0
VERTEX
  8
AM_VIS
  5
69F
 10
14.4539
 20
3.65054
 30
0.000000
  70
    32
  0
VERTEX
  8
AM_VIS
  5
6A0
 10
14.4523
 20
3.64934
 30
0.000000
  70
    32
  0
VERTEX
  8
AM_VIS
  5
6A1
 10
14.4506
 20
3.64814
 30
0.000000
  70
    32
  0
VERTEX
  8
AM_VIS
  5
6A2
 10
14.4490
 20
3.64693
 30
0.000000
  70
    32
  0
VERTEX
  8
AM_VIS
  5
6A3
 10
14.4473
 20
3.64572
 30
0.000000
  70
    32
  0
VERTEX
  8
AM_VIS
  5
6A4
 10
14.4457
 20
3.64449
 30
0.000000
  70
    32
  0
VERTEX
  8
AM_VIS
  5
6A5
 10
14.4440
 20
3.64326
 30
0.000000
  70
    32
  0
VERTEX
  8
AM_VIS
  5
6A6
 10
14.4424
 20
3.64202
 30
0.000000
  70
    32
  0
VERTEX
  8
AM_VIS
  5
6A7
 10
14.4408
 20
3.64078
 30
0.000000
  70
    32
  0
VERTEX
  8
AM_VIS
  5
6A8
 10
14.4391
 20
3.63953
 30
0.000000
  70
    32
  0
VERTEX
  8
AM_VIS
  5
6A9
 10
14.4375
 20
3.63827
 30
0.000000
  70
    32
  0
VERTEX
  8
AM_VIS
  5
6AA
 10
14.4359
 20
3.63700
 30
0.000000
  70
    32
  0
VERTEX
  8
AM_VIS
  5
6AB
 10
14.4343
 20
3.63573
 30
0.000000
  70
    32
  0
VERTEX
  8
AM_VIS
  5
6AC
 10
14.4327
 20
3.63445
 30
0.000000
  70
    32
  0
VERTEX
  8
AM_VIS
  5
6AD
 10
14.4311
 20
3.63316
 30
0.000000
  70
    32
  0
VERTEX
  8
AM_VIS
  5
6AE
 10
14.4295
 20
3.63187
 30
0.000000
  70
    32
  0
VERTEX
  8
AM_VIS
  5
6AF
 10
14.4279
 20
3.63057
 30
0.000000
  70
    32
  0
VERTEX
  8
AM_VIS
  5
6B0
 10
14.4263
 20
3.62926
 30
0.000000
  70
    32
  0
VERTEX
  8
AM_VIS
  5
6B1
 10
14.4248
 20
3.62795
 30
0.000000
  70
    32
  0
VERTEX
  8
AM_VIS
  5
6B2
 10
14.4232
 20
3.62663
 30
0.000000
  70
    32
  0
VERTEX
  8
AM_VIS
  5
6B3
 10
14.4216
 20
3.62530
 30
0.000000
  70
    32
  0
VERTEX
  8
AM_VIS
  5
6B4
 10
14.4201
 20
3.62397
 30
0.000000
  70
    32
  0
VERTEX
  8
AM_VIS
  5
6B5
 10
14.4185
 20
3.62263
 30
0.000000
  70
    32
  0
VERTEX
  8
AM_VIS
  5
6B6
 10
14.4170
 20
3.62128
 30
0.000000
  70
    32
  0
VERTEX
  8
AM_VIS
  5
6B7
 10
14.4154
 20
3.61993
 30
0.000000
  70
    32
  0
VERTEX
  8
AM_VIS
  5
6B8
 10
14.4139
 20
3.61857
 30
0.000000
  70
    32
  0
VERTEX
  8
AM_VIS
  5
6B9
 10
14.4124
 20
3.61721
 30
0.000000
  70
    32
  0
VERTEX
  8
AM_VIS
  5
6BA
 10
14.4109
 20
3.61584
 30
0.000000
  70
    32
  0
VERTEX
  8
AM_VIS
  5
6BB
 10
14.4093
 20
3.61446
 30
0.000000
  70
    32
  0
VERTEX
  8
AM_VIS
  5
6BC
 10
14.4078
 20
3.61307
 30
0.000000
  70
    32
  0
VERTEX
  8
AM_VIS
  5
6BD
 10
14.4063
 20
3.61168
 30
0.000000
  70
    32
  0
VERTEX
  8
AM_VIS
  5
6BE
 10
14.4048
 20
3.61029
 30
0.000000
  70
    32
  0
VERTEX
  8
AM_VIS
  5
6BF
 10
14.4033
 20
3.60888
 30
0.000000
  70
    32
  0
VERTEX
  8
AM_VIS
  5
6C0
 10
14.4018
 20
3.60748
 30
0.000000
  70
    32
  0
VERTEX
  8
AM_VIS
  5
6C1
 10
14.4004
 20
3.60606
 30
0.000000
  70
    32
  0
VERTEX
  8
AM_VIS
  5
6C2
 10
14.3989
 20
3.60464
 30
0.000000
  70
    32
  0
VERTEX
  8
AM_VIS
  5
6C3
 10
14.3974
 20
3.60321
 30
0.000000
  70
    32
  0
VERTEX
  8
AM_VIS
  5
6C4
 10
14.3959
 20
3.60178
 30
0.000000
  70
    32
  0
VERTEX
  8
AM_VIS
  5
6C5
 10
14.3945
 20
3.60034
 30
0.000000
  70
    32
  0
VERTEX
  8
AM_VIS
  5
6C6
 10
14.3930
 20
3.59889
 30
0.000000
  70
    32
  0
VERTEX
  8
AM_VIS
  5
6C7
 10
14.3916
 20
3.59744
 30
0.000000
  70
    32
  0
VERTEX
  8
AM_VIS
  5
6C8
 10
14.3901
 20
3.59599
 30
0.000000
  70
    32
  0
VERTEX
  8
AM_VIS
  5
6C9
 10
14.3887
 20
3.59452
 30
0.000000
  70
    32
  0
VERTEX
  8
AM_VIS
  5
6CA
 10
14.3873
 20
3.59306
 30
0.000000
  70
    32
  0
VERTEX
  8
AM_VIS
  5
6CB
 10
14.3858
 20
3.59158
 30
0.000000
  70
    32
  0
VERTEX
  8
AM_VIS
  5
6CC
 10
14.3844
 20
3.59010
 30
0.000000
  70
    32
  0
VERTEX
  8
AM_VIS
  5
6CD
 10
14.3830
 20
3.58862
 30
0.000000
  70
    32
  0
VERTEX
  8
AM_VIS
  5
6CE
 10
14.3816
 20
3.58712
 30
0.000000
  70
    32
  0
VERTEX
  8
AM_VIS
  5
6CF
 10
14.3802
 20
3.58563
 30
0.000000
  70
    32
  0
VERTEX
  8
AM_VIS
  5
6D0
 10
14.3788
 20
3.58412
 30
0.000000
  70
    32
  0
VERTEX
  8
AM_VIS
  5
6D1
 10
14.3774
 20
3.58262
 30
0.000000
  70
    32
  0
VERTEX
  8
AM_VIS
  5
6D2
 10
14.3760
 20
3.58110
 30
0.000000
  70
    32
  0
VERTEX
  8
AM_VIS
  5
6D3
 10
14.3747
 20
3.57958
 30
0.000000
  70
    32
  0
VERTEX
  8
AM_VIS
  5
6D4
 10
14.3733
 20
3.57806
 30
0.000000
  70
    32
  0
VERTEX
  8
AM_VIS
  5
6D5
 10
14.3719
 20
3.57653
 30
0.000000
  70
    32
  0
VERTEX
  8
AM_VIS
  5
6D6
 10
14.3706
 20
3.57499
 30
0.000000
  70
    32
  0
VERTEX
  8
AM_VIS
  5
6D7
 10
14.3692
 20
3.57345
 30
0.000000
  70
    32
  0
VERTEX
  8
AM_VIS
  5
6D8
 10
14.3679
 20
3.57190
 30
0.000000
  70
    32
  0
VERTEX
  8
AM_VIS
  5
6D9
 10
14.3665
 20
3.57035
 30
0.000000
  70
    32
  0
VERTEX
  8
AM_VIS
  5
6DA
 10
14.3652
 20
3.56880
 30
0.000000
  70
    32
  0
VERTEX
  8
AM_VIS
  5
6DB
 10
14.3638
 20
3.56723
 30
0.000000
  70
    32
  0
VERTEX
  8
AM_VIS
  5
6DC
 10
14.3625
 20
3.56567
 30
0.000000
  70
    32
  0
VERTEX
  8
AM_VIS
  5
6DD
 10
14.3612
 20
3.56409
 30
0.000000
  70
    32
  0
VERTEX
  8
AM_VIS
  5
6DE
 10
14.3599
 20
3.56252
 30
0.000000
  70
    32
  0
VERTEX
  8
AM_VIS
  5
6DF
 10
14.3586
 20
3.56093
 30
0.000000
  70
    32
  0
VERTEX
  8
AM_VIS
  5
6E0
 10
14.3573
 20
3.55934
 30
0.000000
  70
    32
  0
VERTEX
  8
AM_VIS
  5
6E1
 10
14.3560
 20
3.55775
 30
0.000000
  70
    32
  0
VERTEX
  8
AM_VIS
  5
6E2
 10
14.3547
 20
3.55615
 30
0.000000
  70
    32
  0
VERTEX
  8
AM_VIS
  5
6E3
 10
14.3534
 20
3.55455
 30
0.000000
  70
    32
  0
VERTEX
  8
AM_VIS
  5
6E4
 10
14.3521
 20
3.55294
 30
0.000000
  70
    32
  0
VERTEX
  8
AM_VIS
  5
6E5
 10
14.3509
 20
3.55133
 30
0.000000
  70
    32
  0
VERTEX
  8
AM_VIS
  5
6E6
 10
14.3496
 20
3.54971
 30
0.000000
  70
    32
  0
VERTEX
  8
AM_VIS
  5
6E7
 10
14.3483
 20
3.54809
 30
0.000000
  70
    32
  0
VERTEX
  8
AM_VIS
  5
6E8
 10
14.3471
 20
3.54646
 30
0.000000
  70
    32
  0
VERTEX
  8
AM_VIS
  5
6E9
 10
14.3458
 20
3.54483
 30
0.000000
  70
    32
  0
VERTEX
  8
AM_VIS
  5
6EA
 10
14.3446
 20
3.54319
 30
0.000000
  70
    32
  0
VERTEX
  8
AM_VIS
  5
6EB
 10
14.3434
 20
3.54155
 30
0.000000
  70
    32
  0
VERTEX
  8
AM_VIS
  5
6EC
 10
14.3421
 20
3.53990
 30
0.000000
  70
    32
  0
VERTEX
  8
AM_VIS
  5
6ED
 10
14.3409
 20
3.53825
 30
0.000000
  70
    32
  0
VERTEX
  8
AM_VIS
  5
6EE
 10
14.3397
 20
3.53660
 30
0.000000
  70
    32
  0
VERTEX
  8
AM_VIS
  5
6EF
 10
14.3385
 20
3.53494
 30
0.000000
  70
    32
  0
VERTEX
  8
AM_VIS
  5
6F0
 10
14.3373
 20
3.53327
 30
0.000000
  70
    32
  0
VERTEX
  8
AM_VIS
  5
6F1
 10
14.3361
 20
3.53160
 30
0.000000
  70
    32
  0
VERTEX
  8
AM_VIS
  5
6F2
 10
14.3349
 20
3.52993
 30
0.000000
  70
    32
  0
VERTEX
  8
AM_VIS
  5
6F3
 10
14.3337
 20
3.52825
 30
0.000000
  70
    32
  0
VERTEX
  8
AM_VIS
  5
6F4
 10
14.3325
 20
3.52657
 30
0.000000
  70
    32
  0
VERTEX
  8
AM_VIS
  5
6F5
 10
14.3314
 20
3.52488
 30
0.000000
  70
    32
  0
VERTEX
  8
AM_VIS
  5
6F6
 10
14.3302
 20
3.52319
 30
0.000000
  70
    32
  0
VERTEX
  8
AM_VIS
  5
6F7
 10
14.3290
 20
3.52149
 30
0.000000
  70
    32
  0
VERTEX
  8
AM_VIS
  5
6F8
 10
14.3279
 20
3.51979
 30
0.000000
  70
    32
  0
VERTEX
  8
AM_VIS
  5
6F9
 10
14.3267
 20
3.51809
 30
0.000000
  70
    32
  0
VERTEX
  8
AM_VIS
  5
6FA
 10
14.3256
 20
3.51638
 30
0.000000
  70
    32
  0
VERTEX
  8
AM_VIS
  5
6FB
 10
14.3244
 20
3.51467
 30
0.000000
  70
    32
  0
VERTEX
  8
AM_VIS
  5
6FC
 10
14.3233
 20
3.51295
 30
0.000000
  70
    32
  0
VERTEX
  8
AM_VIS
  5
6FD
 10
14.3222
 20
3.51123
 30
0.000000
  70
    32
  0
VERTEX
  8
AM_VIS
  5
6FE
 10
14.3211
 20
3.50950
 30
0.000000
  70
    32
  0
VERTEX
  8
AM_VIS
  5
6FF
 10
14.3200
 20
3.50778
 30
0.000000
  70
    32
  0
VERTEX
  8
AM_VIS
  5
700
 10
14.3189
 20
3.50604
 30
0.000000
  70
    32
  0
VERTEX
  8
AM_VIS
  5
701
 10
14.3178
 20
3.50430
 30
0.000000
  70
    32
  0
VERTEX
  8
AM_VIS
  5
702
 10
14.3167
 20
3.50256
 30
0.000000
  70
    32
  0
VERTEX
  8
AM_VIS
  5
703
 10
14.3156
 20
3.50082
 30
0.000000
  70
    32
  0
VERTEX
  8
AM_VIS
  5
704
 10
14.3145
 20
3.49907
 30
0.000000
  70
    32
  0
VERTEX
  8
AM_VIS
  5
705
 10
14.3134
 20
3.49732
 30
0.000000
  70
    32
  0
VERTEX
  8
AM_VIS
  5
706
 10
14.3124
 20
3.49556
 30
0.000000
  70
    32
  0
VERTEX
  8
AM_VIS
  5
707
 10
14.3113
 20
3.49380
 30
0.000000
  70
    32
  0
VERTEX
  8
AM_VIS
  5
708
 10
14.3103
 20
3.49203
 30
0.000000
  70
    32
  0
VERTEX
  8
AM_VIS
  5
709
 10
14.3092
 20
3.49027
 30
0.000000
  70
    32
  0
VERTEX
  8
AM_VIS
  5
70A
 10
14.3082
 20
3.48849
 30
0.000000
  70
    32
  0
VERTEX
  8
AM_VIS
  5
70B
 10
14.3071
 20
3.48672
 30
0.000000
  70
    32
  0
VERTEX
  8
AM_VIS
  5
70C
 10
14.3061
 20
3.48494
 30
0.000000
  70
    32
  0
VERTEX
  8
AM_VIS
  5
70D
 10
14.3051
 20
3.48315
 30
0.000000
  70
    32
  0
VERTEX
  8
AM_VIS
  5
70E
 10
14.3041
 20
3.48136
 30
0.000000
  70
    32
  0
VERTEX
  8
AM_VIS
  5
70F
 10
14.3030
 20
3.47957
 30
0.000000
  70
    32
  0
VERTEX
  8
AM_VIS
  5
710
 10
14.3020
 20
3.47778
 30
0.000000
  70
    32
  0
VERTEX
  8
AM_VIS
  5
711
 10
14.3010
 20
3.47598
 30
0.000000
  70
    32
  0
VERTEX
  8
AM_VIS
  5
712
 10
14.3001
 20
3.47417
 30
0.000000
  70
    32
  0
VERTEX
  8
AM_VIS
  5
713
 10
14.2991
 20
3.47236
 30
0.000000
  70
    32
  0
VERTEX
  8
AM_VIS
  5
714
 10
14.2981
 20
3.47055
 30
0.000000
  70
    32
  0
VERTEX
  8
AM_VIS
  5
715
 10
14.2971
 20
3.46874
 30
0.000000
  70
    32
  0
VERTEX
  8
AM_VIS
  5
716
 10
14.2961
 20
3.46692
 30
0.000000
  70
    32
  0
VERTEX
  8
AM_VIS
  5
717
 10
14.2952
 20
3.46510
 30
0.000000
  70
    32
  0
VERTEX
  8
AM_VIS
  5
718
 10
14.2942
 20
3.46327
 30
0.000000
  70
    32
  0
VERTEX
  8
AM_VIS
  5
719
 10
14.2933
 20
3.46144
 30
0.000000
  70
    32
  0
VERTEX
  8
AM_VIS
  5
71A
 10
14.2923
 20
3.45961
 30
0.000000
  70
    32
  0
VERTEX
  8
AM_VIS
  5
71B
 10
14.2914
 20
3.45777
 30
0.000000
  70
    32
  0
VERTEX
  8
AM_VIS
  5
71C
 10
14.2905
 20
3.45593
 30
0.000000
  70
    32
  0
VERTEX
  8
AM_VIS
  5
71D
 10
14.2895
 20
3.45409
 30
0.000000
  70
    32
  0
VERTEX
  8
AM_VIS
  5
71E
 10
14.2886
 20
3.45224
 30
0.000000
  70
    32
  0
VERTEX
  8
AM_VIS
  5
71F
 10
14.2877
 20
3.45039
 30
0.000000
  70
    32
  0
VERTEX
  8
AM_VIS
  5
720
 10
14.2868
 20
3.44854
 30
0.000000
  70
    32
  0
VERTEX
  8
AM_VIS
  5
721
 10
14.2859
 20
3.44668
 30
0.000000
  70
    32
  0
VERTEX
  8
AM_VIS
  5
722
 10
14.2850
 20
3.44482
 30
0.000000
  70
    32
  0
VERTEX
  8
AM_VIS
  5
723
 10
14.2841
 20
3.44295
 30
0.000000
  70
    32
  0
VERTEX
  8
AM_VIS
  5
724
 10
14.2833
 20
3.44108
 30
0.000000
  70
    32
  0
VERTEX
  8
AM_VIS
  5
725
 10
14.2824
 20
3.43921
 30
0.000000
  70
    32
  0
VERTEX
  8
AM_VIS
  5
726
 10
14.2815
 20
3.43734
 30
0.000000
  70
    32
  0
VERTEX
  8
AM_VIS
  5
727
 10
14.2807
 20
3.43546
 30
0.000000
  70
    32
  0
VERTEX
  8
AM_VIS
  5
728
 10
14.2798
 20
3.43358
 30
0.000000
  70
    32
  0
VERTEX
  8
AM_VIS
  5
729
 10
14.2790
 20
3.43169
 30
0.000000
  70
    32
  0
VERTEX
  8
AM_VIS
  5
72A
 10
14.2781
 20
3.42981
 30
0.000000
  70
    32
  0
VERTEX
  8
AM_VIS
  5
72B
 10
14.2773
 20
3.42792
 30
0.000000
  70
    32
  0
VERTEX
  8
AM_VIS
  5
72C
 10
14.2765
 20
3.42602
 30
0.000000
  70
    32
  0
VERTEX
  8
AM_VIS
  5
72D
 10
14.2756
 20
3.42412
 30
0.000000
  70
    32
  0
VERTEX
  8
AM_VIS
  5
72E
 10
14.2748
 20
3.42222
 30
0.000000
  70
    32
  0
VERTEX
  8
AM_VIS
  5
72F
 10
14.2740
 20
3.42032
 30
0.000000
  70
    32
  0
VERTEX
  8
AM_VIS
  5
730
 10
14.2732
 20
3.41841
 30
0.000000
  70
    32
  0
VERTEX
  8
AM_VIS
  5
731
 10
14.2724
 20
3.41650
 30
0.000000
  70
    32
  0
VERTEX
  8
AM_VIS
  5
732
 10
14.2716
 20
3.41459
 30
0.000000
  70
    32
  0
VERTEX
  8
AM_VIS
  5
733
 10
14.2708
 20
3.41268
 30
0.000000
  70
    32
  0
VERTEX
  8
AM_VIS
  5
734
 10
14.2701
 20
3.41076
 30
0.000000
  70
    32
  0
VERTEX
  8
AM_VIS
  5
735
 10
14.2693
 20
3.40884
 30
0.000000
  70
    32
  0
VERTEX
  8
AM_VIS
  5
736
 10
14.2685
 20
3.40691
 30
0.000000
  70
    32
  0
VERTEX
  8
AM_VIS
  5
737
 10
14.2678
 20
3.40498
 30
0.000000
  70
    32
  0
VERTEX
  8
AM_VIS
  5
738
 10
14.2670
 20
3.40305
 30
0.000000
  70
    32
  0
VERTEX
  8
AM_VIS
  5
739
 10
14.2663
 20
3.40112
 30
0.000000
  70
    32
  0
VERTEX
  8
AM_VIS
  5
73A
 10
14.2656
 20
3.39918
 30
0.000000
  70
    32
  0
VERTEX
  8
AM_VIS
  5
73B
 10
14.2648
 20
3.39724
 30
0.000000
  70
    32
  0
VERTEX
  8
AM_VIS
  5
73C
 10
14.2641
 20
3.39530
 30
0.000000
  70
    32
  0
VERTEX
  8
AM_VIS
  5
73D
 10
14.2634
 20
3.39336
 30
0.000000
  70
    32
  0
VERTEX
  8
AM_VIS
  5
73E
 10
14.2627
 20
3.39141
 30
0.000000
  70
    32
  0
VERTEX
  8
AM_VIS
  5
73F
 10
14.2620
 20
3.38946
 30
0.000000
  70
    32
  0
VERTEX
  8
AM_VIS
  5
740
 10
14.2613
 20
3.38751
 30
0.000000
  70
    32
  0
VERTEX
  8
AM_VIS
  5
741
 10
14.2606
 20
3.38555
 30
0.000000
  70
    32
  0
VERTEX
  8
AM_VIS
  5
742
 10
14.2599
 20
3.38359
 30
0.000000
  70
    32
  0
VERTEX
  8
AM_VIS
  5
743
 10
14.2592
 20
3.38163
 30
0.000000
  70
    32
  0
VERTEX
  8
AM_VIS
  5
744
 10
14.2585
 20
3.37967
 30
0.000000
  70
    32
  0
VERTEX
  8
AM_VIS
  5
745
 10
14.2579
 20
3.37770
 30
0.000000
  70
    32
  0
VERTEX
  8
AM_VIS
  5
746
 10
14.2572
 20
3.37573
 30
0.000000
  70
    32
  0
VERTEX
  8
AM_VIS
  5
747
 10
14.2566
 20
3.37376
 30
0.000000
  70
    32
  0
VERTEX
  8
AM_VIS
  5
748
 10
14.2559
 20
3.37179
 30
0.000000
  70
    32
  0
VERTEX
  8
AM_VIS
  5
749
 10
14.2553
 20
3.36981
 30
0.000000
  70
    32
  0
VERTEX
  8
AM_VIS
  5
74A
 10
14.2546
 20
3.36783
 30
0.000000
  70
    32
  0
VERTEX
  8
AM_VIS
  5
74B
 10
14.2540
 20
3.36585
 30
0.000000
  70
    32
  0
VERTEX
  8
AM_VIS
  5
74C
 10
14.2534
 20
3.36387
 30
0.000000
  70
    32
  0
VERTEX
  8
AM_VIS
  5
74D
 10
14.2528
 20
3.36188
 30
0.000000
  70
    32
  0
VERTEX
  8
AM_VIS
  5
74E
 10
14.2522
 20
3.35989
 30
0.000000
  70
    32
  0
VERTEX
  8
AM_VIS
  5
74F
 10
14.2516
 20
3.35790
 30
0.000000
  70
    32
  0
VERTEX
  8
AM_VIS
  5
750
 10
14.2510
 20
3.35591
 30
0.000000
  70
    32
  0
VERTEX
  8
AM_VIS
  5
751
 10
14.2504
 20
3.35391
 30
0.000000
  70
    32
  0
VERTEX
  8
AM_VIS
  5
752
 10
14.2498
 20
3.35191
 30
0.000000
  70
    32
  0
VERTEX
  8
AM_VIS
  5
753
 10
14.2493
 20
3.34991
 30
0.000000
  70
    32
  0
VERTEX
  8
AM_VIS
  5
754
 10
14.2487
 20
3.34791
 30
0.000000
  70
    32
  0
VERTEX
  8
AM_VIS
  5
755
 10
14.2481
 20
3.34591
 30
0.000000
  70
    32
  0
VERTEX
  8
AM_VIS
  5
756
 10
14.2476
 20
3.34390
 30
0.000000
  70
    32
  0
VERTEX
  8
AM_VIS
  5
757
 10
14.2470
 20
3.34189
 30
0.000000
  70
    32
  0
VERTEX
  8
AM_VIS
  5
758
 10
14.2465
 20
3.33988
 30
0.000000
  70
    32
  0
VERTEX
  8
AM_VIS
  5
759
 10
14.2460
 20
3.33787
 30
0.000000
  70
    32
  0
VERTEX
  8
AM_VIS
  5
75A
 10
14.2454
 20
3.33585
 30
0.000000
  70
    32
  0
VERTEX
  8
AM_VIS
  5
75B
 10
14.2449
 20
3.33383
 30
0.000000
  70
    32
  0
VERTEX
  8
AM_VIS
  5
75C
 10
14.2444
 20
3.33181
 30
0.000000
  70
    32
  0
VERTEX
  8
AM_VIS
  5
75D
 10
14.2439
 20
3.32979
 30
0.000000
  70
    32
  0
VERTEX
  8
AM_VIS
  5
75E
 10
14.2434
 20
3.32777
 30
0.000000
  70
    32
  0
VERTEX
  8
AM_VIS
  5
75F
 10
14.2429
 20
3.32574
 30
0.000000
  70
    32
  0
VERTEX
  8
AM_VIS
  5
760
 10
14.2424
 20
3.32371
 30
0.000000
  70
    32
  0
VERTEX
  8
AM_VIS
  5
761
 10
14.2420
 20
3.32168
 30
0.000000
  70
    32
  0
VERTEX
  8
AM_VIS
  5
762
 10
14.2415
 20
3.31965
 30
0.000000
  70
    32
  0
VERTEX
  8
AM_VIS
  5
763
 10
14.2410
 20
3.31762
 30
0.000000
  70
    32
  0
VERTEX
  8
AM_VIS
  5
764
 10
14.2406
 20
3.31558
 30
0.000000
  70
    32
  0
VERTEX
  8
AM_VIS
  5
765
 10
14.2401
 20
3.31355
 30
0.000000
  70
    32
  0
VERTEX
  8
AM_VIS
  5
766
 10
14.2397
 20
3.31151
 30
0.000000
  70
    32
  0
VERTEX
  8
AM_VIS
  5
767
 10
14.2392
 20
3.30947
 30
0.000000
  70
    32
  0
VERTEX
  8
AM_VIS
  5
768
 10
14.2388
 20
3.30742
 30
0.000000
  70
    32
  0
VERTEX
  8
AM_VIS
  5
769
 10
14.2384
 20
3.30538
 30
0.000000
  70
    32
  0
VERTEX
  8
AM_VIS
  5
76A
 10
14.2380
 20
3.30333
 30
0.000000
  70
    32
  0
VERTEX
  8
AM_VIS
  5
76B
 10
14.2376
 20
3.30129
 30
0.000000
  70
    32
  0
VERTEX
  8
AM_VIS
  5
76C
 10
14.2372
 20
3.29924
 30
0.000000
  70
    32
  0
VERTEX
  8
AM_VIS
  5
76D
 10
14.2368
 20
3.29719
 30
0.000000
  70
    32
  0
VERTEX
  8
AM_VIS
  5
76E
 10
14.2364
 20
3.29513
 30
0.000000
  70
    32
  0
VERTEX
  8
AM_VIS
  5
76F
 10
14.2360
 20
3.29308
 30
0.000000
  70
    32
  0
VERTEX
  8
AM_VIS
  5
770
 10
14.2356
 20
3.29102
 30
0.000000
  70
    32
  0
VERTEX
  8
AM_VIS
  5
771
 10
14.2352
 20
3.28896
 30
0.000000
  70
    32
  0
VERTEX
  8
AM_VIS
  5
772
 10
14.2349
 20
3.28691
 30
0.000000
  70
    32
  0
VERTEX
  8
AM_VIS
  5
773
 10
14.2345
 20
3.28484
 30
0.000000
  70
    32
  0
VERTEX
  8
AM_VIS
  5
774
 10
14.2342
 20
3.28278
 30
0.000000
  70
    32
  0
VERTEX
  8
AM_VIS
  5
775
 10
14.2338
 20
3.28072
 30
0.000000
  70
    32
  0
VERTEX
  8
AM_VIS
  5
776
 10
14.2335
 20
3.27866
 30
0.000000
  70
    32
  0
VERTEX
  8
AM_VIS
  5
777
 10
14.2332
 20
3.27659
 30
0.000000
  70
    32
  0
VERTEX
  8
AM_VIS
  5
778
 10
14.2329
 20
3.27453
 30
0.000000
  70
    32
  0
VERTEX
  8
AM_VIS
  5
779
 10
14.2326
 20
3.27246
 30
0.000000
  70
    32
  0
VERTEX
  8
AM_VIS
  5
77A
 10
14.2323
 20
3.27039
 30
0.000000
  70
    32
  0
VERTEX
  8
AM_VIS
  5
77B
 10
14.2320
 20
3.26832
 30
0.000000
  70
    32
  0
VERTEX
  8
AM_VIS
  5
77C
 10
14.2317
 20
3.26625
 30
0.000000
  70
    32
  0
VERTEX
  8
AM_VIS
  5
77D
 10
14.2314
 20
3.26418
 30
0.000000
  70
    32
  0
VERTEX
  8
AM_VIS
  5
77E
 10
14.2311
 20
3.26211
 30
0.000000
  70
    32
  0
VERTEX
  8
AM_VIS
  5
77F
 10
14.2308
 20
3.26004
 30
0.000000
  70
    32
  0
VERTEX
  8
AM_VIS
  5
780
 10
14.2306
 20
3.25797
 30
0.000000
  70
    32
  0
VERTEX
  8
AM_VIS
  5
781
 10
14.2303
 20
3.25589
 30
0.000000
  70
    32
  0
VERTEX
  8
AM_VIS
  5
782
 10
14.2301
 20
3.25382
 30
0.000000
  70
    32
  0
VERTEX
  8
AM_VIS
  5
783
 10
14.2298
 20
3.25174
 30
0.000000
  70
    32
  0
VERTEX
  8
AM_VIS
  5
784
 10
14.2296
 20
3.24966
 30
0.000000
  70
    32
  0
VERTEX
  8
AM_VIS
  5
785
 10
14.2294
 20
3.24758
 30
0.000000
  70
    32
  0
VERTEX
  8
AM_VIS
  5
786
 10
14.2291
 20
3.24551
 30
0.000000
  70
    32
  0
VERTEX
  8
AM_VIS
  5
787
 10
14.2289
 20
3.24343
 30
0.000000
  70
    32
  0
VERTEX
  8
AM_VIS
  5
788
 10
14.2287
 20
3.24135
 30
0.000000
  70
    32
  0
VERTEX
  8
AM_VIS
  5
789
 10
14.2285
 20
3.23927
 30
0.000000
  70
    32
  0
VERTEX
  8
AM_VIS
  5
78A
 10
14.2283
 20
3.23718
 30
0.000000
  70
    32
  0
VERTEX
  8
AM_VIS
  5
78B
 10
14.2281
 20
3.23510
 30
0.000000
  70
    32
  0
VERTEX
  8
AM_VIS
  5
78C
 10
14.2280
 20
3.23302
 30
0.000000
  70
    32
  0
VERTEX
  8
AM_VIS
  5
78D
 10
14.2278
 20
3.23093
 30
0.000000
  70
    32
  0
VERTEX
  8
AM_VIS
  5
78E
 10
14.2276
 20
3.22885
 30
0.000000
  70
    32
  0
VERTEX
  8
AM_VIS
  5
78F
 10
14.2275
 20
3.22676
 30
0.000000
  70
    32
  0
VERTEX
  8
AM_VIS
  5
790
 10
14.2273
 20
3.22468
 30
0.000000
  70
    32
  0
VERTEX
  8
AM_VIS
  5
791
 10
14.2272
 20
3.22259
 30
0.000000
  70
    32
  0
VERTEX
  8
AM_VIS
  5
792
 10
14.2270
 20
3.22050
 30
0.000000
  70
    32
  0
VERTEX
  8
AM_VIS
  5
793
 10
14.2269
 20
3.21842
 30
0.000000
  70
    32
  0
VERTEX
  8
AM_VIS
  5
794
 10
14.2268
 20
3.21633
 30
0.000000
  70
    32
  0
VERTEX
  8
AM_VIS
  5
795
 10
14.2267
 20
3.21424
 30
0.000000
  70
    32
  0
VERTEX
  8
AM_VIS
  5
796
 10
14.2265
 20
3.21215
 30
0.000000
  70
    32
  0
VERTEX
  8
AM_VIS
  5
797
 10
14.2264
 20
3.21006
 30
0.000000
  70
    32
  0
VERTEX
  8
AM_VIS
  5
798
 10
14.2263
 20
3.20797
 30
0.000000
  70
    32
  0
VERTEX
  8
AM_VIS
  5
799
 10
14.2263
 20
3.20588
 30
0.000000
  70
    32
  0
VERTEX
  8
AM_VIS
  5
79A
 10
14.2262
 20
3.20379
 30
0.000000
  70
    32
  0
VERTEX
  8
AM_VIS
  5
79B
 10
14.2261
 20
3.20169
 30
0.000000
  70
    32
  0
VERTEX
  8
AM_VIS
  5
79C
 10
14.2260
 20
3.19960
 30
0.000000
  70
    32
  0
VERTEX
  8
AM_VIS
  5
79D
 10
14.2260
 20
3.19751
 30
0.000000
  70
    32
  0
VERTEX
  8
AM_VIS
  5
79E
 10
14.2259
 20
3.19541
 30
0.000000
  70
    32
  0
VERTEX
  8
AM_VIS
  5
79F
 10
14.2259
 20
3.19332
 30
0.000000
  70
    32
  0
VERTEX
  8
AM_VIS
  5
7A0
 10
14.2258
 20
3.19123
 30
0.000000
  70
    32
  0
VERTEX
  8
AM_VIS
  5
7A1
 10
14.2258
 20
3.18913
 30
0.000000
  70
    32
  0
VERTEX
  8
AM_VIS
  5
7A2
 10
14.2258
 20
3.18704
 30
0.000000
  70
    32
  0
VERTEX
  8
AM_VIS
  5
7A3
 10
14.2258
 20
3.18494
 30
0.000000
  70
    32
  0
VERTEX
  8
AM_VIS
  5
7A4
 10
14.2258
 20
3.18284
 30
0.000000
  70
    32
  0
VERTEX
  8
AM_VIS
  5
7A5
 10
14.2258
 20
3.18075
 30
0.000000
  70
    32
  0
SEQEND
  8
AM_VIS
  5
7A6
  0
POLYLINE
  8
AM_VIS
  5
7A7
  66
     1
 10
0.000000
 20
0.000000
 30
0.000000
  70
     8
  0
VERTEX
  8
AM_VIS
  5
7A8
 10
15.1471
 20
1.44768
 30
0.000000
  70
    32
  0
VERTEX
  8
AM_VIS
  5
7A9
 10
15.1471
 20
1.44985
 30
0.000000
  70
    32
  0
VERTEX
  8
AM_VIS
  5
7AA
 10
15.1471
 20
1.45201
 30
0.000000
  70
    32
  0
VERTEX
  8
AM_VIS
  5
7AB
 10
15.1471
 20
1.45418
 30
0.000000
  70
    32
  0
VERTEX
  8
AM_VIS
  5
7AC
 10
15.1471
 20
1.45634
 30
0.000000
  70
    32
  0
VERTEX
  8
AM_VIS
  5
7AD
 10
15.1470
 20
1.45851
 30
0.000000
  70
    32
  0
VERTEX
  8
AM_VIS
  5
7AE
 10
15.1470
 20
1.46067
 30
0.000000
  70
    32
  0
VERTEX
  8
AM_VIS
  5
7AF
 10
15.1469
 20
1.46283
 30
0.000000
  70
    32
  0
VERTEX
  8
AM_VIS
  5
7B0
 10
15.1469
 20
1.46500
 30
0.000000
  70
    32
  0
VERTEX
  8
AM_VIS
  5
7B1
 10
15.1468
 20
1.46716
 30
0.000000
  70
    32
  0
VERTEX
  8
AM_VIS
  5
7B2
 10
15.1468
 20
1.46932
 30
0.000000
  70
    32
  0
VERTEX
  8
AM_VIS
  5
7B3
 10
15.1467
 20
1.47148
 30
0.000000
  70
    32
  0
VERTEX
  8
AM_VIS
  5
7B4
 10
15.1466
 20
1.47364
 30
0.000000
  70
    32
  0
VERTEX
  8
AM_VIS
  5
7B5
 10
15.1465
 20
1.47580
 30
0.000000
  70
    32
  0
VERTEX
  8
AM_VIS
  5
7B6
 10
15.1464
 20
1.47796
 30
0.000000
  70
    32
  0
VERTEX
  8
AM_VIS
  5
7B7
 10
15.1463
 20
1.48011
 30
0.000000
  70
    32
  0
VERTEX
  8
AM_VIS
  5
7B8
 10
15.1462
 20
1.48227
 30
0.000000
  70
    32
  0
VERTEX
  8
AM_VIS
  5
7B9
 10
15.1460
 20
1.48443
 30
0.000000
  70
    32
  0
VERTEX
  8
AM_VIS
  5
7BA
 10
15.1459
 20
1.48658
 30
0.000000
  70
    32
  0
VERTEX
  8
AM_VIS
  5
7BB
 10
15.1458
 20
1.48873
 30
0.000000
  70
    32
  0
VERTEX
  8
AM_VIS
  5
7BC
 10
15.1456
 20
1.49089
 30
0.000000
  70
    32
  0
VERTEX
  8
AM_VIS
  5
7BD
 10
15.1455
 20
1.49304
 30
0.000000
  70
    32
  0
VERTEX
  8
AM_VIS
  5
7BE
 10
15.1453
 20
1.49519
 30
0.000000
  70
    32
  0
VERTEX
  8
AM_VIS
  5
7BF
 10
15.1451
 20
1.49734
 30
0.000000
  70
    32
  0
VERTEX
  8
AM_VIS
  5
7C0
 10
15.1450
 20
1.49949
 30
0.000000
  70
    32
  0
VERTEX
  8
AM_VIS
  5
7C1
 10
15.1448
 20
1.50164
 30
0.000000
  70
    32
  0
VERTEX
  8
AM_VIS
  5
7C2
 10
15.1446
 20
1.50378
 30
0.000000
  70
    32
  0
VERTEX
  8
AM_VIS
  5
7C3
 10
15.1444
 20
1.50593
 30
0.000000
  70
    32
  0
VERTEX
  8
AM_VIS
  5
7C4
 10
15.1442
 20
1.50807
 30
0.000000
  70
    32
  0
VERTEX
  8
AM_VIS
  5
7C5
 10
15.1440
 20
1.51022
 30
0.000000
  70
    32
  0
VERTEX
  8
AM_VIS
  5
7C6
 10
15.1438
 20
1.51236
 30
0.000000
  70
    32
  0
VERTEX
  8
AM_VIS
  5
7C7
 10
15.1435
 20
1.51450
 30
0.000000
  70
    32
  0
VERTEX
  8
AM_VIS
  5
7C8
 10
15.1433
 20
1.51664
 30
0.000000
  70
    32
  0
VERTEX
  8
AM_VIS
  5
7C9
 10
15.1431
 20
1.51878
 30
0.000000
  70
    32
  0
VERTEX
  8
AM_VIS
  5
7CA
 10
15.1428
 20
1.52092
 30
0.000000
  70
    32
  0
VERTEX
  8
AM_VIS
  5
7CB
 10
15.1425
 20
1.52306
 30
0.000000
  70
    32
  0
VERTEX
  8
AM_VIS
  5
7CC
 10
15.1423
 20
1.52519
 30
0.000000
  70
    32
  0
VERTEX
  8
AM_VIS
  5
7CD
 10
15.1420
 20
1.52733
 30
0.000000
  70
    32
  0
VERTEX
  8
AM_VIS
  5
7CE
 10
15.1417
 20
1.52946
 30
0.000000
  70
    32
  0
VERTEX
  8
AM_VIS
  5
7CF
 10
15.1414
 20
1.53159
 30
0.000000
  70
    32
  0
VERTEX
  8
AM_VIS
  5
7D0
 10
15.1411
 20
1.53372
 30
0.000000
  70
    32
  0
VERTEX
  8
AM_VIS
  5
7D1
 10
15.1408
 20
1.53585
 30
0.000000
  70
    32
  0
VERTEX
  8
AM_VIS
  5
7D2
 10
15.1405
 20
1.53798
 30
0.000000
  70
    32
  0
VERTEX
  8
AM_VIS
  5
7D3
 10
15.1402
 20
1.54010
 30
0.000000
  70
    32
  0
VERTEX
  8
AM_VIS
  5
7D4
 10
15.1399
 20
1.54223
 30
0.000000
  70
    32
  0
VERTEX
  8
AM_VIS
  5
7D5
 10
15.1396
 20
1.54435
 30
0.000000
  70
    32
  0
VERTEX
  8
AM_VIS
  5
7D6
 10
15.1392
 20
1.54647
 30
0.000000
  70
    32
  0
VERTEX
  8
AM_VIS
  5
7D7
 10
15.1389
 20
1.54859
 30
0.000000
  70
    32
  0
VERTEX
  8
AM_VIS
  5
7D8
 10
15.1385
 20
1.55071
 30
0.000000
  70
    32
  0
VERTEX
  8
AM_VIS
  5
7D9
 10
15.1382
 20
1.55283
 30
0.000000
  70
    32
  0
VERTEX
  8
AM_VIS
  5
7DA
 10
15.1378
 20
1.55495
 30
0.000000
  70
    32
  0
VERTEX
  8
AM_VIS
  5
7DB
 10
15.1374
 20
1.55706
 30
0.000000
  70
    32
  0
VERTEX
  8
AM_VIS
  5
7DC
 10
15.1370
 20
1.55917
 30
0.000000
  70
    32
  0
VERTEX
  8
AM_VIS
  5
7DD
 10
15.1367
 20
1.56128
 30
0.000000
  70
    32
  0
VERTEX
  8
AM_VIS
  5
7DE
 10
15.1363
 20
1.56339
 30
0.000000
  70
    32
  0
VERTEX
  8
AM_VIS
  5
7DF
 10
15.1359
 20
1.56550
 30
0.000000
  70
    32
  0
VERTEX
  8
AM_VIS
  5
7E0
 10
15.1354
 20
1.56761
 30
0.000000
  70
    32
  0
VERTEX
  8
AM_VIS
  5
7E1
 10
15.1350
 20
1.56971
 30
0.000000
  70
    32
  0
VERTEX
  8
AM_VIS
  5
7E2
 10
15.1346
 20
1.57181
 30
0.000000
  70
    32
  0
VERTEX
  8
AM_VIS
  5
7E3
 10
15.1342
 20
1.57392
 30
0.000000
  70
    32
  0
VERTEX
  8
AM_VIS
  5
7E4
 10
15.1337
 20
1.57601
 30
0.000000
  70
    32
  0
VERTEX
  8
AM_VIS
  5
7E5
 10
15.1333
 20
1.57811
 30
0.000000
  70
    32
  0
VERTEX
  8
AM_VIS
  5
7E6
 10
15.1328
 20
1.58021
 30
0.000000
  70
    32
  0
VERTEX
  8
AM_VIS
  5
7E7
 10
15.1324
 20
1.58230
 30
0.000000
  70
    32
  0
VERTEX
  8
AM_VIS
  5
7E8
 10
15.1319
 20
1.58439
 30
0.000000
  70
    32
  0
VERTEX
  8
AM_VIS
  5
7E9
 10
15.1314
 20
1.58648
 30
0.000000
  70
    32
  0
VERTEX
  8
AM_VIS
  5
7EA
 10
15.1309
 20
1.58857
 30
0.000000
  70
    32
  0
VERTEX
  8
AM_VIS
  5
7EB
 10
15.1304
 20
1.59066
 30
0.000000
  70
    32
  0
VERTEX
  8
AM_VIS
  5
7EC
 10
15.1299
 20
1.59274
 30
0.000000
  70
    32
  0
VERTEX
  8
AM_VIS
  5
7ED
 10
15.1294
 20
1.59483
 30
0.000000
  70
    32
  0
VERTEX
  8
AM_VIS
  5
7EE
 10
15.1289
 20
1.59691
 30
0.000000
  70
    32
  0
VERTEX
  8
AM_VIS
  5
7EF
 10
15.1284
 20
1.59899
 30
0.000000
  70
    32
  0
VERTEX
  8
AM_VIS
  5
7F0
 10
15.1279
 20
1.60106
 30
0.000000
  70
    32
  0
VERTEX
  8
AM_VIS
  5
7F1
 10
15.1273
 20
1.60314
 30
0.000000
  70
    32
  0
VERTEX
  8
AM_VIS
  5
7F2
 10
15.1268
 20
1.60521
 30
0.000000
  70
    32
  0
VERTEX
  8
AM_VIS
  5
7F3
 10
15.1263
 20
1.60728
 30
0.000000
  70
    32
  0
VERTEX
  8
AM_VIS
  5
7F4
 10
15.1257
 20
1.60935
 30
0.000000
  70
    32
  0
VERTEX
  8
AM_VIS
  5
7F5
 10
15.1251
 20
1.61142
 30
0.000000
  70
    32
  0
VERTEX
  8
AM_VIS
  5
7F6
 10
15.1246
 20
1.61348
 30
0.000000
  70
    32
  0
VERTEX
  8
AM_VIS
  5
7F7
 10
15.1240
 20
1.61554
 30
0.000000
  70
    32
  0
VERTEX
  8
AM_VIS
  5
7F8
 10
15.1234
 20
1.61760
 30
0.000000
  70
    32
  0
VERTEX
  8
AM_VIS
  5
7F9
 10
15.1228
 20
1.61966
 30
0.000000
  70
    32
  0
VERTEX
  8
AM_VIS
  5
7FA
 10
15.1222
 20
1.62172
 30
0.000000
  70
    32
  0
VERTEX
  8
AM_VIS
  5
7FB
 10
15.1216
 20
1.62377
 30
0.000000
  70
    32
  0
VERTEX
  8
AM_VIS
  5
7FC
 10
15.1210
 20
1.62582
 30
0.000000
  70
    32
  0
VERTEX
  8
AM_VIS
  5
7FD
 10
15.1204
 20
1.62787
 30
0.000000
  70
    32
  0
VERTEX
  8
AM_VIS
  5
7FE
 10
15.1197
 20
1.62992
 30
0.000000
  70
    32
  0
VERTEX
  8
AM_VIS
  5
7FF
 10
15.1191
 20
1.63196
 30
0.000000
  70
    32
  0
VERTEX
  8
AM_VIS
  5
800
 10
15.1185
 20
1.63400
 30
0.000000
  70
    32
  0
VERTEX
  8
AM_VIS
  5
801
 10
15.1178
 20
1.63604
 30
0.000000
  70
    32
  0
VERTEX
  8
AM_VIS
  5
802
 10
15.1172
 20
1.63808
 30
0.000000
  70
    32
  0
VERTEX
  8
AM_VIS
  5
803
 10
15.1165
 20
1.64012
 30
0.000000
  70
    32
  0
VERTEX
  8
AM_VIS
  5
804
 10
15.1158
 20
1.64215
 30
0.000000
  70
    32
  0
VERTEX
  8
AM_VIS
  5
805
 10
15.1152
 20
1.64418
 30
0.000000
  70
    32
  0
VERTEX
  8
AM_VIS
  5
806
 10
15.1145
 20
1.64621
 30
0.000000
  70
    32
  0
VERTEX
  8
AM_VIS
  5
807
 10
15.1138
 20
1.64823
 30
0.000000
  70
    32
  0
VERTEX
  8
AM_VIS
  5
808
 10
15.1131
 20
1.65026
 30
0.000000
  70
    32
  0
VERTEX
  8
AM_VIS
  5
809
 10
15.1124
 20
1.65228
 30
0.000000
  70
    32
  0
VERTEX
  8
AM_VIS
  5
80A
 10
15.1117
 20
1.65429
 30
0.000000
  70
    32
  0
VERTEX
  8
AM_VIS
  5
80B
 10
15.1109
 20
1.65631
 30
0.000000
  70
    32
  0
VERTEX
  8
AM_VIS
  5
80C
 10
15.1102
 20
1.65832
 30
0.000000
  70
    32
  0
VERTEX
  8
AM_VIS
  5
80D
 10
15.1095
 20
1.66033
 30
0.000000
  70
    32
  0
VERTEX
  8
AM_VIS
  5
80E
 10
15.1087
 20
1.66234
 30
0.000000
  70
    32
  0
VERTEX
  8
AM_VIS
  5
80F
 10
15.1080
 20
1.66434
 30
0.000000
  70
    32
  0
VERTEX
  8
AM_VIS
  5
810
 10
15.1072
 20
1.66635
 30
0.000000
  70
    32
  0
VERTEX
  8
AM_VIS
  5
811
 10
15.1065
 20
1.66834
 30
0.000000
  70
    32
  0
VERTEX
  8
AM_VIS
  5
812
 10
15.1057
 20
1.67034
 30
0.000000
  70
    32
  0
VERTEX
  8
AM_VIS
  5
813
 10
15.1049
 20
1.67233
 30
0.000000
  70
    32
  0
VERTEX
  8
AM_VIS
  5
814
 10
15.1041
 20
1.67432
 30
0.000000
  70
    32
  0
VERTEX
  8
AM_VIS
  5
815
 10
15.1034
 20
1.67630
 30
0.000000
  70
    32
  0
VERTEX
  8
AM_VIS
  5
816
 10
15.1026
 20
1.67828
 30
0.000000
  70
    32
  0
VERTEX
  8
AM_VIS
  5
817
 10
15.1018
 20
1.68026
 30
0.000000
  70
    32
  0
VERTEX
  8
AM_VIS
  5
818
 10
15.1010
 20
1.68223
 30
0.000000
  70
    32
  0
VERTEX
  8
AM_VIS
  5
819
 10
15.1001
 20
1.68419
 30
0.000000
  70
    32
  0
VERTEX
  8
AM_VIS
  5
81A
 10
15.0993
 20
1.68616
 30
0.000000
  70
    32
  0
VERTEX
  8
AM_VIS
  5
81B
 10
15.0985
 20
1.68812
 30
0.000000
  70
    32
  0
VERTEX
  8
AM_VIS
  5
81C
 10
15.0977
 20
1.69007
 30
0.000000
  70
    32
  0
VERTEX
  8
AM_VIS
  5
81D
 10
15.0968
 20
1.69202
 30
0.000000
  70
    32
  0
VERTEX
  8
AM_VIS
  5
81E
 10
15.0960
 20
1.69397
 30
0.000000
  70
    32
  0
VERTEX
  8
AM_VIS
  5
81F
 10
15.0951
 20
1.69591
 30
0.000000
  70
    32
  0
VERTEX
  8
AM_VIS
  5
820
 10
15.0943
 20
1.69785
 30
0.000000
  70
    32
  0
VERTEX
  8
AM_VIS
  5
821
 10
15.0934
 20
1.69978
 30
0.000000
  70
    32
  0
VERTEX
  8
AM_VIS
  5
822
 10
15.0925
 20
1.70171
 30
0.000000
  70
    32
  0
VERTEX
  8
AM_VIS
  5
823
 10
15.0916
 20
1.70363
 30
0.000000
  70
    32
  0
VERTEX
  8
AM_VIS
  5
824
 10
15.0908
 20
1.70555
 30
0.000000
  70
    32
  0
VERTEX
  8
AM_VIS
  5
825
 10
15.0899
 20
1.70747
 30
0.000000
  70
    32
  0
VERTEX
  8
AM_VIS
  5
826
 10
15.0890
 20
1.70938
 30
0.000000
  70
    32
  0
VERTEX
  8
AM_VIS
  5
827
 10
15.0881
 20
1.71129
 30
0.000000
  70
    32
  0
VERTEX
  8
AM_VIS
  5
828
 10
15.0872
 20
1.71319
 30
0.000000
  70
    32
  0
VERTEX
  8
AM_VIS
  5
829
 10
15.0862
 20
1.71509
 30
0.000000
  70
    32
  0
VERTEX
  8
AM_VIS
  5
82A
 10
15.0853
 20
1.71699
 30
0.000000
  70
    32
  0
VERTEX
  8
AM_VIS
  5
82B
 10
15.0844
 20
1.71888
 30
0.000000
  70
    32
  0
VERTEX
  8
AM_VIS
  5
82C
 10
15.0835
 20
1.72076
 30
0.000000
  70
    32
  0
VERTEX
  8
AM_VIS
  5
82D
 10
15.0825
 20
1.72264
 30
0.000000
  70
    32
  0
VERTEX
  8
AM_VIS
  5
82E
 10
15.0816
 20
1.72452
 30
0.000000
  70
    32
  0
VERTEX
  8
AM_VIS
  5
82F
 10
15.0806
 20
1.72639
 30
0.000000
  70
    32
  0
VERTEX
  8
AM_VIS
  5
830
 10
15.0797
 20
1.72826
 30
0.000000
  70
    32
  0
VERTEX
  8
AM_VIS
  5
831
 10
15.0787
 20
1.73012
 30
0.000000
  70
    32
  0
VERTEX
  8
AM_VIS
  5
832
 10
15.0777
 20
1.73198
 30
0.000000
  70
    32
  0
VERTEX
  8
AM_VIS
  5
833
 10
15.0767
 20
1.73383
 30
0.000000
  70
    32
  0
VERTEX
  8
AM_VIS
  5
834
 10
15.0758
 20
1.73568
 30
0.000000
  70
    32
  0
VERTEX
  8
AM_VIS
  5
835
 10
15.0748
 20
1.73752
 30
0.000000
  70
    32
  0
VERTEX
  8
AM_VIS
  5
836
 10
15.0738
 20
1.73936
 30
0.000000
  70
    32
  0
VERTEX
  8
AM_VIS
  5
837
 10
15.0728
 20
1.74120
 30
0.000000
  70
    32
  0
VERTEX
  8
AM_VIS
  5
838
 10
15.0718
 20
1.74303
 30
0.000000
  70
    32
  0
VERTEX
  8
AM_VIS
  5
839
 10
15.0708
 20
1.74485
 30
0.000000
  70
    32
  0
VERTEX
  8
AM_VIS
  5
83A
 10
15.0697
 20
1.74667
 30
0.000000
  70
    32
  0
VERTEX
  8
AM_VIS
  5
83B
 10
15.0687
 20
1.74849
 30
0.000000
  70
    32
  0
VERTEX
  8
AM_VIS
  5
83C
 10
15.0677
 20
1.75030
 30
0.000000
  70
    32
  0
VERTEX
  8
AM_VIS
  5
83D
 10
15.0666
 20
1.75211
 30
0.000000
  70
    32
  0
VERTEX
  8
AM_VIS
  5
83E
 10
15.0656
 20
1.75391
 30
0.000000
  70
    32
  0
VERTEX
  8
AM_VIS
  5
83F
 10
15.0646
 20
1.75570
 30
0.000000
  70
    32
  0
VERTEX
  8
AM_VIS
  5
840
 10
15.0635
 20
1.75749
 30
0.000000
  70
    32
  0
VERTEX
  8
AM_VIS
  5
841
 10
15.0624
 20
1.75928
 30
0.000000
  70
    32
  0
VERTEX
  8
AM_VIS
  5
842
 10
15.0614
 20
1.76106
 30
0.000000
  70
    32
  0
VERTEX
  8
AM_VIS
  5
843
 10
15.0603
 20
1.76284
 30
0.000000
  70
    32
  0
VERTEX
  8
AM_VIS
  5
844
 10
15.0592
 20
1.76461
 30
0.000000
  70
    32
  0
VERTEX
  8
AM_VIS
  5
845
 10
15.0581
 20
1.76638
 30
0.000000
  70
    32
  0
VERTEX
  8
AM_VIS
  5
846
 10
15.0571
 20
1.76814
 30
0.000000
  70
    32
  0
VERTEX
  8
AM_VIS
  5
847
 10
15.0560
 20
1.76989
 30
0.000000
  70
    32
  0
VERTEX
  8
AM_VIS
  5
848
 10
15.0549
 20
1.77164
 30
0.000000
  70
    32
  0
VERTEX
  8
AM_VIS
  5
849
 10
15.0537
 20
1.77339
 30
0.000000
  70
    32
  0
VERTEX
  8
AM_VIS
  5
84A
 10
15.0526
 20
1.77513
 30
0.000000
  70
    32
  0
VERTEX
  8
AM_VIS
  5
84B
 10
15.0515
 20
1.77687
 30
0.000000
  70
    32
  0
VERTEX
  8
AM_VIS
  5
84C
 10
15.0504
 20
1.77860
 30
0.000000
  70
    32
  0
VERTEX
  8
AM_VIS
  5
84D
 10
15.0493
 20
1.78032
 30
0.000000
  70
    32
  0
VERTEX
  8
AM_VIS
  5
84E
 10
15.0481
 20
1.78204
 30
0.000000
  70
    32
  0
VERTEX
  8
AM_VIS
  5
84F
 10
15.0470
 20
1.78376
 30
0.000000
  70
    32
  0
VERTEX
  8
AM_VIS
  5
850
 10
15.0458
 20
1.78547
 30
0.000000
  70
    32
  0
VERTEX
  8
AM_VIS
  5
851
 10
15.0447
 20
1.78717
 30
0.000000
  70
    32
  0
VERTEX
  8
AM_VIS
  5
852
 10
15.0435
 20
1.78887
 30
0.000000
  70
    32
  0
VERTEX
  8
AM_VIS
  5
853
 10
15.0424
 20
1.79057
 30
0.000000
  70
    32
  0
VERTEX
  8
AM_VIS
  5
854
 10
15.0412
 20
1.79226
 30
0.000000
  70
    32
  0
VERTEX
  8
AM_VIS
  5
855
 10
15.0400
 20
1.79394
 30
0.000000
  70
    32
  0
VERTEX
  8
AM_VIS
  5
856
 10
15.0389
 20
1.79562
 30
0.000000
  70
    32
  0
VERTEX
  8
AM_VIS
  5
857
 10
15.0377
 20
1.79729
 30
0.000000
  70
    32
  0
VERTEX
  8
AM_VIS
  5
858
 10
15.0365
 20
1.79896
 30
0.000000
  70
    32
  0
VERTEX
  8
AM_VIS
  5
859
 10
15.0353
 20
1.80062
 30
0.000000
  70
    32
  0
VERTEX
  8
AM_VIS
  5
85A
 10
15.0341
 20
1.80227
 30
0.000000
  70
    32
  0
VERTEX
  8
AM_VIS
  5
85B
 10
15.0329
 20
1.80392
 30
0.000000
  70
    32
  0
VERTEX
  8
AM_VIS
  5
85C
 10
15.0317
 20
1.80557
 30
0.000000
  70
    32
  0
VERTEX
  8
AM_VIS
  5
85D
 10
15.0305
 20
1.80721
 30
0.000000
  70
    32
  0
VERTEX
  8
AM_VIS
  5
85E
 10
15.0292
 20
1.80884
 30
0.000000
  70
    32
  0
VERTEX
  8
AM_VIS
  5
85F
 10
15.0280
 20
1.81047
 30
0.000000
  70
    32
  0
VERTEX
  8
AM_VIS
  5
860
 10
15.0268
 20
1.81210
 30
0.000000
  70
    32
  0
VERTEX
  8
AM_VIS
  5
861
 10
15.0255
 20
1.81371
 30
0.000000
  70
    32
  0
VERTEX
  8
AM_VIS
  5
862
 10
15.0243
 20
1.81532
 30
0.000000
  70
    32
  0
VERTEX
  8
AM_VIS
  5
863
 10
15.0231
 20
1.81693
 30
0.000000
  70
    32
  0
VERTEX
  8
AM_VIS
  5
864
 10
15.0218
 20
1.81853
 30
0.000000
  70
    32
  0
VERTEX
  8
AM_VIS
  5
865
 10
15.0205
 20
1.82013
 30
0.000000
  70
    32
  0
VERTEX
  8
AM_VIS
  5
866
 10
15.0193
 20
1.82172
 30
0.000000
  70
    32
  0
VERTEX
  8
AM_VIS
  5
867
 10
15.0180
 20
1.82330
 30
0.000000
  70
    32
  0
VERTEX
  8
AM_VIS
  5
868
 10
15.0167
 20
1.82488
 30
0.000000
  70
    32
  0
VERTEX
  8
AM_VIS
  5
869
 10
15.0155
 20
1.82645
 30
0.000000
  70
    32
  0
VERTEX
  8
AM_VIS
  5
86A
 10
15.0142
 20
1.82801
 30
0.000000
  70
    32
  0
VERTEX
  8
AM_VIS
  5
86B
 10
15.0129
 20
1.82957
 30
0.000000
  70
    32
  0
VERTEX
  8
AM_VIS
  5
86C
 10
15.0116
 20
1.83113
 30
0.000000
  70
    32
  0
VERTEX
  8
AM_VIS
  5
86D
 10
15.0103
 20
1.83268
 30
0.000000
  70
    32
  0
VERTEX
  8
AM_VIS
  5
86E
 10
15.0090
 20
1.83422
 30
0.000000
  70
    32
  0
VERTEX
  8
AM_VIS
  5
86F
 10
15.0077
 20
1.83576
 30
0.000000
  70
    32
  0
VERTEX
  8
AM_VIS
  5
870
 10
15.0064
 20
1.83729
 30
0.000000
  70
    32
  0
VERTEX
  8
AM_VIS
  5
871
 10
15.0050
 20
1.83881
 30
0.000000
  70
    32
  0
VERTEX
  8
AM_VIS
  5
872
 10
15.0037
 20
1.84033
 30
0.000000
  70
    32
  0
VERTEX
  8
AM_VIS
  5
873
 10
15.0024
 20
1.84184
 30
0.000000
  70
    32
  0
VERTEX
  8
AM_VIS
  5
874
 10
15.0011
 20
1.84335
 30
0.000000
  70
    32
  0
VERTEX
  8
AM_VIS
  5
875
 10
14.9997
 20
1.84485
 30
0.000000
  70
    32
  0
VERTEX
  8
AM_VIS
  5
876
 10
14.9984
 20
1.84635
 30
0.000000
  70
    32
  0
VERTEX
  8
AM_VIS
  5
877
 10
14.9970
 20
1.84784
 30
0.000000
  70
    32
  0
VERTEX
  8
AM_VIS
  5
878
 10
14.9957
 20
1.84932
 30
0.000000
  70
    32
  0
VERTEX
  8
AM_VIS
  5
879
 10
14.9943
 20
1.85080
 30
0.000000
  70
    32
  0
VERTEX
  8
AM_VIS
  5
87A
 10
14.9929
 20
1.85227
 30
0.000000
  70
    32
  0
VERTEX
  8
AM_VIS
  5
87B
 10
14.9916
 20
1.85373
 30
0.000000
  70
    32
  0
VERTEX
  8
AM_VIS
  5
87C
 10
14.9902
 20
1.85519
 30
0.000000
  70
    32
  0
VERTEX
  8
AM_VIS
  5
87D
 10
14.9888
 20
1.85664
 30
0.000000
  70
    32
  0
VERTEX
  8
AM_VIS
  5
87E
 10
14.9874
 20
1.85809
 30
0.000000
  70
    32
  0
VERTEX
  8
AM_VIS
  5
87F
 10
14.9860
 20
1.85953
 30
0.000000
  70
    32
  0
VERTEX
  8
AM_VIS
  5
880
 10
14.9847
 20
1.86096
 30
0.000000
  70
    32
  0
VERTEX
  8
AM_VIS
  5
881
 10
14.9833
 20
1.86239
 30
0.000000
  70
    32
  0
VERTEX
  8
AM_VIS
  5
882
 10
14.9818
 20
1.86381
 30
0.000000
  70
    32
  0
VERTEX
  8
AM_VIS
  5
883
 10
14.9804
 20
1.86523
 30
0.000000
  70
    32
  0
VERTEX
  8
AM_VIS
  5
884
 10
14.9790
 20
1.86665
 30
0.000000
  70
    32
  0
VERTEX
  8
AM_VIS
  5
885
 10
14.9776
 20
1.86805
 30
0.000000
  70
    32
  0
VERTEX
  8
AM_VIS
  5
886
 10
14.9762
 20
1.86946
 30
0.000000
  70
    32
  0
VERTEX
  8
AM_VIS
  5
887
 10
14.9747
 20
1.87085
 30
0.000000
  70
    32
  0
VERTEX
  8
AM_VIS
  5
888
 10
14.9733
 20
1.87224
 30
0.000000
  70
    32
  0
VERTEX
  8
AM_VIS
  5
889
 10
14.9719
 20
1.87363
 30
0.000000
  70
    32
  0
VERTEX
  8
AM_VIS
  5
88A
 10
14.9704
 20
1.87501
 30
0.000000
  70
    32
  0
VERTEX
  8
AM_VIS
  5
88B
 10
14.9689
 20
1.87638
 30
0.000000
  70
    32
  0
VERTEX
  8
AM_VIS
  5
88C
 10
14.9675
 20
1.87775
 30
0.000000
  70
    32
  0
VERTEX
  8
AM_VIS
  5
88D
 10
14.9660
 20
1.87911
 30
0.000000
  70
    32
  0
VERTEX
  8
AM_VIS
  5
88E
 10
14.9645
 20
1.88046
 30
0.000000
  70
    32
  0
VERTEX
  8
AM_VIS
  5
88F
 10
14.9631
 20
1.88181
 30
0.000000
  70
    32
  0
VERTEX
  8
AM_VIS
  5
890
 10
14.9616
 20
1.88316
 30
0.000000
  70
    32
  0
VERTEX
  8
AM_VIS
  5
891
 10
14.9601
 20
1.88450
 30
0.000000
  70
    32
  0
VERTEX
  8
AM_VIS
  5
892
 10
14.9586
 20
1.88583
 30
0.000000
  70
    32
  0
VERTEX
  8
AM_VIS
  5
893
 10
14.9571
 20
1.88715
 30
0.000000
  70
    32
  0
VERTEX
  8
AM_VIS
  5
894
 10
14.9556
 20
1.88847
 30
0.000000
  70
    32
  0
VERTEX
  8
AM_VIS
  5
895
 10
14.9541
 20
1.88979
 30
0.000000
  70
    32
  0
VERTEX
  8
AM_VIS
  5
896
 10
14.9526
 20
1.89109
 30
0.000000
  70
    32
  0
VERTEX
  8
AM_VIS
  5
897
 10
14.9511
 20
1.89239
 30
0.000000
  70
    32
  0
VERTEX
  8
AM_VIS
  5
898
 10
14.9495
 20
1.89369
 30
0.000000
  70
    32
  0
VERTEX
  8
AM_VIS
  5
899
 10
14.9480
 20
1.89498
 30
0.000000
  70
    32
  0
VERTEX
  8
AM_VIS
  5
89A
 10
14.9465
 20
1.89626
 30
0.000000
  70
    32
  0
VERTEX
  8
AM_VIS
  5
89B
 10
14.9449
 20
1.89753
 30
0.000000
  70
    32
  0
VERTEX
  8
AM_VIS
  5
89C
 10
14.9434
 20
1.89880
 30
0.000000
  70
    32
  0
VERTEX
  8
AM_VIS
  5
89D
 10
14.9418
 20
1.90007
 30
0.000000
  70
    32
  0
VERTEX
  8
AM_VIS
  5
89E
 10
14.9403
 20
1.90132
 30
0.000000
  70
    32
  0
VERTEX
  8
AM_VIS
  5
89F
 10
14.9387
 20
1.90257
 30
0.000000
  70
    32
  0
VERTEX
  8
AM_VIS
  5
8A0
 10
14.9371
 20
1.90382
 30
0.000000
  70
    32
  0
VERTEX
  8
AM_VIS
  5
8A1
 10
14.9355
 20
1.90505
 30
0.000000
  70
    32
  0
VERTEX
  8
AM_VIS
  5
8A2
 10
14.9340
 20
1.90628
 30
0.000000
  70
    32
  0
VERTEX
  8
AM_VIS
  5
8A3
 10
14.9324
 20
1.90751
 30
0.000000
  70
    32
  0
VERTEX
  8
AM_VIS
  5
8A4
 10
14.9308
 20
1.90872
 30
0.000000
  70
    32
  0
VERTEX
  8
AM_VIS
  5
8A5
 10
14.9292
 20
1.90993
 30
0.000000
  70
    32
  0
VERTEX
  8
AM_VIS
  5
8A6
 10
14.9276
 20
1.91114
 30
0.000000
  70
    32
  0
VERTEX
  8
AM_VIS
  5
8A7
 10
14.9260
 20
1.91233
 30
0.000000
  70
    32
  0
VERTEX
  8
AM_VIS
  5
8A8
 10
14.9244
 20
1.91352
 30
0.000000
  70
    32
  0
VERTEX
  8
AM_VIS
  5
8A9
 10
14.9228
 20
1.91470
 30
0.000000
  70
    32
  0
VERTEX
  8
AM_VIS
  5
8AA
 10
14.9212
 20
1.91588
 30
0.000000
  70
    32
  0
VERTEX
  8
AM_VIS
  5
8AB
 10
14.9195
 20
1.91705
 30
0.000000
  70
    32
  0
VERTEX
  8
AM_VIS
  5
8AC
 10
14.9179
 20
1.91821
 30
0.000000
  70
    32
  0
VERTEX
  8
AM_VIS
  5
8AD
 10
14.9163
 20
1.91936
 30
0.000000
  70
    32
  0
VERTEX
  8
AM_VIS
  5
8AE
 10
14.9146
 20
1.92051
 30
0.000000
  70
    32
  0
VERTEX
  8
AM_VIS
  5
8AF
 10
14.9130
 20
1.92165
 30
0.000000
  70
    32
  0
VERTEX
  8
AM_VIS
  5
8B0
 10
14.9113
 20
1.92278
 30
0.000000
  70
    32
  0
VERTEX
  8
AM_VIS
  5
8B1
 10
14.9097
 20
1.92391
 30
0.000000
  70
    32
  0
VERTEX
  8
AM_VIS
  5
8B2
 10
14.9080
 20
1.92503
 30
0.000000
  70
    32
  0
VERTEX
  8
AM_VIS
  5
8B3
 10
14.9063
 20
1.92614
 30
0.000000
  70
    32
  0
VERTEX
  8
AM_VIS
  5
8B4
 10
14.9047
 20
1.92724
 30
0.000000
  70
    32
  0
VERTEX
  8
AM_VIS
  5
8B5
 10
14.9030
 20
1.92834
 30
0.000000
  70
    32
  0
VERTEX
  8
AM_VIS
  5
8B6
 10
14.9013
 20
1.92943
 30
0.000000
  70
    32
  0
VERTEX
  8
AM_VIS
  5
8B7
 10
14.8996
 20
1.93051
 30
0.000000
  70
    32
  0
VERTEX
  8
AM_VIS
  5
8B8
 10
14.8979
 20
1.93158
 30
0.000000
  70
    32
  0
VERTEX
  8
AM_VIS
  5
8B9
 10
14.8962
 20
1.93265
 30
0.000000
  70
    32
  0
VERTEX
  8
AM_VIS
  5
8BA
 10
14.8945
 20
1.93371
 30
0.000000
  70
    32
  0
VERTEX
  8
AM_VIS
  5
8BB
 10
14.8928
 20
1.93476
 30
0.000000
  70
    32
  0
VERTEX
  8
AM_VIS
  5
8BC
 10
14.8911
 20
1.93581
 30
0.000000
  70
    32
  0
VERTEX
  8
AM_VIS
  5
8BD
 10
14.8894
 20
1.93684
 30
0.000000
  70
    32
  0
VERTEX
  8
AM_VIS
  5
8BE
 10
14.8877
 20
1.93787
 30
0.000000
  70
    32
  0
VERTEX
  8
AM_VIS
  5
8BF
 10
14.8860
 20
1.93889
 30
0.000000
  70
    32
  0
VERTEX
  8
AM_VIS
  5
8C0
 10
14.8842
 20
1.93990
 30
0.000000
  70
    32
  0
VERTEX
  8
AM_VIS
  5
8C1
 10
14.8825
 20
1.94091
 30
0.000000
  70
    32
  0
VERTEX
  8
AM_VIS
  5
8C2
 10
14.8808
 20
1.94191
 30
0.000000
  70
    32
  0
VERTEX
  8
AM_VIS
  5
8C3
 10
14.8790
 20
1.94290
 30
0.000000
  70
    32
  0
VERTEX
  8
AM_VIS
  5
8C4
 10
14.8773
 20
1.94388
 30
0.000000
  70
    32
  0
VERTEX
  8
AM_VIS
  5
8C5
 10
14.8755
 20
1.94485
 30
0.000000
  70
    32
  0
VERTEX
  8
AM_VIS
  5
8C6
 10
14.8738
 20
1.94582
 30
0.000000
  70
    32
  0
VERTEX
  8
AM_VIS
  5
8C7
 10
14.8720
 20
1.94678
 30
0.000000
  70
    32
  0
VERTEX
  8
AM_VIS
  5
8C8
 10
14.8702
 20
1.94773
 30
0.000000
  70
    32
  0
VERTEX
  8
AM_VIS
  5
8C9
 10
14.8685
 20
1.94867
 30
0.000000
  70
    32
  0
VERTEX
  8
AM_VIS
  5
8CA
 10
14.8667
 20
1.94960
 30
0.000000
  70
    32
  0
VERTEX
  8
AM_VIS
  5
8CB
 10
14.8649
 20
1.95053
 30
0.000000
  70
    32
  0
VERTEX
  8
AM_VIS
  5
8CC
 10
14.8631
 20
1.95144
 30
0.000000
  70
    32
  0
VERTEX
  8
AM_VIS
  5
8CD
 10
14.8613
 20
1.95235
 30
0.000000
  70
    32
  0
VERTEX
  8
AM_VIS
  5
8CE
 10
14.8595
 20
1.95325
 30
0.000000
  70
    32
  0
VERTEX
  8
AM_VIS
  5
8CF
 10
14.8577
 20
1.95414
 30
0.000000
  70
    32
  0
VERTEX
  8
AM_VIS
  5
8D0
 10
14.8559
 20
1.95503
 30
0.000000
  70
    32
  0
VERTEX
  8
AM_VIS
  5
8D1
 10
14.8541
 20
1.95590
 30
0.000000
  70
    32
  0
VERTEX
  8
AM_VIS
  5
8D2
 10
14.8523
 20
1.95677
 30
0.000000
  70
    32
  0
VERTEX
  8
AM_VIS
  5
8D3
 10
14.8505
 20
1.95763
 30
0.000000
  70
    32
  0
VERTEX
  8
AM_VIS
  5
8D4
 10
14.8486
 20
1.95848
 30
0.000000
  70
    32
  0
VERTEX
  8
AM_VIS
  5
8D5
 10
14.8468
 20
1.95932
 30
0.000000
  70
    32
  0
VERTEX
  8
AM_VIS
  5
8D6
 10
14.8450
 20
1.96015
 30
0.000000
  70
    32
  0
VERTEX
  8
AM_VIS
  5
8D7
 10
14.8431
 20
1.96098
 30
0.000000
  70
    32
  0
VERTEX
  8
AM_VIS
  5
8D8
 10
14.8413
 20
1.96179
 30
0.000000
  70
    32
  0
VERTEX
  8
AM_VIS
  5
8D9
 10
14.8395
 20
1.96260
 30
0.000000
  70
    32
  0
VERTEX
  8
AM_VIS
  5
8DA
 10
14.8376
 20
1.96339
 30
0.000000
  70
    32
  0
VERTEX
  8
AM_VIS
  5
8DB
 10
14.8358
 20
1.96418
 30
0.000000
  70
    32
  0
VERTEX
  8
AM_VIS
  5
8DC
 10
14.8339
 20
1.96496
 30
0.000000
  70
    32
  0
VERTEX
  8
AM_VIS
  5
8DD
 10
14.8320
 20
1.96573
 30
0.000000
  70
    32
  0
VERTEX
  8
AM_VIS
  5
8DE
 10
14.8302
 20
1.96649
 30
0.000000
  70
    32
  0
VERTEX
  8
AM_VIS
  5
8DF
 10
14.8283
 20
1.96724
 30
0.000000
  70
    32
  0
VERTEX
  8
AM_VIS
  5
8E0
 10
14.8264
 20
1.96799
 30
0.000000
  70
    32
  0
VERTEX
  8
AM_VIS
  5
8E1
 10
14.8246
 20
1.96872
 30
0.000000
  70
    32
  0
VERTEX
  8
AM_VIS
  5
8E2
 10
14.8227
 20
1.96944
 30
0.000000
  70
    32
  0
VERTEX
  8
AM_VIS
  5
8E3
 10
14.8208
 20
1.97016
 30
0.000000
  70
    32
  0
VERTEX
  8
AM_VIS
  5
8E4
 10
14.8189
 20
1.97086
 30
0.000000
  70
    32
  0
VERTEX
  8
AM_VIS
  5
8E5
 10
14.8170
 20
1.97155
 30
0.000000
  70
    32
  0
VERTEX
  8
AM_VIS
  5
8E6
 10
14.8151
 20
1.97224
 30
0.000000
  70
    32
  0
VERTEX
  8
AM_VIS
  5
8E7
 10
14.8132
 20
1.97291
 30
0.000000
  70
    32
  0
VERTEX
  8
AM_VIS
  5
8E8
 10
14.8113
 20
1.97358
 30
0.000000
  70
    32
  0
VERTEX
  8
AM_VIS
  5
8E9
 10
14.8094
 20
1.97424
 30
0.000000
  70
    32
  0
VERTEX
  8
AM_VIS
  5
8EA
 10
14.8075
 20
1.97488
 30
0.000000
  70
    32
  0
VERTEX
  8
AM_VIS
  5
8EB
 10
14.8056
 20
1.97552
 30
0.000000
  70
    32
  0
VERTEX
  8
AM_VIS
  5
8EC
 10
14.8037
 20
1.97615
 30
0.000000
  70
    32
  0
VERTEX
  8
AM_VIS
  5
8ED
 10
14.8018
 20
1.97677
 30
0.000000
  70
    32
  0
VERTEX
  8
AM_VIS
  5
8EE
 10
14.7999
 20
1.97737
 30
0.000000
  70
    32
  0
VERTEX
  8
AM_VIS
  5
8EF
 10
14.7980
 20
1.97797
 30
0.000000
  70
    32
  0
VERTEX
  8
AM_VIS
  5
8F0
 10
14.7960
 20
1.97856
 30
0.000000
  70
    32
  0
VERTEX
  8
AM_VIS
  5
8F1
 10
14.7941
 20
1.97914
 30
0.000000
  70
    32
  0
VERTEX
  8
AM_VIS
  5
8F2
 10
14.7922
 20
1.97971
 30
0.000000
  70
    32
  0
VERTEX
  8
AM_VIS
  5
8F3
 10
14.7902
 20
1.98027
 30
0.000000
  70
    32
  0
VERTEX
  8
AM_VIS
  5
8F4
 10
14.7883
 20
1.98082
 30
0.000000
  70
    32
  0
VERTEX
  8
AM_VIS
  5
8F5
 10
14.7864
 20
1.98136
 30
0.000000
  70
    32
  0
VERTEX
  8
AM_VIS
  5
8F6
 10
14.7844
 20
1.98188
 30
0.000000
  70
    32
  0
VERTEX
  8
AM_VIS
  5
8F7
 10
14.7825
 20
1.98240
 30
0.000000
  70
    32
  0
VERTEX
  8
AM_VIS
  5
8F8
 10
14.7805
 20
1.98291
 30
0.000000
  70
    32
  0
VERTEX
  8
AM_VIS
  5
8F9
 10
14.7786
 20
1.98341
 30
0.000000
  70
    32
  0
VERTEX
  8
AM_VIS
  5
8FA
 10
14.7766
 20
1.98390
 30
0.000000
  70
    32
  0
VERTEX
  8
AM_VIS
  5
8FB
 10
14.7747
 20
1.98438
 30
0.000000
  70
    32
  0
VERTEX
  8
AM_VIS
  5
8FC
 10
14.7727
 20
1.98485
 30
0.000000
  70
    32
  0
VERTEX
  8
AM_VIS
  5
8FD
 10
14.7707
 20
1.98531
 30
0.000000
  70
    32
  0
VERTEX
  8
AM_VIS
  5
8FE
 10
14.7688
 20
1.98575
 30
0.000000
  70
    32
  0
VERTEX
  8
AM_VIS
  5
8FF
 10
14.7668
 20
1.98619
 30
0.000000
  70
    32
  0
VERTEX
  8
AM_VIS
  5
900
 10
14.7648
 20
1.98662
 30
0.000000
  70
    32
  0
VERTEX
  8
AM_VIS
  5
901
 10
14.7629
 20
1.98704
 30
0.000000
  70
    32
  0
VERTEX
  8
AM_VIS
  5
902
 10
14.7609
 20
1.98744
 30
0.000000
  70
    32
  0
VERTEX
  8
AM_VIS
  5
903
 10
14.7589
 20
1.98784
 30
0.000000
  70
    32
  0
VERTEX
  8
AM_VIS
  5
904
 10
14.7569
 20
1.98823
 30
0.000000
  70
    32
  0
VERTEX
  8
AM_VIS
  5
905
 10
14.7549
 20
1.98860
 30
0.000000
  70
    32
  0
VERTEX
  8
AM_VIS
  5
906
 10
14.7529
 20
1.98897
 30
0.000000
  70
    32
  0
VERTEX
  8
AM_VIS
  5
907
 10
14.7510
 20
1.98932
 30
0.000000
  70
    32
  0
VERTEX
  8
AM_VIS
  5
908
 10
14.7490
 20
1.98966
 30
0.000000
  70
    32
  0
VERTEX
  8
AM_VIS
  5
909
 10
14.7470
 20
1.99000
 30
0.000000
  70
    32
  0
VERTEX
  8
AM_VIS
  5
90A
 10
14.7450
 20
1.99032
 30
0.000000
  70
    32
  0
VERTEX
  8
AM_VIS
  5
90B
 10
14.7430
 20
1.99063
 30
0.000000
  70
    32
  0
VERTEX
  8
AM_VIS
  5
90C
 10
14.7410
 20
1.99094
 30
0.000000
  70
    32
  0
VERTEX
  8
AM_VIS
  5
90D
 10
14.7390
 20
1.99123
 30
0.000000
  70
    32
  0
VERTEX
  8
AM_VIS
  5
90E
 10
14.7369
 20
1.99151
 30
0.000000
  70
    32
  0
VERTEX
  8
AM_VIS
  5
90F
 10
14.7349
 20
1.99178
 30
0.000000
  70
    32
  0
VERTEX
  8
AM_VIS
  5
910
 10
14.7329
 20
1.99204
 30
0.000000
  70
    32
  0
VERTEX
  8
AM_VIS
  5
911
 10
14.7309
 20
1.99228
 30
0.000000
  70
    32
  0
VERTEX
  8
AM_VIS
  5
912
 10
14.7289
 20
1.99252
 30
0.000000
  70
    32
  0
VERTEX
  8
AM_VIS
  5
913
 10
14.7269
 20
1.99275
 30
0.000000
  70
    32
  0
VERTEX
  8
AM_VIS
  5
914
 10
14.7249
 20
1.99296
 30
0.000000
  70
    32
  0
VERTEX
  8
AM_VIS
  5
915
 10
14.7229
 20
1.99317
 30
0.000000
  70
    32
  0
VERTEX
  8
AM_VIS
  5
916
 10
14.7208
 20
1.99336
 30
0.000000
  70
    32
  0
VERTEX
  8
AM_VIS
  5
917
 10
14.7188
 20
1.99354
 30
0.000000
  70
    32
  0
VERTEX
  8
AM_VIS
  5
918
 10
14.7168
 20
1.99371
 30
0.000000
  70
    32
  0
VERTEX
  8
AM_VIS
  5
919
 10
14.7148
 20
1.99387
 30
0.000000
  70
    32
  0
VERTEX
  8
AM_VIS
  5
91A
 10
14.7128
 20
1.99402
 30
0.000000
  70
    32
  0
VERTEX
  8
AM_VIS
  5
91B
 10
14.7107
 20
1.99416
 30
0.000000
  70
    32
  0
VERTEX
  8
AM_VIS
  5
91C
 10
14.7087
 20
1.99429
 30
0.000000
  70
    32
  0
VERTEX
  8
AM_VIS
  5
91D
 10
14.7067
 20
1.99440
 30
0.000000
  70
    32
  0
VERTEX
  8
AM_VIS
  5
91E
 10
14.7047
 20
1.99451
 30
0.000000
  70
    32
  0
VERTEX
  8
AM_VIS
  5
91F
 10
14.7027
 20
1.99460
 30
0.000000
  70
    32
  0
VERTEX
  8
AM_VIS
  5
920
 10
14.7006
 20
1.99468
 30
0.000000
  70
    32
  0
VERTEX
  8
AM_VIS
  5
921
 10
14.6986
 20
1.99476
 30
0.000000
  70
    32
  0
VERTEX
  8
AM_VIS
  5
922
 10
14.6966
 20
1.99482
 30
0.000000
  70
    32
  0
VERTEX
  8
AM_VIS
  5
923
 10
14.6946
 20
1.99487
 30
0.000000
  70
    32
  0
VERTEX
  8
AM_VIS
  5
924
 10
14.6925
 20
1.99491
 30
0.000000
  70
    32
  0
VERTEX
  8
AM_VIS
  5
925
 10
14.6905
 20
1.99493
 30
0.000000
  70
    32
  0
VERTEX
  8
AM_VIS
  5
926
 10
14.6885
 20
1.99495
 30
0.000000
  70
    32
  0
VERTEX
  8
AM_VIS
  5
927
 10
14.6864
 20
1.99496
 30
0.000000
  70
    32
  0
SEQEND
  8
AM_VIS
  5
928
  0
POLYLINE
  8
AM_VIS
  5
929
  66
     1
 10
0.000000
 20
0.000000
 30
0.000000
  70
     8
  0
VERTEX
  8
AM_VIS
  5
92A
 10
14.6864
 20
0.900401
 30
0.000000
  70
    32
  0
VERTEX
  8
AM_VIS
  5
92B
 10
14.6885
 20
0.900407
 30
0.000000
  70
    32
  0
VERTEX
  8
AM_VIS
  5
92C
 10
14.6905
 20
0.900423
 30
0.000000
  70
    32
  0
VERTEX
  8
AM_VIS
  5
92D
 10
14.6925
 20
0.900451
 30
0.000000
  70
    32
  0
VERTEX
  8
AM_VIS
  5
92E
 10
14.6946
 20
0.900490
 30
0.000000
  70
    32
  0
VERTEX
  8
AM_VIS
  5
92F
 10
14.6966
 20
0.900540
 30
0.000000
  70
    32
  0
VERTEX
  8
AM_VIS
  5
930
 10
14.6986
 20
0.900601
 30
0.000000
  70
    32
  0
VERTEX
  8
AM_VIS
  5
931
 10
14.7007
 20
0.900674
 30
0.000000
  70
    32
  0
VERTEX
  8
AM_VIS
  5
932
 10
14.7027
 20
0.900757
 30
0.000000
  70
    32
  0
VERTEX
  8
AM_VIS
  5
933
 10
14.7047
 20
0.900851
 30
0.000000
  70
    32
  0
VERTEX
  8
AM_VIS
  5
934
 10
14.7067
 20
0.900956
 30
0.000000
  70
    32
  0
VERTEX
  8
AM_VIS
  5
935
 10
14.7088
 20
0.901073
 30
0.000000
  70
    32
  0
VERTEX
  8
AM_VIS
  5
936
 10
14.7108
 20
0.901200
 30
0.000000
  70
    32
  0
VERTEX
  8
AM_VIS
  5
937
 10
14.7128
 20
0.901338
 30
0.000000
  70
    32
  0
VERTEX
  8
AM_VIS
  5
938
 10
14.7148
 20
0.901487
 30
0.000000
  70
    32
  0
VERTEX
  8
AM_VIS
  5
939
 10
14.7168
 20
0.901647
 30
0.000000
  70
    32
  0
VERTEX
  8
AM_VIS
  5
93A
 10
14.7188
 20
0.901818
 30
0.000000
  70
    32
  0
VERTEX
  8
AM_VIS
  5
93B
 10
14.7209
 20
0.901999
 30
0.000000
  70
    32
  0
VERTEX
  8
AM_VIS
  5
93C
 10
14.7229
 20
0.902192
 30
0.000000
  70
    32
  0
VERTEX
  8
AM_VIS
  5
93D
 10
14.7249
 20
0.902395
 30
0.000000
  70
    32
  0
VERTEX
  8
AM_VIS
  5
93E
 10
14.7269
 20
0.902609
 30
0.000000
  70
    32
  0
VERTEX
  8
AM_VIS
  5
93F
 10
14.7289
 20
0.902834
 30
0.000000
  70
    32
  0
VERTEX
  8
AM_VIS
  5
940
 10
14.7309
 20
0.903070
 30
0.000000
  70
    32
  0
VERTEX
  8
AM_VIS
  5
941
 10
14.7329
 20
0.903316
 30
0.000000
  70
    32
  0
VERTEX
  8
AM_VIS
  5
942
 10
14.7349
 20
0.903573
 30
0.000000
  70
    32
  0
VERTEX
  8
AM_VIS
  5
943
 10
14.7369
 20
0.903841
 30
0.000000
  70
    32
  0
VERTEX
  8
AM_VIS
  5
944
 10
14.7389
 20
0.904120
 30
0.000000
  70
    32
  0
VERTEX
  8
AM_VIS
  5
945
 10
14.7409
 20
0.904409
 30
0.000000
  70
    32
  0
VERTEX
  8
AM_VIS
  5
946
 10
14.7429
 20
0.904709
 30
0.000000
  70
    32
  0
VERTEX
  8
AM_VIS
  5
947
 10
14.7449
 20
0.905019
 30
0.000000
  70
    32
  0
VERTEX
  8
AM_VIS
  5
948
 10
14.7469
 20
0.905340
 30
0.000000
  70
    32
  0
VERTEX
  8
AM_VIS
  5
949
 10
14.7488
 20
0.905672
 30
0.000000
  70
    32
  0
VERTEX
  8
AM_VIS
  5
94A
 10
14.7508
 20
0.906014
 30
0.000000
  70
    32
  0
VERTEX
  8
AM_VIS
  5
94B
 10
14.7528
 20
0.906366
 30
0.000000
  70
    32
  0
VERTEX
  8
AM_VIS
  5
94C
 10
14.7548
 20
0.906730
 30
0.000000
  70
    32
  0
VERTEX
  8
AM_VIS
  5
94D
 10
14.7568
 20
0.907103
 30
0.000000
  70
    32
  0
VERTEX
  8
AM_VIS
  5
94E
 10
14.7588
 20
0.907487
 30
0.000000
  70
    32
  0
VERTEX
  8
AM_VIS
  5
94F
 10
14.7607
 20
0.907882
 30
0.000000
  70
    32
  0
VERTEX
  8
AM_VIS
  5
950
 10
14.7627
 20
0.908287
 30
0.000000
  70
    32
  0
VERTEX
  8
AM_VIS
  5
951
 10
14.7647
 20
0.908703
 30
0.000000
  70
    32
  0
VERTEX
  8
AM_VIS
  5
952
 10
14.7666
 20
0.909128
 30
0.000000
  70
    32
  0
VERTEX
  8
AM_VIS
  5
953
 10
14.7686
 20
0.909565
 30
0.000000
  70
    32
  0
VERTEX
  8
AM_VIS
  5
954
 10
14.7706
 20
0.910011
 30
0.000000
  70
    32
  0
VERTEX
  8
AM_VIS
  5
955
 10
14.7725
 20
0.910468
 30
0.000000
  70
    32
  0
VERTEX
  8
AM_VIS
  5
956
 10
14.7745
 20
0.910936
 30
0.000000
  70
    32
  0
VERTEX
  8
AM_VIS
  5
957
 10
14.7764
 20
0.911413
 30
0.000000
  70
    32
  0
VERTEX
  8
AM_VIS
  5
958
 10
14.7784
 20
0.911901
 30
0.000000
  70
    32
  0
VERTEX
  8
AM_VIS
  5
959
 10
14.7804
 20
0.912399
 30
0.000000
  70
    32
  0
VERTEX
  8
AM_VIS
  5
95A
 10
14.7823
 20
0.912908
 30
0.000000
  70
    32
  0
VERTEX
  8
AM_VIS
  5
95B
 10
14.7842
 20
0.913426
 30
0.000000
  70
    32
  0
VERTEX
  8
AM_VIS
  5
95C
 10
14.7862
 20
0.913955
 30
0.000000
  70
    32
  0
VERTEX
  8
AM_VIS
  5
95D
 10
14.7881
 20
0.914494
 30
0.000000
  70
    32
  0
VERTEX
  8
AM_VIS
  5
95E
 10
14.7901
 20
0.915043
 30
0.000000
  70
    32
  0
VERTEX
  8
AM_VIS
  5
95F
 10
14.7920
 20
0.915602
 30
0.000000
  70
    32
  0
VERTEX
  8
AM_VIS
  5
960
 10
14.7940
 20
0.916172
 30
0.000000
  70
    32
  0
VERTEX
  8
AM_VIS
  5
961
 10
14.7959
 20
0.916751
 30
0.000000
  70
    32
  0
VERTEX
  8
AM_VIS
  5
962
 10
14.7978
 20
0.917341
 30
0.000000
  70
    32
  0
VERTEX
  8
AM_VIS
  5
963
 10
14.7997
 20
0.917940
 30
0.000000
  70
    32
  0
VERTEX
  8
AM_VIS
  5
964
 10
14.8017
 20
0.918550
 30
0.000000
  70
    32
  0
VERTEX
  8
AM_VIS
  5
965
 10
14.8036
 20
0.919170
 30
0.000000
  70
    32
  0
VERTEX
  8
AM_VIS
  5
966
 10
14.8055
 20
0.919799
 30
0.000000
  70
    32
  0
VERTEX
  8
AM_VIS
  5
967
 10
14.8074
 20
0.920439
 30
0.000000
  70
    32
  0
VERTEX
  8
AM_VIS
  5
968
 10
14.8093
 20
0.921089
 30
0.000000
  70
    32
  0
VERTEX
  8
AM_VIS
  5
969
 10
14.8113
 20
0.921748
 30
0.000000
  70
    32
  0
VERTEX
  8
AM_VIS
  5
96A
 10
14.8132
 20
0.922418
 30
0.000000
  70
    32
  0
VERTEX
  8
AM_VIS
  5
96B
 10
14.8151
 20
0.923097
 30
0.000000
  70
    32
  0
VERTEX
  8
AM_VIS
  5
96C
 10
14.8170
 20
0.923787
 30
0.000000
  70
    32
  0
VERTEX
  8
AM_VIS
  5
96D
 10
14.8189
 20
0.924486
 30
0.000000
  70
    32
  0
VERTEX
  8
AM_VIS
  5
96E
 10
14.8208
 20
0.925195
 30
0.000000
  70
    32
  0
VERTEX
  8
AM_VIS
  5
96F
 10
14.8227
 20
0.925913
 30
0.000000
  70
    32
  0
VERTEX
  8
AM_VIS
  5
970
 10
14.8246
 20
0.926640
 30
0.000000
  70
    32
  0
VERTEX
  8
AM_VIS
  5
971
 10
14.8264
 20
0.927377
 30
0.000000
  70
    32
  0
VERTEX
  8
AM_VIS
  5
972
 10
14.8283
 20
0.928122
 30
0.000000
  70
    32
  0
VERTEX
  8
AM_VIS
  5
973
 10
14.8302
 20
0.928877
 30
0.000000
  70
    32
  0
VERTEX
  8
AM_VIS
  5
974
 10
14.8321
 20
0.929641
 30
0.000000
  70
    32
  0
VERTEX
  8
AM_VIS
  5
975
 10
14.8339
 20
0.930414
 30
0.000000
  70
    32
  0
VERTEX
  8
AM_VIS
  5
976
 10
14.8358
 20
0.931195
 30
0.000000
  70
    32
  0
VERTEX
  8
AM_VIS
  5
977
 10
14.8377
 20
0.931986
 30
0.000000
  70
    32
  0
VERTEX
  8
AM_VIS
  5
978
 10
14.8395
 20
0.932786
 30
0.000000
  70
    32
  0
VERTEX
  8
AM_VIS
  5
979
 10
14.8414
 20
0.933594
 30
0.000000
  70
    32
  0
VERTEX
  8
AM_VIS
  5
97A
 10
14.8432
 20
0.934412
 30
0.000000
  70
    32
  0
VERTEX
  8
AM_VIS
  5
97B
 10
14.8451
 20
0.935238
 30
0.000000
  70
    32
  0
VERTEX
  8
AM_VIS
  5
97C
 10
14.8469
 20
0.936073
 30
0.000000
  70
    32
  0
VERTEX
  8
AM_VIS
  5
97D
 10
14.8487
 20
0.936916
 30
0.000000
  70
    32
  0
VERTEX
  8
AM_VIS
  5
97E
 10
14.8506
 20
0.937769
 30
0.000000
  70
    32
  0
VERTEX
  8
AM_VIS
  5
97F
 10
14.8524
 20
0.938630
 30
0.000000
  70
    32
  0
VERTEX
  8
AM_VIS
  5
980
 10
14.8542
 20
0.939499
 30
0.000000
  70
    32
  0
VERTEX
  8
AM_VIS
  5
981
 10
14.8560
 20
0.940377
 30
0.000000
  70
    32
  0
VERTEX
  8
AM_VIS
  5
982
 10
14.8578
 20
0.941264
 30
0.000000
  70
    32
  0
VERTEX
  8
AM_VIS
  5
983
 10
14.8596
 20
0.942159
 30
0.000000
  70
    32
  0
VERTEX
  8
AM_VIS
  5
984
 10
14.8614
 20
0.943063
 30
0.000000
  70
    32
  0
VERTEX
  8
AM_VIS
  5
985
 10
14.8632
 20
0.943975
 30
0.000000
  70
    32
  0
VERTEX
  8
AM_VIS
  5
986
 10
14.8650
 20
0.944895
 30
0.000000
  70
    32
  0
VERTEX
  8
AM_VIS
  5
987
 10
14.8668
 20
0.945823
 30
0.000000
  70
    32
  0
VERTEX
  8
AM_VIS
  5
988
 10
14.8686
 20
0.946760
 30
0.000000
  70
    32
  0
VERTEX
  8
AM_VIS
  5
989
 10
14.8704
 20
0.947706
 30
0.000000
  70
    32
  0
VERTEX
  8
AM_VIS
  5
98A
 10
14.8721
 20
0.948659
 30
0.000000
  70
    32
  0
VERTEX
  8
AM_VIS
  5
98B
 10
14.8739
 20
0.949620
 30
0.000000
  70
    32
  0
VERTEX
  8
AM_VIS
  5
98C
 10
14.8757
 20
0.950590
 30
0.000000
  70
    32
  0
VERTEX
  8
AM_VIS
  5
98D
 10
14.8774
 20
0.951568
 30
0.000000
  70
    32
  0
VERTEX
  8
AM_VIS
  5
98E
 10
14.8792
 20
0.952554
 30
0.000000
  70
    32
  0
VERTEX
  8
AM_VIS
  5
98F
 10
14.8809
 20
0.953547
 30
0.000000
  70
    32
  0
VERTEX
  8
AM_VIS
  5
990
 10
14.8827
 20
0.954549
 30
0.000000
  70
    32
  0
VERTEX
  8
AM_VIS
  5
991
 10
14.8844
 20
0.955559
 30
0.000000
  70
    32
  0
VERTEX
  8
AM_VIS
  5
992
 10
14.8861
 20
0.956577
 30
0.000000
  70
    32
  0
VERTEX
  8
AM_VIS
  5
993
 10
14.8879
 20
0.957602
 30
0.000000
  70
    32
  0
VERTEX
  8
AM_VIS
  5
994
 10
14.8896
 20
0.958635
 30
0.000000
  70
    32
  0
VERTEX
  8
AM_VIS
  5
995
 10
14.8913
 20
0.959676
 30
0.000000
  70
    32
  0
VERTEX
  8
AM_VIS
  5
996
 10
14.8930
 20
0.960725
 30
0.000000
  70
    32
  0
VERTEX
  8
AM_VIS
  5
997
 10
14.8948
 20
0.961782
 30
0.000000
  70
    32
  0
VERTEX
  8
AM_VIS
  5
998
 10
14.8965
 20
0.962846
 30
0.000000
  70
    32
  0
VERTEX
  8
AM_VIS
  5
999
 10
14.8982
 20
0.963918
 30
0.000000
  70
    32
  0
VERTEX
  8
AM_VIS
  5
99A
 10
14.8999
 20
0.964997
 30
0.000000
  70
    32
  0
VERTEX
  8
AM_VIS
  5
99B
 10
14.9015
 20
0.966084
 30
0.000000
  70
    32
  0
VERTEX
  8
AM_VIS
  5
99C
 10
14.9032
 20
0.967178
 30
0.000000
  70
    32
  0
VERTEX
  8
AM_VIS
  5
99D
 10
14.9049
 20
0.968280
 30
0.000000
  70
    32
  0
VERTEX
  8
AM_VIS
  5
99E
 10
14.9066
 20
0.969389
 30
0.000000
  70
    32
  0
VERTEX
  8
AM_VIS
  5
99F
 10
14.9083
 20
0.970506
 30
0.000000
  70
    32
  0
VERTEX
  8
AM_VIS
  5
9A0
 10
14.9099
 20
0.971630
 30
0.000000
  70
    32
  0
VERTEX
  8
AM_VIS
  5
9A1
 10
14.9116
 20
0.972761
 30
0.000000
  70
    32
  0
VERTEX
  8
AM_VIS
  5
9A2
 10
14.9132
 20
0.973900
 30
0.000000
  70
    32
  0
VERTEX
  8
AM_VIS
  5
9A3
 10
14.9149
 20
0.975046
 30
0.000000
  70
    32
  0
VERTEX
  8
AM_VIS
  5
9A4
 10
14.9165
 20
0.976199
 30
0.000000
  70
    32
  0
VERTEX
  8
AM_VIS
  5
9A5
 10
14.9182
 20
0.977359
 30
0.000000
  70
    32
  0
VERTEX
  8
AM_VIS
  5
9A6
 10
14.9198
 20
0.978526
 30
0.000000
  70
    32
  0
VERTEX
  8
AM_VIS
  5
9A7
 10
14.9215
 20
0.979701
 30
0.000000
  70
    32
  0
VERTEX
  8
AM_VIS
  5
9A8
 10
14.9231
 20
0.980882
 30
0.000000
  70
    32
  0
VERTEX
  8
AM_VIS
  5
9A9
 10
14.9247
 20
0.982071
 30
0.000000
  70
    32
  0
VERTEX
  8
AM_VIS
  5
9AA
 10
14.9263
 20
0.983266
 30
0.000000
  70
    32
  0
VERTEX
  8
AM_VIS
  5
9AB
 10
14.9279
 20
0.984468
 30
0.000000
  70
    32
  0
VERTEX
  8
AM_VIS
  5
9AC
 10
14.9295
 20
0.985677
 30
0.000000
  70
    32
  0
VERTEX
  8
AM_VIS
  5
9AD
 10
14.9311
 20
0.986893
 30
0.000000
  70
    32
  0
VERTEX
  8
AM_VIS
  5
9AE
 10
14.9327
 20
0.988116
 30
0.000000
  70
    32
  0
VERTEX
  8
AM_VIS
  5
9AF
 10
14.9343
 20
0.989346
 30
0.000000
  70
    32
  0
VERTEX
  8
AM_VIS
  5
9B0
 10
14.9359
 20
0.990582
 30
0.000000
  70
    32
  0
VERTEX
  8
AM_VIS
  5
9B1
 10
14.9375
 20
0.991825
 30
0.000000
  70
    32
  0
VERTEX
  8
AM_VIS
  5
9B2
 10
14.9391
 20
0.993075
 30
0.000000
  70
    32
  0
VERTEX
  8
AM_VIS
  5
9B3
 10
14.9406
 20
0.994331
 30
0.000000
  70
    32
  0
VERTEX
  8
AM_VIS
  5
9B4
 10
14.9422
 20
0.995594
 30
0.000000
  70
    32
  0
VERTEX
  8
AM_VIS
  5
9B5
 10
14.9437
 20
0.996863
 30
0.000000
  70
    32
  0
VERTEX
  8
AM_VIS
  5
9B6
 10
14.9453
 20
0.998139
 30
0.000000
  70
    32
  0
VERTEX
  8
AM_VIS
  5
9B7
 10
14.9468
 20
0.999421
 30
0.000000
  70
    32
  0
VERTEX
  8
AM_VIS
  5
9B8
 10
14.9484
 20
1.00071
 30
0.000000
  70
    32
  0
VERTEX
  8
AM_VIS
  5
9B9
 10
14.9499
 20
1.00200
 30
0.000000
  70
    32
  0
VERTEX
  8
AM_VIS
  5
9BA
 10
14.9515
 20
1.00331
 30
0.000000
  70
    32
  0
VERTEX
  8
AM_VIS
  5
9BB
 10
14.9530
 20
1.00461
 30
0.000000
  70
    32
  0
VERTEX
  8
AM_VIS
  5
9BC
 10
14.9545
 20
1.00593
 30
0.000000
  70
    32
  0
VERTEX
  8
AM_VIS
  5
9BD
 10
14.9560
 20
1.00725
 30
0.000000
  70
    32
  0
VERTEX
  8
AM_VIS
  5
9BE
 10
14.9575
 20
1.00857
 30
0.000000
  70
    32
  0
VERTEX
  8
AM_VIS
  5
9BF
 10
14.9590
 20
1.00991
 30
0.000000
  70
    32
  0
VERTEX
  8
AM_VIS
  5
9C0
 10
14.9605
 20
1.01124
 30
0.000000
  70
    32
  0
VERTEX
  8
AM_VIS
  5
9C1
 10
14.9620
 20
1.01259
 30
0.000000
  70
    32
  0
VERTEX
  8
AM_VIS
  5
9C2
 10
14.9635
 20
1.01394
 30
0.000000
  70
    32
  0
VERTEX
  8
AM_VIS
  5
9C3
 10
14.9650
 20
1.01530
 30
0.000000
  70
    32
  0
VERTEX
  8
AM_VIS
  5
9C4
 10
14.9665
 20
1.01666
 30
0.000000
  70
    32
  0
VERTEX
  8
AM_VIS
  5
9C5
 10
14.9679
 20
1.01803
 30
0.000000
  70
    32
  0
VERTEX
  8
AM_VIS
  5
9C6
 10
14.9694
 20
1.01940
 30
0.000000
  70
    32
  0
VERTEX
  8
AM_VIS
  5
9C7
 10
14.9709
 20
1.02078
 30
0.000000
  70
    32
  0
VERTEX
  8
AM_VIS
  5
9C8
 10
14.9723
 20
1.02217
 30
0.000000
  70
    32
  0
VERTEX
  8
AM_VIS
  5
9C9
 10
14.9738
 20
1.02356
 30
0.000000
  70
    32
  0
VERTEX
  8
AM_VIS
  5
9CA
 10
14.9752
 20
1.02496
 30
0.000000
  70
    32
  0
VERTEX
  8
AM_VIS
  5
9CB
 10
14.9766
 20
1.02636
 30
0.000000
  70
    32
  0
VERTEX
  8
AM_VIS
  5
9CC
 10
14.9781
 20
1.02777
 30
0.000000
  70
    32
  0
VERTEX
  8
AM_VIS
  5
9CD
 10
14.9795
 20
1.02919
 30
0.000000
  70
    32
  0
VERTEX
  8
AM_VIS
  5
9CE
 10
14.9809
 20
1.03061
 30
0.000000
  70
    32
  0
VERTEX
  8
AM_VIS
  5
9CF
 10
14.9823
 20
1.03203
 30
0.000000
  70
    32
  0
VERTEX
  8
AM_VIS
  5
9D0
 10
14.9837
 20
1.03347
 30
0.000000
  70
    32
  0
VERTEX
  8
AM_VIS
  5
9D1
 10
14.9852
 20
1.03490
 30
0.000000
  70
    32
  0
VERTEX
  8
AM_VIS
  5
9D2
 10
14.9866
 20
1.03635
 30
0.000000
  70
    32
  0
VERTEX
  8
AM_VIS
  5
9D3
 10
14.9879
 20
1.03780
 30
0.000000
  70
    32
  0
VERTEX
  8
AM_VIS
  5
9D4
 10
14.9893
 20
1.03925
 30
0.000000
  70
    32
  0
VERTEX
  8
AM_VIS
  5
9D5
 10
14.9907
 20
1.04071
 30
0.000000
  70
    32
  0
VERTEX
  8
AM_VIS
  5
9D6
 10
14.9921
 20
1.04218
 30
0.000000
  70
    32
  0
VERTEX
  8
AM_VIS
  5
9D7
 10
14.9935
 20
1.04365
 30
0.000000
  70
    32
  0
VERTEX
  8
AM_VIS
  5
9D8
 10
14.9948
 20
1.04512
 30
0.000000
  70
    32
  0
VERTEX
  8
AM_VIS
  5
9D9
 10
14.9962
 20
1.04660
 30
0.000000
  70
    32
  0
VERTEX
  8
AM_VIS
  5
9DA
 10
14.9975
 20
1.04809
 30
0.000000
  70
    32
  0
VERTEX
  8
AM_VIS
  5
9DB
 10
14.9989
 20
1.04958
 30
0.000000
  70
    32
  0
VERTEX
  8
AM_VIS
  5
9DC
 10
15.0002
 20
1.05108
 30
0.000000
  70
    32
  0
VERTEX
  8
AM_VIS
  5
9DD
 10
15.0016
 20
1.05258
 30
0.000000
  70
    32
  0
VERTEX
  8
AM_VIS
  5
9DE
 10
15.0029
 20
1.05409
 30
0.000000
  70
    32
  0
VERTEX
  8
AM_VIS
  5
9DF
 10
15.0042
 20
1.05560
 30
0.000000
  70
    32
  0
VERTEX
  8
AM_VIS
  5
9E0
 10
15.0055
 20
1.05712
 30
0.000000
  70
    32
  0
VERTEX
  8
AM_VIS
  5
9E1
 10
15.0069
 20
1.05864
 30
0.000000
  70
    32
  0
VERTEX
  8
AM_VIS
  5
9E2
 10
15.0082
 20
1.06017
 30
0.000000
  70
    32
  0
VERTEX
  8
AM_VIS
  5
9E3
 10
15.0095
 20
1.06170
 30
0.000000
  70
    32
  0
VERTEX
  8
AM_VIS
  5
9E4
 10
15.0108
 20
1.06324
 30
0.000000
  70
    32
  0
VERTEX
  8
AM_VIS
  5
9E5
 10
15.0121
 20
1.06479
 30
0.000000
  70
    32
  0
VERTEX
  8
AM_VIS
  5
9E6
 10
15.0133
 20
1.06633
 30
0.000000
  70
    32
  0
VERTEX
  8
AM_VIS
  5
9E7
 10
15.0146
 20
1.06789
 30
0.000000
  70
    32
  0
VERTEX
  8
AM_VIS
  5
9E8
 10
15.0159
 20
1.06944
 30
0.000000
  70
    32
  0
VERTEX
  8
AM_VIS
  5
9E9
 10
15.0172
 20
1.07101
 30
0.000000
  70
    32
  0
VERTEX
  8
AM_VIS
  5
9EA
 10
15.0184
 20
1.07258
 30
0.000000
  70
    32
  0
VERTEX
  8
AM_VIS
  5
9EB
 10
15.0197
 20
1.07415
 30
0.000000
  70
    32
  0
VERTEX
  8
AM_VIS
  5
9EC
 10
15.0209
 20
1.07572
 30
0.000000
  70
    32
  0
VERTEX
  8
AM_VIS
  5
9ED
 10
15.0222
 20
1.07731
 30
0.000000
  70
    32
  0
VERTEX
  8
AM_VIS
  5
9EE
 10
15.0234
 20
1.07889
 30
0.000000
  70
    32
  0
VERTEX
  8
AM_VIS
  5
9EF
 10
15.0247
 20
1.08048
 30
0.000000
  70
    32
  0
VERTEX
  8
AM_VIS
  5
9F0
 10
15.0259
 20
1.08208
 30
0.000000
  70
    32
  0
VERTEX
  8
AM_VIS
  5
9F1
 10
15.0271
 20
1.08368
 30
0.000000
  70
    32
  0
VERTEX
  8
AM_VIS
  5
9F2
 10
15.0283
 20
1.08529
 30
0.000000
  70
    32
  0
VERTEX
  8
AM_VIS
  5
9F3
 10
15.0295
 20
1.08690
 30
0.000000
  70
    32
  0
VERTEX
  8
AM_VIS
  5
9F4
 10
15.0307
 20
1.08851
 30
0.000000
  70
    32
  0
VERTEX
  8
AM_VIS
  5
9F5
 10
15.0319
 20
1.09013
 30
0.000000
  70
    32
  0
VERTEX
  8
AM_VIS
  5
9F6
 10
15.0331
 20
1.09175
 30
0.000000
  70
    32
  0
VERTEX
  8
AM_VIS
  5
9F7
 10
15.0343
 20
1.09338
 30
0.000000
  70
    32
  0
VERTEX
  8
AM_VIS
  5
9F8
 10
15.0355
 20
1.09501
 30
0.000000
  70
    32
  0
VERTEX
  8
AM_VIS
  5
9F9
 10
15.0367
 20
1.09665
 30
0.000000
  70
    32
  0
VERTEX
  8
AM_VIS
  5
9FA
 10
15.0378
 20
1.09829
 30
0.000000
  70
    32
  0
VERTEX
  8
AM_VIS
  5
9FB
 10
15.0390
 20
1.09993
 30
0.000000
  70
    32
  0
VERTEX
  8
AM_VIS
  5
9FC
 10
15.0402
 20
1.10158
 30
0.000000
  70
    32
  0
VERTEX
  8
AM_VIS
  5
9FD
 10
15.0413
 20
1.10324
 30
0.000000
  70
    32
  0
VERTEX
  8
AM_VIS
  5
9FE
 10
15.0424
 20
1.10489
 30
0.000000
  70
    32
  0
VERTEX
  8
AM_VIS
  5
9FF
 10
15.0436
 20
1.10655
 30
0.000000
  70
    32
  0
VERTEX
  8
AM_VIS
  5
A00
 10
15.0447
 20
1.10822
 30
0.000000
  70
    32
  0
VERTEX
  8
AM_VIS
  5
A01
 10
15.0458
 20
1.10989
 30
0.000000
  70
    32
  0
VERTEX
  8
AM_VIS
  5
A02
 10
15.0470
 20
1.11156
 30
0.000000
  70
    32
  0
VERTEX
  8
AM_VIS
  5
A03
 10
15.0481
 20
1.11324
 30
0.000000
  70
    32
  0
VERTEX
  8
AM_VIS
  5
A04
 10
15.0492
 20
1.11493
 30
0.000000
  70
    32
  0
VERTEX
  8
AM_VIS
  5
A05
 10
15.0503
 20
1.11661
 30
0.000000
  70
    32
  0
VERTEX
  8
AM_VIS
  5
A06
 10
15.0514
 20
1.11830
 30
0.000000
  70
    32
  0
VERTEX
  8
AM_VIS
  5
A07
 10
15.0525
 20
1.12000
 30
0.000000
  70
    32
  0
VERTEX
  8
AM_VIS
  5
A08
 10
15.0536
 20
1.12169
 30
0.000000
  70
    32
  0
VERTEX
  8
AM_VIS
  5
A09
 10
15.0547
 20
1.12340
 30
0.000000
  70
    32
  0
VERTEX
  8
AM_VIS
  5
A0A
 10
15.0557
 20
1.12510
 30
0.000000
  70
    32
  0
VERTEX
  8
AM_VIS
  5
A0B
 10
15.0568
 20
1.12681
 30
0.000000
  70
    32
  0
VERTEX
  8
AM_VIS
  5
A0C
 10
15.0579
 20
1.12852
 30
0.000000
  70
    32
  0
VERTEX
  8
AM_VIS
  5
A0D
 10
15.0589
 20
1.13024
 30
0.000000
  70
    32
  0
VERTEX
  8
AM_VIS
  5
A0E
 10
15.0600
 20
1.13196
 30
0.000000
  70
    32
  0
VERTEX
  8
AM_VIS
  5
A0F
 10
15.0610
 20
1.13369
 30
0.000000
  70
    32
  0
VERTEX
  8
AM_VIS
  5
A10
 10
15.0620
 20
1.13541
 30
0.000000
  70
    32
  0
VERTEX
  8
AM_VIS
  5
A11
 10
15.0631
 20
1.13715
 30
0.000000
  70
    32
  0
VERTEX
  8
AM_VIS
  5
A12
 10
15.0641
 20
1.13888
 30
0.000000
  70
    32
  0
VERTEX
  8
AM_VIS
  5
A13
 10
15.0651
 20
1.14062
 30
0.000000
  70
    32
  0
VERTEX
  8
AM_VIS
  5
A14
 10
15.0661
 20
1.14237
 30
0.000000
  70
    32
  0
VERTEX
  8
AM_VIS
  5
A15
 10
15.0671
 20
1.14412
 30
0.000000
  70
    32
  0
VERTEX
  8
AM_VIS
  5
A16
 10
15.0681
 20
1.14588
 30
0.000000
  70
    32
  0
VERTEX
  8
AM_VIS
  5
A17
 10
15.0691
 20
1.14764
 30
0.000000
  70
    32
  0
VERTEX
  8
AM_VIS
  5
A18
 10
15.0701
 20
1.14940
 30
0.000000
  70
    32
  0
VERTEX
  8
AM_VIS
  5
A19
 10
15.0711
 20
1.15117
 30
0.000000
  70
    32
  0
VERTEX
  8
AM_VIS
  5
A1A
 10
15.0721
 20
1.15295
 30
0.000000
  70
    32
  0
VERTEX
  8
AM_VIS
  5
A1B
 10
15.0731
 20
1.15473
 30
0.000000
  70
    32
  0
VERTEX
  8
AM_VIS
  5
A1C
 10
15.0741
 20
1.15652
 30
0.000000
  70
    32
  0
VERTEX
  8
AM_VIS
  5
A1D
 10
15.0750
 20
1.15831
 30
0.000000
  70
    32
  0
VERTEX
  8
AM_VIS
  5
A1E
 10
15.0760
 20
1.16010
 30
0.000000
  70
    32
  0
VERTEX
  8
AM_VIS
  5
A1F
 10
15.0769
 20
1.16190
 30
0.000000
  70
    32
  0
VERTEX
  8
AM_VIS
  5
A20
 10
15.0779
 20
1.16371
 30
0.000000
  70
    32
  0
VERTEX
  8
AM_VIS
  5
A21
 10
15.0788
 20
1.16552
 30
0.000000
  70
    32
  0
VERTEX
  8
AM_VIS
  5
A22
 10
15.0798
 20
1.16734
 30
0.000000
  70
    32
  0
VERTEX
  8
AM_VIS
  5
A23
 10
15.0807
 20
1.16916
 30
0.000000
  70
    32
  0
VERTEX
  8
AM_VIS
  5
A24
 10
15.0816
 20
1.17098
 30
0.000000
  70
    32
  0
VERTEX
  8
AM_VIS
  5
A25
 10
15.0826
 20
1.17281
 30
0.000000
  70
    32
  0
VERTEX
  8
AM_VIS
  5
A26
 10
15.0835
 20
1.17464
 30
0.000000
  70
    32
  0
VERTEX
  8
AM_VIS
  5
A27
 10
15.0844
 20
1.17648
 30
0.000000
  70
    32
  0
VERTEX
  8
AM_VIS
  5
A28
 10
15.0853
 20
1.17833
 30
0.000000
  70
    32
  0
VERTEX
  8
AM_VIS
  5
A29
 10
15.0862
 20
1.18018
 30
0.000000
  70
    32
  0
VERTEX
  8
AM_VIS
  5
A2A
 10
15.0871
 20
1.18203
 30
0.000000
  70
    32
  0
VERTEX
  8
AM_VIS
  5
A2B
 10
15.0880
 20
1.18389
 30
0.000000
  70
    32
  0
VERTEX
  8
AM_VIS
  5
A2C
 10
15.0889
 20
1.18575
 30
0.000000
  70
    32
  0
VERTEX
  8
AM_VIS
  5
A2D
 10
15.0897
 20
1.18762
 30
0.000000
  70
    32
  0
VERTEX
  8
AM_VIS
  5
A2E
 10
15.0906
 20
1.18949
 30
0.000000
  70
    32
  0
VERTEX
  8
AM_VIS
  5
A2F
 10
15.0915
 20
1.19137
 30
0.000000
  70
    32
  0
VERTEX
  8
AM_VIS
  5
A30
 10
15.0923
 20
1.19325
 30
0.000000
  70
    32
  0
VERTEX
  8
AM_VIS
  5
A31
 10
15.0932
 20
1.19514
 30
0.000000
  70
    32
  0
VERTEX
  8
AM_VIS
  5
A32
 10
15.0940
 20
1.19703
 30
0.000000
  70
    32
  0
VERTEX
  8
AM_VIS
  5
A33
 10
15.0949
 20
1.19892
 30
0.000000
  70
    32
  0
VERTEX
  8
AM_VIS
  5
A34
 10
15.0957
 20
1.20082
 30
0.000000
  70
    32
  0
VERTEX
  8
AM_VIS
  5
A35
 10
15.0966
 20
1.20272
 30
0.000000
  70
    32
  0
VERTEX
  8
AM_VIS
  5
A36
 10
15.0974
 20
1.20463
 30
0.000000
  70
    32
  0
VERTEX
  8
AM_VIS
  5
A37
 10
15.0982
 20
1.20655
 30
0.000000
  70
    32
  0
VERTEX
  8
AM_VIS
  5
A38
 10
15.0990
 20
1.20846
 30
0.000000
  70
    32
  0
VERTEX
  8
AM_VIS
  5
A39
 10
15.0998
 20
1.21039
 30
0.000000
  70
    32
  0
VERTEX
  8
AM_VIS
  5
A3A
 10
15.1006
 20
1.21231
 30
0.000000
  70
    32
  0
VERTEX
  8
AM_VIS
  5
A3B
 10
15.1014
 20
1.21424
 30
0.000000
  70
    32
  0
VERTEX
  8
AM_VIS
  5
A3C
 10
15.1022
 20
1.21618
 30
0.000000
  70
    32
  0
VERTEX
  8
AM_VIS
  5
A3D
 10
15.1030
 20
1.21812
 30
0.000000
  70
    32
  0
VERTEX
  8
AM_VIS
  5
A3E
 10
15.1038
 20
1.22006
 30
0.000000
  70
    32
  0
VERTEX
  8
AM_VIS
  5
A3F
 10
15.1045
 20
1.22201
 30
0.000000
  70
    32
  0
VERTEX
  8
AM_VIS
  5
A40
 10
15.1053
 20
1.22396
 30
0.000000
  70
    32
  0
VERTEX
  8
AM_VIS
  5
A41
 10
15.1061
 20
1.22592
 30
0.000000
  70
    32
  0
VERTEX
  8
AM_VIS
  5
A42
 10
15.1068
 20
1.22788
 30
0.000000
  70
    32
  0
VERTEX
  8
AM_VIS
  5
A43
 10
15.1076
 20
1.22985
 30
0.000000
  70
    32
  0
VERTEX
  8
AM_VIS
  5
A44
 10
15.1083
 20
1.23182
 30
0.000000
  70
    32
  0
VERTEX
  8
AM_VIS
  5
A45
 10
15.1090
 20
1.23379
 30
0.000000
  70
    32
  0
VERTEX
  8
AM_VIS
  5
A46
 10
15.1098
 20
1.23577
 30
0.000000
  70
    32
  0
VERTEX
  8
AM_VIS
  5
A47
 10
15.1105
 20
1.23775
 30
0.000000
  70
    32
  0
VERTEX
  8
AM_VIS
  5
A48
 10
15.1112
 20
1.23974
 30
0.000000
  70
    32
  0
VERTEX
  8
AM_VIS
  5
A49
 10
15.1119
 20
1.24173
 30
0.000000
  70
    32
  0
VERTEX
  8
AM_VIS
  5
A4A
 10
15.1126
 20
1.24373
 30
0.000000
  70
    32
  0
VERTEX
  8
AM_VIS
  5
A4B
 10
15.1133
 20
1.24573
 30
0.000000
  70
    32
  0
VERTEX
  8
AM_VIS
  5
A4C
 10
15.1140
 20
1.24773
 30
0.000000
  70
    32
  0
VERTEX
  8
AM_VIS
  5
A4D
 10
15.1147
 20
1.24974
 30
0.000000
  70
    32
  0
VERTEX
  8
AM_VIS
  5
A4E
 10
15.1154
 20
1.25175
 30
0.000000
  70
    32
  0
VERTEX
  8
AM_VIS
  5
A4F
 10
15.1160
 20
1.25376
 30
0.000000
  70
    32
  0
VERTEX
  8
AM_VIS
  5
A50
 10
15.1167
 20
1.25578
 30
0.000000
  70
    32
  0
VERTEX
  8
AM_VIS
  5
A51
 10
15.1173
 20
1.25781
 30
0.000000
  70
    32
  0
VERTEX
  8
AM_VIS
  5
A52
 10
15.1180
 20
1.25984
 30
0.000000
  70
    32
  0
VERTEX
  8
AM_VIS
  5
A53
 10
15.1186
 20
1.26187
 30
0.000000
  70
    32
  0
VERTEX
  8
AM_VIS
  5
A54
 10
15.1193
 20
1.26390
 30
0.000000
  70
    32
  0
VERTEX
  8
AM_VIS
  5
A55
 10
15.1199
 20
1.26594
 30
0.000000
  70
    32
  0
VERTEX
  8
AM_VIS
  5
A56
 10
15.1205
 20
1.26799
 30
0.000000
  70
    32
  0
VERTEX
  8
AM_VIS
  5
A57
 10
15.1211
 20
1.27004
 30
0.000000
  70
    32
  0
VERTEX
  8
AM_VIS
  5
A58
 10
15.1218
 20
1.27209
 30
0.000000
  70
    32
  0
VERTEX
  8
AM_VIS
  5
A59
 10
15.1224
 20
1.27414
 30
0.000000
  70
    32
  0
VERTEX
  8
AM_VIS
  5
A5A
 10
15.1230
 20
1.27620
 30
0.000000
  70
    32
  0
VERTEX
  8
AM_VIS
  5
A5B
 10
15.1236
 20
1.27826
 30
0.000000
  70
    32
  0
VERTEX
  8
AM_VIS
  5
A5C
 10
15.1241
 20
1.28033
 30
0.000000
  70
    32
  0
VERTEX
  8
AM_VIS
  5
A5D
 10
15.1247
 20
1.28240
 30
0.000000
  70
    32
  0
VERTEX
  8
AM_VIS
  5
A5E
 10
15.1253
 20
1.28448
 30
0.000000
  70
    32
  0
VERTEX
  8
AM_VIS
  5
A5F
 10
15.1258
 20
1.28656
 30
0.000000
  70
    32
  0
VERTEX
  8
AM_VIS
  5
A60
 10
15.1264
 20
1.28864
 30
0.000000
  70
    32
  0
VERTEX
  8
AM_VIS
  5
A61
 10
15.1270
 20
1.29072
 30
0.000000
  70
    32
  0
VERTEX
  8
AM_VIS
  5
A62
 10
15.1275
 20
1.29281
 30
0.000000
  70
    32
  0
VERTEX
  8
AM_VIS
  5
A63
 10
15.1280
 20
1.29491
 30
0.000000
  70
    32
  0
VERTEX
  8
AM_VIS
  5
A64
 10
15.1286
 20
1.29701
 30
0.000000
  70
    32
  0
VERTEX
  8
AM_VIS
  5
A65
 10
15.1291
 20
1.29911
 30
0.000000
  70
    32
  0
VERTEX
  8
AM_VIS
  5
A66
 10
15.1296
 20
1.30121
 30
0.000000
  70
    32
  0
VERTEX
  8
AM_VIS
  5
A67
 10
15.1301
 20
1.30332
 30
0.000000
  70
    32
  0
VERTEX
  8
AM_VIS
  5
A68
 10
15.1306
 20
1.30543
 30
0.000000
  70
    32
  0
VERTEX
  8
AM_VIS
  5
A69
 10
15.1311
 20
1.30755
 30
0.000000
  70
    32
  0
VERTEX
  8
AM_VIS
  5
A6A
 10
15.1316
 20
1.30967
 30
0.000000
  70
    32
  0
VERTEX
  8
AM_VIS
  5
A6B
 10
15.1321
 20
1.31179
 30
0.000000
  70
    32
  0
VERTEX
  8
AM_VIS
  5
A6C
 10
15.1325
 20
1.31392
 30
0.000000
  70
    32
  0
VERTEX
  8
AM_VIS
  5
A6D
 10
15.1330
 20
1.31605
 30
0.000000
  70
    32
  0
VERTEX
  8
AM_VIS
  5
A6E
 10
15.1335
 20
1.31818
 30
0.000000
  70
    32
  0
VERTEX
  8
AM_VIS
  5
A6F
 10
15.1339
 20
1.32032
 30
0.000000
  70
    32
  0
VERTEX
  8
AM_VIS
  5
A70
 10
15.1344
 20
1.32246
 30
0.000000
  70
    32
  0
VERTEX
  8
AM_VIS
  5
A71
 10
15.1348
 20
1.32460
 30
0.000000
  70
    32
  0
VERTEX
  8
AM_VIS
  5
A72
 10
15.1352
 20
1.32675
 30
0.000000
  70
    32
  0
VERTEX
  8
AM_VIS
  5
A73
 10
15.1357
 20
1.32890
 30
0.000000
  70
    32
  0
VERTEX
  8
AM_VIS
  5
A74
 10
15.1361
 20
1.33105
 30
0.000000
  70
    32
  0
VERTEX
  8
AM_VIS
  5
A75
 10
15.1365
 20
1.33321
 30
0.000000
  70
    32
  0
VERTEX
  8
AM_VIS
  5
A76
 10
15.1369
 20
1.33537
 30
0.000000
  70
    32
  0
VERTEX
  8
AM_VIS
  5
A77
 10
15.1373
 20
1.33754
 30
0.000000
  70
    32
  0
VERTEX
  8
AM_VIS
  5
A78
 10
15.1377
 20
1.33971
 30
0.000000
  70
    32
  0
VERTEX
  8
AM_VIS
  5
A79
 10
15.1380
 20
1.34188
 30
0.000000
  70
    32
  0
VERTEX
  8
AM_VIS
  5
A7A
 10
15.1384
 20
1.34405
 30
0.000000
  70
    32
  0
VERTEX
  8
AM_VIS
  5
A7B
 10
15.1388
 20
1.34623
 30
0.000000
  70
    32
  0
VERTEX
  8
AM_VIS
  5
A7C
 10
15.1391
 20
1.34841
 30
0.000000
  70
    32
  0
VERTEX
  8
AM_VIS
  5
A7D
 10
15.1395
 20
1.35060
 30
0.000000
  70
    32
  0
VERTEX
  8
AM_VIS
  5
A7E
 10
15.1398
 20
1.35278
 30
0.000000
  70
    32
  0
VERTEX
  8
AM_VIS
  5
A7F
 10
15.1402
 20
1.35497
 30
0.000000
  70
    32
  0
VERTEX
  8
AM_VIS
  5
A80
 10
15.1405
 20
1.35716
 30
0.000000
  70
    32
  0
VERTEX
  8
AM_VIS
  5
A81
 10
15.1408
 20
1.35935
 30
0.000000
  70
    32
  0
VERTEX
  8
AM_VIS
  5
A82
 10
15.1411
 20
1.36155
 30
0.000000
  70
    32
  0
VERTEX
  8
AM_VIS
  5
A83
 10
15.1414
 20
1.36374
 30
0.000000
  70
    32
  0
VERTEX
  8
AM_VIS
  5
A84
 10
15.1417
 20
1.36593
 30
0.000000
  70
    32
  0
VERTEX
  8
AM_VIS
  5
A85
 10
15.1420
 20
1.36813
 30
0.000000
  70
    32
  0
VERTEX
  8
AM_VIS
  5
A86
 10
15.1423
 20
1.37033
 30
0.000000
  70
    32
  0
VERTEX
  8
AM_VIS
  5
A87
 10
15.1426
 20
1.37252
 30
0.000000
  70
    32
  0
VERTEX
  8
AM_VIS
  5
A88
 10
15.1428
 20
1.37472
 30
0.000000
  70
    32
  0
VERTEX
  8
AM_VIS
  5
A89
 10
15.1431
 20
1.37692
 30
0.000000
  70
    32
  0
VERTEX
  8
AM_VIS
  5
A8A
 10
15.1433
 20
1.37912
 30
0.000000
  70
    32
  0
VERTEX
  8
AM_VIS
  5
A8B
 10
15.1436
 20
1.38132
 30
0.000000
  70
    32
  0
VERTEX
  8
AM_VIS
  5
A8C
 10
15.1438
 20
1.38352
 30
0.000000
  70
    32
  0
VERTEX
  8
AM_VIS
  5
A8D
 10
15.1440
 20
1.38573
 30
0.000000
  70
    32
  0
VERTEX
  8
AM_VIS
  5
A8E
 10
15.1442
 20
1.38793
 30
0.000000
  70
    32
  0
VERTEX
  8
AM_VIS
  5
A8F
 10
15.1445
 20
1.39014
 30
0.000000
  70
    32
  0
VERTEX
  8
AM_VIS
  5
A90
 10
15.1447
 20
1.39234
 30
0.000000
  70
    32
  0
VERTEX
  8
AM_VIS
  5
A91
 10
15.1449
 20
1.39455
 30
0.000000
  70
    32
  0
VERTEX
  8
AM_VIS
  5
A92
 10
15.1450
 20
1.39675
 30
0.000000
  70
    32
  0
VERTEX
  8
AM_VIS
  5
A93
 10
15.1452
 20
1.39896
 30
0.000000
  70
    32
  0
VERTEX
  8
AM_VIS
  5
A94
 10
15.1454
 20
1.40117
 30
0.000000
  70
    32
  0
VERTEX
  8
AM_VIS
  5
A95
 10
15.1455
 20
1.40338
 30
0.000000
  70
    32
  0
VERTEX
  8
AM_VIS
  5
A96
 10
15.1457
 20
1.40559
 30
0.000000
  70
    32
  0
VERTEX
  8
AM_VIS
  5
A97
 10
15.1458
 20
1.40780
 30
0.000000
  70
    32
  0
VERTEX
  8
AM_VIS
  5
A98
 10
15.1460
 20
1.41001
 30
0.000000
  70
    32
  0
VERTEX
  8
AM_VIS
  5
A99
 10
15.1461
 20
1.41222
 30
0.000000
  70
    32
  0
VERTEX
  8
AM_VIS
  5
A9A
 10
15.1462
 20
1.41443
 30
0.000000
  70
    32
  0
VERTEX
  8
AM_VIS
  5
A9B
 10
15.1464
 20
1.41665
 30
0.000000
  70
    32
  0
VERTEX
  8
AM_VIS
  5
A9C
 10
15.1465
 20
1.41886
 30
0.000000
  70
    32
  0
VERTEX
  8
AM_VIS
  5
A9D
 10
15.1466
 20
1.42107
 30
0.000000
  70
    32
  0
VERTEX
  8
AM_VIS
  5
A9E
 10
15.1466
 20
1.42329
 30
0.000000
  70
    32
  0
VERTEX
  8
AM_VIS
  5
A9F
 10
15.1467
 20
1.42550
 30
0.000000
  70
    32
  0
VERTEX
  8
AM_VIS
  5
AA0
 10
15.1468
 20
1.42772
 30
0.000000
  70
    32
  0
VERTEX
  8
AM_VIS
  5
AA1
 10
15.1469
 20
1.42994
 30
0.000000
  70
    32
  0
VERTEX
  8
AM_VIS
  5
AA2
 10
15.1469
 20
1.43215
 30
0.000000
  70
    32
  0
VERTEX
  8
AM_VIS
  5
AA3
 10
15.1470
 20
1.43437
 30
0.000000
  70
    32
  0
VERTEX
  8
AM_VIS
  5
AA4
 10
15.1470
 20
1.43659
 30
0.000000
  70
    32
  0
VERTEX
  8
AM_VIS
  5
AA5
 10
15.1471
 20
1.43880
 30
0.000000
  70
    32
  0
VERTEX
  8
AM_VIS
  5
AA6
 10
15.1471
 20
1.44102
 30
0.000000
  70
    32
  0
VERTEX
  8
AM_VIS
  5
AA7
 10
15.1471
 20
1.44324
 30
0.000000
  70
    32
  0
VERTEX
  8
AM_VIS
  5
AA8
 10
15.1471
 20
1.44546
 30
0.000000
  70
    32
  0
VERTEX
  8
AM_VIS
  5
AA9
 10
15.1471
 20
1.44768
 30
0.000000
  70
    32
  0
SEQEND
  8
AM_VIS
  5
AAA
  0
POLYLINE
  8
AM_VIS
  5
AAB
  66
     1
 10
0.000000
 20
0.000000
 30
0.000000
  70
     8
  0
VERTEX
  8
AM_VIS
  5
AAC
 10
14.2258
 20
1.44768
 30
0.000000
  70
    32
  0
VERTEX
  8
AM_VIS
  5
AAD
 10
14.2258
 20
1.44551
 30
0.000000
  70
    32
  0
VERTEX
  8
AM_VIS
  5
AAE
 10
14.2258
 20
1.44335
 30
0.000000
  70
    32
  0
VERTEX
  8
AM_VIS
  5
AAF
 10
14.2258
 20
1.44118
 30
0.000000
  70
    32
  0
VERTEX
  8
AM_VIS
  5
AB0
 10
14.2258
 20
1.43902
 30
0.000000
  70
    32
  0
VERTEX
  8
AM_VIS
  5
AB1
 10
14.2258
 20
1.43685
 30
0.000000
  70
    32
  0
VERTEX
  8
AM_VIS
  5
AB2
 10
14.2259
 20
1.43469
 30
0.000000
  70
    32
  0
VERTEX
  8
AM_VIS
  5
AB3
 10
14.2259
 20
1.43252
 30
0.000000
  70
    32
  0
VERTEX
  8
AM_VIS
  5
AB4
 10
14.2260
 20
1.43036
 30
0.000000
  70
    32
  0
VERTEX
  8
AM_VIS
  5
AB5
 10
14.2261
 20
1.42820
 30
0.000000
  70
    32
  0
VERTEX
  8
AM_VIS
  5
AB6
 10
14.2261
 20
1.42604
 30
0.000000
  70
    32
  0
VERTEX
  8
AM_VIS
  5
AB7
 10
14.2262
 20
1.42388
 30
0.000000
  70
    32
  0
VERTEX
  8
AM_VIS
  5
AB8
 10
14.2263
 20
1.42172
 30
0.000000
  70
    32
  0
VERTEX
  8
AM_VIS
  5
AB9
 10
14.2264
 20
1.41956
 30
0.000000
  70
    32
  0
VERTEX
  8
AM_VIS
  5
ABA
 10
14.2265
 20
1.41740
 30
0.000000
  70
    32
  0
VERTEX
  8
AM_VIS
  5
ABB
 10
14.2266
 20
1.41525
 30
0.000000
  70
    32
  0
VERTEX
  8
AM_VIS
  5
ABC
 10
14.2267
 20
1.41309
 30
0.000000
  70
    32
  0
VERTEX
  8
AM_VIS
  5
ABD
 10
14.2268
 20
1.41093
 30
0.000000
  70
    32
  0
VERTEX
  8
AM_VIS
  5
ABE
 10
14.2270
 20
1.40878
 30
0.000000
  70
    32
  0
VERTEX
  8
AM_VIS
  5
ABF
 10
14.2271
 20
1.40663
 30
0.000000
  70
    32
  0
VERTEX
  8
AM_VIS
  5
AC0
 10
14.2273
 20
1.40447
 30
0.000000
  70
    32
  0
VERTEX
  8
AM_VIS
  5
AC1
 10
14.2274
 20
1.40232
 30
0.000000
  70
    32
  0
VERTEX
  8
AM_VIS
  5
AC2
 10
14.2276
 20
1.40017
 30
0.000000
  70
    32
  0
VERTEX
  8
AM_VIS
  5
AC3
 10
14.2277
 20
1.39802
 30
0.000000
  70
    32
  0
VERTEX
  8
AM_VIS
  5
AC4
 10
14.2279
 20
1.39587
 30
0.000000
  70
    32
  0
VERTEX
  8
AM_VIS
  5
AC5
 10
14.2281
 20
1.39372
 30
0.000000
  70
    32
  0
VERTEX
  8
AM_VIS
  5
AC6
 10
14.2283
 20
1.39158
 30
0.000000
  70
    32
  0
VERTEX
  8
AM_VIS
  5
AC7
 10
14.2285
 20
1.38943
 30
0.000000
  70
    32
  0
VERTEX
  8
AM_VIS
  5
AC8
 10
14.2287
 20
1.38729
 30
0.000000
  70
    32
  0
VERTEX
  8
AM_VIS
  5
AC9
 10
14.2289
 20
1.38514
 30
0.000000
  70
    32
  0
VERTEX
  8
AM_VIS
  5
ACA
 10
14.2291
 20
1.38300
 30
0.000000
  70
    32
  0
VERTEX
  8
AM_VIS
  5
ACB
 10
14.2293
 20
1.38086
 30
0.000000
  70
    32
  0
VERTEX
  8
AM_VIS
  5
ACC
 10
14.2296
 20
1.37872
 30
0.000000
  70
    32
  0
VERTEX
  8
AM_VIS
  5
ACD
 10
14.2298
 20
1.37658
 30
0.000000
  70
    32
  0
VERTEX
  8
AM_VIS
  5
ACE
 10
14.2301
 20
1.37444
 30
0.000000
  70
    32
  0
VERTEX
  8
AM_VIS
  5
ACF
 10
14.2303
 20
1.37231
 30
0.000000
  70
    32
  0
VERTEX
  8
AM_VIS
  5
AD0
 10
14.2306
 20
1.37017
 30
0.000000
  70
    32
  0
VERTEX
  8
AM_VIS
  5
AD1
 10
14.2309
 20
1.36804
 30
0.000000
  70
    32
  0
VERTEX
  8
AM_VIS
  5
AD2
 10
14.2311
 20
1.36590
 30
0.000000
  70
    32
  0
VERTEX
  8
AM_VIS
  5
AD3
 10
14.2314
 20
1.36377
 30
0.000000
  70
    32
  0
VERTEX
  8
AM_VIS
  5
AD4
 10
14.2317
 20
1.36164
 30
0.000000
  70
    32
  0
VERTEX
  8
AM_VIS
  5
AD5
 10
14.2320
 20
1.35951
 30
0.000000
  70
    32
  0
VERTEX
  8
AM_VIS
  5
AD6
 10
14.2323
 20
1.35739
 30
0.000000
  70
    32
  0
VERTEX
  8
AM_VIS
  5
AD7
 10
14.2327
 20
1.35526
 30
0.000000
  70
    32
  0
VERTEX
  8
AM_VIS
  5
AD8
 10
14.2330
 20
1.35314
 30
0.000000
  70
    32
  0
VERTEX
  8
AM_VIS
  5
AD9
 10
14.2333
 20
1.35101
 30
0.000000
  70
    32
  0
VERTEX
  8
AM_VIS
  5
ADA
 10
14.2336
 20
1.34889
 30
0.000000
  70
    32
  0
VERTEX
  8
AM_VIS
  5
ADB
 10
14.2340
 20
1.34677
 30
0.000000
  70
    32
  0
VERTEX
  8
AM_VIS
  5
ADC
 10
14.2343
 20
1.34465
 30
0.000000
  70
    32
  0
VERTEX
  8
AM_VIS
  5
ADD
 10
14.2347
 20
1.34254
 30
0.000000
  70
    32
  0
VERTEX
  8
AM_VIS
  5
ADE
 10
14.2351
 20
1.34042
 30
0.000000
  70
    32
  0
VERTEX
  8
AM_VIS
  5
ADF
 10
14.2354
 20
1.33831
 30
0.000000
  70
    32
  0
VERTEX
  8
AM_VIS
  5
AE0
 10
14.2358
 20
1.33619
 30
0.000000
  70
    32
  0
VERTEX
  8
AM_VIS
  5
AE1
 10
14.2362
 20
1.33408
 30
0.000000
  70
    32
  0
VERTEX
  8
AM_VIS
  5
AE2
 10
14.2366
 20
1.33197
 30
0.000000
  70
    32
  0
VERTEX
  8
AM_VIS
  5
AE3
 10
14.2370
 20
1.32987
 30
0.000000
  70
    32
  0
VERTEX
  8
AM_VIS
  5
AE4
 10
14.2374
 20
1.32776
 30
0.000000
  70
    32
  0
VERTEX
  8
AM_VIS
  5
AE5
 10
14.2378
 20
1.32566
 30
0.000000
  70
    32
  0
VERTEX
  8
AM_VIS
  5
AE6
 10
14.2383
 20
1.32355
 30
0.000000
  70
    32
  0
VERTEX
  8
AM_VIS
  5
AE7
 10
14.2387
 20
1.32145
 30
0.000000
  70
    32
  0
VERTEX
  8
AM_VIS
  5
AE8
 10
14.2391
 20
1.31935
 30
0.000000
  70
    32
  0
VERTEX
  8
AM_VIS
  5
AE9
 10
14.2396
 20
1.31726
 30
0.000000
  70
    32
  0
VERTEX
  8
AM_VIS
  5
AEA
 10
14.2400
 20
1.31516
 30
0.000000
  70
    32
  0
VERTEX
  8
AM_VIS
  5
AEB
 10
14.2405
 20
1.31307
 30
0.000000
  70
    32
  0
VERTEX
  8
AM_VIS
  5
AEC
 10
14.2410
 20
1.31097
 30
0.000000
  70
    32
  0
VERTEX
  8
AM_VIS
  5
AED
 10
14.2415
 20
1.30888
 30
0.000000
  70
    32
  0
VERTEX
  8
AM_VIS
  5
AEE
 10
14.2419
 20
1.30680
 30
0.000000
  70
    32
  0
VERTEX
  8
AM_VIS
  5
AEF
 10
14.2424
 20
1.30471
 30
0.000000
  70
    32
  0
VERTEX
  8
AM_VIS
  5
AF0
 10
14.2429
 20
1.30262
 30
0.000000
  70
    32
  0
VERTEX
  8
AM_VIS
  5
AF1
 10
14.2434
 20
1.30054
 30
0.000000
  70
    32
  0
VERTEX
  8
AM_VIS
  5
AF2
 10
14.2439
 20
1.29846
 30
0.000000
  70
    32
  0
VERTEX
  8
AM_VIS
  5
AF3
 10
14.2445
 20
1.29638
 30
0.000000
  70
    32
  0
VERTEX
  8
AM_VIS
  5
AF4
 10
14.2450
 20
1.29431
 30
0.000000
  70
    32
  0
VERTEX
  8
AM_VIS
  5
AF5
 10
14.2455
 20
1.29223
 30
0.000000
  70
    32
  0
VERTEX
  8
AM_VIS
  5
AF6
 10
14.2461
 20
1.29016
 30
0.000000
  70
    32
  0
VERTEX
  8
AM_VIS
  5
AF7
 10
14.2466
 20
1.28809
 30
0.000000
  70
    32
  0
VERTEX
  8
AM_VIS
  5
AF8
 10
14.2472
 20
1.28602
 30
0.000000
  70
    32
  0
VERTEX
  8
AM_VIS
  5
AF9
 10
14.2477
 20
1.28395
 30
0.000000
  70
    32
  0
VERTEX
  8
AM_VIS
  5
AFA
 10
14.2483
 20
1.28189
 30
0.000000
  70
    32
  0
VERTEX
  8
AM_VIS
  5
AFB
 10
14.2489
 20
1.27983
 30
0.000000
  70
    32
  0
VERTEX
  8
AM_VIS
  5
AFC
 10
14.2495
 20
1.27777
 30
0.000000
  70
    32
  0
VERTEX
  8
AM_VIS
  5
AFD
 10
14.2501
 20
1.27571
 30
0.000000
  70
    32
  0
VERTEX
  8
AM_VIS
  5
AFE
 10
14.2507
 20
1.27365
 30
0.000000
  70
    32
  0
VERTEX
  8
AM_VIS
  5
AFF
 10
14.2513
 20
1.27160
 30
0.000000
  70
    32
  0
VERTEX
  8
AM_VIS
  5
B00
 10
14.2519
 20
1.26955
 30
0.000000
  70
    32
  0
VERTEX
  8
AM_VIS
  5
B01
 10
14.2525
 20
1.26750
 30
0.000000
  70
    32
  0
VERTEX
  8
AM_VIS
  5
B02
 10
14.2531
 20
1.26545
 30
0.000000
  70
    32
  0
VERTEX
  8
AM_VIS
  5
B03
 10
14.2538
 20
1.26341
 30
0.000000
  70
    32
  0
VERTEX
  8
AM_VIS
  5
B04
 10
14.2544
 20
1.26137
 30
0.000000
  70
    32
  0
VERTEX
  8
AM_VIS
  5
B05
 10
14.2550
 20
1.25933
 30
0.000000
  70
    32
  0
VERTEX
  8
AM_VIS
  5
B06
 10
14.2557
 20
1.25729
 30
0.000000
  70
    32
  0
VERTEX
  8
AM_VIS
  5
B07
 10
14.2564
 20
1.25526
 30
0.000000
  70
    32
  0
VERTEX
  8
AM_VIS
  5
B08
 10
14.2570
 20
1.25322
 30
0.000000
  70
    32
  0
VERTEX
  8
AM_VIS
  5
B09
 10
14.2577
 20
1.25119
 30
0.000000
  70
    32
  0
VERTEX
  8
AM_VIS
  5
B0A
 10
14.2584
 20
1.24917
 30
0.000000
  70
    32
  0
VERTEX
  8
AM_VIS
  5
B0B
 10
14.2591
 20
1.24714
 30
0.000000
  70
    32
  0
VERTEX
  8
AM_VIS
  5
B0C
 10
14.2598
 20
1.24512
 30
0.000000
  70
    32
  0
VERTEX
  8
AM_VIS
  5
B0D
 10
14.2605
 20
1.24310
 30
0.000000
  70
    32
  0
VERTEX
  8
AM_VIS
  5
B0E
 10
14.2612
 20
1.24108
 30
0.000000
  70
    32
  0
VERTEX
  8
AM_VIS
  5
B0F
 10
14.2619
 20
1.23906
 30
0.000000
  70
    32
  0
VERTEX
  8
AM_VIS
  5
B10
 10
14.2627
 20
1.23705
 30
0.000000
  70
    32
  0
VERTEX
  8
AM_VIS
  5
B11
 10
14.2634
 20
1.23504
 30
0.000000
  70
    32
  0
VERTEX
  8
AM_VIS
  5
B12
 10
14.2641
 20
1.23303
 30
0.000000
  70
    32
  0
VERTEX
  8
AM_VIS
  5
B13
 10
14.2649
 20
1.23103
 30
0.000000
  70
    32
  0
VERTEX
  8
AM_VIS
  5
B14
 10
14.2656
 20
1.22903
 30
0.000000
  70
    32
  0
VERTEX
  8
AM_VIS
  5
B15
 10
14.2664
 20
1.22703
 30
0.000000
  70
    32
  0
VERTEX
  8
AM_VIS
  5
B16
 10
14.2672
 20
1.22503
 30
0.000000
  70
    32
  0
VERTEX
  8
AM_VIS
  5
B17
 10
14.2679
 20
1.22304
 30
0.000000
  70
    32
  0
VERTEX
  8
AM_VIS
  5
B18
 10
14.2687
 20
1.22106
 30
0.000000
  70
    32
  0
VERTEX
  8
AM_VIS
  5
B19
 10
14.2695
 20
1.21907
 30
0.000000
  70
    32
  0
VERTEX
  8
AM_VIS
  5
B1A
 10
14.2703
 20
1.21709
 30
0.000000
  70
    32
  0
VERTEX
  8
AM_VIS
  5
B1B
 10
14.2711
 20
1.21512
 30
0.000000
  70
    32
  0
VERTEX
  8
AM_VIS
  5
B1C
 10
14.2719
 20
1.21315
 30
0.000000
  70
    32
  0
VERTEX
  8
AM_VIS
  5
B1D
 10
14.2727
 20
1.21118
 30
0.000000
  70
    32
  0
VERTEX
  8
AM_VIS
  5
B1E
 10
14.2735
 20
1.20922
 30
0.000000
  70
    32
  0
VERTEX
  8
AM_VIS
  5
B1F
 10
14.2744
 20
1.20726
 30
0.000000
  70
    32
  0
VERTEX
  8
AM_VIS
  5
B20
 10
14.2752
 20
1.20531
 30
0.000000
  70
    32
  0
VERTEX
  8
AM_VIS
  5
B21
 10
14.2760
 20
1.20336
 30
0.000000
  70
    32
  0
VERTEX
  8
AM_VIS
  5
B22
 10
14.2769
 20
1.20141
 30
0.000000
  70
    32
  0
VERTEX
  8
AM_VIS
  5
B23
 10
14.2777
 20
1.19947
 30
0.000000
  70
    32
  0
VERTEX
  8
AM_VIS
  5
B24
 10
14.2786
 20
1.19753
 30
0.000000
  70
    32
  0
VERTEX
  8
AM_VIS
  5
B25
 10
14.2795
 20
1.19560
 30
0.000000
  70
    32
  0
VERTEX
  8
AM_VIS
  5
B26
 10
14.2803
 20
1.19367
 30
0.000000
  70
    32
  0
VERTEX
  8
AM_VIS
  5
B27
 10
14.2812
 20
1.19174
 30
0.000000
  70
    32
  0
VERTEX
  8
AM_VIS
  5
B28
 10
14.2821
 20
1.18982
 30
0.000000
  70
    32
  0
VERTEX
  8
AM_VIS
  5
B29
 10
14.2830
 20
1.18791
 30
0.000000
  70
    32
  0
VERTEX
  8
AM_VIS
  5
B2A
 10
14.2839
 20
1.18599
 30
0.000000
  70
    32
  0
VERTEX
  8
AM_VIS
  5
B2B
 10
14.2848
 20
1.18409
 30
0.000000
  70
    32
  0
VERTEX
  8
AM_VIS
  5
B2C
 10
14.2857
 20
1.18218
 30
0.000000
  70
    32
  0
VERTEX
  8
AM_VIS
  5
B2D
 10
14.2866
 20
1.18028
 30
0.000000
  70
    32
  0
VERTEX
  8
AM_VIS
  5
B2E
 10
14.2875
 20
1.17839
 30
0.000000
  70
    32
  0
VERTEX
  8
AM_VIS
  5
B2F
 10
14.2885
 20
1.17650
 30
0.000000
  70
    32
  0
VERTEX
  8
AM_VIS
  5
B30
 10
14.2894
 20
1.17462
 30
0.000000
  70
    32
  0
VERTEX
  8
AM_VIS
  5
B31
 10
14.2904
 20
1.17273
 30
0.000000
  70
    32
  0
VERTEX
  8
AM_VIS
  5
B32
 10
14.2913
 20
1.17086
 30
0.000000
  70
    32
  0
VERTEX
  8
AM_VIS
  5
B33
 10
14.2922
 20
1.16899
 30
0.000000
  70
    32
  0
VERTEX
  8
AM_VIS
  5
B34
 10
14.2932
 20
1.16712
 30
0.000000
  70
    32
  0
VERTEX
  8
AM_VIS
  5
B35
 10
14.2942
 20
1.16526
 30
0.000000
  70
    32
  0
VERTEX
  8
AM_VIS
  5
B36
 10
14.2951
 20
1.16340
 30
0.000000
  70
    32
  0
VERTEX
  8
AM_VIS
  5
B37
 10
14.2961
 20
1.16155
 30
0.000000
  70
    32
  0
VERTEX
  8
AM_VIS
  5
B38
 10
14.2971
 20
1.15970
 30
0.000000
  70
    32
  0
VERTEX
  8
AM_VIS
  5
B39
 10
14.2981
 20
1.15785
 30
0.000000
  70
    32
  0
VERTEX
  8
AM_VIS
  5
B3A
 10
14.2991
 20
1.15601
 30
0.000000
  70
    32
  0
VERTEX
  8
AM_VIS
  5
B3B
 10
14.3001
 20
1.15418
 30
0.000000
  70
    32
  0
VERTEX
  8
AM_VIS
  5
B3C
 10
14.3011
 20
1.15235
 30
0.000000
  70
    32
  0
VERTEX
  8
AM_VIS
  5
B3D
 10
14.3021
 20
1.15052
 30
0.000000
  70
    32
  0
VERTEX
  8
AM_VIS
  5
B3E
 10
14.3031
 20
1.14870
 30
0.000000
  70
    32
  0
VERTEX
  8
AM_VIS
  5
B3F
 10
14.3042
 20
1.14689
 30
0.000000
  70
    32
  0
VERTEX
  8
AM_VIS
  5
B40
 10
14.3052
 20
1.14508
 30
0.000000
  70
    32
  0
VERTEX
  8
AM_VIS
  5
B41
 10
14.3062
 20
1.14327
 30
0.000000
  70
    32
  0
VERTEX
  8
AM_VIS
  5
B42
 10
14.3073
 20
1.14147
 30
0.000000
  70
    32
  0
VERTEX
  8
AM_VIS
  5
B43
 10
14.3083
 20
1.13968
 30
0.000000
  70
    32
  0
VERTEX
  8
AM_VIS
  5
B44
 10
14.3094
 20
1.13788
 30
0.000000
  70
    32
  0
VERTEX
  8
AM_VIS
  5
B45
 10
14.3104
 20
1.13610
 30
0.000000
  70
    32
  0
VERTEX
  8
AM_VIS
  5
B46
 10
14.3115
 20
1.13432
 30
0.000000
  70
    32
  0
VERTEX
  8
AM_VIS
  5
B47
 10
14.3126
 20
1.13254
 30
0.000000
  70
    32
  0
VERTEX
  8
AM_VIS
  5
B48
 10
14.3136
 20
1.13077
 30
0.000000
  70
    32
  0
VERTEX
  8
AM_VIS
  5
B49
 10
14.3147
 20
1.12900
 30
0.000000
  70
    32
  0
VERTEX
  8
AM_VIS
  5
B4A
 10
14.3158
 20
1.12724
 30
0.000000
  70
    32
  0
VERTEX
  8
AM_VIS
  5
B4B
 10
14.3169
 20
1.12549
 30
0.000000
  70
    32
  0
VERTEX
  8
AM_VIS
  5
B4C
 10
14.3180
 20
1.12373
 30
0.000000
  70
    32
  0
VERTEX
  8
AM_VIS
  5
B4D
 10
14.3191
 20
1.12199
 30
0.000000
  70
    32
  0
VERTEX
  8
AM_VIS
  5
B4E
 10
14.3202
 20
1.12025
 30
0.000000
  70
    32
  0
VERTEX
  8
AM_VIS
  5
B4F
 10
14.3213
 20
1.11851
 30
0.000000
  70
    32
  0
VERTEX
  8
AM_VIS
  5
B50
 10
14.3225
 20
1.11678
 30
0.000000
  70
    32
  0
VERTEX
  8
AM_VIS
  5
B51
 10
14.3236
 20
1.11506
 30
0.000000
  70
    32
  0
VERTEX
  8
AM_VIS
  5
B52
 10
14.3247
 20
1.11334
 30
0.000000
  70
    32
  0
VERTEX
  8
AM_VIS
  5
B53
 10
14.3259
 20
1.11162
 30
0.000000
  70
    32
  0
VERTEX
  8
AM_VIS
  5
B54
 10
14.3270
 20
1.10991
 30
0.000000
  70
    32
  0
VERTEX
  8
AM_VIS
  5
B55
 10
14.3282
 20
1.10821
 30
0.000000
  70
    32
  0
VERTEX
  8
AM_VIS
  5
B56
 10
14.3293
 20
1.10651
 30
0.000000
  70
    32
  0
VERTEX
  8
AM_VIS
  5
B57
 10
14.3305
 20
1.10481
 30
0.000000
  70
    32
  0
VERTEX
  8
AM_VIS
  5
B58
 10
14.3316
 20
1.10312
 30
0.000000
  70
    32
  0
VERTEX
  8
AM_VIS
  5
B59
 10
14.3328
 20
1.10144
 30
0.000000
  70
    32
  0
VERTEX
  8
AM_VIS
  5
B5A
 10
14.3340
 20
1.09976
 30
0.000000
  70
    32
  0
VERTEX
  8
AM_VIS
  5
B5B
 10
14.3352
 20
1.09809
 30
0.000000
  70
    32
  0
VERTEX
  8
AM_VIS
  5
B5C
 10
14.3364
 20
1.09642
 30
0.000000
  70
    32
  0
VERTEX
  8
AM_VIS
  5
B5D
 10
14.3376
 20
1.09476
 30
0.000000
  70
    32
  0
VERTEX
  8
AM_VIS
  5
B5E
 10
14.3388
 20
1.09311
 30
0.000000
  70
    32
  0
VERTEX
  8
AM_VIS
  5
B5F
 10
14.3400
 20
1.09146
 30
0.000000
  70
    32
  0
VERTEX
  8
AM_VIS
  5
B60
 10
14.3412
 20
1.08981
 30
0.000000
  70
    32
  0
VERTEX
  8
AM_VIS
  5
B61
 10
14.3424
 20
1.08817
 30
0.000000
  70
    32
  0
VERTEX
  8
AM_VIS
  5
B62
 10
14.3436
 20
1.08654
 30
0.000000
  70
    32
  0
VERTEX
  8
AM_VIS
  5
B63
 10
14.3448
 20
1.08491
 30
0.000000
  70
    32
  0
VERTEX
  8
AM_VIS
  5
B64
 10
14.3461
 20
1.08329
 30
0.000000
  70
    32
  0
VERTEX
  8
AM_VIS
  5
B65
 10
14.3473
 20
1.08167
 30
0.000000
  70
    32
  0
VERTEX
  8
AM_VIS
  5
B66
 10
14.3486
 20
1.08006
 30
0.000000
  70
    32
  0
VERTEX
  8
AM_VIS
  5
B67
 10
14.3498
 20
1.07845
 30
0.000000
  70
    32
  0
VERTEX
  8
AM_VIS
  5
B68
 10
14.3511
 20
1.07685
 30
0.000000
  70
    32
  0
VERTEX
  8
AM_VIS
  5
B69
 10
14.3523
 20
1.07525
 30
0.000000
  70
    32
  0
VERTEX
  8
AM_VIS
  5
B6A
 10
14.3536
 20
1.07367
 30
0.000000
  70
    32
  0
VERTEX
  8
AM_VIS
  5
B6B
 10
14.3548
 20
1.07208
 30
0.000000
  70
    32
  0
VERTEX
  8
AM_VIS
  5
B6C
 10
14.3561
 20
1.07050
 30
0.000000
  70
    32
  0
VERTEX
  8
AM_VIS
  5
B6D
 10
14.3574
 20
1.06893
 30
0.000000
  70
    32
  0
VERTEX
  8
AM_VIS
  5
B6E
 10
14.3587
 20
1.06737
 30
0.000000
  70
    32
  0
VERTEX
  8
AM_VIS
  5
B6F
 10
14.3600
 20
1.06581
 30
0.000000
  70
    32
  0
VERTEX
  8
AM_VIS
  5
B70
 10
14.3613
 20
1.06425
 30
0.000000
  70
    32
  0
VERTEX
  8
AM_VIS
  5
B71
 10
14.3626
 20
1.06270
 30
0.000000
  70
    32
  0
VERTEX
  8
AM_VIS
  5
B72
 10
14.3639
 20
1.06116
 30
0.000000
  70
    32
  0
VERTEX
  8
AM_VIS
  5
B73
 10
14.3652
 20
1.05962
 30
0.000000
  70
    32
  0
VERTEX
  8
AM_VIS
  5
B74
 10
14.3665
 20
1.05809
 30
0.000000
  70
    32
  0
VERTEX
  8
AM_VIS
  5
B75
 10
14.3678
 20
1.05657
 30
0.000000
  70
    32
  0
VERTEX
  8
AM_VIS
  5
B76
 10
14.3691
 20
1.05505
 30
0.000000
  70
    32
  0
VERTEX
  8
AM_VIS
  5
B77
 10
14.3705
 20
1.05354
 30
0.000000
  70
    32
  0
VERTEX
  8
AM_VIS
  5
B78
 10
14.3718
 20
1.05203
 30
0.000000
  70
    32
  0
VERTEX
  8
AM_VIS
  5
B79
 10
14.3731
 20
1.05053
 30
0.000000
  70
    32
  0
VERTEX
  8
AM_VIS
  5
B7A
 10
14.3745
 20
1.04903
 30
0.000000
  70
    32
  0
VERTEX
  8
AM_VIS
  5
B7B
 10
14.3758
 20
1.04755
 30
0.000000
  70
    32
  0
VERTEX
  8
AM_VIS
  5
B7C
 10
14.3772
 20
1.04606
 30
0.000000
  70
    32
  0
VERTEX
  8
AM_VIS
  5
B7D
 10
14.3786
 20
1.04459
 30
0.000000
  70
    32
  0
VERTEX
  8
AM_VIS
  5
B7E
 10
14.3799
 20
1.04312
 30
0.000000
  70
    32
  0
VERTEX
  8
AM_VIS
  5
B7F
 10
14.3813
 20
1.04165
 30
0.000000
  70
    32
  0
VERTEX
  8
AM_VIS
  5
B80
 10
14.3827
 20
1.04019
 30
0.000000
  70
    32
  0
VERTEX
  8
AM_VIS
  5
B81
 10
14.3840
 20
1.03874
 30
0.000000
  70
    32
  0
VERTEX
  8
AM_VIS
  5
B82
 10
14.3854
 20
1.03730
 30
0.000000
  70
    32
  0
VERTEX
  8
AM_VIS
  5
B83
 10
14.3868
 20
1.03585
 30
0.000000
  70
    32
  0
VERTEX
  8
AM_VIS
  5
B84
 10
14.3882
 20
1.03442
 30
0.000000
  70
    32
  0
VERTEX
  8
AM_VIS
  5
B85
 10
14.3896
 20
1.03299
 30
0.000000
  70
    32
  0
VERTEX
  8
AM_VIS
  5
B86
 10
14.3910
 20
1.03157
 30
0.000000
  70
    32
  0
VERTEX
  8
AM_VIS
  5
B87
 10
14.3924
 20
1.03015
 30
0.000000
  70
    32
  0
VERTEX
  8
AM_VIS
  5
B88
 10
14.3938
 20
1.02874
 30
0.000000
  70
    32
  0
VERTEX
  8
AM_VIS
  5
B89
 10
14.3953
 20
1.02733
 30
0.000000
  70
    32
  0
VERTEX
  8
AM_VIS
  5
B8A
 10
14.3967
 20
1.02593
 30
0.000000
  70
    32
  0
VERTEX
  8
AM_VIS
  5
B8B
 10
14.3981
 20
1.02453
 30
0.000000
  70
    32
  0
VERTEX
  8
AM_VIS
  5
B8C
 10
14.3996
 20
1.02314
 30
0.000000
  70
    32
  0
VERTEX
  8
AM_VIS
  5
B8D
 10
14.4010
 20
1.02175
 30
0.000000
  70
    32
  0
VERTEX
  8
AM_VIS
  5
B8E
 10
14.4025
 20
1.02038
 30
0.000000
  70
    32
  0
VERTEX
  8
AM_VIS
  5
B8F
 10
14.4039
 20
1.01900
 30
0.000000
  70
    32
  0
VERTEX
  8
AM_VIS
  5
B90
 10
14.4054
 20
1.01764
 30
0.000000
  70
    32
  0
VERTEX
  8
AM_VIS
  5
B91
 10
14.4068
 20
1.01627
 30
0.000000
  70
    32
  0
VERTEX
  8
AM_VIS
  5
B92
 10
14.4083
 20
1.01492
 30
0.000000
  70
    32
  0
VERTEX
  8
AM_VIS
  5
B93
 10
14.4098
 20
1.01357
 30
0.000000
  70
    32
  0
VERTEX
  8
AM_VIS
  5
B94
 10
14.4113
 20
1.01222
 30
0.000000
  70
    32
  0
VERTEX
  8
AM_VIS
  5
B95
 10
14.4128
 20
1.01089
 30
0.000000
  70
    32
  0
VERTEX
  8
AM_VIS
  5
B96
 10
14.4142
 20
1.00955
 30
0.000000
  70
    32
  0
VERTEX
  8
AM_VIS
  5
B97
 10
14.4157
 20
1.00823
 30
0.000000
  70
    32
  0
VERTEX
  8
AM_VIS
  5
B98
 10
14.4173
 20
1.00691
 30
0.000000
  70
    32
  0
VERTEX
  8
AM_VIS
  5
B99
 10
14.4188
 20
1.00560
 30
0.000000
  70
    32
  0
VERTEX
  8
AM_VIS
  5
B9A
 10
14.4203
 20
1.00429
 30
0.000000
  70
    32
  0
VERTEX
  8
AM_VIS
  5
B9B
 10
14.4218
 20
1.00299
 30
0.000000
  70
    32
  0
VERTEX
  8
AM_VIS
  5
B9C
 10
14.4233
 20
1.00169
 30
0.000000
  70
    32
  0
VERTEX
  8
AM_VIS
  5
B9D
 10
14.4249
 20
1.00040
 30
0.000000
  70
    32
  0
VERTEX
  8
AM_VIS
  5
B9E
 10
14.4264
 20
0.999123
 30
0.000000
  70
    32
  0
VERTEX
  8
AM_VIS
  5
B9F
 10
14.4279
 20
0.997847
 30
0.000000
  70
    32
  0
VERTEX
  8
AM_VIS
  5
BA0
 10
14.4295
 20
0.996578
 30
0.000000
  70
    32
  0
VERTEX
  8
AM_VIS
  5
BA1
 10
14.4310
 20
0.995315
 30
0.000000
  70
    32
  0
VERTEX
  8
AM_VIS
  5
BA2
 10
14.4326
 20
0.994059
 30
0.000000
  70
    32
  0
VERTEX
  8
AM_VIS
  5
BA3
 10
14.4342
 20
0.992809
 30
0.000000
  70
    32
  0
VERTEX
  8
AM_VIS
  5
BA4
 10
14.4357
 20
0.991566
 30
0.000000
  70
    32
  0
VERTEX
  8
AM_VIS
  5
BA5
 10
14.4373
 20
0.990329
 30
0.000000
  70
    32
  0
VERTEX
  8
AM_VIS
  5
BA6
 10
14.4389
 20
0.989099
 30
0.000000
  70
    32
  0
VERTEX
  8
AM_VIS
  5
BA7
 10
14.4405
 20
0.987876
 30
0.000000
  70
    32
  0
VERTEX
  8
AM_VIS
  5
BA8
 10
14.4420
 20
0.986659
 30
0.000000
  70
    32
  0
VERTEX
  8
AM_VIS
  5
BA9
 10
14.4436
 20
0.985449
 30
0.000000
  70
    32
  0
VERTEX
  8
AM_VIS
  5
BAA
 10
14.4452
 20
0.984246
 30
0.000000
  70
    32
  0
VERTEX
  8
AM_VIS
  5
BAB
 10
14.4468
 20
0.983050
 30
0.000000
  70
    32
  0
VERTEX
  8
AM_VIS
  5
BAC
 10
14.4485
 20
0.981861
 30
0.000000
  70
    32
  0
VERTEX
  8
AM_VIS
  5
BAD
 10
14.4501
 20
0.980678
 30
0.000000
  70
    32
  0
VERTEX
  8
AM_VIS
  5
BAE
 10
14.4517
 20
0.979503
 30
0.000000
  70
    32
  0
VERTEX
  8
AM_VIS
  5
BAF
 10
14.4533
 20
0.978334
 30
0.000000
  70
    32
  0
VERTEX
  8
AM_VIS
  5
BB0
 10
14.4549
 20
0.977173
 30
0.000000
  70
    32
  0
VERTEX
  8
AM_VIS
  5
BB1
 10
14.4566
 20
0.976018
 30
0.000000
  70
    32
  0
VERTEX
  8
AM_VIS
  5
BB2
 10
14.4582
 20
0.974871
 30
0.000000
  70
    32
  0
VERTEX
  8
AM_VIS
  5
BB3
 10
14.4599
 20
0.973731
 30
0.000000
  70
    32
  0
VERTEX
  8
AM_VIS
  5
BB4
 10
14.4615
 20
0.972598
 30
0.000000
  70
    32
  0
VERTEX
  8
AM_VIS
  5
BB5
 10
14.4632
 20
0.971472
 30
0.000000
  70
    32
  0
VERTEX
  8
AM_VIS
  5
BB6
 10
14.4648
 20
0.970354
 30
0.000000
  70
    32
  0
VERTEX
  8
AM_VIS
  5
BB7
 10
14.4665
 20
0.969242
 30
0.000000
  70
    32
  0
VERTEX
  8
AM_VIS
  5
BB8
 10
14.4682
 20
0.968138
 30
0.000000
  70
    32
  0
VERTEX
  8
AM_VIS
  5
BB9
 10
14.4698
 20
0.967042
 30
0.000000
  70
    32
  0
VERTEX
  8
AM_VIS
  5
BBA
 10
14.4715
 20
0.965952
 30
0.000000
  70
    32
  0
VERTEX
  8
AM_VIS
  5
BBB
 10
14.4732
 20
0.964871
 30
0.000000
  70
    32
  0
VERTEX
  8
AM_VIS
  5
BBC
 10
14.4749
 20
0.963796
 30
0.000000
  70
    32
  0
VERTEX
  8
AM_VIS
  5
BBD
 10
14.4766
 20
0.962729
 30
0.000000
  70
    32
  0
VERTEX
  8
AM_VIS
  5
BBE
 10
14.4783
 20
0.961670
 30
0.000000
  70
    32
  0
VERTEX
  8
AM_VIS
  5
BBF
 10
14.4800
 20
0.960619
 30
0.000000
  70
    32
  0
VERTEX
  8
AM_VIS
  5
BC0
 10
14.4817
 20
0.959574
 30
0.000000
  70
    32
  0
VERTEX
  8
AM_VIS
  5
BC1
 10
14.4834
 20
0.958538
 30
0.000000
  70
    32
  0
VERTEX
  8
AM_VIS
  5
BC2
 10
14.4851
 20
0.957509
 30
0.000000
  70
    32
  0
VERTEX
  8
AM_VIS
  5
BC3
 10
14.4869
 20
0.956488
 30
0.000000
  70
    32
  0
VERTEX
  8
AM_VIS
  5
BC4
 10
14.4886
 20
0.955475
 30
0.000000
  70
    32
  0
VERTEX
  8
AM_VIS
  5
BC5
 10
14.4903
 20
0.954470
 30
0.000000
  70
    32
  0
VERTEX
  8
AM_VIS
  5
BC6
 10
14.4921
 20
0.953472
 30
0.000000
  70
    32
  0
VERTEX
  8
AM_VIS
  5
BC7
 10
14.4938
 20
0.952482
 30
0.000000
  70
    32
  0
VERTEX
  8
AM_VIS
  5
BC8
 10
14.4956
 20
0.951501
 30
0.000000
  70
    32
  0
VERTEX
  8
AM_VIS
  5
BC9
 10
14.4973
 20
0.950527
 30
0.000000
  70
    32
  0
VERTEX
  8
AM_VIS
  5
BCA
 10
14.4991
 20
0.949561
 30
0.000000
  70
    32
  0
VERTEX
  8
AM_VIS
  5
BCB
 10
14.5008
 20
0.948603
 30
0.000000
  70
    32
  0
VERTEX
  8
AM_VIS
  5
BCC
 10
14.5026
 20
0.947654
 30
0.000000
  70
    32
  0
VERTEX
  8
AM_VIS
  5
BCD
 10
14.5044
 20
0.946712
 30
0.000000
  70
    32
  0
VERTEX
  8
AM_VIS
  5
BCE
 10
14.5062
 20
0.945778
 30
0.000000
  70
    32
  0
VERTEX
  8
AM_VIS
  5
BCF
 10
14.5079
 20
0.944853
 30
0.000000
  70
    32
  0
VERTEX
  8
AM_VIS
  5
BD0
 10
14.5097
 20
0.943936
 30
0.000000
  70
    32
  0
VERTEX
  8
AM_VIS
  5
BD1
 10
14.5115
 20
0.943027
 30
0.000000
  70
    32
  0
VERTEX
  8
AM_VIS
  5
BD2
 10
14.5133
 20
0.942127
 30
0.000000
  70
    32
  0
VERTEX
  8
AM_VIS
  5
BD3
 10
14.5151
 20
0.941235
 30
0.000000
  70
    32
  0
VERTEX
  8
AM_VIS
  5
BD4
 10
14.5169
 20
0.940351
 30
0.000000
  70
    32
  0
VERTEX
  8
AM_VIS
  5
BD5
 10
14.5187
 20
0.939475
 30
0.000000
  70
    32
  0
VERTEX
  8
AM_VIS
  5
BD6
 10
14.5205
 20
0.938609
 30
0.000000
  70
    32
  0
VERTEX
  8
AM_VIS
  5
BD7
 10
14.5224
 20
0.937750
 30
0.000000
  70
    32
  0
VERTEX
  8
AM_VIS
  5
BD8
 10
14.5242
 20
0.936900
 30
0.000000
  70
    32
  0
VERTEX
  8
AM_VIS
  5
BD9
 10
14.5260
 20
0.936059
 30
0.000000
  70
    32
  0
VERTEX
  8
AM_VIS
  5
BDA
 10
14.5278
 20
0.935226
 30
0.000000
  70
    32
  0
VERTEX
  8
AM_VIS
  5
BDB
 10
14.5297
 20
0.934402
 30
0.000000
  70
    32
  0
VERTEX
  8
AM_VIS
  5
BDC
 10
14.5315
 20
0.933586
 30
0.000000
  70
    32
  0
VERTEX
  8
AM_VIS
  5
BDD
 10
14.5334
 20
0.932780
 30
0.000000
  70
    32
  0
VERTEX
  8
AM_VIS
  5
BDE
 10
14.5352
 20
0.931982
 30
0.000000
  70
    32
  0
VERTEX
  8
AM_VIS
  5
BDF
 10
14.5371
 20
0.931193
 30
0.000000
  70
    32
  0
VERTEX
  8
AM_VIS
  5
BE0
 10
14.5389
 20
0.930414
 30
0.000000
  70
    32
  0
VERTEX
  8
AM_VIS
  5
BE1
 10
14.5408
 20
0.929643
 30
0.000000
  70
    32
  0
VERTEX
  8
AM_VIS
  5
BE2
 10
14.5427
 20
0.928882
 30
0.000000
  70
    32
  0
VERTEX
  8
AM_VIS
  5
BE3
 10
14.5445
 20
0.928130
 30
0.000000
  70
    32
  0
VERTEX
  8
AM_VIS
  5
BE4
 10
14.5464
 20
0.927388
 30
0.000000
  70
    32
  0
VERTEX
  8
AM_VIS
  5
BE5
 10
14.5483
 20
0.926655
 30
0.000000
  70
    32
  0
VERTEX
  8
AM_VIS
  5
BE6
 10
14.5502
 20
0.925931
 30
0.000000
  70
    32
  0
VERTEX
  8
AM_VIS
  5
BE7
 10
14.5520
 20
0.925216
 30
0.000000
  70
    32
  0
VERTEX
  8
AM_VIS
  5
BE8
 10
14.5539
 20
0.924511
 30
0.000000
  70
    32
  0
VERTEX
  8
AM_VIS
  5
BE9
 10
14.5558
 20
0.923816
 30
0.000000
  70
    32
  0
VERTEX
  8
AM_VIS
  5
BEA
 10
14.5577
 20
0.923129
 30
0.000000
  70
    32
  0
VERTEX
  8
AM_VIS
  5
BEB
 10
14.5596
 20
0.922453
 30
0.000000
  70
    32
  0
VERTEX
  8
AM_VIS
  5
BEC
 10
14.5615
 20
0.921786
 30
0.000000
  70
    32
  0
VERTEX
  8
AM_VIS
  5
BED
 10
14.5634
 20
0.921128
 30
0.000000
  70
    32
  0
VERTEX
  8
AM_VIS
  5
BEE
 10
14.5653
 20
0.920480
 30
0.000000
  70
    32
  0
VERTEX
  8
AM_VIS
  5
BEF
 10
14.5672
 20
0.919842
 30
0.000000
  70
    32
  0
VERTEX
  8
AM_VIS
  5
BF0
 10
14.5692
 20
0.919213
 30
0.000000
  70
    32
  0
VERTEX
  8
AM_VIS
  5
BF1
 10
14.5711
 20
0.918594
 30
0.000000
  70
    32
  0
VERTEX
  8
AM_VIS
  5
BF2
 10
14.5730
 20
0.917985
 30
0.000000
  70
    32
  0
VERTEX
  8
AM_VIS
  5
BF3
 10
14.5749
 20
0.917385
 30
0.000000
  70
    32
  0
VERTEX
  8
AM_VIS
  5
BF4
 10
14.5768
 20
0.916796
 30
0.000000
  70
    32
  0
VERTEX
  8
AM_VIS
  5
BF5
 10
14.5788
 20
0.916216
 30
0.000000
  70
    32
  0
VERTEX
  8
AM_VIS
  5
BF6
 10
14.5807
 20
0.915646
 30
0.000000
  70
    32
  0
VERTEX
  8
AM_VIS
  5
BF7
 10
14.5827
 20
0.915086
 30
0.000000
  70
    32
  0
VERTEX
  8
AM_VIS
  5
BF8
 10
14.5846
 20
0.914536
 30
0.000000
  70
    32
  0
VERTEX
  8
AM_VIS
  5
BF9
 10
14.5865
 20
0.913995
 30
0.000000
  70
    32
  0
VERTEX
  8
AM_VIS
  5
BFA
 10
14.5885
 20
0.913465
 30
0.000000
  70
    32
  0
VERTEX
  8
AM_VIS
  5
BFB
 10
14.5904
 20
0.912945
 30
0.000000
  70
    32
  0
VERTEX
  8
AM_VIS
  5
BFC
 10
14.5924
 20
0.912435
 30
0.000000
  70
    32
  0
VERTEX
  8
AM_VIS
  5
BFD
 10
14.5943
 20
0.911935
 30
0.000000
  70
    32
  0
VERTEX
  8
AM_VIS
  5
BFE
 10
14.5963
 20
0.911445
 30
0.000000
  70
    32
  0
VERTEX
  8
AM_VIS
  5
BFF
 10
14.5983
 20
0.910965
 30
0.000000
  70
    32
  0
VERTEX
  8
AM_VIS
  5
C00
 10
14.6002
 20
0.910495
 30
0.000000
  70
    32
  0
VERTEX
  8
AM_VIS
  5
C01
 10
14.6022
 20
0.910036
 30
0.000000
  70
    32
  0
VERTEX
  8
AM_VIS
  5
C02
 10
14.6042
 20
0.909587
 30
0.000000
  70
    32
  0
VERTEX
  8
AM_VIS
  5
C03
 10
14.6062
 20
0.909148
 30
0.000000
  70
    32
  0
VERTEX
  8
AM_VIS
  5
C04
 10
14.6081
 20
0.908719
 30
0.000000
  70
    32
  0
VERTEX
  8
AM_VIS
  5
C05
 10
14.6101
 20
0.908301
 30
0.000000
  70
    32
  0
VERTEX
  8
AM_VIS
  5
C06
 10
14.6121
 20
0.907894
 30
0.000000
  70
    32
  0
VERTEX
  8
AM_VIS
  5
C07
 10
14.6141
 20
0.907497
 30
0.000000
  70
    32
  0
VERTEX
  8
AM_VIS
  5
C08
 10
14.6161
 20
0.907111
 30
0.000000
  70
    32
  0
VERTEX
  8
AM_VIS
  5
C09
 10
14.6181
 20
0.906735
 30
0.000000
  70
    32
  0
VERTEX
  8
AM_VIS
  5
C0A
 10
14.6201
 20
0.906370
 30
0.000000
  70
    32
  0
VERTEX
  8
AM_VIS
  5
C0B
 10
14.6220
 20
0.906016
 30
0.000000
  70
    32
  0
VERTEX
  8
AM_VIS
  5
C0C
 10
14.6240
 20
0.905672
 30
0.000000
  70
    32
  0
VERTEX
  8
AM_VIS
  5
C0D
 10
14.6260
 20
0.905340
 30
0.000000
  70
    32
  0
VERTEX
  8
AM_VIS
  5
C0E
 10
14.6280
 20
0.905018
 30
0.000000
  70
    32
  0
VERTEX
  8
AM_VIS
  5
C0F
 10
14.6300
 20
0.904706
 30
0.000000
  70
    32
  0
VERTEX
  8
AM_VIS
  5
C10
 10
14.6320
 20
0.904406
 30
0.000000
  70
    32
  0
VERTEX
  8
AM_VIS
  5
C11
 10
14.6340
 20
0.904116
 30
0.000000
  70
    32
  0
VERTEX
  8
AM_VIS
  5
C12
 10
14.6360
 20
0.903837
 30
0.000000
  70
    32
  0
VERTEX
  8
AM_VIS
  5
C13
 10
14.6380
 20
0.903569
 30
0.000000
  70
    32
  0
VERTEX
  8
AM_VIS
  5
C14
 10
14.6400
 20
0.903312
 30
0.000000
  70
    32
  0
VERTEX
  8
AM_VIS
  5
C15
 10
14.6420
 20
0.903065
 30
0.000000
  70
    32
  0
VERTEX
  8
AM_VIS
  5
C16
 10
14.6440
 20
0.902829
 30
0.000000
  70
    32
  0
VERTEX
  8
AM_VIS
  5
C17
 10
14.6460
 20
0.902604
 30
0.000000
  70
    32
  0
VERTEX
  8
AM_VIS
  5
C18
 10
14.6481
 20
0.902390
 30
0.000000
  70
    32
  0
VERTEX
  8
AM_VIS
  5
C19
 10
14.6501
 20
0.902187
 30
0.000000
  70
    32
  0
VERTEX
  8
AM_VIS
  5
C1A
 10
14.6521
 20
0.901995
 30
0.000000
  70
    32
  0
VERTEX
  8
AM_VIS
  5
C1B
 10
14.6541
 20
0.901813
 30
0.000000
  70
    32
  0
VERTEX
  8
AM_VIS
  5
C1C
 10
14.6561
 20
0.901643
 30
0.000000
  70
    32
  0
VERTEX
  8
AM_VIS
  5
C1D
 10
14.6581
 20
0.901483
 30
0.000000
  70
    32
  0
VERTEX
  8
AM_VIS
  5
C1E
 10
14.6601
 20
0.901334
 30
0.000000
  70
    32
  0
VERTEX
  8
AM_VIS
  5
C1F
 10
14.6622
 20
0.901197
 30
0.000000
  70
    32
  0
VERTEX
  8
AM_VIS
  5
C20
 10
14.6642
 20
0.901070
 30
0.000000
  70
    32
  0
VERTEX
  8
AM_VIS
  5
C21
 10
14.6662
 20
0.900954
 30
0.000000
  70
    32
  0
VERTEX
  8
AM_VIS
  5
C22
 10
14.6682
 20
0.900849
 30
0.000000
  70
    32
  0
VERTEX
  8
AM_VIS
  5
C23
 10
14.6702
 20
0.900755
 30
0.000000
  70
    32
  0
VERTEX
  8
AM_VIS
  5
C24
 10
14.6723
 20
0.900672
 30
0.000000
  70
    32
  0
VERTEX
  8
AM_VIS
  5
C25
 10
14.6743
 20
0.900600
 30
0.000000
  70
    32
  0
VERTEX
  8
AM_VIS
  5
C26
 10
14.6763
 20
0.900539
 30
0.000000
  70
    32
  0
VERTEX
  8
AM_VIS
  5
C27
 10
14.6783
 20
0.900490
 30
0.000000
  70
    32
  0
VERTEX
  8
AM_VIS
  5
C28
 10
14.6804
 20
0.900451
 30
0.000000
  70
    32
  0
VERTEX
  8
AM_VIS
  5
C29
 10
14.6824
 20
0.900423
 30
0.000000
  70
    32
  0
VERTEX
  8
AM_VIS
  5
C2A
 10
14.6844
 20
0.900407
 30
0.000000
  70
    32
  0
VERTEX
  8
AM_VIS
  5
C2B
 10
14.6864
 20
0.900401
 30
0.000000
  70
    32
  0
SEQEND
  8
AM_VIS
  5
C2C
  0
POLYLINE
  8
AM_VIS
  5
C2D
  66
     1
 10
0.000000
 20
0.000000
 30
0.000000
  70
     8
  0
VERTEX
  8
AM_VIS
  5
C2E
 10
14.6864
 20
1.99496
 30
0.000000
  70
    32
  0
VERTEX
  8
AM_VIS
  5
C2F
 10
14.6844
 20
1.99495
 30
0.000000
  70
    32
  0
VERTEX
  8
AM_VIS
  5
C30
 10
14.6824
 20
1.99493
 30
0.000000
  70
    32
  0
VERTEX
  8
AM_VIS
  5
C31
 10
14.6803
 20
1.99491
 30
0.000000
  70
    32
  0
VERTEX
  8
AM_VIS
  5
C32
 10
14.6783
 20
1.99487
 30
0.000000
  70
    32
  0
VERTEX
  8
AM_VIS
  5
C33
 10
14.6763
 20
1.99482
 30
0.000000
  70
    32
  0
VERTEX
  8
AM_VIS
  5
C34
 10
14.6742
 20
1.99476
 30
0.000000
  70
    32
  0
VERTEX
  8
AM_VIS
  5
C35
 10
14.6722
 20
1.99468
 30
0.000000
  70
    32
  0
VERTEX
  8
AM_VIS
  5
C36
 10
14.6702
 20
1.99460
 30
0.000000
  70
    32
  0
VERTEX
  8
AM_VIS
  5
C37
 10
14.6682
 20
1.99451
 30
0.000000
  70
    32
  0
VERTEX
  8
AM_VIS
  5
C38
 10
14.6661
 20
1.99440
 30
0.000000
  70
    32
  0
VERTEX
  8
AM_VIS
  5
C39
 10
14.6641
 20
1.99428
 30
0.000000
  70
    32
  0
VERTEX
  8
AM_VIS
  5
C3A
 10
14.6621
 20
1.99416
 30
0.000000
  70
    32
  0
VERTEX
  8
AM_VIS
  5
C3B
 10
14.6601
 20
1.99402
 30
0.000000
  70
    32
  0
VERTEX
  8
AM_VIS
  5
C3C
 10
14.6581
 20
1.99387
 30
0.000000
  70
    32
  0
VERTEX
  8
AM_VIS
  5
C3D
 10
14.6560
 20
1.99371
 30
0.000000
  70
    32
  0
VERTEX
  8
AM_VIS
  5
C3E
 10
14.6540
 20
1.99354
 30
0.000000
  70
    32
  0
VERTEX
  8
AM_VIS
  5
C3F
 10
14.6520
 20
1.99336
 30
0.000000
  70
    32
  0
VERTEX
  8
AM_VIS
  5
C40
 10
14.6500
 20
1.99316
 30
0.000000
  70
    32
  0
VERTEX
  8
AM_VIS
  5
C41
 10
14.6480
 20
1.99296
 30
0.000000
  70
    32
  0
VERTEX
  8
AM_VIS
  5
C42
 10
14.6460
 20
1.99275
 30
0.000000
  70
    32
  0
VERTEX
  8
AM_VIS
  5
C43
 10
14.6440
 20
1.99252
 30
0.000000
  70
    32
  0
VERTEX
  8
AM_VIS
  5
C44
 10
14.6420
 20
1.99229
 30
0.000000
  70
    32
  0
VERTEX
  8
AM_VIS
  5
C45
 10
14.6400
 20
1.99204
 30
0.000000
  70
    32
  0
VERTEX
  8
AM_VIS
  5
C46
 10
14.6380
 20
1.99178
 30
0.000000
  70
    32
  0
VERTEX
  8
AM_VIS
  5
C47
 10
14.6360
 20
1.99151
 30
0.000000
  70
    32
  0
VERTEX
  8
AM_VIS
  5
C48
 10
14.6340
 20
1.99124
 30
0.000000
  70
    32
  0
VERTEX
  8
AM_VIS
  5
C49
 10
14.6320
 20
1.99095
 30
0.000000
  70
    32
  0
VERTEX
  8
AM_VIS
  5
C4A
 10
14.6300
 20
1.99065
 30
0.000000
  70
    32
  0
VERTEX
  8
AM_VIS
  5
C4B
 10
14.6280
 20
1.99034
 30
0.000000
  70
    32
  0
VERTEX
  8
AM_VIS
  5
C4C
 10
14.6260
 20
1.99001
 30
0.000000
  70
    32
  0
VERTEX
  8
AM_VIS
  5
C4D
 10
14.6240
 20
1.98968
 30
0.000000
  70
    32
  0
VERTEX
  8
AM_VIS
  5
C4E
 10
14.6220
 20
1.98934
 30
0.000000
  70
    32
  0
VERTEX
  8
AM_VIS
  5
C4F
 10
14.6200
 20
1.98899
 30
0.000000
  70
    32
  0
VERTEX
  8
AM_VIS
  5
C50
 10
14.6181
 20
1.98862
 30
0.000000
  70
    32
  0
VERTEX
  8
AM_VIS
  5
C51
 10
14.6161
 20
1.98825
 30
0.000000
  70
    32
  0
VERTEX
  8
AM_VIS
  5
C52
 10
14.6141
 20
1.98787
 30
0.000000
  70
    32
  0
VERTEX
  8
AM_VIS
  5
C53
 10
14.6121
 20
1.98747
 30
0.000000
  70
    32
  0
VERTEX
  8
AM_VIS
  5
C54
 10
14.6102
 20
1.98707
 30
0.000000
  70
    32
  0
VERTEX
  8
AM_VIS
  5
C55
 10
14.6082
 20
1.98665
 30
0.000000
  70
    32
  0
VERTEX
  8
AM_VIS
  5
C56
 10
14.6062
 20
1.98623
 30
0.000000
  70
    32
  0
VERTEX
  8
AM_VIS
  5
C57
 10
14.6043
 20
1.98579
 30
0.000000
  70
    32
  0
VERTEX
  8
AM_VIS
  5
C58
 10
14.6023
 20
1.98534
 30
0.000000
  70
    32
  0
VERTEX
  8
AM_VIS
  5
C59
 10
14.6003
 20
1.98489
 30
0.000000
  70
    32
  0
VERTEX
  8
AM_VIS
  5
C5A
 10
14.5984
 20
1.98442
 30
0.000000
  70
    32
  0
VERTEX
  8
AM_VIS
  5
C5B
 10
14.5964
 20
1.98394
 30
0.000000
  70
    32
  0
VERTEX
  8
AM_VIS
  5
C5C
 10
14.5945
 20
1.98345
 30
0.000000
  70
    32
  0
VERTEX
  8
AM_VIS
  5
C5D
 10
14.5925
 20
1.98295
 30
0.000000
  70
    32
  0
VERTEX
  8
AM_VIS
  5
C5E
 10
14.5906
 20
1.98245
 30
0.000000
  70
    32
  0
VERTEX
  8
AM_VIS
  5
C5F
 10
14.5886
 20
1.98193
 30
0.000000
  70
    32
  0
VERTEX
  8
AM_VIS
  5
C60
 10
14.5867
 20
1.98140
 30
0.000000
  70
    32
  0
VERTEX
  8
AM_VIS
  5
C61
 10
14.5847
 20
1.98086
 30
0.000000
  70
    32
  0
VERTEX
  8
AM_VIS
  5
C62
 10
14.5828
 20
1.98031
 30
0.000000
  70
    32
  0
VERTEX
  8
AM_VIS
  5
C63
 10
14.5808
 20
1.97975
 30
0.000000
  70
    32
  0
VERTEX
  8
AM_VIS
  5
C64
 10
14.5789
 20
1.97918
 30
0.000000
  70
    32
  0
VERTEX
  8
AM_VIS
  5
C65
 10
14.5770
 20
1.97860
 30
0.000000
  70
    32
  0
VERTEX
  8
AM_VIS
  5
C66
 10
14.5750
 20
1.97801
 30
0.000000
  70
    32
  0
VERTEX
  8
AM_VIS
  5
C67
 10
14.5731
 20
1.97741
 30
0.000000
  70
    32
  0
VERTEX
  8
AM_VIS
  5
C68
 10
14.5712
 20
1.97680
 30
0.000000
  70
    32
  0
VERTEX
  8
AM_VIS
  5
C69
 10
14.5693
 20
1.97618
 30
0.000000
  70
    32
  0
VERTEX
  8
AM_VIS
  5
C6A
 10
14.5674
 20
1.97555
 30
0.000000
  70
    32
  0
VERTEX
  8
AM_VIS
  5
C6B
 10
14.5654
 20
1.97491
 30
0.000000
  70
    32
  0
VERTEX
  8
AM_VIS
  5
C6C
 10
14.5635
 20
1.97426
 30
0.000000
  70
    32
  0
VERTEX
  8
AM_VIS
  5
C6D
 10
14.5616
 20
1.97360
 30
0.000000
  70
    32
  0
VERTEX
  8
AM_VIS
  5
C6E
 10
14.5597
 20
1.97293
 30
0.000000
  70
    32
  0
VERTEX
  8
AM_VIS
  5
C6F
 10
14.5578
 20
1.97226
 30
0.000000
  70
    32
  0
VERTEX
  8
AM_VIS
  5
C70
 10
14.5559
 20
1.97157
 30
0.000000
  70
    32
  0
VERTEX
  8
AM_VIS
  5
C71
 10
14.5540
 20
1.97087
 30
0.000000
  70
    32
  0
VERTEX
  8
AM_VIS
  5
C72
 10
14.5521
 20
1.97016
 30
0.000000
  70
    32
  0
VERTEX
  8
AM_VIS
  5
C73
 10
14.5502
 20
1.96944
 30
0.000000
  70
    32
  0
VERTEX
  8
AM_VIS
  5
C74
 10
14.5483
 20
1.96871
 30
0.000000
  70
    32
  0
VERTEX
  8
AM_VIS
  5
C75
 10
14.5464
 20
1.96798
 30
0.000000
  70
    32
  0
VERTEX
  8
AM_VIS
  5
C76
 10
14.5445
 20
1.96723
 30
0.000000
  70
    32
  0
VERTEX
  8
AM_VIS
  5
C77
 10
14.5427
 20
1.96648
 30
0.000000
  70
    32
  0
VERTEX
  8
AM_VIS
  5
C78
 10
14.5408
 20
1.96571
 30
0.000000
  70
    32
  0
VERTEX
  8
AM_VIS
  5
C79
 10
14.5389
 20
1.96494
 30
0.000000
  70
    32
  0
VERTEX
  8
AM_VIS
  5
C7A
 10
14.5371
 20
1.96416
 30
0.000000
  70
    32
  0
VERTEX
  8
AM_VIS
  5
C7B
 10
14.5352
 20
1.96337
 30
0.000000
  70
    32
  0
VERTEX
  8
AM_VIS
  5
C7C
 10
14.5333
 20
1.96257
 30
0.000000
  70
    32
  0
VERTEX
  8
AM_VIS
  5
C7D
 10
14.5315
 20
1.96176
 30
0.000000
  70
    32
  0
VERTEX
  8
AM_VIS
  5
C7E
 10
14.5296
 20
1.96094
 30
0.000000
  70
    32
  0
VERTEX
  8
AM_VIS
  5
C7F
 10
14.5278
 20
1.96011
 30
0.000000
  70
    32
  0
VERTEX
  8
AM_VIS
  5
C80
 10
14.5260
 20
1.95928
 30
0.000000
  70
    32
  0
VERTEX
  8
AM_VIS
  5
C81
 10
14.5241
 20
1.95843
 30
0.000000
  70
    32
  0
VERTEX
  8
AM_VIS
  5
C82
 10
14.5223
 20
1.95758
 30
0.000000
  70
    32
  0
VERTEX
  8
AM_VIS
  5
C83
 10
14.5205
 20
1.95672
 30
0.000000
  70
    32
  0
VERTEX
  8
AM_VIS
  5
C84
 10
14.5187
 20
1.95585
 30
0.000000
  70
    32
  0
VERTEX
  8
AM_VIS
  5
C85
 10
14.5168
 20
1.95497
 30
0.000000
  70
    32
  0
VERTEX
  8
AM_VIS
  5
C86
 10
14.5150
 20
1.95409
 30
0.000000
  70
    32
  0
VERTEX
  8
AM_VIS
  5
C87
 10
14.5132
 20
1.95319
 30
0.000000
  70
    32
  0
VERTEX
  8
AM_VIS
  5
C88
 10
14.5114
 20
1.95229
 30
0.000000
  70
    32
  0
VERTEX
  8
AM_VIS
  5
C89
 10
14.5096
 20
1.95137
 30
0.000000
  70
    32
  0
VERTEX
  8
AM_VIS
  5
C8A
 10
14.5078
 20
1.95045
 30
0.000000
  70
    32
  0
VERTEX
  8
AM_VIS
  5
C8B
 10
14.5061
 20
1.94952
 30
0.000000
  70
    32
  0
VERTEX
  8
AM_VIS
  5
C8C
 10
14.5043
 20
1.94859
 30
0.000000
  70
    32
  0
VERTEX
  8
AM_VIS
  5
C8D
 10
14.5025
 20
1.94764
 30
0.000000
  70
    32
  0
VERTEX
  8
AM_VIS
  5
C8E
 10
14.5007
 20
1.94669
 30
0.000000
  70
    32
  0
VERTEX
  8
AM_VIS
  5
C8F
 10
14.4990
 20
1.94573
 30
0.000000
  70
    32
  0
VERTEX
  8
AM_VIS
  5
C90
 10
14.4972
 20
1.94476
 30
0.000000
  70
    32
  0
VERTEX
  8
AM_VIS
  5
C91
 10
14.4954
 20
1.94378
 30
0.000000
  70
    32
  0
VERTEX
  8
AM_VIS
  5
C92
 10
14.4937
 20
1.94279
 30
0.000000
  70
    32
  0
VERTEX
  8
AM_VIS
  5
C93
 10
14.4919
 20
1.94180
 30
0.000000
  70
    32
  0
VERTEX
  8
AM_VIS
  5
C94
 10
14.4902
 20
1.94080
 30
0.000000
  70
    32
  0
VERTEX
  8
AM_VIS
  5
C95
 10
14.4884
 20
1.93979
 30
0.000000
  70
    32
  0
VERTEX
  8
AM_VIS
  5
C96
 10
14.4867
 20
1.93877
 30
0.000000
  70
    32
  0
VERTEX
  8
AM_VIS
  5
C97
 10
14.4850
 20
1.93774
 30
0.000000
  70
    32
  0
VERTEX
  8
AM_VIS
  5
C98
 10
14.4833
 20
1.93671
 30
0.000000
  70
    32
  0
VERTEX
  8
AM_VIS
  5
C99
 10
14.4815
 20
1.93567
 30
0.000000
  70
    32
  0
VERTEX
  8
AM_VIS
  5
C9A
 10
14.4798
 20
1.93462
 30
0.000000
  70
    32
  0
VERTEX
  8
AM_VIS
  5
C9B
 10
14.4781
 20
1.93356
 30
0.000000
  70
    32
  0
VERTEX
  8
AM_VIS
  5
C9C
 10
14.4764
 20
1.93250
 30
0.000000
  70
    32
  0
VERTEX
  8
AM_VIS
  5
C9D
 10
14.4747
 20
1.93143
 30
0.000000
  70
    32
  0
VERTEX
  8
AM_VIS
  5
C9E
 10
14.4730
 20
1.93035
 30
0.000000
  70
    32
  0
VERTEX
  8
AM_VIS
  5
C9F
 10
14.4713
 20
1.92926
 30
0.000000
  70
    32
  0
VERTEX
  8
AM_VIS
  5
CA0
 10
14.4696
 20
1.92817
 30
0.000000
  70
    32
  0
VERTEX
  8
AM_VIS
  5
CA1
 10
14.4679
 20
1.92706
 30
0.000000
  70
    32
  0
VERTEX
  8
AM_VIS
  5
CA2
 10
14.4663
 20
1.92596
 30
0.000000
  70
    32
  0
VERTEX
  8
AM_VIS
  5
CA3
 10
14.4646
 20
1.92484
 30
0.000000
  70
    32
  0
VERTEX
  8
AM_VIS
  5
CA4
 10
14.4629
 20
1.92371
 30
0.000000
  70
    32
  0
VERTEX
  8
AM_VIS
  5
CA5
 10
14.4613
 20
1.92258
 30
0.000000
  70
    32
  0
VERTEX
  8
AM_VIS
  5
CA6
 10
14.4596
 20
1.92144
 30
0.000000
  70
    32
  0
VERTEX
  8
AM_VIS
  5
CA7
 10
14.4580
 20
1.92030
 30
0.000000
  70
    32
  0
VERTEX
  8
AM_VIS
  5
CA8
 10
14.4563
 20
1.91914
 30
0.000000
  70
    32
  0
VERTEX
  8
AM_VIS
  5
CA9
 10
14.4547
 20
1.91798
 30
0.000000
  70
    32
  0
VERTEX
  8
AM_VIS
  5
CAA
 10
14.4530
 20
1.91682
 30
0.000000
  70
    32
  0
VERTEX
  8
AM_VIS
  5
CAB
 10
14.4514
 20
1.91564
 30
0.000000
  70
    32
  0
VERTEX
  8
AM_VIS
  5
CAC
 10
14.4498
 20
1.91446
 30
0.000000
  70
    32
  0
VERTEX
  8
AM_VIS
  5
CAD
 10
14.4482
 20
1.91327
 30
0.000000
  70
    32
  0
VERTEX
  8
AM_VIS
  5
CAE
 10
14.4465
 20
1.91208
 30
0.000000
  70
    32
  0
VERTEX
  8
AM_VIS
  5
CAF
 10
14.4449
 20
1.91087
 30
0.000000
  70
    32
  0
VERTEX
  8
AM_VIS
  5
CB0
 10
14.4433
 20
1.90966
 30
0.000000
  70
    32
  0
VERTEX
  8
AM_VIS
  5
CB1
 10
14.4417
 20
1.90845
 30
0.000000
  70
    32
  0
VERTEX
  8
AM_VIS
  5
CB2
 10
14.4401
 20
1.90723
 30
0.000000
  70
    32
  0
VERTEX
  8
AM_VIS
  5
CB3
 10
14.4385
 20
1.90600
 30
0.000000
  70
    32
  0
VERTEX
  8
AM_VIS
  5
CB4
 10
14.4370
 20
1.90476
 30
0.000000
  70
    32
  0
VERTEX
  8
AM_VIS
  5
CB5
 10
14.4354
 20
1.90352
 30
0.000000
  70
    32
  0
VERTEX
  8
AM_VIS
  5
CB6
 10
14.4338
 20
1.90227
 30
0.000000
  70
    32
  0
VERTEX
  8
AM_VIS
  5
CB7
 10
14.4322
 20
1.90101
 30
0.000000
  70
    32
  0
VERTEX
  8
AM_VIS
  5
CB8
 10
14.4307
 20
1.89975
 30
0.000000
  70
    32
  0
VERTEX
  8
AM_VIS
  5
CB9
 10
14.4291
 20
1.89848
 30
0.000000
  70
    32
  0
VERTEX
  8
AM_VIS
  5
CBA
 10
14.4276
 20
1.89720
 30
0.000000
  70
    32
  0
VERTEX
  8
AM_VIS
  5
CBB
 10
14.4260
 20
1.89592
 30
0.000000
  70
    32
  0
VERTEX
  8
AM_VIS
  5
CBC
 10
14.4245
 20
1.89463
 30
0.000000
  70
    32
  0
VERTEX
  8
AM_VIS
  5
CBD
 10
14.4229
 20
1.89334
 30
0.000000
  70
    32
  0
VERTEX
  8
AM_VIS
  5
CBE
 10
14.4214
 20
1.89203
 30
0.000000
  70
    32
  0
VERTEX
  8
AM_VIS
  5
CBF
 10
14.4199
 20
1.89073
 30
0.000000
  70
    32
  0
VERTEX
  8
AM_VIS
  5
CC0
 10
14.4184
 20
1.88941
 30
0.000000
  70
    32
  0
VERTEX
  8
AM_VIS
  5
CC1
 10
14.4168
 20
1.88809
 30
0.000000
  70
    32
  0
VERTEX
  8
AM_VIS
  5
CC2
 10
14.4153
 20
1.88677
 30
0.000000
  70
    32
  0
VERTEX
  8
AM_VIS
  5
CC3
 10
14.4138
 20
1.88543
 30
0.000000
  70
    32
  0
VERTEX
  8
AM_VIS
  5
CC4
 10
14.4123
 20
1.88410
 30
0.000000
  70
    32
  0
VERTEX
  8
AM_VIS
  5
CC5
 10
14.4108
 20
1.88275
 30
0.000000
  70
    32
  0
VERTEX
  8
AM_VIS
  5
CC6
 10
14.4094
 20
1.88140
 30
0.000000
  70
    32
  0
VERTEX
  8
AM_VIS
  5
CC7
 10
14.4079
 20
1.88004
 30
0.000000
  70
    32
  0
VERTEX
  8
AM_VIS
  5
CC8
 10
14.4064
 20
1.87868
 30
0.000000
  70
    32
  0
VERTEX
  8
AM_VIS
  5
CC9
 10
14.4049
 20
1.87731
 30
0.000000
  70
    32
  0
VERTEX
  8
AM_VIS
  5
CCA
 10
14.4035
 20
1.87594
 30
0.000000
  70
    32
  0
VERTEX
  8
AM_VIS
  5
CCB
 10
14.4020
 20
1.87456
 30
0.000000
  70
    32
  0
VERTEX
  8
AM_VIS
  5
CCC
 10
14.4005
 20
1.87317
 30
0.000000
  70
    32
  0
VERTEX
  8
AM_VIS
  5
CCD
 10
14.3991
 20
1.87178
 30
0.000000
  70
    32
  0
VERTEX
  8
AM_VIS
  5
CCE
 10
14.3977
 20
1.87038
 30
0.000000
  70
    32
  0
VERTEX
  8
AM_VIS
  5
CCF
 10
14.3962
 20
1.86898
 30
0.000000
  70
    32
  0
VERTEX
  8
AM_VIS
  5
CD0
 10
14.3948
 20
1.86757
 30
0.000000
  70
    32
  0
VERTEX
  8
AM_VIS
  5
CD1
 10
14.3934
 20
1.86615
 30
0.000000
  70
    32
  0
VERTEX
  8
AM_VIS
  5
CD2
 10
14.3919
 20
1.86473
 30
0.000000
  70
    32
  0
VERTEX
  8
AM_VIS
  5
CD3
 10
14.3905
 20
1.86330
 30
0.000000
  70
    32
  0
VERTEX
  8
AM_VIS
  5
CD4
 10
14.3891
 20
1.86187
 30
0.000000
  70
    32
  0
VERTEX
  8
AM_VIS
  5
CD5
 10
14.3877
 20
1.86043
 30
0.000000
  70
    32
  0
VERTEX
  8
AM_VIS
  5
CD6
 10
14.3863
 20
1.85899
 30
0.000000
  70
    32
  0
VERTEX
  8
AM_VIS
  5
CD7
 10
14.3849
 20
1.85754
 30
0.000000
  70
    32
  0
VERTEX
  8
AM_VIS
  5
CD8
 10
14.3835
 20
1.85609
 30
0.000000
  70
    32
  0
VERTEX
  8
AM_VIS
  5
CD9
 10
14.3821
 20
1.85463
 30
0.000000
  70
    32
  0
VERTEX
  8
AM_VIS
  5
CDA
 10
14.3808
 20
1.85316
 30
0.000000
  70
    32
  0
VERTEX
  8
AM_VIS
  5
CDB
 10
14.3794
 20
1.85169
 30
0.000000
  70
    32
  0
VERTEX
  8
AM_VIS
  5
CDC
 10
14.3780
 20
1.85021
 30
0.000000
  70
    32
  0
VERTEX
  8
AM_VIS
  5
CDD
 10
14.3767
 20
1.84873
 30
0.000000
  70
    32
  0
VERTEX
  8
AM_VIS
  5
CDE
 10
14.3753
 20
1.84725
 30
0.000000
  70
    32
  0
VERTEX
  8
AM_VIS
  5
CDF
 10
14.3740
 20
1.84575
 30
0.000000
  70
    32
  0
VERTEX
  8
AM_VIS
  5
CE0
 10
14.3726
 20
1.84426
 30
0.000000
  70
    32
  0
VERTEX
  8
AM_VIS
  5
CE1
 10
14.3713
 20
1.84275
 30
0.000000
  70
    32
  0
VERTEX
  8
AM_VIS
  5
CE2
 10
14.3700
 20
1.84125
 30
0.000000
  70
    32
  0
VERTEX
  8
AM_VIS
  5
CE3
 10
14.3686
 20
1.83973
 30
0.000000
  70
    32
  0
VERTEX
  8
AM_VIS
  5
CE4
 10
14.3673
 20
1.83822
 30
0.000000
  70
    32
  0
VERTEX
  8
AM_VIS
  5
CE5
 10
14.3660
 20
1.83669
 30
0.000000
  70
    32
  0
VERTEX
  8
AM_VIS
  5
CE6
 10
14.3647
 20
1.83516
 30
0.000000
  70
    32
  0
VERTEX
  8
AM_VIS
  5
CE7
 10
14.3634
 20
1.83363
 30
0.000000
  70
    32
  0
VERTEX
  8
AM_VIS
  5
CE8
 10
14.3621
 20
1.83209
 30
0.000000
  70
    32
  0
VERTEX
  8
AM_VIS
  5
CE9
 10
14.3608
 20
1.83055
 30
0.000000
  70
    32
  0
VERTEX
  8
AM_VIS
  5
CEA
 10
14.3595
 20
1.82900
 30
0.000000
  70
    32
  0
VERTEX
  8
AM_VIS
  5
CEB
 10
14.3582
 20
1.82745
 30
0.000000
  70
    32
  0
VERTEX
  8
AM_VIS
  5
CEC
 10
14.3570
 20
1.82589
 30
0.000000
  70
    32
  0
VERTEX
  8
AM_VIS
  5
CED
 10
14.3557
 20
1.82433
 30
0.000000
  70
    32
  0
VERTEX
  8
AM_VIS
  5
CEE
 10
14.3544
 20
1.82276
 30
0.000000
  70
    32
  0
VERTEX
  8
AM_VIS
  5
CEF
 10
14.3532
 20
1.82119
 30
0.000000
  70
    32
  0
VERTEX
  8
AM_VIS
  5
CF0
 10
14.3519
 20
1.81961
 30
0.000000
  70
    32
  0
VERTEX
  8
AM_VIS
  5
CF1
 10
14.3507
 20
1.81803
 30
0.000000
  70
    32
  0
VERTEX
  8
AM_VIS
  5
CF2
 10
14.3494
 20
1.81644
 30
0.000000
  70
    32
  0
VERTEX
  8
AM_VIS
  5
CF3
 10
14.3482
 20
1.81485
 30
0.000000
  70
    32
  0
VERTEX
  8
AM_VIS
  5
CF4
 10
14.3470
 20
1.81325
 30
0.000000
  70
    32
  0
VERTEX
  8
AM_VIS
  5
CF5
 10
14.3458
 20
1.81165
 30
0.000000
  70
    32
  0
VERTEX
  8
AM_VIS
  5
CF6
 10
14.3445
 20
1.81005
 30
0.000000
  70
    32
  0
VERTEX
  8
AM_VIS
  5
CF7
 10
14.3433
 20
1.80844
 30
0.000000
  70
    32
  0
VERTEX
  8
AM_VIS
  5
CF8
 10
14.3421
 20
1.80682
 30
0.000000
  70
    32
  0
VERTEX
  8
AM_VIS
  5
CF9
 10
14.3409
 20
1.80520
 30
0.000000
  70
    32
  0
VERTEX
  8
AM_VIS
  5
CFA
 10
14.3397
 20
1.80358
 30
0.000000
  70
    32
  0
VERTEX
  8
AM_VIS
  5
CFB
 10
14.3385
 20
1.80195
 30
0.000000
  70
    32
  0
VERTEX
  8
AM_VIS
  5
CFC
 10
14.3374
 20
1.80032
 30
0.000000
  70
    32
  0
VERTEX
  8
AM_VIS
  5
CFD
 10
14.3362
 20
1.79868
 30
0.000000
  70
    32
  0
VERTEX
  8
AM_VIS
  5
CFE
 10
14.3350
 20
1.79704
 30
0.000000
  70
    32
  0
VERTEX
  8
AM_VIS
  5
CFF
 10
14.3339
 20
1.79540
 30
0.000000
  70
    32
  0
VERTEX
  8
AM_VIS
  5
D00
 10
14.3327
 20
1.79375
 30
0.000000
  70
    32
  0
VERTEX
  8
AM_VIS
  5
D01
 10
14.3316
 20
1.79209
 30
0.000000
  70
    32
  0
VERTEX
  8
AM_VIS
  5
D02
 10
14.3304
 20
1.79044
 30
0.000000
  70
    32
  0
VERTEX
  8
AM_VIS
  5
D03
 10
14.3293
 20
1.78877
 30
0.000000
  70
    32
  0
VERTEX
  8
AM_VIS
  5
D04
 10
14.3281
 20
1.78711
 30
0.000000
  70
    32
  0
VERTEX
  8
AM_VIS
  5
D05
 10
14.3270
 20
1.78544
 30
0.000000
  70
    32
  0
VERTEX
  8
AM_VIS
  5
D06
 10
14.3259
 20
1.78376
 30
0.000000
  70
    32
  0
VERTEX
  8
AM_VIS
  5
D07
 10
14.3248
 20
1.78209
 30
0.000000
  70
    32
  0
VERTEX
  8
AM_VIS
  5
D08
 10
14.3237
 20
1.78040
 30
0.000000
  70
    32
  0
VERTEX
  8
AM_VIS
  5
D09
 10
14.3226
 20
1.77872
 30
0.000000
  70
    32
  0
VERTEX
  8
AM_VIS
  5
D0A
 10
14.3215
 20
1.77703
 30
0.000000
  70
    32
  0
VERTEX
  8
AM_VIS
  5
D0B
 10
14.3204
 20
1.77533
 30
0.000000
  70
    32
  0
VERTEX
  8
AM_VIS
  5
D0C
 10
14.3193
 20
1.77363
 30
0.000000
  70
    32
  0
VERTEX
  8
AM_VIS
  5
D0D
 10
14.3182
 20
1.77193
 30
0.000000
  70
    32
  0
VERTEX
  8
AM_VIS
  5
D0E
 10
14.3171
 20
1.77023
 30
0.000000
  70
    32
  0
VERTEX
  8
AM_VIS
  5
D0F
 10
14.3161
 20
1.76852
 30
0.000000
  70
    32
  0
VERTEX
  8
AM_VIS
  5
D10
 10
14.3150
 20
1.76680
 30
0.000000
  70
    32
  0
VERTEX
  8
AM_VIS
  5
D11
 10
14.3139
 20
1.76508
 30
0.000000
  70
    32
  0
VERTEX
  8
AM_VIS
  5
D12
 10
14.3129
 20
1.76336
 30
0.000000
  70
    32
  0
VERTEX
  8
AM_VIS
  5
D13
 10
14.3119
 20
1.76164
 30
0.000000
  70
    32
  0
VERTEX
  8
AM_VIS
  5
D14
 10
14.3108
 20
1.75991
 30
0.000000
  70
    32
  0
VERTEX
  8
AM_VIS
  5
D15
 10
14.3098
 20
1.75818
 30
0.000000
  70
    32
  0
VERTEX
  8
AM_VIS
  5
D16
 10
14.3088
 20
1.75644
 30
0.000000
  70
    32
  0
VERTEX
  8
AM_VIS
  5
D17
 10
14.3077
 20
1.75470
 30
0.000000
  70
    32
  0
VERTEX
  8
AM_VIS
  5
D18
 10
14.3067
 20
1.75296
 30
0.000000
  70
    32
  0
VERTEX
  8
AM_VIS
  5
D19
 10
14.3057
 20
1.75121
 30
0.000000
  70
    32
  0
VERTEX
  8
AM_VIS
  5
D1A
 10
14.3047
 20
1.74945
 30
0.000000
  70
    32
  0
VERTEX
  8
AM_VIS
  5
D1B
 10
14.3037
 20
1.74769
 30
0.000000
  70
    32
  0
VERTEX
  8
AM_VIS
  5
D1C
 10
14.3027
 20
1.74593
 30
0.000000
  70
    32
  0
VERTEX
  8
AM_VIS
  5
D1D
 10
14.3017
 20
1.74416
 30
0.000000
  70
    32
  0
VERTEX
  8
AM_VIS
  5
D1E
 10
14.3008
 20
1.74238
 30
0.000000
  70
    32
  0
VERTEX
  8
AM_VIS
  5
D1F
 10
14.2998
 20
1.74060
 30
0.000000
  70
    32
  0
VERTEX
  8
AM_VIS
  5
D20
 10
14.2988
 20
1.73882
 30
0.000000
  70
    32
  0
VERTEX
  8
AM_VIS
  5
D21
 10
14.2978
 20
1.73703
 30
0.000000
  70
    32
  0
VERTEX
  8
AM_VIS
  5
D22
 10
14.2969
 20
1.73523
 30
0.000000
  70
    32
  0
VERTEX
  8
AM_VIS
  5
D23
 10
14.2959
 20
1.73343
 30
0.000000
  70
    32
  0
VERTEX
  8
AM_VIS
  5
D24
 10
14.2950
 20
1.73163
 30
0.000000
  70
    32
  0
VERTEX
  8
AM_VIS
  5
D25
 10
14.2940
 20
1.72982
 30
0.000000
  70
    32
  0
VERTEX
  8
AM_VIS
  5
D26
 10
14.2931
 20
1.72800
 30
0.000000
  70
    32
  0
VERTEX
  8
AM_VIS
  5
D27
 10
14.2922
 20
1.72618
 30
0.000000
  70
    32
  0
VERTEX
  8
AM_VIS
  5
D28
 10
14.2912
 20
1.72436
 30
0.000000
  70
    32
  0
VERTEX
  8
AM_VIS
  5
D29
 10
14.2903
 20
1.72253
 30
0.000000
  70
    32
  0
VERTEX
  8
AM_VIS
  5
D2A
 10
14.2894
 20
1.72070
 30
0.000000
  70
    32
  0
VERTEX
  8
AM_VIS
  5
D2B
 10
14.2885
 20
1.71886
 30
0.000000
  70
    32
  0
VERTEX
  8
AM_VIS
  5
D2C
 10
14.2876
 20
1.71701
 30
0.000000
  70
    32
  0
VERTEX
  8
AM_VIS
  5
D2D
 10
14.2867
 20
1.71517
 30
0.000000
  70
    32
  0
VERTEX
  8
AM_VIS
  5
D2E
 10
14.2858
 20
1.71331
 30
0.000000
  70
    32
  0
VERTEX
  8
AM_VIS
  5
D2F
 10
14.2849
 20
1.71146
 30
0.000000
  70
    32
  0
VERTEX
  8
AM_VIS
  5
D30
 10
14.2840
 20
1.70959
 30
0.000000
  70
    32
  0
VERTEX
  8
AM_VIS
  5
D31
 10
14.2831
 20
1.70773
 30
0.000000
  70
    32
  0
VERTEX
  8
AM_VIS
  5
D32
 10
14.2823
 20
1.70586
 30
0.000000
  70
    32
  0
VERTEX
  8
AM_VIS
  5
D33
 10
14.2814
 20
1.70398
 30
0.000000
  70
    32
  0
VERTEX
  8
AM_VIS
  5
D34
 10
14.2805
 20
1.70210
 30
0.000000
  70
    32
  0
VERTEX
  8
AM_VIS
  5
D35
 10
14.2797
 20
1.70021
 30
0.000000
  70
    32
  0
VERTEX
  8
AM_VIS
  5
D36
 10
14.2788
 20
1.69832
 30
0.000000
  70
    32
  0
VERTEX
  8
AM_VIS
  5
D37
 10
14.2780
 20
1.69643
 30
0.000000
  70
    32
  0
VERTEX
  8
AM_VIS
  5
D38
 10
14.2771
 20
1.69453
 30
0.000000
  70
    32
  0
VERTEX
  8
AM_VIS
  5
D39
 10
14.2763
 20
1.69263
 30
0.000000
  70
    32
  0
VERTEX
  8
AM_VIS
  5
D3A
 10
14.2755
 20
1.69072
 30
0.000000
  70
    32
  0
VERTEX
  8
AM_VIS
  5
D3B
 10
14.2747
 20
1.68881
 30
0.000000
  70
    32
  0
VERTEX
  8
AM_VIS
  5
D3C
 10
14.2739
 20
1.68689
 30
0.000000
  70
    32
  0
VERTEX
  8
AM_VIS
  5
D3D
 10
14.2731
 20
1.68497
 30
0.000000
  70
    32
  0
VERTEX
  8
AM_VIS
  5
D3E
 10
14.2723
 20
1.68304
 30
0.000000
  70
    32
  0
VERTEX
  8
AM_VIS
  5
D3F
 10
14.2715
 20
1.68111
 30
0.000000
  70
    32
  0
VERTEX
  8
AM_VIS
  5
D40
 10
14.2707
 20
1.67918
 30
0.000000
  70
    32
  0
VERTEX
  8
AM_VIS
  5
D41
 10
14.2699
 20
1.67724
 30
0.000000
  70
    32
  0
VERTEX
  8
AM_VIS
  5
D42
 10
14.2691
 20
1.67530
 30
0.000000
  70
    32
  0
VERTEX
  8
AM_VIS
  5
D43
 10
14.2683
 20
1.67335
 30
0.000000
  70
    32
  0
VERTEX
  8
AM_VIS
  5
D44
 10
14.2676
 20
1.67140
 30
0.000000
  70
    32
  0
VERTEX
  8
AM_VIS
  5
D45
 10
14.2668
 20
1.66944
 30
0.000000
  70
    32
  0
VERTEX
  8
AM_VIS
  5
D46
 10
14.2661
 20
1.66748
 30
0.000000
  70
    32
  0
VERTEX
  8
AM_VIS
  5
D47
 10
14.2653
 20
1.66551
 30
0.000000
  70
    32
  0
VERTEX
  8
AM_VIS
  5
D48
 10
14.2646
 20
1.66354
 30
0.000000
  70
    32
  0
VERTEX
  8
AM_VIS
  5
D49
 10
14.2638
 20
1.66157
 30
0.000000
  70
    32
  0
VERTEX
  8
AM_VIS
  5
D4A
 10
14.2631
 20
1.65959
 30
0.000000
  70
    32
  0
VERTEX
  8
AM_VIS
  5
D4B
 10
14.2624
 20
1.65761
 30
0.000000
  70
    32
  0
VERTEX
  8
AM_VIS
  5
D4C
 10
14.2617
 20
1.65562
 30
0.000000
  70
    32
  0
VERTEX
  8
AM_VIS
  5
D4D
 10
14.2610
 20
1.65363
 30
0.000000
  70
    32
  0
VERTEX
  8
AM_VIS
  5
D4E
 10
14.2603
 20
1.65164
 30
0.000000
  70
    32
  0
VERTEX
  8
AM_VIS
  5
D4F
 10
14.2596
 20
1.64964
 30
0.000000
  70
    32
  0
VERTEX
  8
AM_VIS
  5
D50
 10
14.2589
 20
1.64764
 30
0.000000
  70
    32
  0
VERTEX
  8
AM_VIS
  5
D51
 10
14.2582
 20
1.64563
 30
0.000000
  70
    32
  0
VERTEX
  8
AM_VIS
  5
D52
 10
14.2575
 20
1.64362
 30
0.000000
  70
    32
  0
VERTEX
  8
AM_VIS
  5
D53
 10
14.2569
 20
1.64161
 30
0.000000
  70
    32
  0
VERTEX
  8
AM_VIS
  5
D54
 10
14.2562
 20
1.63959
 30
0.000000
  70
    32
  0
VERTEX
  8
AM_VIS
  5
D55
 10
14.2555
 20
1.63756
 30
0.000000
  70
    32
  0
VERTEX
  8
AM_VIS
  5
D56
 10
14.2549
 20
1.63554
 30
0.000000
  70
    32
  0
VERTEX
  8
AM_VIS
  5
D57
 10
14.2542
 20
1.63350
 30
0.000000
  70
    32
  0
VERTEX
  8
AM_VIS
  5
D58
 10
14.2536
 20
1.63147
 30
0.000000
  70
    32
  0
VERTEX
  8
AM_VIS
  5
D59
 10
14.2530
 20
1.62943
 30
0.000000
  70
    32
  0
VERTEX
  8
AM_VIS
  5
D5A
 10
14.2523
 20
1.62739
 30
0.000000
  70
    32
  0
VERTEX
  8
AM_VIS
  5
D5B
 10
14.2517
 20
1.62534
 30
0.000000
  70
    32
  0
VERTEX
  8
AM_VIS
  5
D5C
 10
14.2511
 20
1.62329
 30
0.000000
  70
    32
  0
VERTEX
  8
AM_VIS
  5
D5D
 10
14.2505
 20
1.62123
 30
0.000000
  70
    32
  0
VERTEX
  8
AM_VIS
  5
D5E
 10
14.2499
 20
1.61918
 30
0.000000
  70
    32
  0
VERTEX
  8
AM_VIS
  5
D5F
 10
14.2493
 20
1.61711
 30
0.000000
  70
    32
  0
VERTEX
  8
AM_VIS
  5
D60
 10
14.2487
 20
1.61505
 30
0.000000
  70
    32
  0
VERTEX
  8
AM_VIS
  5
D61
 10
14.2482
 20
1.61298
 30
0.000000
  70
    32
  0
VERTEX
  8
AM_VIS
  5
D62
 10
14.2476
 20
1.61090
 30
0.000000
  70
    32
  0
VERTEX
  8
AM_VIS
  5
D63
 10
14.2470
 20
1.60882
 30
0.000000
  70
    32
  0
VERTEX
  8
AM_VIS
  5
D64
 10
14.2465
 20
1.60674
 30
0.000000
  70
    32
  0
VERTEX
  8
AM_VIS
  5
D65
 10
14.2459
 20
1.60466
 30
0.000000
  70
    32
  0
VERTEX
  8
AM_VIS
  5
D66
 10
14.2454
 20
1.60257
 30
0.000000
  70
    32
  0
VERTEX
  8
AM_VIS
  5
D67
 10
14.2448
 20
1.60047
 30
0.000000
  70
    32
  0
VERTEX
  8
AM_VIS
  5
D68
 10
14.2443
 20
1.59838
 30
0.000000
  70
    32
  0
VERTEX
  8
AM_VIS
  5
D69
 10
14.2438
 20
1.59628
 30
0.000000
  70
    32
  0
VERTEX
  8
AM_VIS
  5
D6A
 10
14.2433
 20
1.59417
 30
0.000000
  70
    32
  0
VERTEX
  8
AM_VIS
  5
D6B
 10
14.2428
 20
1.59207
 30
0.000000
  70
    32
  0
VERTEX
  8
AM_VIS
  5
D6C
 10
14.2423
 20
1.58995
 30
0.000000
  70
    32
  0
VERTEX
  8
AM_VIS
  5
D6D
 10
14.2418
 20
1.58784
 30
0.000000
  70
    32
  0
VERTEX
  8
AM_VIS
  5
D6E
 10
14.2413
 20
1.58572
 30
0.000000
  70
    32
  0
VERTEX
  8
AM_VIS
  5
D6F
 10
14.2408
 20
1.58360
 30
0.000000
  70
    32
  0
VERTEX
  8
AM_VIS
  5
D70
 10
14.2403
 20
1.58147
 30
0.000000
  70
    32
  0
VERTEX
  8
AM_VIS
  5
D71
 10
14.2399
 20
1.57934
 30
0.000000
  70
    32
  0
VERTEX
  8
AM_VIS
  5
D72
 10
14.2394
 20
1.57721
 30
0.000000
  70
    32
  0
VERTEX
  8
AM_VIS
  5
D73
 10
14.2390
 20
1.57507
 30
0.000000
  70
    32
  0
VERTEX
  8
AM_VIS
  5
D74
 10
14.2385
 20
1.57293
 30
0.000000
  70
    32
  0
VERTEX
  8
AM_VIS
  5
D75
 10
14.2381
 20
1.57079
 30
0.000000
  70
    32
  0
VERTEX
  8
AM_VIS
  5
D76
 10
14.2376
 20
1.56864
 30
0.000000
  70
    32
  0
VERTEX
  8
AM_VIS
  5
D77
 10
14.2372
 20
1.56649
 30
0.000000
  70
    32
  0
VERTEX
  8
AM_VIS
  5
D78
 10
14.2368
 20
1.56434
 30
0.000000
  70
    32
  0
VERTEX
  8
AM_VIS
  5
D79
 10
14.2364
 20
1.56218
 30
0.000000
  70
    32
  0
VERTEX
  8
AM_VIS
  5
D7A
 10
14.2360
 20
1.56002
 30
0.000000
  70
    32
  0
VERTEX
  8
AM_VIS
  5
D7B
 10
14.2356
 20
1.55786
 30
0.000000
  70
    32
  0
VERTEX
  8
AM_VIS
  5
D7C
 10
14.2352
 20
1.55569
 30
0.000000
  70
    32
  0
VERTEX
  8
AM_VIS
  5
D7D
 10
14.2348
 20
1.55352
 30
0.000000
  70
    32
  0
VERTEX
  8
AM_VIS
  5
D7E
 10
14.2345
 20
1.55134
 30
0.000000
  70
    32
  0
VERTEX
  8
AM_VIS
  5
D7F
 10
14.2341
 20
1.54917
 30
0.000000
  70
    32
  0
VERTEX
  8
AM_VIS
  5
D80
 10
14.2337
 20
1.54699
 30
0.000000
  70
    32
  0
VERTEX
  8
AM_VIS
  5
D81
 10
14.2334
 20
1.54480
 30
0.000000
  70
    32
  0
VERTEX
  8
AM_VIS
  5
D82
 10
14.2330
 20
1.54261
 30
0.000000
  70
    32
  0
VERTEX
  8
AM_VIS
  5
D83
 10
14.2327
 20
1.54042
 30
0.000000
  70
    32
  0
VERTEX
  8
AM_VIS
  5
D84
 10
14.2324
 20
1.53823
 30
0.000000
  70
    32
  0
VERTEX
  8
AM_VIS
  5
D85
 10
14.2321
 20
1.53604
 30
0.000000
  70
    32
  0
VERTEX
  8
AM_VIS
  5
D86
 10
14.2318
 20
1.53385
 30
0.000000
  70
    32
  0
VERTEX
  8
AM_VIS
  5
D87
 10
14.2315
 20
1.53165
 30
0.000000
  70
    32
  0
VERTEX
  8
AM_VIS
  5
D88
 10
14.2312
 20
1.52946
 30
0.000000
  70
    32
  0
VERTEX
  8
AM_VIS
  5
D89
 10
14.2309
 20
1.52726
 30
0.000000
  70
    32
  0
VERTEX
  8
AM_VIS
  5
D8A
 10
14.2306
 20
1.52506
 30
0.000000
  70
    32
  0
VERTEX
  8
AM_VIS
  5
D8B
 10
14.2303
 20
1.52286
 30
0.000000
  70
    32
  0
VERTEX
  8
AM_VIS
  5
D8C
 10
14.2301
 20
1.52067
 30
0.000000
  70
    32
  0
VERTEX
  8
AM_VIS
  5
D8D
 10
14.2298
 20
1.51846
 30
0.000000
  70
    32
  0
VERTEX
  8
AM_VIS
  5
D8E
 10
14.2295
 20
1.51626
 30
0.000000
  70
    32
  0
VERTEX
  8
AM_VIS
  5
D8F
 10
14.2293
 20
1.51406
 30
0.000000
  70
    32
  0
VERTEX
  8
AM_VIS
  5
D90
 10
14.2291
 20
1.51186
 30
0.000000
  70
    32
  0
VERTEX
  8
AM_VIS
  5
D91
 10
14.2288
 20
1.50965
 30
0.000000
  70
    32
  0
VERTEX
  8
AM_VIS
  5
D92
 10
14.2286
 20
1.50745
 30
0.000000
  70
    32
  0
VERTEX
  8
AM_VIS
  5
D93
 10
14.2284
 20
1.50524
 30
0.000000
  70
    32
  0
VERTEX
  8
AM_VIS
  5
D94
 10
14.2282
 20
1.50304
 30
0.000000
  70
    32
  0
VERTEX
  8
AM_VIS
  5
D95
 10
14.2280
 20
1.50083
 30
0.000000
  70
    32
  0
VERTEX
  8
AM_VIS
  5
D96
 10
14.2278
 20
1.49862
 30
0.000000
  70
    32
  0
VERTEX
  8
AM_VIS
  5
D97
 10
14.2277
 20
1.49642
 30
0.000000
  70
    32
  0
VERTEX
  8
AM_VIS
  5
D98
 10
14.2275
 20
1.49421
 30
0.000000
  70
    32
  0
VERTEX
  8
AM_VIS
  5
D99
 10
14.2273
 20
1.49200
 30
0.000000
  70
    32
  0
VERTEX
  8
AM_VIS
  5
D9A
 10
14.2272
 20
1.48979
 30
0.000000
  70
    32
  0
VERTEX
  8
AM_VIS
  5
D9B
 10
14.2270
 20
1.48757
 30
0.000000
  70
    32
  0
VERTEX
  8
AM_VIS
  5
D9C
 10
14.2269
 20
1.48536
 30
0.000000
  70
    32
  0
VERTEX
  8
AM_VIS
  5
D9D
 10
14.2268
 20
1.48315
 30
0.000000
  70
    32
  0
VERTEX
  8
AM_VIS
  5
D9E
 10
14.2266
 20
1.48094
 30
0.000000
  70
    32
  0
VERTEX
  8
AM_VIS
  5
D9F
 10
14.2265
 20
1.47872
 30
0.000000
  70
    32
  0
VERTEX
  8
AM_VIS
  5
DA0
 10
14.2264
 20
1.47651
 30
0.000000
  70
    32
  0
VERTEX
  8
AM_VIS
  5
DA1
 10
14.2263
 20
1.47429
 30
0.000000
  70
    32
  0
VERTEX
  8
AM_VIS
  5
DA2
 10
14.2262
 20
1.47208
 30
0.000000
  70
    32
  0
VERTEX
  8
AM_VIS
  5
DA3
 10
14.2261
 20
1.46986
 30
0.000000
  70
    32
  0
VERTEX
  8
AM_VIS
  5
DA4
 10
14.2261
 20
1.46765
 30
0.000000
  70
    32
  0
VERTEX
  8
AM_VIS
  5
DA5
 10
14.2260
 20
1.46543
 30
0.000000
  70
    32
  0
VERTEX
  8
AM_VIS
  5
DA6
 10
14.2259
 20
1.46321
 30
0.000000
  70
    32
  0
VERTEX
  8
AM_VIS
  5
DA7
 10
14.2259
 20
1.46099
 30
0.000000
  70
    32
  0
VERTEX
  8
AM_VIS
  5
DA8
 10
14.2258
 20
1.45878
 30
0.000000
  70
    32
  0
VERTEX
  8
AM_VIS
  5
DA9
 10
14.2258
 20
1.45656
 30
0.000000
  70
    32
  0
VERTEX
  8
AM_VIS
  5
DAA
 10
14.2258
 20
1.45434
 30
0.000000
  70
    32
  0
VERTEX
  8
AM_VIS
  5
DAB
 10
14.2258
 20
1.45212
 30
0.000000
  70
    32
  0
VERTEX
  8
AM_VIS
  5
DAC
 10
14.2258
 20
1.44990
 30
0.000000
  70
    32
  0
VERTEX
  8
AM_VIS
  5
DAD
 10
14.2258
 20
1.44768
 30
0.000000
  70
    32
  0
SEQEND
  8
AM_VIS
  5
DAE
  0
LINE
  5
37
  8
AM_VIS
 10
13.511438257427571
 20
3.810747665176855
 30
0.0
 11
15.861438257427571
 21
3.810747665176855
 31
0.0
  0
LINE
  5
38
  8
AM_VIS
 10
13.511438257427571
 20
0.5607476651768555
 30
0.0
 11
13.511438257427571
 21
3.810747665176855
 31
0.0
  0
LINE
  5
39
  8
AM_VIS
 10
15.861438257427571
 20
0.5607476651768555
 30
0.0
 11
15.861438257427571
 21
3.810747665176855
 31
0.0
  0
LINE
  5
3A
  8
AM_VIS
 10
17.842688257427572
 20
0.5607476651768555
 30
0.0
 11
11.53018825742757
 21
0.5607476651768555
 31
0.0
  0
LINE
  5
3B
  8
AM_VIS
 10
11.53018825742757
 20
0.3107476651768555
 30
0.0
 11
17.842688257427572
 21
0.3107476651768555
 31
0.0
  0
LINE
  5
3C
  8
AM_VIS
 10
17.842688257427572
 20
0.5607476651768555
 30
0.0
 11
17.842688257427572
 21
0.3107476651768555
 31
0.0
  0
LINE
  5
3D
  8
AM_VIS
 10
11.53018825742757
 20
0.5607476651768555
 30
0.0
 11
11.53018825742757
 21
0.3107476651768555
 31
0.0
  0
LINE
  5
3E
  8
AM_VIS
 10
17.842688257427572
 20
0.5607476651768555
 30
0.0
 11
17.842688257427572
 21
3.810747665176855
 31
0.0
  0
LINE
  5
3F
  8
AM_VIS
 10
17.842688257427572
 20
3.810747665176855
 30
0.0
 11
15.861438257427571
 21
3.810747665176855
 31
0.0
  0
LINE
  5
40
  8
AM_VIS
 10
13.511438257427571
 20
3.810747665176855
 30
0.0
 11
11.53018825742757
 21
3.810747665176855
 31
0.0
  0
LINE
  5
41
  8
AM_VIS
 10
11.53018825742757
 20
0.5607476651768555
 30
0.0
 11
11.53018825742757
 21
3.810747665176855
 31
0.0
  0
ARC
  5
42
  8
AM_VIS
 10
14.698092024699999
 20
1.443468987719557
 30
0.0
 40
0.4103297329045456
 50
229.29431560951789
 51
268.37178989422
  0
ARC
  5
43
  8
AM_VIS
 10
14.67478449015513
 20
1.4434689877195619
 30
0.0
 40
0.4103297329045501
 50
271.62821010578023
 51
310.70568439048191
  0
ARC
  5
44
  8
AM_VIS
 10
14.67478449015513
 20
1.451888093981617
 30
0.0
 40
0.4103297329045537
 50
49.294315609518222
 51
88.371789894219646
  0
ARC
  5
45
  8
AM_VIS
 10
14.69809202470001
 20
1.4518880939816221
 30
0.0
 40
0.4103297329045487
 50
91.628210105780212
 51
130.70568439048199
  0
ARC
  5
46
  8
AM_VIS
 10
14.68643825742757
 20
1.447678540850591
 30
0.0
 40
0.40625
 50
309.07230755918039
 51
50.927692440819548
  0
CIRCLE
  5
47
  8
AM_VIS
 10
14.68643825742757
 20
1.447678540850591
 30
0.0
 40
0.3125
  0
ARC
  5
48
  8
AM_VIS
 10
14.68643825742757
 20
1.4476785408505899
 30
0.0
 40
0.40625
 50
129.0723075591803
 51
230.9276924408195
  0
ARC
  5
49
  8
AM_VIS
 10
14.698092024699999
 20
3.176538112045816
 30
0.0
 40
0.4103297329045392
 50
229.29431560951761
 51
268.37178989422023
  0
ARC
  5
4A
  8
AM_VIS
 10
14.67478449015513
 20
3.1765381120458231
 30
0.0
 40
0.4103297329045461
 50
271.62821010577989
 51
310.70568439048202
  0
ARC
  5
4B
  8
AM_VIS
 10
14.67478449015513
 20
3.184957218307888
 30
0.0
 40
0.4103297329045472
 50
49.294315609517987
 51
88.371789894220015
  0
ARC
  5
4C
  8
AM_VIS
 10
14.698092024699999
 20
3.184957218307896
 30
0.0
 40
0.4103297329045394
 50
91.628210105779729
 51
130.70568439048239
  0
ARC
  5
4D
  8
AM_VIS
 10
14.68643825742757
 20
3.180747665176856
 30
0.0
 40
0.40625
 50
309.0723075591805
 51
50.927692440819548
  0
CIRCLE
  5
4E
  8
AM_VIS
 10
14.68643825742757
 20
3.180747665176856
 30
0.0
 40
0.3125
  0
ARC
  5
4F
  8
AM_VIS
 10
14.68643825742757
 20
3.1807476651768551
 30
0.0
 40
0.40625
 50
129.0723075591803
 51
230.9276924408195
  0
LINE
  5
50
  8
AM_HID
 10
17.030188257427572
 20
0.3107476651768555
 30
0.0
 11
17.030188257427572
 21
0.5607476651768555
 31
0.0
  0
LINE
  5
53
  8
AM_HID
 10
17.467688257427572
 20
0.3107476651768555
 30
0.0
 11
17.467688257427572
 21
0.5607476651768555
 31
0.0
  0
LINE
  5
54
  8
AM_HID
 10
12.34268825742757
 20
0.5607476651768555
 30
0.0
 11
12.34268825742757
 21
0.3107476651768555
 31
0.0
  0
LINE
  5
55
  8
AM_HID
 10
11.90518825742757
 20
0.5607476651768555
 30
0.0
 11
11.90518825742757
 21
0.3107476651768555
 31
0.0
  0
LINE
  5
56
  8
AM_HID
 10
13.71143825742757
 20
0.5607476651768555
 30
0.0
 11
13.71143825742757
 21
3.810747665176855
 31
0.0
  0
LINE
  5
57
  8
AM_HID
 10
15.661438257427569
 20
0.5607476651768555
 30
0.0
 11
15.661438257427569
 21
3.810747665176855
 31
0.0
  0
CIRCLE
  5
58
  8
AM_VIS
 10
17.248938257427572
 20
5.8835762944197567
 30
0.0
 40
0.21875
  0
CIRCLE
  5
59
  8
AM_VIS
 10
12.12393825742757
 20
5.8835762944197558
 30
0.0
 40
0.21875
  0
CIRCLE
  5
5A
  8
AM_VIS
 10
12.12393825742757
 20
7.8835762944197549
 30
0.0
 40
0.21875
  0
CIRCLE
  5
5B
  8
AM_VIS
 10
17.248938257427572
 20
7.8835762944197567
 30
0.0
 40
0.21875
  0
ARC
  5
5C
  8
AM_VIS
 10
14.68643825742757
 20
7.3835762944197558
 30
0.0
 40
1.1749999999999989
 50
180.0
 51
0.0
  0
LINE
  5
5D
  8
AM_VIS
 10
11.53018825742757
 20
5.2585762944197567
 30
0.0
 11
11.53018825742757
 21
8.5085762944197576
 31
0.0
  0
LINE
  5
5E
  8
AM_VIS
 10
17.842688257427572
 20
5.2585762944197567
 30
0.0
 11
11.53018825742757
 21
5.2585762944197567
 31
0.0
  0
LINE
  5
5F
  8
AM_VIS
 10
17.842688257427572
 20
8.5085762944197576
 30
0.0
 11
17.842688257427572
 21
5.2585762944197567
 31
0.0
  0
LINE
  5
60
  8
AM_VIS
 10
17.842688257427572
 20
8.5085762944197576
 30
0.0
 11
15.861438257427571
 21
8.5085762944197576
 31
0.0
  0
LINE
  5
61
  8
AM_VIS
 10
11.53018825742757
 20
8.7585762944197576
 30
0.0
 11
17.842688257427561
 21
8.7585762944197576
 31
0.0
  0
LINE
  5
62
  8
AM_VIS
 10
17.842688257427572
 20
8.7585762944197576
 30
0.0
 11
17.842688257427572
 21
8.5085762944197576
 31
0.0
  0
LINE
  5
63
  8
AM_VIS
 10
13.511438257427571
 20
8.5085762944197576
 30
0.0
 11
11.53018825742757
 21
8.5085762944197576
 31
0.0
  0
LINE
  5
64
  8
AM_VIS
 10
11.53018825742757
 20
8.5085762944197576
 30
0.0
 11
11.53018825742757
 21
8.7585762944197576
 31
0.0
  0
CIRCLE
  5
65
  8
AM_VIS
 10
14.68643825742757
 20
7.3835762944197558
 30
0.0
 40
0.975
  0
LINE
  5
66
  8
AM_VIS
 10
13.511438257427571
 20
7.3835762944197558
 30
0.0
 11
13.511438257427571
 21
8.5085762944197576
 31
0.0
  0
LINE
  5
67
  8
AM_VIS
 10
15.861438257427571
 20
8.5085762944197576
 30
0.0
 11
15.861438257427571
 21
7.3835762944197567
 31
0.0
  0
ARC
  5
68
  8
AM_VIS
 10
14.030188271554289
 20
6.1469130701644552
 30
0.0
 40
0.2499999858230388
 50
359.99999932593272
 51
38.53305634728784
  0
ARC
  5
69
  8
AM_VIS
 10
15.342688257427589
 20
6.1469130672232772
 30
0.0
 40
0.2500000000000191
 50
141.46694684374839
 51
179.99999999999889
  0
LINE
  5
6A
  8
AM_VIS
 10
14.6864382574266
 20
6.0460762944196089
 30
0.0
 11
14.94249789718836
 21
6.0460762944196089
 31
0.0
  0
LINE
  5
6B
  8
AM_VIS
 10
14.430378617666779
 20
6.0460762944196089
 30
0.0
 11
14.68643825742854
 21
6.0460762944196089
 31
0.0
  0
LINE
  5
6C
  8
AM_VIS
 10
14.94249789718836
 20
6.0460762944197564
 30
0.0
 11
15.09268825742757
 21
6.0460762944197564
 31
0.0
  0
LINE
  5
6D
  8
AM_VIS
 10
14.28018825742757
 20
6.0460762944197572
 30
0.0
 11
14.430378617666779
 21
6.0460762944197572
 31
0.0
  0
LINE
  5
6E
  8
AM_HID
 10
11.92081325742757
 20
8.7585762944197576
 30
0.0
 11
11.92081325742757
 21
8.5085762944197576
 31
0.0
  0
LINE
  5
6F
  8
AM_HID
 10
13.04581325742757
 20
8.7585762944197576
 30
0.0
 11
13.04581325742757
 21
8.5085762944197576
 31
0.0
  0
LINE
  5
70
  8
AM_HID
 10
17.452063257427572
 20
8.5085762944197576
 30
0.0
 11
17.452063257427572
 21
8.7585762944197576
 31
0.0
  0
LINE
  5
71
  8
AM_HID
 10
16.327063257427572
 20
8.5085762944197576
 30
0.0
 11
16.327063257427572
 21
8.7585762944197576
 31
0.0
  0
LINE
  5
72
  8
AM_VIS
 10
15.09268825742757
 20
6.1469130672232817
 30
0.0
 11
15.09268825742757
 21
6.0460762944197564
 31
0.0
  0
LINE
  5
73
  8
AM_VIS
 10
14.28018825742757
 20
6.0460762944197572
 30
0.0
 11
14.28018825742757
 21
6.1469130672232817
 31
0.0
  0
LINE
  5
74
  8
AM_HID
 10
14.99893825742757
 20
6.2508941898555497
 30
0.0
 11
14.99893825742757
 21
6.0460762944197572
 31
0.0
  0
LINE
  5
75
  8
AM_HID
 10
14.37393825742757
 20
6.2508941898555506
 30
0.0
 11
14.37393825742757
 21
6.0460762944197572
 31
0.0
  0
LINE
  5
178
  8
0
 10
11.53018825742757
 20
8.8210762944197576
 30
0.0
 11
11.53018825742757
 21
9.8267244651550918
 31
0.0
  0
LINE
  5
179
  8
0
 10
17.842688257427572
 20
8.8210762944197576
 30
0.0
 11
17.842688257427572
 21
9.8267244651550918
 31
0.0
  0
LINE
  5
17A
  8
0
 10
11.65518825742757
 20
9.6467244651550921
 30
0.0
 11
14.31518825742757
 21
9.6467244651550921
 31
0.0
  0
LINE
  5
17B
  8
0
 10
17.717688257427572
 20
9.6467244651550921
 30
0.0
 11
15.05768825742757
 21
9.6467244651550921
 31
0.0
  0
SOLID
  5
17C
  8
0
 10
11.65518825742757
 20
9.667557798488426
 30
0.0
 11
11.65518825742757
 21
9.6258911318217582
 31
0.0
 12
11.53018825742757
 22
9.6467244651550921
 32
0.0
 13
11.53018825742757
 23
9.6467244651550921
 33
0.0
  0
SOLID
  5
17D
  8
0
 10
17.717688257427572
 20
9.667557798488426
 30
0.0
 11
17.717688257427572
 21
9.6258911318217582
 31
0.0
 12
17.842688257427572
 22
9.6467244651550921
 32
0.0
 13
17.842688257427572
 23
9.6467244651550921
 33
0.0
  0
INSERT
  5
17E
  8
0
  2
*U2
 10
0.0
 20
0.0
 30
0.0
  0
ENDSEC
  0
EOF
