  0
SECTION
  2
HEADER
  9
$ACADVER
  1
AC1009
  9
$INSBASE
 10
0.0
 20
0.0
 30
0.0
  9
$EXTMIN
 10
-0.7696599331660542
 20
0.9357524061808678
 30
0.0
  9
$EXTMAX
 10
9.5214084066892291
 20
7.0607524061808702
 30
0.0
  9
$LIMMIN
 10
0.0
 20
0.0
  9
$LIMMAX
 10
12.0
 20
9.0
  9
$ORTHOMODE
 70
     1
  9
$REGENMODE
 70
     0
  9
$FILLMODE
 70
     1
  9
$QTEXTMODE
 70
     0
  9
$MIRRTEXT
 70
     0
  9
$DRAGMODE
 70
     2
  9
$LTSCALE
 40
1.0
  9
$OSMODE
 70
    55
  9
$ATTMODE
 70
     1
  9
$TEXTSIZE
 40
0.12
  9
$TRACEWID
 40
0.05
  9
$TEXTSTYLE
  7
ADESK1
  9
$CLAYER
  8
0
  9
$CELTYPE
  6
BYLAYER
  9
$CECOLOR
 62
   256
  9
$DIMSCALE
 40
1.0
  9
$DIMASZ
 40
0.125
  9
$DIMEXO
 40
0.0625
  9
$DIMDLI
 40
0.38
  9
$DIMRND
 40
0.0
  9
$DIMDLE
 40
0.0
  9
$DIMEXE
 40
0.18
  9
$DIMTP
 40
0.0
  9
$DIMTM
 40
0.0
  9
$DIMTXT
 40
0.09375
  9
$DIMCEN
 40
-0.125
  9
$DIMTSZ
 40
0.0
  9
$DIMTOL
 70
     0
  9
$DIMLIM
 70
     0
  9
$DIMTIH
 70
     0
  9
$DIMTOH
 70
     0
  9
$DIMSE1
 70
     0
  9
$DIMSE2
 70
     0
  9
$DIMTAD
 70
     0
  9
$DIMZIN
 70
     3
  9
$DIMBLK
  1

  9
$DIMASO
 70
     0
  9
$DIMSHO
 70
     1
  9
$DIMPOST
  1

  9
$DIMAPOST
  1

  9
$DIMALT
 70
     0
  9
$DIMALTD
 70
     2
  9
$DIMALTF
 40
25.399999999999999
  9
$DIMLFAC
 40
1.0
  9
$DIMTOFL
 70
     1
  9
$DIMTVP
 40
0.0
  9
$DIMTIX
 70
     0
  9
$DIMSOXD
 70
     0
  9
$DIMSAH
 70
     0
  9
$DIMBLK1
  1

  9
$DIMBLK2
  1

  9
$DIMSTYLE
  2
STANDARD
  9
$DIMCLRD
 70
     0
  9
$DIMCLRE
 70
     0
  9
$DIMCLRT
 70
     0
  9
$DIMTFAC
 40
1.0
  9
$DIMGAP
 40
0.09
  9
$LUNITS
 70
     4
  9
$LUPREC
 70
     4
  9
$SKETCHINC
 40
0.1
  9
$FILLETRAD
 40
0.0
  9
$AUNITS
 70
     0
  9
$AUPREC
 70
     4
  9
$MENU
  1
.
  9
$ELEVATION
 40
0.0
  9
$PELEVATION
 40
0.0
  9
$THICKNESS
 40
0.0
  9
$LIMCHECK
 70
     0
  9
$BLIPMODE
 70
     0
  9
$CHAMFERA
 40
0.5
  9
$CHAMFERB
 40
0.5
  9
$SKPOLY
 70
     0
  9
$TDCREATE
 40
2451065.3838062501
  9
$TDUPDATE
 40
2453913.5781821301
  9
$TDINDWG
 40
0.0429474537
  9
$TDUSRTIMER
 40
0.0429474537
  9
$USRTIMER
 70
     1
  9
$ANGBASE
 50
0.0
  9
$ANGDIR
 70
     0
  9
$PDMODE
 70
    34
  9
$PDSIZE
 40
3.0
  9
$PLINEWID
 40
0.0
  9
$COORDS
 70
     1
  9
$SPLFRAME
 70
     0
  9
$SPLINETYPE
 70
     6
  9
$SPLINESEGS
 70
     8
  9
$ATTDIA
 70
     0
  9
$ATTREQ
 70
     1
  9
$HANDLING
 70
     1
  9
$HANDSEED
  5
A08
  9
$SURFTAB1
 70
     6
  9
$SURFTAB2
 70
     6
  9
$SURFTYPE
 70
     6
  9
$SURFU
 70
     6
  9
$SURFV
 70
     6
  9
$UCSNAME
  2

  9
$UCSORG
 10
0.0
 20
0.0
 30
0.0
  9
$UCSXDIR
 10
1.0
 20
0.0
 30
0.0
  9
$UCSYDIR
 10
0.0
 20
1.0
 30
0.0
  9
$PUCSNAME
  2

  9
$PUCSORG
 10
0.0
 20
0.0
 30
0.0
  9
$PUCSXDIR
 10
1.0
 20
0.0
 30
0.0
  9
$PUCSYDIR
 10
0.0
 20
1.0
 30
0.0
  9
$USERI1
 70
     0
  9
$USERI2
 70
     0
  9
$USERI3
 70
     0
  9
$USERI4
 70
     0
  9
$USERI5
 70
     0
  9
$USERR1
 40
0.0
  9
$USERR2
 40
0.0
  9
$USERR3
 40
0.0
  9
$USERR4
 40
0.0
  9
$USERR5
 40
0.0
  9
$WORLDVIEW
 70
     1
  9
$SHADEDGE
 70
     3
  9
$SHADEDIF
 70
    70
  9
$TILEMODE
 70
     1
  9
$MAXACTVP
 70
    48
  9
$PLIMCHECK
 70
     0
  9
$PEXTMIN
 10
-1.1446599331660541
 20
0.4295024061808679
 30
0.0
  9
$PEXTMAX
 10
8.1156561371072335
 20
7.5670024061808698
 30
0.0
  9
$PLIMMIN
 10
-0.1579164520023376
 20
-0.2812499887361301
  9
$PLIMMAX
 10
10.84208330770177
 20
8.2187497709679782
  9
$UNITMODE
 70
     0
  9
$VISRETAIN
 70
     1
  9
$PLINEGEN
 70
     0
  9
$PSLTSCALE
 70
     1
  0
ENDSEC
  0
SECTION
  2
TABLES
  0
TABLE
  2
VPORT
 70
     2
  0
VPORT
  2
*ACTIVE
 70
     0
 10
0.0
 20
0.0
 11
1.0
 21
1.0
 12
2.6883243150999281
 22
0.0
 13
0.0
 23
0.0
 14
0.5
 24
0.5
 15
0.5
 25
0.5
 16
0.0
 26
0.0
 36
1.0
 17
5.497749504904605
 27
3.5303762080904351
 37
0.0
 40
7.0607524161808701
 41
2.5367647058823519
 42
50.0
 43
0.0
 44
0.0
 50
0.0
 51
0.0
 71
     0
 72
   100
 73
     1
 74
     1
 75
     0
 76
     0
 77
     0
 78
     0
  0
ENDTAB
  0
TABLE
  2
LTYPE
 70
    18
  0
LTYPE
  2
CONTINUOUS
 70
     0
  3
Solid line
 72
    65
 73
     0
 40
0.0
  0
LTYPE
  2
HIDDEN
 70
     0
  3
__ __ __ __ __ __ __ __ __ __ __ __ __ __ __ __
 72
    65
 73
     2
 40
0.375
 49
0.25
 49
-0.125
  0
LTYPE
  2
PHANTOM2
 70
     0
  3
Phantom (.5x) ___ _ _ ___ _ _ ___ _ _ ___ _ _
 72
    65
 73
     6
 40
1.25
 49
0.625
 49
-0.125
 49
0.125
 49
-0.125
 49
0.125
 49
-0.125
  0
LTYPE
  2
CENTER
 70
     0
  3
Center ____ _ ____ _ ____ _ ____ _ ____ _ ____
 72
    65
 73
     4
 40
2.0
 49
1.25
 49
-0.25
 49
0.25
 49
-0.25
  0
LTYPE
  2
ASULTYPE
 70
     0
  3
Solid line
 72
    65
 73
     2
 40
3.0
 49
2.5
 49
0.5
  0
LTYPE
  2
ASVLTYPE
 70
     0
  3
__ __ __ __ __ __ __ __ __ __ __ __ __ __ __ __ __ __ __ __ __
 72
    65
 73
     2
 40
0.75
 49
0.5
 49
-0.25
  0
LTYPE
  2
AM_ISO02W050
 70
     0
  3
__ __ __ __ __ __ __ __ __ __ __ __ __ __ __
 72
    65
 73
     2
 40
7.5
 49
6.0
 49
-1.5
  0
LTYPE
  2
AM_ISO08W050
 70
     0
  3
____ . ____ . ____ . ____ . ____ . ____ . ____
 72
    65
 73
     4
 40
18.0
 49
12.0
 49
-1.5
 49
3.0
 49
-1.5
  0
LTYPE
  2
AM_ISO09W050
 70
     0
  3
_____ . . _____ . . _____ . . ____ .. ____
 72
    65
 73
     6
 40
22.5
 49
12.0
 49
-1.5
 49
3.0
 49
-1.5
 49
3.0
 49
-1.5
  0
LTYPE
  2
AMCONSTR
 70
     0
  3
_______________________
 72
    65
 73
     2
 40
9999.0
 49
9999.0
 49
0.0
  0
LTYPE
  2
AM_ISO08W050X2
 70
     0
  3
__ . __ . __ . __ . __ . __
 72
    65
 73
     4
 40
9.0
 49
6.0
 49
-0.75
 49
1.5
 49
-0.75
  0
LTYPE
  2
AM_ISO02W050X2
 70
     0
  3
 _ _ _ _ _ _ _ _ _ _ _ _
 72
    65
 73
     2
 40
3.75
 49
3.0
 49
-0.75
  0
LTYPE
  2
AMZIGZAG
 70
     0
  3
/\/-/\/-/\/-/\/-/\/-/\/
 72
    65
 73
     2
 40
11.0001
 49
0.0001
 49
-11.0
  0
LTYPE
  2
CENTER2
 70
     0
  3
Center (.5x) ___ _ ___ _ ___ _ ___ _ ___ _ ___
 72
    65
 73
     4
 40
1.125
 49
0.75
 49
-0.125
 49
0.125
 49
-0.125
  0
LTYPE
  2
HIDDEN2
 70
     0
  3
Hidden (.5x) _ _ _ _ _ _ _ _ _ _ _ _ _ _ _ _ _
 72
    65
 73
     2
 40
0.1875
 49
0.125
 49
-0.0625
  0
LTYPE
  2
AMZIGZAG2
 70
     0
  3
/\/-/\/-/\/-/\/-/\/-/\/
 72
    65
 73
     2
 40
0.4401
 49
0.0001
 49
-0.4400000000000001
  0
LTYPE
  2
ACANSTGB
 70
     0
  3
__ . . __ . .
 72
    65
 73
     6
 40
0.35433070866
 49
0.15748031496
 49
-0.03937007874
 49
0.03937007874
 49
-0.03937007874
 49
0.03937007874
 49
-0.03937007874
  0
LTYPE
  2
ACANSTGL
 70
     0
  3
_ _ _ _ _
 72
    65
 73
     2
 40
0.11811023622
 49
0.07874015748
 49
-0.03937007874
  0
ENDTAB
  0
TABLE
  2
LAYER
 70
     3
  0
LAYER
  2
0
 70
     0
 62
     7
  6
CONTINUOUS
  0
LAYER
  2
AM_VIS
 70
     0
 62
     7
  6
CONTINUOUS
  0
LAYER
  2
AM_HID
 70
     0
 62
     7
  6
HIDDEN
  0
ENDTAB
  0
TABLE
  2
STYLE
 70
     5
  0
STYLE
  2
STANDARD
 70
     0
 40
0.0
 41
1.0
 50
0.0
 71
     0
 42
0.2
  3
txt
  4

  0
STYLE
  2
ADESK1
 70
     0
 40
0.0
 41
1.0
 50
0.0
 71
     0
 42
0.12
  3
romans.shx
  4

  0
STYLE
  2

 70
     1
 40
0.0
 41
1.0
 50
0.0
 71
     0
 42
0.12
  3
ltypeshp.shx
  4

  0
STYLE
  2
ACANSTS
 70
     0
 40
1.0
 41
1.0
 50
0.0
 71
     0
 42
0.12
  3
romans.shx
  4

  0
STYLE
  2
ACANSGDT
 70
     0
 40
0.0
 41
1.0
 50
0.0
 71
     0
 42
0.12
  3
amgdtans.shx
  4

  0
ENDTAB
  0
TABLE
  2
VIEW
 70
     0
  0
ENDTAB
  0
TABLE
  2
UCS
 70
     0
  0
ENDTAB
  0
TABLE
  2
APPID
 70
    13
  0
APPID
  2
ACAD
 70
     0
  0
APPID
  2
GENIUS_GENDIM_13
 70
     0
  0
APPID
  2
GENIUS_GENDTOL_13
 70
     0
  0
APPID
  2
GENIUS_GE3DTOL_13
 70
     0
  0
APPID
  2
MCAD_NO_VIS
 70
     0
  0
APPID
  2
ACAD_TEMP_GRAPHIC
 70
     0
  0
APPID
  2
AD_DRAW
 70
     0
  0
APPID
  2
ACATTRIBSERVICES
 70
     0
  0
APPID
  2
ASURF_PCURVE_APPNAME
 70
     0
  0
APPID
  2
AMG_3D2D_5_0
 70
     0
  0
APPID
  2
DESIGNERASSEMBLIES
 70
     0
  0
APPID
  2
ACADM_DIM_EDIT
 70
     0
  0
APPID
  2
AMDT_DM_ADJ
 70
     0
  0
ENDTAB
  0
TABLE
  2
DIMSTYLE
 70
     7
  0
DIMSTYLE
  2
STANDARD
 70
     0
  3

  4

  5

  6

  7

 40
1.0
 41
0.18
 42
0.0625
 43
0.38
 44
0.18
 45
0.0
 46
0.0
 47
0.0
 48
0.0
140
0.18
141
0.09
142
0.0
143
25.399999999999999
144
1.0
145
0.0
146
1.0
147
0.09
 71
     0
 72
     0
 73
     1
 74
     1
 75
     0
 76
     0
 77
     0
 78
     0
170
     0
171
     2
172
     0
173
     0
174
     0
175
     0
176
     0
177
     0
178
     0
  0
DIMSTYLE
  2
AM_ANSI
 70
     0
  3

  4
mm
  5

  6

  7

 40
1.0
 41
0.1
 42
0.05
 43
0.5
 44
0.1
 45
0.0
 46
0.0
 47
0.1
 48
0.1
140
0.12
141
0.0
142
0.0
143
25.399999999999999
144
1.0
145
0.0
146
0.71
147
0.06
 71
     0
 72
     0
 73
     1
 74
     1
 75
     0
 76
     0
 77
     0
 78
     7
170
     0
171
     2
172
     0
173
     0
174
     0
175
     0
176
   256
177
   256
178
     2
  0
DIMSTYLE
  2
AM_ANSI$3
 70
     0
  3

  4
mm
  5

  6

  7

 40
1.0
 41
0.1
 42
0.05
 43
0.5
 44
0.1
 45
0.0
 46
0.0
 47
0.1
 48
0.1
140
0.12
141
0.0
142
0.0
143
25.399999999999999
144
1.0
145
0.0
146
0.71
147
0.06
 71
     0
 72
     0
 73
     1
 74
     1
 75
     0
 76
     0
 77
     0
 78
     7
170
     0
171
     2
172
     0
173
     0
174
     0
175
     0
176
   256
177
   256
178
     2
  0
DIMSTYLE
  2
AM_ANSI$4
 70
     0
  3

  4
mm
  5

  6

  7

 40
1.0
 41
0.1
 42
0.05
 43
0.5
 44
0.1
 45
0.0
 46
0.0
 47
0.1
 48
0.1
140
0.12
141
0.0
142
0.0
143
25.399999999999999
144
1.0
145
0.0
146
0.71
147
0.06
 71
     0
 72
     0
 73
     1
 74
     1
 75
     0
 76
     0
 77
     0
 78
     7
170
     0
171
     2
172
     0
173
     0
174
     0
175
     0
176
   256
177
   256
178
     2
  0
DIMSTYLE
  2
AM_ANSI$7
 70
     0
  3

  4
mm
  5

  6

  7

 40
1.0
 41
0.1
 42
0.05
 43
0.5
 44
0.1
 45
0.0
 46
0.0
 47
0.1
 48
0.1
140
0.24
141
0.0
142
0.0
143
25.399999999999999
144
1.0
145
0.0
146
0.71
147
0.06
 71
     0
 72
     0
 73
     1
 74
     1
 75
     0
 76
     0
 77
     0
 78
     7
170
     0
171
     2
172
     0
173
     0
174
     0
175
     0
176
   256
177
   256
178
     2
  0
DIMSTYLE
  2
AM_ANSI$SF
 70
     0
  3

  4
mm
  5

  6

  7

 40
1.0
 41
0.1
 42
0.05
 43
0.5
 44
0.1
 45
0.0
 46
0.0
 47
0.1
 48
0.1
140
0.12
141
0.0
142
0.0
143
25.399999999999999
144
1.0
145
0.0
146
0.71
147
0.06
 71
     0
 72
     0
 73
     1
 74
     1
 75
     1
 76
     1
 77
     0
 78
     7
170
     0
171
     2
172
     0
173
     0
174
     0
175
     0
176
   256
177
   256
178
     2
  0
DIMSTYLE
  2
AM_ANSI$SH
 70
     0
  3

  4
mm
  5

  6
GENAXEH
  7

 40
1.0
 41
0.1
 42
0.05
 43
0.5
 44
0.1
 45
0.0
 46
0.0
 47
0.1
 48
0.1
140
0.12
141
0.0
142
0.0
143
25.399999999999999
144
1.0
145
0.0
146
0.71
147
0.06
 71
     0
 72
     0
 73
     1
 74
     1
 75
     1
 76
     1
 77
     0
 78
     7
170
     0
171
     2
172
     0
173
     1
174
     0
175
     0
176
   256
177
   256
178
     2
  0
ENDTAB
  0
ENDSEC
  0
SECTION
  2
BLOCKS
  0
BLOCK
  8
0
  2
$MODEL_SPACE
 70
     0
 10
0.0
 20
0.0
 30
0.0
  3
$MODEL_SPACE
  1

  0
ENDBLK
  5
A
  8
0
  0
BLOCK
 67
     1
  8
0
  2
$PAPER_SPACE
 70
     0
 10
0.0
 20
0.0
 30
0.0
  3
$PAPER_SPACE
  1

  0
ENDBLK
  5
F
 67
     1
  8
0
  0
BLOCK
  8
0
  2
*U0
 70
     1
 10
0.0
 20
0.0
 30
0.0
  3
*U0
  1

  0
ENDBLK
  5
117
  8
0
  0
BLOCK
  8
0
  2
GENAXEH
 70
     0
 10
0.0
 20
0.0
 30
0.0
  3
GENAXEH
  1

  0
LINE
  5
154
  8
0
 10
-1.0
 20
0.0
 30
0.0
 11
1.0
 21
0.0
 31
0.0
  0
ENDBLK
  5
156
  8
0
  0
BLOCK
  8
0
  2
*U2
 70
     1
 10
0.0
 20
0.0
 30
0.0
  3
*U2
  1

  0
TEXT
  5
181
  8
0
 10
9.3726584066892276
 20
3.7214666918951562
 30
0.0
 40
0.09375
  1
6-1/8"
 50
90.0
  7
ADESK1
  0
ENDBLK
  5
183
  8
0
  0
ENDSEC
  0
SECTION
  2
ENTITIES
  0
POINT
  5
26
  8
0
 10
0.0
 20
0.0
 30
0.0
  0
POINT
  5
27
  8
0
 10
0.0
 20
0.0
 30
0.0
  0
LINE
  5
28
  8
AM_VIS
 10
2.7303400668339459
 20
5.3107524061808693
 30
0.0
 11
2.7303400668339459
 21
2.6857524061808671
 31
0.0
  0
ARC
  5
2A
  8
AM_VIS
 10
0.9803400668339465
 20
5.3107524061808702
 30
0.0
 40
1.75
 50
0.0
 51
180.0
  0
LINE
  5
2B
  8
AM_VIS
 10
-0.7696599331660537
 20
2.685752406180868
 30
0.0
 11
-0.7696599331660532
 21
5.3107524061808702
 31
0.0
  0
ARC
  5
2C
  8
AM_VIS
 10
0.9803400668339461
 20
2.685752406180868
 30
0.0
 40
1.75
 50
180.0
 51
0.0
  0
CIRCLE
  5
2D
  8
AM_VIS
 10
0.9803400668339461
 20
1.7482524061808691
 30
0.0
 40
0.28125
  0
CIRCLE
  5
2E
  8
AM_VIS
 10
0.9803400668339465
 20
6.2482524061808693
 30
0.0
 40
0.28125
  0
CIRCLE
  5
2F
  8
AM_VIS
 10
0.9803400668339463
 20
3.998252406180868
 30
0.0
 40
0.975
  0
CIRCLE
  5
30
  8
AM_VIS
 10
0.9803400668339463
 20
3.998252406180868
 30
0.0
 40
1.2250000000000001
  0
LINE
  5
31
  8
AM_HID
 10
2.2553400668339458
 20
4.1589937230152518
 30
0.0
 11
2.1947482474150659
 21
4.1589937230152518
 31
0.0
  0
LINE
  5
34
  8
AM_HID
 10
2.2553400668339441
 20
3.837511089346485
 30
0.0
 11
2.1947482474150659
 21
3.837511089346485
 31
0.0
  0
LINE
  5
35
  8
AM_HID
 10
2.2553400668339458
 20
3.998252406180868
 30
0.0
 11
2.205340066833946
 21
3.998252406180868
 31
0.0
  0
LINE
  5
36
  8
AM_VIS
 10
2.2553400668339441
 20
3.685752406180868
 30
0.0
 11
2.2553400668339441
 21
3.998252406180868
 31
0.0
  0
LINE
  5
37
  8
AM_VIS
 10
2.2553400668339441
 20
3.998252406180868
 30
0.0
 11
2.2553400668339441
 21
4.3107524061808684
 31
0.0
  0
LINE
  5
38
  8
AM_VIS
 10
2.2553400668339441
 20
3.685752406180868
 30
0.0
 11
2.1575878320835802
 21
3.65955977382117
 31
0.0
  0
LINE
  5
39
  8
AM_VIS
 10
2.2553400668339441
 20
4.3107524061808684
 30
0.0
 11
2.1575878320835811
 21
4.3369450385405663
 31
0.0
  0
LINE
  5
3A
  8
AM_VIS
 10
7.2406561371072327
 20
5.3107524061808693
 30
0.0
 11
7.2406561371072327
 21
2.6857524061808671
 31
0.0
  0
LINE
  5
3B
  8
AM_VIS
 10
7.2406561371072327
 20
5.3107524061808702
 30
0.0
 11
7.2406561371072327
 21
7.0607524061808702
 31
0.0
  0
LINE
  5
3C
  8
AM_VIS
 10
7.2406561371072327
 20
0.9357524061808684
 30
0.0
 11
7.2406561371072327
 21
2.685752406180868
 31
0.0
  0
LINE
  5
3D
  8
AM_VIS
 10
7.7406561371072327
 20
2.6857524061808671
 30
0.0
 11
7.7406561371072327
 21
5.3107524061808693
 31
0.0
  0
LINE
  5
3E
  8
AM_VIS
 10
7.7406561371072327
 20
2.685752406180868
 30
0.0
 11
7.7406561371072327
 21
0.9357524061808684
 31
0.0
  0
LINE
  5
3F
  8
AM_VIS
 10
7.7406561371072327
 20
7.0607524061808702
 30
0.0
 11
7.7406561371072327
 21
5.3107524061808702
 31
0.0
  0
LINE
  5
40
  8
AM_VIS
 10
4.2406561371072327
 20
2.7732524061808679
 30
0.0
 11
4.2406561371072327
 21
5.2232524061808681
 31
0.0
  0
LINE
  5
41
  8
AM_VIS
 10
5.0537801042721764
 20
4.1589937230152501
 30
0.0
 11
5.2393881893606276
 21
4.1589937230152501
 31
0.0
  0
LINE
  5
42
  8
AM_VIS
 10
5.2393881893606293
 20
4.1589937230152518
 30
0.0
 11
5.3321922319048554
 21
3.998252406180868
 31
0.0
  0
LINE
  5
43
  8
AM_VIS
 10
5.3321922319048554
 20
3.998252406180868
 30
0.0
 11
5.2393881893606302
 21
3.837511089346485
 31
0.0
  0
LINE
  5
44
  8
AM_VIS
 10
5.2393881893606276
 20
3.837511089346485
 30
0.0
 11
5.0537801042721764
 21
3.837511089346485
 31
0.0
  0
LINE
  5
45
  8
AM_VIS
 10
4.9609760617279486
 20
3.998252406180868
 30
0.0
 11
5.0537801042721764
 21
4.1589937230152518
 31
0.0
  0
LINE
  5
46
  8
AM_VIS
 10
5.0537801042721764
 20
3.837511089346485
 30
0.0
 11
4.9609760617279512
 21
3.998252406180868
 31
0.0
  0
POLYLINE
  8
AM_VIS
  5
184
  66
     1
 10
0.000000
 20
0.000000
 30
0.000000
  70
     8
  0
VERTEX
  8
AM_VIS
  5
185
 10
5.14658
 20
3.65956
 30
0.000000
  70
    32
  0
VERTEX
  8
AM_VIS
  5
186
 10
5.14844
 20
3.65957
 30
0.000000
  70
    32
  0
VERTEX
  8
AM_VIS
  5
187
 10
5.15030
 20
3.65958
 30
0.000000
  70
    32
  0
VERTEX
  8
AM_VIS
  5
188
 10
5.15216
 20
3.65961
 30
0.000000
  70
    32
  0
VERTEX
  8
AM_VIS
  5
189
 10
5.15402
 20
3.65965
 30
0.000000
  70
    32
  0
VERTEX
  8
AM_VIS
  5
18A
 10
5.15589
 20
3.65971
 30
0.000000
  70
    32
  0
VERTEX
  8
AM_VIS
  5
18B
 10
5.15776
 20
3.65977
 30
0.000000
  70
    32
  0
VERTEX
  8
AM_VIS
  5
18C
 10
5.15963
 20
3.65985
 30
0.000000
  70
    32
  0
VERTEX
  8
AM_VIS
  5
18D
 10
5.16150
 20
3.65993
 30
0.000000
  70
    32
  0
VERTEX
  8
AM_VIS
  5
18E
 10
5.16337
 20
3.66003
 30
0.000000
  70
    32
  0
VERTEX
  8
AM_VIS
  5
18F
 10
5.16525
 20
3.66014
 30
0.000000
  70
    32
  0
VERTEX
  8
AM_VIS
  5
190
 10
5.16713
 20
3.66026
 30
0.000000
  70
    32
  0
VERTEX
  8
AM_VIS
  5
191
 10
5.16901
 20
3.66040
 30
0.000000
  70
    32
  0
VERTEX
  8
AM_VIS
  5
192
 10
5.17089
 20
3.66054
 30
0.000000
  70
    32
  0
VERTEX
  8
AM_VIS
  5
193
 10
5.17278
 20
3.66070
 30
0.000000
  70
    32
  0
VERTEX
  8
AM_VIS
  5
194
 10
5.17466
 20
3.66087
 30
0.000000
  70
    32
  0
VERTEX
  8
AM_VIS
  5
195
 10
5.17655
 20
3.66105
 30
0.000000
  70
    32
  0
VERTEX
  8
AM_VIS
  5
196
 10
5.17844
 20
3.66124
 30
0.000000
  70
    32
  0
VERTEX
  8
AM_VIS
  5
197
 10
5.18033
 20
3.66145
 30
0.000000
  70
    32
  0
VERTEX
  8
AM_VIS
  5
198
 10
5.18222
 20
3.66166
 30
0.000000
  70
    32
  0
VERTEX
  8
AM_VIS
  5
199
 10
5.18411
 20
3.66189
 30
0.000000
  70
    32
  0
VERTEX
  8
AM_VIS
  5
19A
 10
5.18600
 20
3.66213
 30
0.000000
  70
    32
  0
VERTEX
  8
AM_VIS
  5
19B
 10
5.18789
 20
3.66238
 30
0.000000
  70
    32
  0
VERTEX
  8
AM_VIS
  5
19C
 10
5.18978
 20
3.66264
 30
0.000000
  70
    32
  0
VERTEX
  8
AM_VIS
  5
19D
 10
5.19168
 20
3.66291
 30
0.000000
  70
    32
  0
VERTEX
  8
AM_VIS
  5
19E
 10
5.19357
 20
3.66319
 30
0.000000
  70
    32
  0
VERTEX
  8
AM_VIS
  5
19F
 10
5.19546
 20
3.66349
 30
0.000000
  70
    32
  0
VERTEX
  8
AM_VIS
  5
1A0
 10
5.19735
 20
3.66380
 30
0.000000
  70
    32
  0
VERTEX
  8
AM_VIS
  5
1A1
 10
5.19925
 20
3.66412
 30
0.000000
  70
    32
  0
VERTEX
  8
AM_VIS
  5
1A2
 10
5.20114
 20
3.66445
 30
0.000000
  70
    32
  0
VERTEX
  8
AM_VIS
  5
1A3
 10
5.20303
 20
3.66479
 30
0.000000
  70
    32
  0
VERTEX
  8
AM_VIS
  5
1A4
 10
5.20492
 20
3.66515
 30
0.000000
  70
    32
  0
VERTEX
  8
AM_VIS
  5
1A5
 10
5.20681
 20
3.66551
 30
0.000000
  70
    32
  0
VERTEX
  8
AM_VIS
  5
1A6
 10
5.20870
 20
3.66589
 30
0.000000
  70
    32
  0
VERTEX
  8
AM_VIS
  5
1A7
 10
5.21059
 20
3.66628
 30
0.000000
  70
    32
  0
VERTEX
  8
AM_VIS
  5
1A8
 10
5.21248
 20
3.66668
 30
0.000000
  70
    32
  0
VERTEX
  8
AM_VIS
  5
1A9
 10
5.21437
 20
3.66709
 30
0.000000
  70
    32
  0
VERTEX
  8
AM_VIS
  5
1AA
 10
5.21625
 20
3.66751
 30
0.000000
  70
    32
  0
VERTEX
  8
AM_VIS
  5
1AB
 10
5.21814
 20
3.66795
 30
0.000000
  70
    32
  0
VERTEX
  8
AM_VIS
  5
1AC
 10
5.22002
 20
3.66839
 30
0.000000
  70
    32
  0
VERTEX
  8
AM_VIS
  5
1AD
 10
5.22190
 20
3.66885
 30
0.000000
  70
    32
  0
VERTEX
  8
AM_VIS
  5
1AE
 10
5.22378
 20
3.66932
 30
0.000000
  70
    32
  0
VERTEX
  8
AM_VIS
  5
1AF
 10
5.22566
 20
3.66980
 30
0.000000
  70
    32
  0
VERTEX
  8
AM_VIS
  5
1B0
 10
5.22754
 20
3.67029
 30
0.000000
  70
    32
  0
VERTEX
  8
AM_VIS
  5
1B1
 10
5.22941
 20
3.67080
 30
0.000000
  70
    32
  0
VERTEX
  8
AM_VIS
  5
1B2
 10
5.23128
 20
3.67131
 30
0.000000
  70
    32
  0
VERTEX
  8
AM_VIS
  5
1B3
 10
5.23315
 20
3.67184
 30
0.000000
  70
    32
  0
VERTEX
  8
AM_VIS
  5
1B4
 10
5.23502
 20
3.67238
 30
0.000000
  70
    32
  0
VERTEX
  8
AM_VIS
  5
1B5
 10
5.23688
 20
3.67293
 30
0.000000
  70
    32
  0
VERTEX
  8
AM_VIS
  5
1B6
 10
5.23874
 20
3.67349
 30
0.000000
  70
    32
  0
VERTEX
  8
AM_VIS
  5
1B7
 10
5.24060
 20
3.67406
 30
0.000000
  70
    32
  0
VERTEX
  8
AM_VIS
  5
1B8
 10
5.24245
 20
3.67465
 30
0.000000
  70
    32
  0
VERTEX
  8
AM_VIS
  5
1B9
 10
5.24431
 20
3.67524
 30
0.000000
  70
    32
  0
VERTEX
  8
AM_VIS
  5
1BA
 10
5.24616
 20
3.67585
 30
0.000000
  70
    32
  0
VERTEX
  8
AM_VIS
  5
1BB
 10
5.24800
 20
3.67647
 30
0.000000
  70
    32
  0
VERTEX
  8
AM_VIS
  5
1BC
 10
5.24984
 20
3.67710
 30
0.000000
  70
    32
  0
VERTEX
  8
AM_VIS
  5
1BD
 10
5.25168
 20
3.67774
 30
0.000000
  70
    32
  0
VERTEX
  8
AM_VIS
  5
1BE
 10
5.25352
 20
3.67840
 30
0.000000
  70
    32
  0
VERTEX
  8
AM_VIS
  5
1BF
 10
5.25535
 20
3.67906
 30
0.000000
  70
    32
  0
VERTEX
  8
AM_VIS
  5
1C0
 10
5.25718
 20
3.67974
 30
0.000000
  70
    32
  0
VERTEX
  8
AM_VIS
  5
1C1
 10
5.25900
 20
3.68043
 30
0.000000
  70
    32
  0
VERTEX
  8
AM_VIS
  5
1C2
 10
5.26082
 20
3.68113
 30
0.000000
  70
    32
  0
VERTEX
  8
AM_VIS
  5
1C3
 10
5.26263
 20
3.68184
 30
0.000000
  70
    32
  0
VERTEX
  8
AM_VIS
  5
1C4
 10
5.26444
 20
3.68256
 30
0.000000
  70
    32
  0
VERTEX
  8
AM_VIS
  5
1C5
 10
5.26625
 20
3.68329
 30
0.000000
  70
    32
  0
VERTEX
  8
AM_VIS
  5
1C6
 10
5.26805
 20
3.68404
 30
0.000000
  70
    32
  0
VERTEX
  8
AM_VIS
  5
1C7
 10
5.26985
 20
3.68479
 30
0.000000
  70
    32
  0
VERTEX
  8
AM_VIS
  5
1C8
 10
5.27164
 20
3.68556
 30
0.000000
  70
    32
  0
VERTEX
  8
AM_VIS
  5
1C9
 10
5.27342
 20
3.68634
 30
0.000000
  70
    32
  0
VERTEX
  8
AM_VIS
  5
1CA
 10
5.27521
 20
3.68713
 30
0.000000
  70
    32
  0
VERTEX
  8
AM_VIS
  5
1CB
 10
5.27698
 20
3.68793
 30
0.000000
  70
    32
  0
VERTEX
  8
AM_VIS
  5
1CC
 10
5.27875
 20
3.68875
 30
0.000000
  70
    32
  0
VERTEX
  8
AM_VIS
  5
1CD
 10
5.28052
 20
3.68957
 30
0.000000
  70
    32
  0
VERTEX
  8
AM_VIS
  5
1CE
 10
5.28228
 20
3.69041
 30
0.000000
  70
    32
  0
VERTEX
  8
AM_VIS
  5
1CF
 10
5.28403
 20
3.69125
 30
0.000000
  70
    32
  0
VERTEX
  8
AM_VIS
  5
1D0
 10
5.28578
 20
3.69211
 30
0.000000
  70
    32
  0
VERTEX
  8
AM_VIS
  5
1D1
 10
5.28753
 20
3.69298
 30
0.000000
  70
    32
  0
VERTEX
  8
AM_VIS
  5
1D2
 10
5.28926
 20
3.69386
 30
0.000000
  70
    32
  0
VERTEX
  8
AM_VIS
  5
1D3
 10
5.29100
 20
3.69475
 30
0.000000
  70
    32
  0
VERTEX
  8
AM_VIS
  5
1D4
 10
5.29272
 20
3.69565
 30
0.000000
  70
    32
  0
VERTEX
  8
AM_VIS
  5
1D5
 10
5.29444
 20
3.69656
 30
0.000000
  70
    32
  0
VERTEX
  8
AM_VIS
  5
1D6
 10
5.29616
 20
3.69748
 30
0.000000
  70
    32
  0
VERTEX
  8
AM_VIS
  5
1D7
 10
5.29786
 20
3.69841
 30
0.000000
  70
    32
  0
VERTEX
  8
AM_VIS
  5
1D8
 10
5.29957
 20
3.69935
 30
0.000000
  70
    32
  0
VERTEX
  8
AM_VIS
  5
1D9
 10
5.30126
 20
3.70030
 30
0.000000
  70
    32
  0
VERTEX
  8
AM_VIS
  5
1DA
 10
5.30295
 20
3.70126
 30
0.000000
  70
    32
  0
VERTEX
  8
AM_VIS
  5
1DB
 10
5.30463
 20
3.70223
 30
0.000000
  70
    32
  0
VERTEX
  8
AM_VIS
  5
1DC
 10
5.30631
 20
3.70321
 30
0.000000
  70
    32
  0
VERTEX
  8
AM_VIS
  5
1DD
 10
5.30798
 20
3.70420
 30
0.000000
  70
    32
  0
VERTEX
  8
AM_VIS
  5
1DE
 10
5.30964
 20
3.70519
 30
0.000000
  70
    32
  0
VERTEX
  8
AM_VIS
  5
1DF
 10
5.31130
 20
3.70620
 30
0.000000
  70
    32
  0
VERTEX
  8
AM_VIS
  5
1E0
 10
5.31295
 20
3.70722
 30
0.000000
  70
    32
  0
VERTEX
  8
AM_VIS
  5
1E1
 10
5.31459
 20
3.70825
 30
0.000000
  70
    32
  0
VERTEX
  8
AM_VIS
  5
1E2
 10
5.31623
 20
3.70928
 30
0.000000
  70
    32
  0
VERTEX
  8
AM_VIS
  5
1E3
 10
5.31786
 20
3.71033
 30
0.000000
  70
    32
  0
VERTEX
  8
AM_VIS
  5
1E4
 10
5.31948
 20
3.71138
 30
0.000000
  70
    32
  0
VERTEX
  8
AM_VIS
  5
1E5
 10
5.32110
 20
3.71244
 30
0.000000
  70
    32
  0
VERTEX
  8
AM_VIS
  5
1E6
 10
5.32270
 20
3.71351
 30
0.000000
  70
    32
  0
VERTEX
  8
AM_VIS
  5
1E7
 10
5.32430
 20
3.71459
 30
0.000000
  70
    32
  0
VERTEX
  8
AM_VIS
  5
1E8
 10
5.32590
 20
3.71568
 30
0.000000
  70
    32
  0
VERTEX
  8
AM_VIS
  5
1E9
 10
5.32748
 20
3.71677
 30
0.000000
  70
    32
  0
VERTEX
  8
AM_VIS
  5
1EA
 10
5.32906
 20
3.71788
 30
0.000000
  70
    32
  0
VERTEX
  8
AM_VIS
  5
1EB
 10
5.33063
 20
3.71899
 30
0.000000
  70
    32
  0
VERTEX
  8
AM_VIS
  5
1EC
 10
5.33219
 20
3.72011
 30
0.000000
  70
    32
  0
VERTEX
  8
AM_VIS
  5
1ED
 10
5.33375
 20
3.72124
 30
0.000000
  70
    32
  0
VERTEX
  8
AM_VIS
  5
1EE
 10
5.33530
 20
3.72238
 30
0.000000
  70
    32
  0
VERTEX
  8
AM_VIS
  5
1EF
 10
5.33683
 20
3.72352
 30
0.000000
  70
    32
  0
VERTEX
  8
AM_VIS
  5
1F0
 10
5.33837
 20
3.72467
 30
0.000000
  70
    32
  0
VERTEX
  8
AM_VIS
  5
1F1
 10
5.33989
 20
3.72583
 30
0.000000
  70
    32
  0
VERTEX
  8
AM_VIS
  5
1F2
 10
5.34140
 20
3.72700
 30
0.000000
  70
    32
  0
VERTEX
  8
AM_VIS
  5
1F3
 10
5.34291
 20
3.72817
 30
0.000000
  70
    32
  0
VERTEX
  8
AM_VIS
  5
1F4
 10
5.34441
 20
3.72935
 30
0.000000
  70
    32
  0
VERTEX
  8
AM_VIS
  5
1F5
 10
5.34590
 20
3.73054
 30
0.000000
  70
    32
  0
VERTEX
  8
AM_VIS
  5
1F6
 10
5.34738
 20
3.73174
 30
0.000000
  70
    32
  0
VERTEX
  8
AM_VIS
  5
1F7
 10
5.34885
 20
3.73294
 30
0.000000
  70
    32
  0
VERTEX
  8
AM_VIS
  5
1F8
 10
5.35032
 20
3.73415
 30
0.000000
  70
    32
  0
VERTEX
  8
AM_VIS
  5
1F9
 10
5.35178
 20
3.73537
 30
0.000000
  70
    32
  0
VERTEX
  8
AM_VIS
  5
1FA
 10
5.35322
 20
3.73659
 30
0.000000
  70
    32
  0
VERTEX
  8
AM_VIS
  5
1FB
 10
5.35466
 20
3.73782
 30
0.000000
  70
    32
  0
VERTEX
  8
AM_VIS
  5
1FC
 10
5.35609
 20
3.73906
 30
0.000000
  70
    32
  0
VERTEX
  8
AM_VIS
  5
1FD
 10
5.35751
 20
3.74030
 30
0.000000
  70
    32
  0
VERTEX
  8
AM_VIS
  5
1FE
 10
5.35892
 20
3.74155
 30
0.000000
  70
    32
  0
VERTEX
  8
AM_VIS
  5
1FF
 10
5.36033
 20
3.74280
 30
0.000000
  70
    32
  0
VERTEX
  8
AM_VIS
  5
200
 10
5.36172
 20
3.74407
 30
0.000000
  70
    32
  0
VERTEX
  8
AM_VIS
  5
201
 10
5.36310
 20
3.74533
 30
0.000000
  70
    32
  0
VERTEX
  8
AM_VIS
  5
202
 10
5.36448
 20
3.74661
 30
0.000000
  70
    32
  0
VERTEX
  8
AM_VIS
  5
203
 10
5.36584
 20
3.74789
 30
0.000000
  70
    32
  0
VERTEX
  8
AM_VIS
  5
204
 10
5.36720
 20
3.74917
 30
0.000000
  70
    32
  0
VERTEX
  8
AM_VIS
  5
205
 10
5.36854
 20
3.75046
 30
0.000000
  70
    32
  0
VERTEX
  8
AM_VIS
  5
206
 10
5.36988
 20
3.75176
 30
0.000000
  70
    32
  0
VERTEX
  8
AM_VIS
  5
207
 10
5.37121
 20
3.75306
 30
0.000000
  70
    32
  0
VERTEX
  8
AM_VIS
  5
208
 10
5.37252
 20
3.75437
 30
0.000000
  70
    32
  0
VERTEX
  8
AM_VIS
  5
209
 10
5.37383
 20
3.75568
 30
0.000000
  70
    32
  0
VERTEX
  8
AM_VIS
  5
20A
 10
5.37513
 20
3.75699
 30
0.000000
  70
    32
  0
VERTEX
  8
AM_VIS
  5
20B
 10
5.37642
 20
3.75832
 30
0.000000
  70
    32
  0
VERTEX
  8
AM_VIS
  5
20C
 10
5.37769
 20
3.75964
 30
0.000000
  70
    32
  0
VERTEX
  8
AM_VIS
  5
20D
 10
5.37896
 20
3.76097
 30
0.000000
  70
    32
  0
VERTEX
  8
AM_VIS
  5
20E
 10
5.38022
 20
3.76231
 30
0.000000
  70
    32
  0
VERTEX
  8
AM_VIS
  5
20F
 10
5.38147
 20
3.76366
 30
0.000000
  70
    32
  0
VERTEX
  8
AM_VIS
  5
210
 10
5.38272
 20
3.76501
 30
0.000000
  70
    32
  0
VERTEX
  8
AM_VIS
  5
211
 10
5.38396
 20
3.76638
 30
0.000000
  70
    32
  0
VERTEX
  8
AM_VIS
  5
212
 10
5.38519
 20
3.76776
 30
0.000000
  70
    32
  0
VERTEX
  8
AM_VIS
  5
213
 10
5.38642
 20
3.76914
 30
0.000000
  70
    32
  0
VERTEX
  8
AM_VIS
  5
214
 10
5.38764
 20
3.77054
 30
0.000000
  70
    32
  0
VERTEX
  8
AM_VIS
  5
215
 10
5.38886
 20
3.77194
 30
0.000000
  70
    32
  0
VERTEX
  8
AM_VIS
  5
216
 10
5.39008
 20
3.77336
 30
0.000000
  70
    32
  0
VERTEX
  8
AM_VIS
  5
217
 10
5.39128
 20
3.77478
 30
0.000000
  70
    32
  0
VERTEX
  8
AM_VIS
  5
218
 10
5.39248
 20
3.77621
 30
0.000000
  70
    32
  0
VERTEX
  8
AM_VIS
  5
219
 10
5.39368
 20
3.77765
 30
0.000000
  70
    32
  0
VERTEX
  8
AM_VIS
  5
21A
 10
5.39487
 20
3.77910
 30
0.000000
  70
    32
  0
VERTEX
  8
AM_VIS
  5
21B
 10
5.39605
 20
3.78056
 30
0.000000
  70
    32
  0
VERTEX
  8
AM_VIS
  5
21C
 10
5.39722
 20
3.78203
 30
0.000000
  70
    32
  0
VERTEX
  8
AM_VIS
  5
21D
 10
5.39839
 20
3.78351
 30
0.000000
  70
    32
  0
VERTEX
  8
AM_VIS
  5
21E
 10
5.39956
 20
3.78500
 30
0.000000
  70
    32
  0
VERTEX
  8
AM_VIS
  5
21F
 10
5.40071
 20
3.78649
 30
0.000000
  70
    32
  0
VERTEX
  8
AM_VIS
  5
220
 10
5.40186
 20
3.78800
 30
0.000000
  70
    32
  0
VERTEX
  8
AM_VIS
  5
221
 10
5.40300
 20
3.78951
 30
0.000000
  70
    32
  0
VERTEX
  8
AM_VIS
  5
222
 10
5.40414
 20
3.79103
 30
0.000000
  70
    32
  0
VERTEX
  8
AM_VIS
  5
223
 10
5.40527
 20
3.79256
 30
0.000000
  70
    32
  0
VERTEX
  8
AM_VIS
  5
224
 10
5.40639
 20
3.79409
 30
0.000000
  70
    32
  0
VERTEX
  8
AM_VIS
  5
225
 10
5.40751
 20
3.79564
 30
0.000000
  70
    32
  0
VERTEX
  8
AM_VIS
  5
226
 10
5.40862
 20
3.79719
 30
0.000000
  70
    32
  0
VERTEX
  8
AM_VIS
  5
227
 10
5.40972
 20
3.79876
 30
0.000000
  70
    32
  0
VERTEX
  8
AM_VIS
  5
228
 10
5.41081
 20
3.80032
 30
0.000000
  70
    32
  0
VERTEX
  8
AM_VIS
  5
229
 10
5.41190
 20
3.80190
 30
0.000000
  70
    32
  0
VERTEX
  8
AM_VIS
  5
22A
 10
5.41297
 20
3.80349
 30
0.000000
  70
    32
  0
VERTEX
  8
AM_VIS
  5
22B
 10
5.41405
 20
3.80508
 30
0.000000
  70
    32
  0
VERTEX
  8
AM_VIS
  5
22C
 10
5.41511
 20
3.80668
 30
0.000000
  70
    32
  0
VERTEX
  8
AM_VIS
  5
22D
 10
5.41617
 20
3.80829
 30
0.000000
  70
    32
  0
VERTEX
  8
AM_VIS
  5
22E
 10
5.41721
 20
3.80990
 30
0.000000
  70
    32
  0
VERTEX
  8
AM_VIS
  5
22F
 10
5.41825
 20
3.81153
 30
0.000000
  70
    32
  0
VERTEX
  8
AM_VIS
  5
230
 10
5.41929
 20
3.81316
 30
0.000000
  70
    32
  0
VERTEX
  8
AM_VIS
  5
231
 10
5.42031
 20
3.81479
 30
0.000000
  70
    32
  0
VERTEX
  8
AM_VIS
  5
232
 10
5.42133
 20
3.81644
 30
0.000000
  70
    32
  0
VERTEX
  8
AM_VIS
  5
233
 10
5.42233
 20
3.81809
 30
0.000000
  70
    32
  0
VERTEX
  8
AM_VIS
  5
234
 10
5.42333
 20
3.81975
 30
0.000000
  70
    32
  0
VERTEX
  8
AM_VIS
  5
235
 10
5.42432
 20
3.82141
 30
0.000000
  70
    32
  0
VERTEX
  8
AM_VIS
  5
236
 10
5.42531
 20
3.82308
 30
0.000000
  70
    32
  0
VERTEX
  8
AM_VIS
  5
237
 10
5.42628
 20
3.82476
 30
0.000000
  70
    32
  0
VERTEX
  8
AM_VIS
  5
238
 10
5.42725
 20
3.82645
 30
0.000000
  70
    32
  0
VERTEX
  8
AM_VIS
  5
239
 10
5.42820
 20
3.82814
 30
0.000000
  70
    32
  0
VERTEX
  8
AM_VIS
  5
23A
 10
5.42915
 20
3.82984
 30
0.000000
  70
    32
  0
VERTEX
  8
AM_VIS
  5
23B
 10
5.43009
 20
3.83154
 30
0.000000
  70
    32
  0
VERTEX
  8
AM_VIS
  5
23C
 10
5.43102
 20
3.83325
 30
0.000000
  70
    32
  0
VERTEX
  8
AM_VIS
  5
23D
 10
5.43194
 20
3.83497
 30
0.000000
  70
    32
  0
VERTEX
  8
AM_VIS
  5
23E
 10
5.43285
 20
3.83669
 30
0.000000
  70
    32
  0
VERTEX
  8
AM_VIS
  5
23F
 10
5.43376
 20
3.83842
 30
0.000000
  70
    32
  0
VERTEX
  8
AM_VIS
  5
240
 10
5.43465
 20
3.84016
 30
0.000000
  70
    32
  0
VERTEX
  8
AM_VIS
  5
241
 10
5.43553
 20
3.84190
 30
0.000000
  70
    32
  0
VERTEX
  8
AM_VIS
  5
242
 10
5.43641
 20
3.84365
 30
0.000000
  70
    32
  0
VERTEX
  8
AM_VIS
  5
243
 10
5.43727
 20
3.84540
 30
0.000000
  70
    32
  0
VERTEX
  8
AM_VIS
  5
244
 10
5.43813
 20
3.84716
 30
0.000000
  70
    32
  0
VERTEX
  8
AM_VIS
  5
245
 10
5.43897
 20
3.84892
 30
0.000000
  70
    32
  0
VERTEX
  8
AM_VIS
  5
246
 10
5.43981
 20
3.85069
 30
0.000000
  70
    32
  0
VERTEX
  8
AM_VIS
  5
247
 10
5.44064
 20
3.85246
 30
0.000000
  70
    32
  0
VERTEX
  8
AM_VIS
  5
248
 10
5.44145
 20
3.85424
 30
0.000000
  70
    32
  0
VERTEX
  8
AM_VIS
  5
249
 10
5.44226
 20
3.85603
 30
0.000000
  70
    32
  0
VERTEX
  8
AM_VIS
  5
24A
 10
5.44306
 20
3.85782
 30
0.000000
  70
    32
  0
VERTEX
  8
AM_VIS
  5
24B
 10
5.44384
 20
3.85961
 30
0.000000
  70
    32
  0
VERTEX
  8
AM_VIS
  5
24C
 10
5.44462
 20
3.86141
 30
0.000000
  70
    32
  0
VERTEX
  8
AM_VIS
  5
24D
 10
5.44538
 20
3.86322
 30
0.000000
  70
    32
  0
VERTEX
  8
AM_VIS
  5
24E
 10
5.44614
 20
3.86503
 30
0.000000
  70
    32
  0
VERTEX
  8
AM_VIS
  5
24F
 10
5.44688
 20
3.86684
 30
0.000000
  70
    32
  0
VERTEX
  8
AM_VIS
  5
250
 10
5.44761
 20
3.86866
 30
0.000000
  70
    32
  0
VERTEX
  8
AM_VIS
  5
251
 10
5.44834
 20
3.87049
 30
0.000000
  70
    32
  0
VERTEX
  8
AM_VIS
  5
252
 10
5.44905
 20
3.87231
 30
0.000000
  70
    32
  0
VERTEX
  8
AM_VIS
  5
253
 10
5.44975
 20
3.87415
 30
0.000000
  70
    32
  0
VERTEX
  8
AM_VIS
  5
254
 10
5.45044
 20
3.87598
 30
0.000000
  70
    32
  0
VERTEX
  8
AM_VIS
  5
255
 10
5.45112
 20
3.87783
 30
0.000000
  70
    32
  0
VERTEX
  8
AM_VIS
  5
256
 10
5.45179
 20
3.87967
 30
0.000000
  70
    32
  0
VERTEX
  8
AM_VIS
  5
257
 10
5.45245
 20
3.88152
 30
0.000000
  70
    32
  0
VERTEX
  8
AM_VIS
  5
258
 10
5.45310
 20
3.88337
 30
0.000000
  70
    32
  0
VERTEX
  8
AM_VIS
  5
259
 10
5.45373
 20
3.88523
 30
0.000000
  70
    32
  0
VERTEX
  8
AM_VIS
  5
25A
 10
5.45436
 20
3.88709
 30
0.000000
  70
    32
  0
VERTEX
  8
AM_VIS
  5
25B
 10
5.45497
 20
3.88895
 30
0.000000
  70
    32
  0
VERTEX
  8
AM_VIS
  5
25C
 10
5.45558
 20
3.89082
 30
0.000000
  70
    32
  0
VERTEX
  8
AM_VIS
  5
25D
 10
5.45617
 20
3.89269
 30
0.000000
  70
    32
  0
VERTEX
  8
AM_VIS
  5
25E
 10
5.45675
 20
3.89456
 30
0.000000
  70
    32
  0
VERTEX
  8
AM_VIS
  5
25F
 10
5.45733
 20
3.89644
 30
0.000000
  70
    32
  0
VERTEX
  8
AM_VIS
  5
260
 10
5.45789
 20
3.89831
 30
0.000000
  70
    32
  0
VERTEX
  8
AM_VIS
  5
261
 10
5.45844
 20
3.90020
 30
0.000000
  70
    32
  0
VERTEX
  8
AM_VIS
  5
262
 10
5.45898
 20
3.90208
 30
0.000000
  70
    32
  0
VERTEX
  8
AM_VIS
  5
263
 10
5.45951
 20
3.90397
 30
0.000000
  70
    32
  0
VERTEX
  8
AM_VIS
  5
264
 10
5.46003
 20
3.90585
 30
0.000000
  70
    32
  0
VERTEX
  8
AM_VIS
  5
265
 10
5.46054
 20
3.90774
 30
0.000000
  70
    32
  0
VERTEX
  8
AM_VIS
  5
266
 10
5.46103
 20
3.90964
 30
0.000000
  70
    32
  0
VERTEX
  8
AM_VIS
  5
267
 10
5.46152
 20
3.91153
 30
0.000000
  70
    32
  0
VERTEX
  8
AM_VIS
  5
268
 10
5.46200
 20
3.91343
 30
0.000000
  70
    32
  0
VERTEX
  8
AM_VIS
  5
269
 10
5.46246
 20
3.91533
 30
0.000000
  70
    32
  0
VERTEX
  8
AM_VIS
  5
26A
 10
5.46292
 20
3.91723
 30
0.000000
  70
    32
  0
VERTEX
  8
AM_VIS
  5
26B
 10
5.46336
 20
3.91913
 30
0.000000
  70
    32
  0
VERTEX
  8
AM_VIS
  5
26C
 10
5.46379
 20
3.92103
 30
0.000000
  70
    32
  0
VERTEX
  8
AM_VIS
  5
26D
 10
5.46422
 20
3.92293
 30
0.000000
  70
    32
  0
VERTEX
  8
AM_VIS
  5
26E
 10
5.46463
 20
3.92484
 30
0.000000
  70
    32
  0
VERTEX
  8
AM_VIS
  5
26F
 10
5.46503
 20
3.92675
 30
0.000000
  70
    32
  0
VERTEX
  8
AM_VIS
  5
270
 10
5.46542
 20
3.92865
 30
0.000000
  70
    32
  0
VERTEX
  8
AM_VIS
  5
271
 10
5.46580
 20
3.93056
 30
0.000000
  70
    32
  0
VERTEX
  8
AM_VIS
  5
272
 10
5.46617
 20
3.93247
 30
0.000000
  70
    32
  0
VERTEX
  8
AM_VIS
  5
273
 10
5.46653
 20
3.93438
 30
0.000000
  70
    32
  0
VERTEX
  8
AM_VIS
  5
274
 10
5.46688
 20
3.93629
 30
0.000000
  70
    32
  0
VERTEX
  8
AM_VIS
  5
275
 10
5.46722
 20
3.93820
 30
0.000000
  70
    32
  0
VERTEX
  8
AM_VIS
  5
276
 10
5.46754
 20
3.94011
 30
0.000000
  70
    32
  0
VERTEX
  8
AM_VIS
  5
277
 10
5.46786
 20
3.94202
 30
0.000000
  70
    32
  0
VERTEX
  8
AM_VIS
  5
278
 10
5.46817
 20
3.94392
 30
0.000000
  70
    32
  0
VERTEX
  8
AM_VIS
  5
279
 10
5.46846
 20
3.94583
 30
0.000000
  70
    32
  0
VERTEX
  8
AM_VIS
  5
27A
 10
5.46875
 20
3.94774
 30
0.000000
  70
    32
  0
VERTEX
  8
AM_VIS
  5
27B
 10
5.46902
 20
3.94965
 30
0.000000
  70
    32
  0
VERTEX
  8
AM_VIS
  5
27C
 10
5.46929
 20
3.95156
 30
0.000000
  70
    32
  0
VERTEX
  8
AM_VIS
  5
27D
 10
5.46954
 20
3.95347
 30
0.000000
  70
    32
  0
VERTEX
  8
AM_VIS
  5
27E
 10
5.46978
 20
3.95537
 30
0.000000
  70
    32
  0
VERTEX
  8
AM_VIS
  5
27F
 10
5.47002
 20
3.95728
 30
0.000000
  70
    32
  0
VERTEX
  8
AM_VIS
  5
280
 10
5.47024
 20
3.95918
 30
0.000000
  70
    32
  0
VERTEX
  8
AM_VIS
  5
281
 10
5.47045
 20
3.96109
 30
0.000000
  70
    32
  0
VERTEX
  8
AM_VIS
  5
282
 10
5.47065
 20
3.96299
 30
0.000000
  70
    32
  0
VERTEX
  8
AM_VIS
  5
283
 10
5.47084
 20
3.96489
 30
0.000000
  70
    32
  0
VERTEX
  8
AM_VIS
  5
284
 10
5.47102
 20
3.96679
 30
0.000000
  70
    32
  0
VERTEX
  8
AM_VIS
  5
285
 10
5.47119
 20
3.96868
 30
0.000000
  70
    32
  0
VERTEX
  8
AM_VIS
  5
286
 10
5.47135
 20
3.97058
 30
0.000000
  70
    32
  0
VERTEX
  8
AM_VIS
  5
287
 10
5.47150
 20
3.97247
 30
0.000000
  70
    32
  0
VERTEX
  8
AM_VIS
  5
288
 10
5.47164
 20
3.97437
 30
0.000000
  70
    32
  0
VERTEX
  8
AM_VIS
  5
289
 10
5.47176
 20
3.97625
 30
0.000000
  70
    32
  0
VERTEX
  8
AM_VIS
  5
28A
 10
5.47188
 20
3.97814
 30
0.000000
  70
    32
  0
VERTEX
  8
AM_VIS
  5
28B
 10
5.47199
 20
3.98003
 30
0.000000
  70
    32
  0
VERTEX
  8
AM_VIS
  5
28C
 10
5.47208
 20
3.98191
 30
0.000000
  70
    32
  0
VERTEX
  8
AM_VIS
  5
28D
 10
5.47217
 20
3.98379
 30
0.000000
  70
    32
  0
VERTEX
  8
AM_VIS
  5
28E
 10
5.47224
 20
3.98567
 30
0.000000
  70
    32
  0
VERTEX
  8
AM_VIS
  5
28F
 10
5.47231
 20
3.98754
 30
0.000000
  70
    32
  0
VERTEX
  8
AM_VIS
  5
290
 10
5.47236
 20
3.98941
 30
0.000000
  70
    32
  0
VERTEX
  8
AM_VIS
  5
291
 10
5.47241
 20
3.99128
 30
0.000000
  70
    32
  0
VERTEX
  8
AM_VIS
  5
292
 10
5.47244
 20
3.99314
 30
0.000000
  70
    32
  0
VERTEX
  8
AM_VIS
  5
293
 10
5.47247
 20
3.99500
 30
0.000000
  70
    32
  0
VERTEX
  8
AM_VIS
  5
294
 10
5.47248
 20
3.99686
 30
0.000000
  70
    32
  0
VERTEX
  8
AM_VIS
  5
295
 10
5.47248
 20
3.99872
 30
0.000000
  70
    32
  0
VERTEX
  8
AM_VIS
  5
296
 10
5.47247
 20
4.00057
 30
0.000000
  70
    32
  0
VERTEX
  8
AM_VIS
  5
297
 10
5.47246
 20
4.00243
 30
0.000000
  70
    32
  0
VERTEX
  8
AM_VIS
  5
298
 10
5.47243
 20
4.00429
 30
0.000000
  70
    32
  0
VERTEX
  8
AM_VIS
  5
299
 10
5.47239
 20
4.00616
 30
0.000000
  70
    32
  0
VERTEX
  8
AM_VIS
  5
29A
 10
5.47234
 20
4.00803
 30
0.000000
  70
    32
  0
VERTEX
  8
AM_VIS
  5
29B
 10
5.47228
 20
4.00990
 30
0.000000
  70
    32
  0
VERTEX
  8
AM_VIS
  5
29C
 10
5.47221
 20
4.01178
 30
0.000000
  70
    32
  0
VERTEX
  8
AM_VIS
  5
29D
 10
5.47213
 20
4.01366
 30
0.000000
  70
    32
  0
VERTEX
  8
AM_VIS
  5
29E
 10
5.47204
 20
4.01554
 30
0.000000
  70
    32
  0
VERTEX
  8
AM_VIS
  5
29F
 10
5.47194
 20
4.01742
 30
0.000000
  70
    32
  0
VERTEX
  8
AM_VIS
  5
2A0
 10
5.47182
 20
4.01931
 30
0.000000
  70
    32
  0
VERTEX
  8
AM_VIS
  5
2A1
 10
5.47170
 20
4.02119
 30
0.000000
  70
    32
  0
VERTEX
  8
AM_VIS
  5
2A2
 10
5.47157
 20
4.02308
 30
0.000000
  70
    32
  0
VERTEX
  8
AM_VIS
  5
2A3
 10
5.47142
 20
4.02498
 30
0.000000
  70
    32
  0
VERTEX
  8
AM_VIS
  5
2A4
 10
5.47127
 20
4.02687
 30
0.000000
  70
    32
  0
VERTEX
  8
AM_VIS
  5
2A5
 10
5.47111
 20
4.02877
 30
0.000000
  70
    32
  0
VERTEX
  8
AM_VIS
  5
2A6
 10
5.47093
 20
4.03067
 30
0.000000
  70
    32
  0
VERTEX
  8
AM_VIS
  5
2A7
 10
5.47075
 20
4.03257
 30
0.000000
  70
    32
  0
VERTEX
  8
AM_VIS
  5
2A8
 10
5.47055
 20
4.03447
 30
0.000000
  70
    32
  0
VERTEX
  8
AM_VIS
  5
2A9
 10
5.47034
 20
4.03637
 30
0.000000
  70
    32
  0
VERTEX
  8
AM_VIS
  5
2AA
 10
5.47013
 20
4.03827
 30
0.000000
  70
    32
  0
VERTEX
  8
AM_VIS
  5
2AB
 10
5.46990
 20
4.04018
 30
0.000000
  70
    32
  0
VERTEX
  8
AM_VIS
  5
2AC
 10
5.46966
 20
4.04208
 30
0.000000
  70
    32
  0
VERTEX
  8
AM_VIS
  5
2AD
 10
5.46941
 20
4.04399
 30
0.000000
  70
    32
  0
VERTEX
  8
AM_VIS
  5
2AE
 10
5.46916
 20
4.04590
 30
0.000000
  70
    32
  0
VERTEX
  8
AM_VIS
  5
2AF
 10
5.46889
 20
4.04781
 30
0.000000
  70
    32
  0
VERTEX
  8
AM_VIS
  5
2B0
 10
5.46861
 20
4.04972
 30
0.000000
  70
    32
  0
VERTEX
  8
AM_VIS
  5
2B1
 10
5.46832
 20
4.05163
 30
0.000000
  70
    32
  0
VERTEX
  8
AM_VIS
  5
2B2
 10
5.46802
 20
4.05353
 30
0.000000
  70
    32
  0
VERTEX
  8
AM_VIS
  5
2B3
 10
5.46770
 20
4.05544
 30
0.000000
  70
    32
  0
VERTEX
  8
AM_VIS
  5
2B4
 10
5.46738
 20
4.05735
 30
0.000000
  70
    32
  0
VERTEX
  8
AM_VIS
  5
2B5
 10
5.46705
 20
4.05926
 30
0.000000
  70
    32
  0
VERTEX
  8
AM_VIS
  5
2B6
 10
5.46671
 20
4.06117
 30
0.000000
  70
    32
  0
VERTEX
  8
AM_VIS
  5
2B7
 10
5.46635
 20
4.06308
 30
0.000000
  70
    32
  0
VERTEX
  8
AM_VIS
  5
2B8
 10
5.46599
 20
4.06499
 30
0.000000
  70
    32
  0
VERTEX
  8
AM_VIS
  5
2B9
 10
5.46561
 20
4.06690
 30
0.000000
  70
    32
  0
VERTEX
  8
AM_VIS
  5
2BA
 10
5.46523
 20
4.06881
 30
0.000000
  70
    32
  0
VERTEX
  8
AM_VIS
  5
2BB
 10
5.46483
 20
4.07071
 30
0.000000
  70
    32
  0
VERTEX
  8
AM_VIS
  5
2BC
 10
5.46442
 20
4.07262
 30
0.000000
  70
    32
  0
VERTEX
  8
AM_VIS
  5
2BD
 10
5.46401
 20
4.07452
 30
0.000000
  70
    32
  0
VERTEX
  8
AM_VIS
  5
2BE
 10
5.46358
 20
4.07643
 30
0.000000
  70
    32
  0
VERTEX
  8
AM_VIS
  5
2BF
 10
5.46314
 20
4.07833
 30
0.000000
  70
    32
  0
VERTEX
  8
AM_VIS
  5
2C0
 10
5.46269
 20
4.08023
 30
0.000000
  70
    32
  0
VERTEX
  8
AM_VIS
  5
2C1
 10
5.46223
 20
4.08213
 30
0.000000
  70
    32
  0
VERTEX
  8
AM_VIS
  5
2C2
 10
5.46176
 20
4.08402
 30
0.000000
  70
    32
  0
VERTEX
  8
AM_VIS
  5
2C3
 10
5.46128
 20
4.08592
 30
0.000000
  70
    32
  0
VERTEX
  8
AM_VIS
  5
2C4
 10
5.46079
 20
4.08781
 30
0.000000
  70
    32
  0
VERTEX
  8
AM_VIS
  5
2C5
 10
5.46028
 20
4.08971
 30
0.000000
  70
    32
  0
VERTEX
  8
AM_VIS
  5
2C6
 10
5.45977
 20
4.09160
 30
0.000000
  70
    32
  0
VERTEX
  8
AM_VIS
  5
2C7
 10
5.45925
 20
4.09348
 30
0.000000
  70
    32
  0
VERTEX
  8
AM_VIS
  5
2C8
 10
5.45871
 20
4.09537
 30
0.000000
  70
    32
  0
VERTEX
  8
AM_VIS
  5
2C9
 10
5.45817
 20
4.09725
 30
0.000000
  70
    32
  0
VERTEX
  8
AM_VIS
  5
2CA
 10
5.45761
 20
4.09913
 30
0.000000
  70
    32
  0
VERTEX
  8
AM_VIS
  5
2CB
 10
5.45704
 20
4.10101
 30
0.000000
  70
    32
  0
VERTEX
  8
AM_VIS
  5
2CC
 10
5.45646
 20
4.10288
 30
0.000000
  70
    32
  0
VERTEX
  8
AM_VIS
  5
2CD
 10
5.45588
 20
4.10475
 30
0.000000
  70
    32
  0
VERTEX
  8
AM_VIS
  5
2CE
 10
5.45528
 20
4.10662
 30
0.000000
  70
    32
  0
VERTEX
  8
AM_VIS
  5
2CF
 10
5.45467
 20
4.10849
 30
0.000000
  70
    32
  0
VERTEX
  8
AM_VIS
  5
2D0
 10
5.45405
 20
4.11035
 30
0.000000
  70
    32
  0
VERTEX
  8
AM_VIS
  5
2D1
 10
5.45342
 20
4.11221
 30
0.000000
  70
    32
  0
VERTEX
  8
AM_VIS
  5
2D2
 10
5.45277
 20
4.11406
 30
0.000000
  70
    32
  0
VERTEX
  8
AM_VIS
  5
2D3
 10
5.45212
 20
4.11591
 30
0.000000
  70
    32
  0
VERTEX
  8
AM_VIS
  5
2D4
 10
5.45146
 20
4.11776
 30
0.000000
  70
    32
  0
VERTEX
  8
AM_VIS
  5
2D5
 10
5.45078
 20
4.11960
 30
0.000000
  70
    32
  0
VERTEX
  8
AM_VIS
  5
2D6
 10
5.45010
 20
4.12144
 30
0.000000
  70
    32
  0
VERTEX
  8
AM_VIS
  5
2D7
 10
5.44940
 20
4.12327
 30
0.000000
  70
    32
  0
VERTEX
  8
AM_VIS
  5
2D8
 10
5.44869
 20
4.12510
 30
0.000000
  70
    32
  0
VERTEX
  8
AM_VIS
  5
2D9
 10
5.44798
 20
4.12693
 30
0.000000
  70
    32
  0
VERTEX
  8
AM_VIS
  5
2DA
 10
5.44725
 20
4.12875
 30
0.000000
  70
    32
  0
VERTEX
  8
AM_VIS
  5
2DB
 10
5.44651
 20
4.13057
 30
0.000000
  70
    32
  0
VERTEX
  8
AM_VIS
  5
2DC
 10
5.44576
 20
4.13238
 30
0.000000
  70
    32
  0
VERTEX
  8
AM_VIS
  5
2DD
 10
5.44500
 20
4.13419
 30
0.000000
  70
    32
  0
VERTEX
  8
AM_VIS
  5
2DE
 10
5.44423
 20
4.13599
 30
0.000000
  70
    32
  0
VERTEX
  8
AM_VIS
  5
2DF
 10
5.44345
 20
4.13779
 30
0.000000
  70
    32
  0
VERTEX
  8
AM_VIS
  5
2E0
 10
5.44266
 20
4.13958
 30
0.000000
  70
    32
  0
VERTEX
  8
AM_VIS
  5
2E1
 10
5.44186
 20
4.14137
 30
0.000000
  70
    32
  0
VERTEX
  8
AM_VIS
  5
2E2
 10
5.44105
 20
4.14315
 30
0.000000
  70
    32
  0
VERTEX
  8
AM_VIS
  5
2E3
 10
5.44023
 20
4.14493
 30
0.000000
  70
    32
  0
VERTEX
  8
AM_VIS
  5
2E4
 10
5.43939
 20
4.14670
 30
0.000000
  70
    32
  0
VERTEX
  8
AM_VIS
  5
2E5
 10
5.43855
 20
4.14847
 30
0.000000
  70
    32
  0
VERTEX
  8
AM_VIS
  5
2E6
 10
5.43770
 20
4.15023
 30
0.000000
  70
    32
  0
VERTEX
  8
AM_VIS
  5
2E7
 10
5.43684
 20
4.15198
 30
0.000000
  70
    32
  0
VERTEX
  8
AM_VIS
  5
2E8
 10
5.43597
 20
4.15373
 30
0.000000
  70
    32
  0
VERTEX
  8
AM_VIS
  5
2E9
 10
5.43509
 20
4.15548
 30
0.000000
  70
    32
  0
VERTEX
  8
AM_VIS
  5
2EA
 10
5.43420
 20
4.15722
 30
0.000000
  70
    32
  0
VERTEX
  8
AM_VIS
  5
2EB
 10
5.43331
 20
4.15895
 30
0.000000
  70
    32
  0
VERTEX
  8
AM_VIS
  5
2EC
 10
5.43240
 20
4.16067
 30
0.000000
  70
    32
  0
VERTEX
  8
AM_VIS
  5
2ED
 10
5.43148
 20
4.16239
 30
0.000000
  70
    32
  0
VERTEX
  8
AM_VIS
  5
2EE
 10
5.43056
 20
4.16411
 30
0.000000
  70
    32
  0
VERTEX
  8
AM_VIS
  5
2EF
 10
5.42962
 20
4.16582
 30
0.000000
  70
    32
  0
VERTEX
  8
AM_VIS
  5
2F0
 10
5.42868
 20
4.16752
 30
0.000000
  70
    32
  0
VERTEX
  8
AM_VIS
  5
2F1
 10
5.42773
 20
4.16921
 30
0.000000
  70
    32
  0
VERTEX
  8
AM_VIS
  5
2F2
 10
5.42676
 20
4.17090
 30
0.000000
  70
    32
  0
VERTEX
  8
AM_VIS
  5
2F3
 10
5.42580
 20
4.17258
 30
0.000000
  70
    32
  0
VERTEX
  8
AM_VIS
  5
2F4
 10
5.42482
 20
4.17426
 30
0.000000
  70
    32
  0
VERTEX
  8
AM_VIS
  5
2F5
 10
5.42383
 20
4.17593
 30
0.000000
  70
    32
  0
VERTEX
  8
AM_VIS
  5
2F6
 10
5.42283
 20
4.17759
 30
0.000000
  70
    32
  0
VERTEX
  8
AM_VIS
  5
2F7
 10
5.42183
 20
4.17924
 30
0.000000
  70
    32
  0
VERTEX
  8
AM_VIS
  5
2F8
 10
5.42082
 20
4.18089
 30
0.000000
  70
    32
  0
VERTEX
  8
AM_VIS
  5
2F9
 10
5.41980
 20
4.18253
 30
0.000000
  70
    32
  0
VERTEX
  8
AM_VIS
  5
2FA
 10
5.41877
 20
4.18416
 30
0.000000
  70
    32
  0
VERTEX
  8
AM_VIS
  5
2FB
 10
5.41773
 20
4.18579
 30
0.000000
  70
    32
  0
VERTEX
  8
AM_VIS
  5
2FC
 10
5.41669
 20
4.18741
 30
0.000000
  70
    32
  0
VERTEX
  8
AM_VIS
  5
2FD
 10
5.41564
 20
4.18902
 30
0.000000
  70
    32
  0
VERTEX
  8
AM_VIS
  5
2FE
 10
5.41458
 20
4.19063
 30
0.000000
  70
    32
  0
VERTEX
  8
AM_VIS
  5
2FF
 10
5.41351
 20
4.19222
 30
0.000000
  70
    32
  0
VERTEX
  8
AM_VIS
  5
300
 10
5.41244
 20
4.19381
 30
0.000000
  70
    32
  0
VERTEX
  8
AM_VIS
  5
301
 10
5.41135
 20
4.19539
 30
0.000000
  70
    32
  0
VERTEX
  8
AM_VIS
  5
302
 10
5.41026
 20
4.19697
 30
0.000000
  70
    32
  0
VERTEX
  8
AM_VIS
  5
303
 10
5.40917
 20
4.19853
 30
0.000000
  70
    32
  0
VERTEX
  8
AM_VIS
  5
304
 10
5.40806
 20
4.20009
 30
0.000000
  70
    32
  0
VERTEX
  8
AM_VIS
  5
305
 10
5.40695
 20
4.20164
 30
0.000000
  70
    32
  0
VERTEX
  8
AM_VIS
  5
306
 10
5.40583
 20
4.20318
 30
0.000000
  70
    32
  0
VERTEX
  8
AM_VIS
  5
307
 10
5.40471
 20
4.20471
 30
0.000000
  70
    32
  0
VERTEX
  8
AM_VIS
  5
308
 10
5.40357
 20
4.20624
 30
0.000000
  70
    32
  0
VERTEX
  8
AM_VIS
  5
309
 10
5.40243
 20
4.20775
 30
0.000000
  70
    32
  0
VERTEX
  8
AM_VIS
  5
30A
 10
5.40129
 20
4.20926
 30
0.000000
  70
    32
  0
VERTEX
  8
AM_VIS
  5
30B
 10
5.40013
 20
4.21076
 30
0.000000
  70
    32
  0
VERTEX
  8
AM_VIS
  5
30C
 10
5.39897
 20
4.21225
 30
0.000000
  70
    32
  0
VERTEX
  8
AM_VIS
  5
30D
 10
5.39781
 20
4.21373
 30
0.000000
  70
    32
  0
VERTEX
  8
AM_VIS
  5
30E
 10
5.39664
 20
4.21521
 30
0.000000
  70
    32
  0
VERTEX
  8
AM_VIS
  5
30F
 10
5.39546
 20
4.21667
 30
0.000000
  70
    32
  0
VERTEX
  8
AM_VIS
  5
310
 10
5.39427
 20
4.21813
 30
0.000000
  70
    32
  0
VERTEX
  8
AM_VIS
  5
311
 10
5.39308
 20
4.21957
 30
0.000000
  70
    32
  0
VERTEX
  8
AM_VIS
  5
312
 10
5.39188
 20
4.22101
 30
0.000000
  70
    32
  0
VERTEX
  8
AM_VIS
  5
313
 10
5.39068
 20
4.22244
 30
0.000000
  70
    32
  0
VERTEX
  8
AM_VIS
  5
314
 10
5.38947
 20
4.22386
 30
0.000000
  70
    32
  0
VERTEX
  8
AM_VIS
  5
315
 10
5.38825
 20
4.22527
 30
0.000000
  70
    32
  0
VERTEX
  8
AM_VIS
  5
316
 10
5.38703
 20
4.22667
 30
0.000000
  70
    32
  0
VERTEX
  8
AM_VIS
  5
317
 10
5.38581
 20
4.22806
 30
0.000000
  70
    32
  0
VERTEX
  8
AM_VIS
  5
318
 10
5.38457
 20
4.22944
 30
0.000000
  70
    32
  0
VERTEX
  8
AM_VIS
  5
319
 10
5.38334
 20
4.23081
 30
0.000000
  70
    32
  0
VERTEX
  8
AM_VIS
  5
31A
 10
5.38209
 20
4.23217
 30
0.000000
  70
    32
  0
VERTEX
  8
AM_VIS
  5
31B
 10
5.38084
 20
4.23352
 30
0.000000
  70
    32
  0
VERTEX
  8
AM_VIS
  5
31C
 10
5.37959
 20
4.23486
 30
0.000000
  70
    32
  0
VERTEX
  8
AM_VIS
  5
31D
 10
5.37833
 20
4.23620
 30
0.000000
  70
    32
  0
VERTEX
  8
AM_VIS
  5
31E
 10
5.37706
 20
4.23753
 30
0.000000
  70
    32
  0
VERTEX
  8
AM_VIS
  5
31F
 10
5.37577
 20
4.23885
 30
0.000000
  70
    32
  0
VERTEX
  8
AM_VIS
  5
320
 10
5.37448
 20
4.24017
 30
0.000000
  70
    32
  0
VERTEX
  8
AM_VIS
  5
321
 10
5.37318
 20
4.24148
 30
0.000000
  70
    32
  0
VERTEX
  8
AM_VIS
  5
322
 10
5.37187
 20
4.24279
 30
0.000000
  70
    32
  0
VERTEX
  8
AM_VIS
  5
323
 10
5.37055
 20
4.24410
 30
0.000000
  70
    32
  0
VERTEX
  8
AM_VIS
  5
324
 10
5.36921
 20
4.24540
 30
0.000000
  70
    32
  0
VERTEX
  8
AM_VIS
  5
325
 10
5.36787
 20
4.24669
 30
0.000000
  70
    32
  0
VERTEX
  8
AM_VIS
  5
326
 10
5.36652
 20
4.24798
 30
0.000000
  70
    32
  0
VERTEX
  8
AM_VIS
  5
327
 10
5.36516
 20
4.24926
 30
0.000000
  70
    32
  0
VERTEX
  8
AM_VIS
  5
328
 10
5.36379
 20
4.25054
 30
0.000000
  70
    32
  0
VERTEX
  8
AM_VIS
  5
329
 10
5.36241
 20
4.25181
 30
0.000000
  70
    32
  0
VERTEX
  8
AM_VIS
  5
32A
 10
5.36102
 20
4.25307
 30
0.000000
  70
    32
  0
VERTEX
  8
AM_VIS
  5
32B
 10
5.35963
 20
4.25433
 30
0.000000
  70
    32
  0
VERTEX
  8
AM_VIS
  5
32C
 10
5.35822
 20
4.25558
 30
0.000000
  70
    32
  0
VERTEX
  8
AM_VIS
  5
32D
 10
5.35680
 20
4.25683
 30
0.000000
  70
    32
  0
VERTEX
  8
AM_VIS
  5
32E
 10
5.35538
 20
4.25807
 30
0.000000
  70
    32
  0
VERTEX
  8
AM_VIS
  5
32F
 10
5.35394
 20
4.25930
 30
0.000000
  70
    32
  0
VERTEX
  8
AM_VIS
  5
330
 10
5.35250
 20
4.26053
 30
0.000000
  70
    32
  0
VERTEX
  8
AM_VIS
  5
331
 10
5.35105
 20
4.26175
 30
0.000000
  70
    32
  0
VERTEX
  8
AM_VIS
  5
332
 10
5.34959
 20
4.26296
 30
0.000000
  70
    32
  0
VERTEX
  8
AM_VIS
  5
333
 10
5.34812
 20
4.26417
 30
0.000000
  70
    32
  0
VERTEX
  8
AM_VIS
  5
334
 10
5.34664
 20
4.26536
 30
0.000000
  70
    32
  0
VERTEX
  8
AM_VIS
  5
335
 10
5.34516
 20
4.26656
 30
0.000000
  70
    32
  0
VERTEX
  8
AM_VIS
  5
336
 10
5.34366
 20
4.26774
 30
0.000000
  70
    32
  0
VERTEX
  8
AM_VIS
  5
337
 10
5.34216
 20
4.26892
 30
0.000000
  70
    32
  0
VERTEX
  8
AM_VIS
  5
338
 10
5.34065
 20
4.27009
 30
0.000000
  70
    32
  0
VERTEX
  8
AM_VIS
  5
339
 10
5.33913
 20
4.27125
 30
0.000000
  70
    32
  0
VERTEX
  8
AM_VIS
  5
33A
 10
5.33760
 20
4.27241
 30
0.000000
  70
    32
  0
VERTEX
  8
AM_VIS
  5
33B
 10
5.33607
 20
4.27356
 30
0.000000
  70
    32
  0
VERTEX
  8
AM_VIS
  5
33C
 10
5.33452
 20
4.27470
 30
0.000000
  70
    32
  0
VERTEX
  8
AM_VIS
  5
33D
 10
5.33297
 20
4.27583
 30
0.000000
  70
    32
  0
VERTEX
  8
AM_VIS
  5
33E
 10
5.33141
 20
4.27695
 30
0.000000
  70
    32
  0
VERTEX
  8
AM_VIS
  5
33F
 10
5.32985
 20
4.27807
 30
0.000000
  70
    32
  0
VERTEX
  8
AM_VIS
  5
340
 10
5.32827
 20
4.27918
 30
0.000000
  70
    32
  0
VERTEX
  8
AM_VIS
  5
341
 10
5.32669
 20
4.28028
 30
0.000000
  70
    32
  0
VERTEX
  8
AM_VIS
  5
342
 10
5.32510
 20
4.28137
 30
0.000000
  70
    32
  0
VERTEX
  8
AM_VIS
  5
343
 10
5.32350
 20
4.28246
 30
0.000000
  70
    32
  0
VERTEX
  8
AM_VIS
  5
344
 10
5.32190
 20
4.28353
 30
0.000000
  70
    32
  0
VERTEX
  8
AM_VIS
  5
345
 10
5.32029
 20
4.28460
 30
0.000000
  70
    32
  0
VERTEX
  8
AM_VIS
  5
346
 10
5.31867
 20
4.28565
 30
0.000000
  70
    32
  0
VERTEX
  8
AM_VIS
  5
347
 10
5.31705
 20
4.28670
 30
0.000000
  70
    32
  0
VERTEX
  8
AM_VIS
  5
348
 10
5.31541
 20
4.28774
 30
0.000000
  70
    32
  0
VERTEX
  8
AM_VIS
  5
349
 10
5.31377
 20
4.28877
 30
0.000000
  70
    32
  0
VERTEX
  8
AM_VIS
  5
34A
 10
5.31213
 20
4.28980
 30
0.000000
  70
    32
  0
VERTEX
  8
AM_VIS
  5
34B
 10
5.31047
 20
4.29081
 30
0.000000
  70
    32
  0
VERTEX
  8
AM_VIS
  5
34C
 10
5.30881
 20
4.29181
 30
0.000000
  70
    32
  0
VERTEX
  8
AM_VIS
  5
34D
 10
5.30715
 20
4.29281
 30
0.000000
  70
    32
  0
VERTEX
  8
AM_VIS
  5
34E
 10
5.30547
 20
4.29379
 30
0.000000
  70
    32
  0
VERTEX
  8
AM_VIS
  5
34F
 10
5.30379
 20
4.29476
 30
0.000000
  70
    32
  0
VERTEX
  8
AM_VIS
  5
350
 10
5.30211
 20
4.29573
 30
0.000000
  70
    32
  0
VERTEX
  8
AM_VIS
  5
351
 10
5.30042
 20
4.29668
 30
0.000000
  70
    32
  0
VERTEX
  8
AM_VIS
  5
352
 10
5.29872
 20
4.29763
 30
0.000000
  70
    32
  0
VERTEX
  8
AM_VIS
  5
353
 10
5.29701
 20
4.29857
 30
0.000000
  70
    32
  0
VERTEX
  8
AM_VIS
  5
354
 10
5.29530
 20
4.29949
 30
0.000000
  70
    32
  0
VERTEX
  8
AM_VIS
  5
355
 10
5.29358
 20
4.30041
 30
0.000000
  70
    32
  0
VERTEX
  8
AM_VIS
  5
356
 10
5.29186
 20
4.30131
 30
0.000000
  70
    32
  0
VERTEX
  8
AM_VIS
  5
357
 10
5.29013
 20
4.30220
 30
0.000000
  70
    32
  0
VERTEX
  8
AM_VIS
  5
358
 10
5.28840
 20
4.30309
 30
0.000000
  70
    32
  0
VERTEX
  8
AM_VIS
  5
359
 10
5.28666
 20
4.30396
 30
0.000000
  70
    32
  0
VERTEX
  8
AM_VIS
  5
35A
 10
5.28491
 20
4.30482
 30
0.000000
  70
    32
  0
VERTEX
  8
AM_VIS
  5
35B
 10
5.28316
 20
4.30568
 30
0.000000
  70
    32
  0
VERTEX
  8
AM_VIS
  5
35C
 10
5.28140
 20
4.30652
 30
0.000000
  70
    32
  0
VERTEX
  8
AM_VIS
  5
35D
 10
5.27964
 20
4.30735
 30
0.000000
  70
    32
  0
VERTEX
  8
AM_VIS
  5
35E
 10
5.27787
 20
4.30817
 30
0.000000
  70
    32
  0
VERTEX
  8
AM_VIS
  5
35F
 10
5.27609
 20
4.30897
 30
0.000000
  70
    32
  0
VERTEX
  8
AM_VIS
  5
360
 10
5.27432
 20
4.30977
 30
0.000000
  70
    32
  0
VERTEX
  8
AM_VIS
  5
361
 10
5.27253
 20
4.31056
 30
0.000000
  70
    32
  0
VERTEX
  8
AM_VIS
  5
362
 10
5.27074
 20
4.31133
 30
0.000000
  70
    32
  0
VERTEX
  8
AM_VIS
  5
363
 10
5.26895
 20
4.31209
 30
0.000000
  70
    32
  0
VERTEX
  8
AM_VIS
  5
364
 10
5.26715
 20
4.31284
 30
0.000000
  70
    32
  0
VERTEX
  8
AM_VIS
  5
365
 10
5.26535
 20
4.31358
 30
0.000000
  70
    32
  0
VERTEX
  8
AM_VIS
  5
366
 10
5.26354
 20
4.31431
 30
0.000000
  70
    32
  0
VERTEX
  8
AM_VIS
  5
367
 10
5.26173
 20
4.31503
 30
0.000000
  70
    32
  0
VERTEX
  8
AM_VIS
  5
368
 10
5.25991
 20
4.31573
 30
0.000000
  70
    32
  0
VERTEX
  8
AM_VIS
  5
369
 10
5.25809
 20
4.31642
 30
0.000000
  70
    32
  0
VERTEX
  8
AM_VIS
  5
36A
 10
5.25626
 20
4.31711
 30
0.000000
  70
    32
  0
VERTEX
  8
AM_VIS
  5
36B
 10
5.25443
 20
4.31778
 30
0.000000
  70
    32
  0
VERTEX
  8
AM_VIS
  5
36C
 10
5.25260
 20
4.31844
 30
0.000000
  70
    32
  0
VERTEX
  8
AM_VIS
  5
36D
 10
5.25076
 20
4.31908
 30
0.000000
  70
    32
  0
VERTEX
  8
AM_VIS
  5
36E
 10
5.24892
 20
4.31972
 30
0.000000
  70
    32
  0
VERTEX
  8
AM_VIS
  5
36F
 10
5.24708
 20
4.32034
 30
0.000000
  70
    32
  0
VERTEX
  8
AM_VIS
  5
370
 10
5.24523
 20
4.32096
 30
0.000000
  70
    32
  0
VERTEX
  8
AM_VIS
  5
371
 10
5.24338
 20
4.32156
 30
0.000000
  70
    32
  0
VERTEX
  8
AM_VIS
  5
372
 10
5.24153
 20
4.32215
 30
0.000000
  70
    32
  0
VERTEX
  8
AM_VIS
  5
373
 10
5.23967
 20
4.32273
 30
0.000000
  70
    32
  0
VERTEX
  8
AM_VIS
  5
374
 10
5.23781
 20
4.32330
 30
0.000000
  70
    32
  0
VERTEX
  8
AM_VIS
  5
375
 10
5.23595
 20
4.32385
 30
0.000000
  70
    32
  0
VERTEX
  8
AM_VIS
  5
376
 10
5.23408
 20
4.32440
 30
0.000000
  70
    32
  0
VERTEX
  8
AM_VIS
  5
377
 10
5.23221
 20
4.32493
 30
0.000000
  70
    32
  0
VERTEX
  8
AM_VIS
  5
378
 10
5.23034
 20
4.32545
 30
0.000000
  70
    32
  0
VERTEX
  8
AM_VIS
  5
379
 10
5.22847
 20
4.32596
 30
0.000000
  70
    32
  0
VERTEX
  8
AM_VIS
  5
37A
 10
5.22660
 20
4.32646
 30
0.000000
  70
    32
  0
VERTEX
  8
AM_VIS
  5
37B
 10
5.22472
 20
4.32694
 30
0.000000
  70
    32
  0
VERTEX
  8
AM_VIS
  5
37C
 10
5.22284
 20
4.32742
 30
0.000000
  70
    32
  0
VERTEX
  8
AM_VIS
  5
37D
 10
5.22096
 20
4.32788
 30
0.000000
  70
    32
  0
VERTEX
  8
AM_VIS
  5
37E
 10
5.21908
 20
4.32834
 30
0.000000
  70
    32
  0
VERTEX
  8
AM_VIS
  5
37F
 10
5.21720
 20
4.32878
 30
0.000000
  70
    32
  0
VERTEX
  8
AM_VIS
  5
380
 10
5.21531
 20
4.32921
 30
0.000000
  70
    32
  0
VERTEX
  8
AM_VIS
  5
381
 10
5.21342
 20
4.32962
 30
0.000000
  70
    32
  0
VERTEX
  8
AM_VIS
  5
382
 10
5.21154
 20
4.33003
 30
0.000000
  70
    32
  0
VERTEX
  8
AM_VIS
  5
383
 10
5.20965
 20
4.33042
 30
0.000000
  70
    32
  0
VERTEX
  8
AM_VIS
  5
384
 10
5.20776
 20
4.33081
 30
0.000000
  70
    32
  0
VERTEX
  8
AM_VIS
  5
385
 10
5.20587
 20
4.33118
 30
0.000000
  70
    32
  0
VERTEX
  8
AM_VIS
  5
386
 10
5.20398
 20
4.33154
 30
0.000000
  70
    32
  0
VERTEX
  8
AM_VIS
  5
387
 10
5.20209
 20
4.33189
 30
0.000000
  70
    32
  0
VERTEX
  8
AM_VIS
  5
388
 10
5.20019
 20
4.33222
 30
0.000000
  70
    32
  0
VERTEX
  8
AM_VIS
  5
389
 10
5.19830
 20
4.33255
 30
0.000000
  70
    32
  0
VERTEX
  8
AM_VIS
  5
38A
 10
5.19641
 20
4.33286
 30
0.000000
  70
    32
  0
VERTEX
  8
AM_VIS
  5
38B
 10
5.19452
 20
4.33316
 30
0.000000
  70
    32
  0
VERTEX
  8
AM_VIS
  5
38C
 10
5.19262
 20
4.33345
 30
0.000000
  70
    32
  0
VERTEX
  8
AM_VIS
  5
38D
 10
5.19073
 20
4.33373
 30
0.000000
  70
    32
  0
VERTEX
  8
AM_VIS
  5
38E
 10
5.18884
 20
4.33400
 30
0.000000
  70
    32
  0
VERTEX
  8
AM_VIS
  5
38F
 10
5.18694
 20
4.33426
 30
0.000000
  70
    32
  0
VERTEX
  8
AM_VIS
  5
390
 10
5.18505
 20
4.33450
 30
0.000000
  70
    32
  0
VERTEX
  8
AM_VIS
  5
391
 10
5.18316
 20
4.33473
 30
0.000000
  70
    32
  0
VERTEX
  8
AM_VIS
  5
392
 10
5.18127
 20
4.33495
 30
0.000000
  70
    32
  0
VERTEX
  8
AM_VIS
  5
393
 10
5.17938
 20
4.33516
 30
0.000000
  70
    32
  0
VERTEX
  8
AM_VIS
  5
394
 10
5.17749
 20
4.33536
 30
0.000000
  70
    32
  0
VERTEX
  8
AM_VIS
  5
395
 10
5.17561
 20
4.33555
 30
0.000000
  70
    32
  0
VERTEX
  8
AM_VIS
  5
396
 10
5.17372
 20
4.33572
 30
0.000000
  70
    32
  0
VERTEX
  8
AM_VIS
  5
397
 10
5.17184
 20
4.33588
 30
0.000000
  70
    32
  0
VERTEX
  8
AM_VIS
  5
398
 10
5.16995
 20
4.33604
 30
0.000000
  70
    32
  0
VERTEX
  8
AM_VIS
  5
399
 10
5.16807
 20
4.33617
 30
0.000000
  70
    32
  0
VERTEX
  8
AM_VIS
  5
39A
 10
5.16619
 20
4.33630
 30
0.000000
  70
    32
  0
VERTEX
  8
AM_VIS
  5
39B
 10
5.16431
 20
4.33642
 30
0.000000
  70
    32
  0
VERTEX
  8
AM_VIS
  5
39C
 10
5.16244
 20
4.33652
 30
0.000000
  70
    32
  0
VERTEX
  8
AM_VIS
  5
39D
 10
5.16056
 20
4.33662
 30
0.000000
  70
    32
  0
VERTEX
  8
AM_VIS
  5
39E
 10
5.15869
 20
4.33670
 30
0.000000
  70
    32
  0
VERTEX
  8
AM_VIS
  5
39F
 10
5.15682
 20
4.33677
 30
0.000000
  70
    32
  0
VERTEX
  8
AM_VIS
  5
3A0
 10
5.15495
 20
4.33683
 30
0.000000
  70
    32
  0
VERTEX
  8
AM_VIS
  5
3A1
 10
5.15309
 20
4.33687
 30
0.000000
  70
    32
  0
VERTEX
  8
AM_VIS
  5
3A2
 10
5.15123
 20
4.33691
 30
0.000000
  70
    32
  0
VERTEX
  8
AM_VIS
  5
3A3
 10
5.14937
 20
4.33693
 30
0.000000
  70
    32
  0
VERTEX
  8
AM_VIS
  5
3A4
 10
5.14751
 20
4.33694
 30
0.000000
  70
    32
  0
VERTEX
  8
AM_VIS
  5
3A5
 10
5.14566
 20
4.33694
 30
0.000000
  70
    32
  0
VERTEX
  8
AM_VIS
  5
3A6
 10
5.14380
 20
4.33693
 30
0.000000
  70
    32
  0
VERTEX
  8
AM_VIS
  5
3A7
 10
5.14194
 20
4.33691
 30
0.000000
  70
    32
  0
VERTEX
  8
AM_VIS
  5
3A8
 10
5.14008
 20
4.33687
 30
0.000000
  70
    32
  0
VERTEX
  8
AM_VIS
  5
3A9
 10
5.13822
 20
4.33683
 30
0.000000
  70
    32
  0
VERTEX
  8
AM_VIS
  5
3AA
 10
5.13635
 20
4.33677
 30
0.000000
  70
    32
  0
VERTEX
  8
AM_VIS
  5
3AB
 10
5.13448
 20
4.33670
 30
0.000000
  70
    32
  0
VERTEX
  8
AM_VIS
  5
3AC
 10
5.13261
 20
4.33662
 30
0.000000
  70
    32
  0
VERTEX
  8
AM_VIS
  5
3AD
 10
5.13073
 20
4.33652
 30
0.000000
  70
    32
  0
VERTEX
  8
AM_VIS
  5
3AE
 10
5.12886
 20
4.33642
 30
0.000000
  70
    32
  0
VERTEX
  8
AM_VIS
  5
3AF
 10
5.12698
 20
4.33630
 30
0.000000
  70
    32
  0
VERTEX
  8
AM_VIS
  5
3B0
 10
5.12510
 20
4.33617
 30
0.000000
  70
    32
  0
VERTEX
  8
AM_VIS
  5
3B1
 10
5.12322
 20
4.33604
 30
0.000000
  70
    32
  0
VERTEX
  8
AM_VIS
  5
3B2
 10
5.12133
 20
4.33588
 30
0.000000
  70
    32
  0
VERTEX
  8
AM_VIS
  5
3B3
 10
5.11945
 20
4.33572
 30
0.000000
  70
    32
  0
VERTEX
  8
AM_VIS
  5
3B4
 10
5.11756
 20
4.33555
 30
0.000000
  70
    32
  0
VERTEX
  8
AM_VIS
  5
3B5
 10
5.11567
 20
4.33536
 30
0.000000
  70
    32
  0
VERTEX
  8
AM_VIS
  5
3B6
 10
5.11379
 20
4.33516
 30
0.000000
  70
    32
  0
VERTEX
  8
AM_VIS
  5
3B7
 10
5.11190
 20
4.33495
 30
0.000000
  70
    32
  0
VERTEX
  8
AM_VIS
  5
3B8
 10
5.11001
 20
4.33473
 30
0.000000
  70
    32
  0
VERTEX
  8
AM_VIS
  5
3B9
 10
5.10812
 20
4.33450
 30
0.000000
  70
    32
  0
VERTEX
  8
AM_VIS
  5
3BA
 10
5.10622
 20
4.33426
 30
0.000000
  70
    32
  0
VERTEX
  8
AM_VIS
  5
3BB
 10
5.10433
 20
4.33400
 30
0.000000
  70
    32
  0
VERTEX
  8
AM_VIS
  5
3BC
 10
5.10244
 20
4.33373
 30
0.000000
  70
    32
  0
VERTEX
  8
AM_VIS
  5
3BD
 10
5.10055
 20
4.33345
 30
0.000000
  70
    32
  0
VERTEX
  8
AM_VIS
  5
3BE
 10
5.09865
 20
4.33316
 30
0.000000
  70
    32
  0
VERTEX
  8
AM_VIS
  5
3BF
 10
5.09676
 20
4.33286
 30
0.000000
  70
    32
  0
VERTEX
  8
AM_VIS
  5
3C0
 10
5.09487
 20
4.33255
 30
0.000000
  70
    32
  0
VERTEX
  8
AM_VIS
  5
3C1
 10
5.09297
 20
4.33222
 30
0.000000
  70
    32
  0
VERTEX
  8
AM_VIS
  5
3C2
 10
5.09108
 20
4.33189
 30
0.000000
  70
    32
  0
VERTEX
  8
AM_VIS
  5
3C3
 10
5.08919
 20
4.33154
 30
0.000000
  70
    32
  0
VERTEX
  8
AM_VIS
  5
3C4
 10
5.08730
 20
4.33118
 30
0.000000
  70
    32
  0
VERTEX
  8
AM_VIS
  5
3C5
 10
5.08541
 20
4.33081
 30
0.000000
  70
    32
  0
VERTEX
  8
AM_VIS
  5
3C6
 10
5.08352
 20
4.33042
 30
0.000000
  70
    32
  0
VERTEX
  8
AM_VIS
  5
3C7
 10
5.08163
 20
4.33003
 30
0.000000
  70
    32
  0
VERTEX
  8
AM_VIS
  5
3C8
 10
5.07974
 20
4.32962
 30
0.000000
  70
    32
  0
VERTEX
  8
AM_VIS
  5
3C9
 10
5.07786
 20
4.32921
 30
0.000000
  70
    32
  0
VERTEX
  8
AM_VIS
  5
3CA
 10
5.07597
 20
4.32878
 30
0.000000
  70
    32
  0
VERTEX
  8
AM_VIS
  5
3CB
 10
5.07409
 20
4.32834
 30
0.000000
  70
    32
  0
VERTEX
  8
AM_VIS
  5
3CC
 10
5.07221
 20
4.32788
 30
0.000000
  70
    32
  0
VERTEX
  8
AM_VIS
  5
3CD
 10
5.07033
 20
4.32742
 30
0.000000
  70
    32
  0
VERTEX
  8
AM_VIS
  5
3CE
 10
5.06845
 20
4.32694
 30
0.000000
  70
    32
  0
VERTEX
  8
AM_VIS
  5
3CF
 10
5.06657
 20
4.32646
 30
0.000000
  70
    32
  0
VERTEX
  8
AM_VIS
  5
3D0
 10
5.06470
 20
4.32596
 30
0.000000
  70
    32
  0
VERTEX
  8
AM_VIS
  5
3D1
 10
5.06282
 20
4.32545
 30
0.000000
  70
    32
  0
VERTEX
  8
AM_VIS
  5
3D2
 10
5.06095
 20
4.32493
 30
0.000000
  70
    32
  0
VERTEX
  8
AM_VIS
  5
3D3
 10
5.05909
 20
4.32440
 30
0.000000
  70
    32
  0
VERTEX
  8
AM_VIS
  5
3D4
 10
5.05722
 20
4.32385
 30
0.000000
  70
    32
  0
VERTEX
  8
AM_VIS
  5
3D5
 10
5.05536
 20
4.32330
 30
0.000000
  70
    32
  0
VERTEX
  8
AM_VIS
  5
3D6
 10
5.05350
 20
4.32273
 30
0.000000
  70
    32
  0
VERTEX
  8
AM_VIS
  5
3D7
 10
5.05164
 20
4.32215
 30
0.000000
  70
    32
  0
VERTEX
  8
AM_VIS
  5
3D8
 10
5.04979
 20
4.32156
 30
0.000000
  70
    32
  0
VERTEX
  8
AM_VIS
  5
3D9
 10
5.04794
 20
4.32096
 30
0.000000
  70
    32
  0
VERTEX
  8
AM_VIS
  5
3DA
 10
5.04609
 20
4.32034
 30
0.000000
  70
    32
  0
VERTEX
  8
AM_VIS
  5
3DB
 10
5.04425
 20
4.31972
 30
0.000000
  70
    32
  0
VERTEX
  8
AM_VIS
  5
3DC
 10
5.04241
 20
4.31908
 30
0.000000
  70
    32
  0
VERTEX
  8
AM_VIS
  5
3DD
 10
5.04057
 20
4.31844
 30
0.000000
  70
    32
  0
VERTEX
  8
AM_VIS
  5
3DE
 10
5.03874
 20
4.31778
 30
0.000000
  70
    32
  0
VERTEX
  8
AM_VIS
  5
3DF
 10
5.03691
 20
4.31711
 30
0.000000
  70
    32
  0
VERTEX
  8
AM_VIS
  5
3E0
 10
5.03508
 20
4.31642
 30
0.000000
  70
    32
  0
VERTEX
  8
AM_VIS
  5
3E1
 10
5.03326
 20
4.31573
 30
0.000000
  70
    32
  0
VERTEX
  8
AM_VIS
  5
3E2
 10
5.03144
 20
4.31503
 30
0.000000
  70
    32
  0
VERTEX
  8
AM_VIS
  5
3E3
 10
5.02963
 20
4.31431
 30
0.000000
  70
    32
  0
VERTEX
  8
AM_VIS
  5
3E4
 10
5.02782
 20
4.31358
 30
0.000000
  70
    32
  0
VERTEX
  8
AM_VIS
  5
3E5
 10
5.02602
 20
4.31284
 30
0.000000
  70
    32
  0
VERTEX
  8
AM_VIS
  5
3E6
 10
5.02422
 20
4.31209
 30
0.000000
  70
    32
  0
VERTEX
  8
AM_VIS
  5
3E7
 10
5.02243
 20
4.31133
 30
0.000000
  70
    32
  0
VERTEX
  8
AM_VIS
  5
3E8
 10
5.02064
 20
4.31056
 30
0.000000
  70
    32
  0
VERTEX
  8
AM_VIS
  5
3E9
 10
5.01885
 20
4.30977
 30
0.000000
  70
    32
  0
VERTEX
  8
AM_VIS
  5
3EA
 10
5.01707
 20
4.30897
 30
0.000000
  70
    32
  0
VERTEX
  8
AM_VIS
  5
3EB
 10
5.01530
 20
4.30817
 30
0.000000
  70
    32
  0
VERTEX
  8
AM_VIS
  5
3EC
 10
5.01353
 20
4.30735
 30
0.000000
  70
    32
  0
VERTEX
  8
AM_VIS
  5
3ED
 10
5.01177
 20
4.30652
 30
0.000000
  70
    32
  0
VERTEX
  8
AM_VIS
  5
3EE
 10
5.01001
 20
4.30568
 30
0.000000
  70
    32
  0
VERTEX
  8
AM_VIS
  5
3EF
 10
5.00826
 20
4.30482
 30
0.000000
  70
    32
  0
VERTEX
  8
AM_VIS
  5
3F0
 10
5.00651
 20
4.30396
 30
0.000000
  70
    32
  0
VERTEX
  8
AM_VIS
  5
3F1
 10
5.00477
 20
4.30309
 30
0.000000
  70
    32
  0
VERTEX
  8
AM_VIS
  5
3F2
 10
5.00304
 20
4.30220
 30
0.000000
  70
    32
  0
VERTEX
  8
AM_VIS
  5
3F3
 10
5.00131
 20
4.30131
 30
0.000000
  70
    32
  0
VERTEX
  8
AM_VIS
  5
3F4
 10
4.99959
 20
4.30041
 30
0.000000
  70
    32
  0
VERTEX
  8
AM_VIS
  5
3F5
 10
4.99787
 20
4.29949
 30
0.000000
  70
    32
  0
VERTEX
  8
AM_VIS
  5
3F6
 10
4.99616
 20
4.29857
 30
0.000000
  70
    32
  0
VERTEX
  8
AM_VIS
  5
3F7
 10
4.99445
 20
4.29763
 30
0.000000
  70
    32
  0
VERTEX
  8
AM_VIS
  5
3F8
 10
4.99275
 20
4.29668
 30
0.000000
  70
    32
  0
VERTEX
  8
AM_VIS
  5
3F9
 10
4.99106
 20
4.29573
 30
0.000000
  70
    32
  0
VERTEX
  8
AM_VIS
  5
3FA
 10
4.98937
 20
4.29476
 30
0.000000
  70
    32
  0
VERTEX
  8
AM_VIS
  5
3FB
 10
4.98769
 20
4.29379
 30
0.000000
  70
    32
  0
VERTEX
  8
AM_VIS
  5
3FC
 10
4.98602
 20
4.29281
 30
0.000000
  70
    32
  0
VERTEX
  8
AM_VIS
  5
3FD
 10
4.98435
 20
4.29181
 30
0.000000
  70
    32
  0
VERTEX
  8
AM_VIS
  5
3FE
 10
4.98269
 20
4.29081
 30
0.000000
  70
    32
  0
VERTEX
  8
AM_VIS
  5
3FF
 10
4.98104
 20
4.28980
 30
0.000000
  70
    32
  0
VERTEX
  8
AM_VIS
  5
400
 10
4.97940
 20
4.28877
 30
0.000000
  70
    32
  0
VERTEX
  8
AM_VIS
  5
401
 10
4.97776
 20
4.28774
 30
0.000000
  70
    32
  0
VERTEX
  8
AM_VIS
  5
402
 10
4.97612
 20
4.28670
 30
0.000000
  70
    32
  0
VERTEX
  8
AM_VIS
  5
403
 10
4.97450
 20
4.28565
 30
0.000000
  70
    32
  0
VERTEX
  8
AM_VIS
  5
404
 10
4.97288
 20
4.28460
 30
0.000000
  70
    32
  0
VERTEX
  8
AM_VIS
  5
405
 10
4.97127
 20
4.28353
 30
0.000000
  70
    32
  0
VERTEX
  8
AM_VIS
  5
406
 10
4.96966
 20
4.28246
 30
0.000000
  70
    32
  0
VERTEX
  8
AM_VIS
  5
407
 10
4.96807
 20
4.28137
 30
0.000000
  70
    32
  0
VERTEX
  8
AM_VIS
  5
408
 10
4.96648
 20
4.28028
 30
0.000000
  70
    32
  0
VERTEX
  8
AM_VIS
  5
409
 10
4.96490
 20
4.27918
 30
0.000000
  70
    32
  0
VERTEX
  8
AM_VIS
  5
40A
 10
4.96332
 20
4.27807
 30
0.000000
  70
    32
  0
VERTEX
  8
AM_VIS
  5
40B
 10
4.96176
 20
4.27695
 30
0.000000
  70
    32
  0
VERTEX
  8
AM_VIS
  5
40C
 10
4.96020
 20
4.27583
 30
0.000000
  70
    32
  0
VERTEX
  8
AM_VIS
  5
40D
 10
4.95865
 20
4.27470
 30
0.000000
  70
    32
  0
VERTEX
  8
AM_VIS
  5
40E
 10
4.95710
 20
4.27356
 30
0.000000
  70
    32
  0
VERTEX
  8
AM_VIS
  5
40F
 10
4.95557
 20
4.27241
 30
0.000000
  70
    32
  0
VERTEX
  8
AM_VIS
  5
410
 10
4.95404
 20
4.27125
 30
0.000000
  70
    32
  0
VERTEX
  8
AM_VIS
  5
411
 10
4.95252
 20
4.27009
 30
0.000000
  70
    32
  0
VERTEX
  8
AM_VIS
  5
412
 10
4.95101
 20
4.26892
 30
0.000000
  70
    32
  0
VERTEX
  8
AM_VIS
  5
413
 10
4.94951
 20
4.26774
 30
0.000000
  70
    32
  0
VERTEX
  8
AM_VIS
  5
414
 10
4.94801
 20
4.26656
 30
0.000000
  70
    32
  0
VERTEX
  8
AM_VIS
  5
415
 10
4.94653
 20
4.26536
 30
0.000000
  70
    32
  0
VERTEX
  8
AM_VIS
  5
416
 10
4.94505
 20
4.26417
 30
0.000000
  70
    32
  0
VERTEX
  8
AM_VIS
  5
417
 10
4.94358
 20
4.26296
 30
0.000000
  70
    32
  0
VERTEX
  8
AM_VIS
  5
418
 10
4.94212
 20
4.26175
 30
0.000000
  70
    32
  0
VERTEX
  8
AM_VIS
  5
419
 10
4.94067
 20
4.26053
 30
0.000000
  70
    32
  0
VERTEX
  8
AM_VIS
  5
41A
 10
4.93923
 20
4.25930
 30
0.000000
  70
    32
  0
VERTEX
  8
AM_VIS
  5
41B
 10
4.93779
 20
4.25807
 30
0.000000
  70
    32
  0
VERTEX
  8
AM_VIS
  5
41C
 10
4.93637
 20
4.25683
 30
0.000000
  70
    32
  0
VERTEX
  8
AM_VIS
  5
41D
 10
4.93495
 20
4.25558
 30
0.000000
  70
    32
  0
VERTEX
  8
AM_VIS
  5
41E
 10
4.93354
 20
4.25433
 30
0.000000
  70
    32
  0
VERTEX
  8
AM_VIS
  5
41F
 10
4.93215
 20
4.25307
 30
0.000000
  70
    32
  0
VERTEX
  8
AM_VIS
  5
420
 10
4.93076
 20
4.25181
 30
0.000000
  70
    32
  0
VERTEX
  8
AM_VIS
  5
421
 10
4.92938
 20
4.25054
 30
0.000000
  70
    32
  0
VERTEX
  8
AM_VIS
  5
422
 10
4.92801
 20
4.24926
 30
0.000000
  70
    32
  0
VERTEX
  8
AM_VIS
  5
423
 10
4.92665
 20
4.24798
 30
0.000000
  70
    32
  0
VERTEX
  8
AM_VIS
  5
424
 10
4.92530
 20
4.24669
 30
0.000000
  70
    32
  0
VERTEX
  8
AM_VIS
  5
425
 10
4.92395
 20
4.24540
 30
0.000000
  70
    32
  0
VERTEX
  8
AM_VIS
  5
426
 10
4.92262
 20
4.24410
 30
0.000000
  70
    32
  0
VERTEX
  8
AM_VIS
  5
427
 10
4.92130
 20
4.24279
 30
0.000000
  70
    32
  0
VERTEX
  8
AM_VIS
  5
428
 10
4.91999
 20
4.24148
 30
0.000000
  70
    32
  0
VERTEX
  8
AM_VIS
  5
429
 10
4.91869
 20
4.24017
 30
0.000000
  70
    32
  0
VERTEX
  8
AM_VIS
  5
42A
 10
4.91739
 20
4.23885
 30
0.000000
  70
    32
  0
VERTEX
  8
AM_VIS
  5
42B
 10
4.91611
 20
4.23753
 30
0.000000
  70
    32
  0
VERTEX
  8
AM_VIS
  5
42C
 10
4.91484
 20
4.23620
 30
0.000000
  70
    32
  0
VERTEX
  8
AM_VIS
  5
42D
 10
4.91358
 20
4.23486
 30
0.000000
  70
    32
  0
VERTEX
  8
AM_VIS
  5
42E
 10
4.91232
 20
4.23352
 30
0.000000
  70
    32
  0
VERTEX
  8
AM_VIS
  5
42F
 10
4.91108
 20
4.23217
 30
0.000000
  70
    32
  0
VERTEX
  8
AM_VIS
  5
430
 10
4.90983
 20
4.23081
 30
0.000000
  70
    32
  0
VERTEX
  8
AM_VIS
  5
431
 10
4.90859
 20
4.22944
 30
0.000000
  70
    32
  0
VERTEX
  8
AM_VIS
  5
432
 10
4.90736
 20
4.22806
 30
0.000000
  70
    32
  0
VERTEX
  8
AM_VIS
  5
433
 10
4.90613
 20
4.22667
 30
0.000000
  70
    32
  0
VERTEX
  8
AM_VIS
  5
434
 10
4.90491
 20
4.22527
 30
0.000000
  70
    32
  0
VERTEX
  8
AM_VIS
  5
435
 10
4.90370
 20
4.22386
 30
0.000000
  70
    32
  0
VERTEX
  8
AM_VIS
  5
436
 10
4.90249
 20
4.22244
 30
0.000000
  70
    32
  0
VERTEX
  8
AM_VIS
  5
437
 10
4.90129
 20
4.22101
 30
0.000000
  70
    32
  0
VERTEX
  8
AM_VIS
  5
438
 10
4.90009
 20
4.21957
 30
0.000000
  70
    32
  0
VERTEX
  8
AM_VIS
  5
439
 10
4.89890
 20
4.21813
 30
0.000000
  70
    32
  0
VERTEX
  8
AM_VIS
  5
43A
 10
4.89771
 20
4.21667
 30
0.000000
  70
    32
  0
VERTEX
  8
AM_VIS
  5
43B
 10
4.89653
 20
4.21521
 30
0.000000
  70
    32
  0
VERTEX
  8
AM_VIS
  5
43C
 10
4.89536
 20
4.21373
 30
0.000000
  70
    32
  0
VERTEX
  8
AM_VIS
  5
43D
 10
4.89419
 20
4.21225
 30
0.000000
  70
    32
  0
VERTEX
  8
AM_VIS
  5
43E
 10
4.89303
 20
4.21076
 30
0.000000
  70
    32
  0
VERTEX
  8
AM_VIS
  5
43F
 10
4.89188
 20
4.20926
 30
0.000000
  70
    32
  0
VERTEX
  8
AM_VIS
  5
440
 10
4.89073
 20
4.20775
 30
0.000000
  70
    32
  0
VERTEX
  8
AM_VIS
  5
441
 10
4.88960
 20
4.20624
 30
0.000000
  70
    32
  0
VERTEX
  8
AM_VIS
  5
442
 10
4.88846
 20
4.20471
 30
0.000000
  70
    32
  0
VERTEX
  8
AM_VIS
  5
443
 10
4.88734
 20
4.20318
 30
0.000000
  70
    32
  0
VERTEX
  8
AM_VIS
  5
444
 10
4.88622
 20
4.20164
 30
0.000000
  70
    32
  0
VERTEX
  8
AM_VIS
  5
445
 10
4.88511
 20
4.20009
 30
0.000000
  70
    32
  0
VERTEX
  8
AM_VIS
  5
446
 10
4.88400
 20
4.19853
 30
0.000000
  70
    32
  0
VERTEX
  8
AM_VIS
  5
447
 10
4.88290
 20
4.19697
 30
0.000000
  70
    32
  0
VERTEX
  8
AM_VIS
  5
448
 10
4.88181
 20
4.19539
 30
0.000000
  70
    32
  0
VERTEX
  8
AM_VIS
  5
449
 10
4.88073
 20
4.19381
 30
0.000000
  70
    32
  0
VERTEX
  8
AM_VIS
  5
44A
 10
4.87966
 20
4.19222
 30
0.000000
  70
    32
  0
VERTEX
  8
AM_VIS
  5
44B
 10
4.87859
 20
4.19063
 30
0.000000
  70
    32
  0
VERTEX
  8
AM_VIS
  5
44C
 10
4.87753
 20
4.18902
 30
0.000000
  70
    32
  0
VERTEX
  8
AM_VIS
  5
44D
 10
4.87648
 20
4.18741
 30
0.000000
  70
    32
  0
VERTEX
  8
AM_VIS
  5
44E
 10
4.87543
 20
4.18579
 30
0.000000
  70
    32
  0
VERTEX
  8
AM_VIS
  5
44F
 10
4.87440
 20
4.18416
 30
0.000000
  70
    32
  0
VERTEX
  8
AM_VIS
  5
450
 10
4.87337
 20
4.18253
 30
0.000000
  70
    32
  0
VERTEX
  8
AM_VIS
  5
451
 10
4.87235
 20
4.18089
 30
0.000000
  70
    32
  0
VERTEX
  8
AM_VIS
  5
452
 10
4.87134
 20
4.17924
 30
0.000000
  70
    32
  0
VERTEX
  8
AM_VIS
  5
453
 10
4.87033
 20
4.17759
 30
0.000000
  70
    32
  0
VERTEX
  8
AM_VIS
  5
454
 10
4.86934
 20
4.17593
 30
0.000000
  70
    32
  0
VERTEX
  8
AM_VIS
  5
455
 10
4.86835
 20
4.17426
 30
0.000000
  70
    32
  0
VERTEX
  8
AM_VIS
  5
456
 10
4.86737
 20
4.17258
 30
0.000000
  70
    32
  0
VERTEX
  8
AM_VIS
  5
457
 10
4.86640
 20
4.17090
 30
0.000000
  70
    32
  0
VERTEX
  8
AM_VIS
  5
458
 10
4.86544
 20
4.16921
 30
0.000000
  70
    32
  0
VERTEX
  8
AM_VIS
  5
459
 10
4.86449
 20
4.16752
 30
0.000000
  70
    32
  0
VERTEX
  8
AM_VIS
  5
45A
 10
4.86355
 20
4.16582
 30
0.000000
  70
    32
  0
VERTEX
  8
AM_VIS
  5
45B
 10
4.86261
 20
4.16411
 30
0.000000
  70
    32
  0
VERTEX
  8
AM_VIS
  5
45C
 10
4.86169
 20
4.16239
 30
0.000000
  70
    32
  0
VERTEX
  8
AM_VIS
  5
45D
 10
4.86077
 20
4.16067
 30
0.000000
  70
    32
  0
VERTEX
  8
AM_VIS
  5
45E
 10
4.85986
 20
4.15895
 30
0.000000
  70
    32
  0
VERTEX
  8
AM_VIS
  5
45F
 10
4.85896
 20
4.15722
 30
0.000000
  70
    32
  0
VERTEX
  8
AM_VIS
  5
460
 10
4.85808
 20
4.15548
 30
0.000000
  70
    32
  0
VERTEX
  8
AM_VIS
  5
461
 10
4.85720
 20
4.15373
 30
0.000000
  70
    32
  0
VERTEX
  8
AM_VIS
  5
462
 10
4.85633
 20
4.15198
 30
0.000000
  70
    32
  0
VERTEX
  8
AM_VIS
  5
463
 10
4.85547
 20
4.15023
 30
0.000000
  70
    32
  0
VERTEX
  8
AM_VIS
  5
464
 10
4.85462
 20
4.14847
 30
0.000000
  70
    32
  0
VERTEX
  8
AM_VIS
  5
465
 10
4.85377
 20
4.14670
 30
0.000000
  70
    32
  0
VERTEX
  8
AM_VIS
  5
466
 10
4.85294
 20
4.14493
 30
0.000000
  70
    32
  0
VERTEX
  8
AM_VIS
  5
467
 10
4.85212
 20
4.14315
 30
0.000000
  70
    32
  0
VERTEX
  8
AM_VIS
  5
468
 10
4.85131
 20
4.14137
 30
0.000000
  70
    32
  0
VERTEX
  8
AM_VIS
  5
469
 10
4.85051
 20
4.13958
 30
0.000000
  70
    32
  0
VERTEX
  8
AM_VIS
  5
46A
 10
4.84972
 20
4.13779
 30
0.000000
  70
    32
  0
VERTEX
  8
AM_VIS
  5
46B
 10
4.84894
 20
4.13599
 30
0.000000
  70
    32
  0
VERTEX
  8
AM_VIS
  5
46C
 10
4.84817
 20
4.13419
 30
0.000000
  70
    32
  0
VERTEX
  8
AM_VIS
  5
46D
 10
4.84741
 20
4.13238
 30
0.000000
  70
    32
  0
VERTEX
  8
AM_VIS
  5
46E
 10
4.84666
 20
4.13057
 30
0.000000
  70
    32
  0
VERTEX
  8
AM_VIS
  5
46F
 10
4.84592
 20
4.12875
 30
0.000000
  70
    32
  0
VERTEX
  8
AM_VIS
  5
470
 10
4.84519
 20
4.12693
 30
0.000000
  70
    32
  0
VERTEX
  8
AM_VIS
  5
471
 10
4.84447
 20
4.12510
 30
0.000000
  70
    32
  0
VERTEX
  8
AM_VIS
  5
472
 10
4.84377
 20
4.12327
 30
0.000000
  70
    32
  0
VERTEX
  8
AM_VIS
  5
473
 10
4.84307
 20
4.12144
 30
0.000000
  70
    32
  0
VERTEX
  8
AM_VIS
  5
474
 10
4.84239
 20
4.11960
 30
0.000000
  70
    32
  0
VERTEX
  8
AM_VIS
  5
475
 10
4.84171
 20
4.11776
 30
0.000000
  70
    32
  0
VERTEX
  8
AM_VIS
  5
476
 10
4.84105
 20
4.11591
 30
0.000000
  70
    32
  0
VERTEX
  8
AM_VIS
  5
477
 10
4.84039
 20
4.11406
 30
0.000000
  70
    32
  0
VERTEX
  8
AM_VIS
  5
478
 10
4.83975
 20
4.11221
 30
0.000000
  70
    32
  0
VERTEX
  8
AM_VIS
  5
479
 10
4.83912
 20
4.11035
 30
0.000000
  70
    32
  0
VERTEX
  8
AM_VIS
  5
47A
 10
4.83850
 20
4.10849
 30
0.000000
  70
    32
  0
VERTEX
  8
AM_VIS
  5
47B
 10
4.83789
 20
4.10662
 30
0.000000
  70
    32
  0
VERTEX
  8
AM_VIS
  5
47C
 10
4.83729
 20
4.10475
 30
0.000000
  70
    32
  0
VERTEX
  8
AM_VIS
  5
47D
 10
4.83670
 20
4.10288
 30
0.000000
  70
    32
  0
VERTEX
  8
AM_VIS
  5
47E
 10
4.83613
 20
4.10101
 30
0.000000
  70
    32
  0
VERTEX
  8
AM_VIS
  5
47F
 10
4.83556
 20
4.09913
 30
0.000000
  70
    32
  0
VERTEX
  8
AM_VIS
  5
480
 10
4.83500
 20
4.09725
 30
0.000000
  70
    32
  0
VERTEX
  8
AM_VIS
  5
481
 10
4.83446
 20
4.09537
 30
0.000000
  70
    32
  0
VERTEX
  8
AM_VIS
  5
482
 10
4.83392
 20
4.09348
 30
0.000000
  70
    32
  0
VERTEX
  8
AM_VIS
  5
483
 10
4.83340
 20
4.09160
 30
0.000000
  70
    32
  0
VERTEX
  8
AM_VIS
  5
484
 10
4.83289
 20
4.08971
 30
0.000000
  70
    32
  0
VERTEX
  8
AM_VIS
  5
485
 10
4.83238
 20
4.08781
 30
0.000000
  70
    32
  0
VERTEX
  8
AM_VIS
  5
486
 10
4.83189
 20
4.08592
 30
0.000000
  70
    32
  0
VERTEX
  8
AM_VIS
  5
487
 10
4.83141
 20
4.08402
 30
0.000000
  70
    32
  0
VERTEX
  8
AM_VIS
  5
488
 10
4.83094
 20
4.08213
 30
0.000000
  70
    32
  0
VERTEX
  8
AM_VIS
  5
489
 10
4.83048
 20
4.08023
 30
0.000000
  70
    32
  0
VERTEX
  8
AM_VIS
  5
48A
 10
4.83003
 20
4.07833
 30
0.000000
  70
    32
  0
VERTEX
  8
AM_VIS
  5
48B
 10
4.82959
 20
4.07643
 30
0.000000
  70
    32
  0
VERTEX
  8
AM_VIS
  5
48C
 10
4.82916
 20
4.07452
 30
0.000000
  70
    32
  0
VERTEX
  8
AM_VIS
  5
48D
 10
4.82874
 20
4.07262
 30
0.000000
  70
    32
  0
VERTEX
  8
AM_VIS
  5
48E
 10
4.82834
 20
4.07071
 30
0.000000
  70
    32
  0
VERTEX
  8
AM_VIS
  5
48F
 10
4.82794
 20
4.06881
 30
0.000000
  70
    32
  0
VERTEX
  8
AM_VIS
  5
490
 10
4.82756
 20
4.06690
 30
0.000000
  70
    32
  0
VERTEX
  8
AM_VIS
  5
491
 10
4.82718
 20
4.06499
 30
0.000000
  70
    32
  0
VERTEX
  8
AM_VIS
  5
492
 10
4.82682
 20
4.06308
 30
0.000000
  70
    32
  0
VERTEX
  8
AM_VIS
  5
493
 10
4.82646
 20
4.06117
 30
0.000000
  70
    32
  0
VERTEX
  8
AM_VIS
  5
494
 10
4.82612
 20
4.05926
 30
0.000000
  70
    32
  0
VERTEX
  8
AM_VIS
  5
495
 10
4.82579
 20
4.05735
 30
0.000000
  70
    32
  0
VERTEX
  8
AM_VIS
  5
496
 10
4.82546
 20
4.05544
 30
0.000000
  70
    32
  0
VERTEX
  8
AM_VIS
  5
497
 10
4.82515
 20
4.05353
 30
0.000000
  70
    32
  0
VERTEX
  8
AM_VIS
  5
498
 10
4.82485
 20
4.05163
 30
0.000000
  70
    32
  0
VERTEX
  8
AM_VIS
  5
499
 10
4.82456
 20
4.04972
 30
0.000000
  70
    32
  0
VERTEX
  8
AM_VIS
  5
49A
 10
4.82428
 20
4.04781
 30
0.000000
  70
    32
  0
VERTEX
  8
AM_VIS
  5
49B
 10
4.82401
 20
4.04590
 30
0.000000
  70
    32
  0
VERTEX
  8
AM_VIS
  5
49C
 10
4.82375
 20
4.04399
 30
0.000000
  70
    32
  0
VERTEX
  8
AM_VIS
  5
49D
 10
4.82351
 20
4.04208
 30
0.000000
  70
    32
  0
VERTEX
  8
AM_VIS
  5
49E
 10
4.82327
 20
4.04018
 30
0.000000
  70
    32
  0
VERTEX
  8
AM_VIS
  5
49F
 10
4.82304
 20
4.03827
 30
0.000000
  70
    32
  0
VERTEX
  8
AM_VIS
  5
4A0
 10
4.82282
 20
4.03637
 30
0.000000
  70
    32
  0
VERTEX
  8
AM_VIS
  5
4A1
 10
4.82262
 20
4.03447
 30
0.000000
  70
    32
  0
VERTEX
  8
AM_VIS
  5
4A2
 10
4.82242
 20
4.03257
 30
0.000000
  70
    32
  0
VERTEX
  8
AM_VIS
  5
4A3
 10
4.82224
 20
4.03067
 30
0.000000
  70
    32
  0
VERTEX
  8
AM_VIS
  5
4A4
 10
4.82206
 20
4.02877
 30
0.000000
  70
    32
  0
VERTEX
  8
AM_VIS
  5
4A5
 10
4.82190
 20
4.02687
 30
0.000000
  70
    32
  0
VERTEX
  8
AM_VIS
  5
4A6
 10
4.82174
 20
4.02498
 30
0.000000
  70
    32
  0
VERTEX
  8
AM_VIS
  5
4A7
 10
4.82160
 20
4.02308
 30
0.000000
  70
    32
  0
VERTEX
  8
AM_VIS
  5
4A8
 10
4.82147
 20
4.02119
 30
0.000000
  70
    32
  0
VERTEX
  8
AM_VIS
  5
4A9
 10
4.82134
 20
4.01931
 30
0.000000
  70
    32
  0
VERTEX
  8
AM_VIS
  5
4AA
 10
4.82123
 20
4.01742
 30
0.000000
  70
    32
  0
VERTEX
  8
AM_VIS
  5
4AB
 10
4.82113
 20
4.01554
 30
0.000000
  70
    32
  0
VERTEX
  8
AM_VIS
  5
4AC
 10
4.82104
 20
4.01366
 30
0.000000
  70
    32
  0
VERTEX
  8
AM_VIS
  5
4AD
 10
4.82096
 20
4.01178
 30
0.000000
  70
    32
  0
VERTEX
  8
AM_VIS
  5
4AE
 10
4.82089
 20
4.00990
 30
0.000000
  70
    32
  0
VERTEX
  8
AM_VIS
  5
4AF
 10
4.82083
 20
4.00803
 30
0.000000
  70
    32
  0
VERTEX
  8
AM_VIS
  5
4B0
 10
4.82078
 20
4.00616
 30
0.000000
  70
    32
  0
VERTEX
  8
AM_VIS
  5
4B1
 10
4.82074
 20
4.00429
 30
0.000000
  70
    32
  0
VERTEX
  8
AM_VIS
  5
4B2
 10
4.82071
 20
4.00243
 30
0.000000
  70
    32
  0
VERTEX
  8
AM_VIS
  5
4B3
 10
4.82069
 20
4.00057
 30
0.000000
  70
    32
  0
VERTEX
  8
AM_VIS
  5
4B4
 10
4.82069
 20
3.99872
 30
0.000000
  70
    32
  0
VERTEX
  8
AM_VIS
  5
4B5
 10
4.82069
 20
3.99686
 30
0.000000
  70
    32
  0
VERTEX
  8
AM_VIS
  5
4B6
 10
4.82070
 20
3.99500
 30
0.000000
  70
    32
  0
VERTEX
  8
AM_VIS
  5
4B7
 10
4.82073
 20
3.99314
 30
0.000000
  70
    32
  0
VERTEX
  8
AM_VIS
  5
4B8
 10
4.82076
 20
3.99128
 30
0.000000
  70
    32
  0
VERTEX
  8
AM_VIS
  5
4B9
 10
4.82080
 20
3.98941
 30
0.000000
  70
    32
  0
VERTEX
  8
AM_VIS
  5
4BA
 10
4.82086
 20
3.98754
 30
0.000000
  70
    32
  0
VERTEX
  8
AM_VIS
  5
4BB
 10
4.82092
 20
3.98567
 30
0.000000
  70
    32
  0
VERTEX
  8
AM_VIS
  5
4BC
 10
4.82100
 20
3.98379
 30
0.000000
  70
    32
  0
VERTEX
  8
AM_VIS
  5
4BD
 10
4.82108
 20
3.98191
 30
0.000000
  70
    32
  0
VERTEX
  8
AM_VIS
  5
4BE
 10
4.82118
 20
3.98003
 30
0.000000
  70
    32
  0
VERTEX
  8
AM_VIS
  5
4BF
 10
4.82129
 20
3.97814
 30
0.000000
  70
    32
  0
VERTEX
  8
AM_VIS
  5
4C0
 10
4.82140
 20
3.97625
 30
0.000000
  70
    32
  0
VERTEX
  8
AM_VIS
  5
4C1
 10
4.82153
 20
3.97437
 30
0.000000
  70
    32
  0
VERTEX
  8
AM_VIS
  5
4C2
 10
4.82167
 20
3.97247
 30
0.000000
  70
    32
  0
VERTEX
  8
AM_VIS
  5
4C3
 10
4.82182
 20
3.97058
 30
0.000000
  70
    32
  0
VERTEX
  8
AM_VIS
  5
4C4
 10
4.82198
 20
3.96868
 30
0.000000
  70
    32
  0
VERTEX
  8
AM_VIS
  5
4C5
 10
4.82215
 20
3.96679
 30
0.000000
  70
    32
  0
VERTEX
  8
AM_VIS
  5
4C6
 10
4.82233
 20
3.96489
 30
0.000000
  70
    32
  0
VERTEX
  8
AM_VIS
  5
4C7
 10
4.82252
 20
3.96299
 30
0.000000
  70
    32
  0
VERTEX
  8
AM_VIS
  5
4C8
 10
4.82272
 20
3.96109
 30
0.000000
  70
    32
  0
VERTEX
  8
AM_VIS
  5
4C9
 10
4.82293
 20
3.95918
 30
0.000000
  70
    32
  0
VERTEX
  8
AM_VIS
  5
4CA
 10
4.82315
 20
3.95728
 30
0.000000
  70
    32
  0
VERTEX
  8
AM_VIS
  5
4CB
 10
4.82338
 20
3.95537
 30
0.000000
  70
    32
  0
VERTEX
  8
AM_VIS
  5
4CC
 10
4.82363
 20
3.95347
 30
0.000000
  70
    32
  0
VERTEX
  8
AM_VIS
  5
4CD
 10
4.82388
 20
3.95156
 30
0.000000
  70
    32
  0
VERTEX
  8
AM_VIS
  5
4CE
 10
4.82415
 20
3.94965
 30
0.000000
  70
    32
  0
VERTEX
  8
AM_VIS
  5
4CF
 10
4.82442
 20
3.94774
 30
0.000000
  70
    32
  0
VERTEX
  8
AM_VIS
  5
4D0
 10
4.82471
 20
3.94583
 30
0.000000
  70
    32
  0
VERTEX
  8
AM_VIS
  5
4D1
 10
4.82500
 20
3.94392
 30
0.000000
  70
    32
  0
VERTEX
  8
AM_VIS
  5
4D2
 10
4.82531
 20
3.94202
 30
0.000000
  70
    32
  0
VERTEX
  8
AM_VIS
  5
4D3
 10
4.82562
 20
3.94011
 30
0.000000
  70
    32
  0
VERTEX
  8
AM_VIS
  5
4D4
 10
4.82595
 20
3.93820
 30
0.000000
  70
    32
  0
VERTEX
  8
AM_VIS
  5
4D5
 10
4.82629
 20
3.93629
 30
0.000000
  70
    32
  0
VERTEX
  8
AM_VIS
  5
4D6
 10
4.82664
 20
3.93438
 30
0.000000
  70
    32
  0
VERTEX
  8
AM_VIS
  5
4D7
 10
4.82700
 20
3.93247
 30
0.000000
  70
    32
  0
VERTEX
  8
AM_VIS
  5
4D8
 10
4.82737
 20
3.93056
 30
0.000000
  70
    32
  0
VERTEX
  8
AM_VIS
  5
4D9
 10
4.82775
 20
3.92865
 30
0.000000
  70
    32
  0
VERTEX
  8
AM_VIS
  5
4DA
 10
4.82814
 20
3.92675
 30
0.000000
  70
    32
  0
VERTEX
  8
AM_VIS
  5
4DB
 10
4.82854
 20
3.92484
 30
0.000000
  70
    32
  0
VERTEX
  8
AM_VIS
  5
4DC
 10
4.82895
 20
3.92293
 30
0.000000
  70
    32
  0
VERTEX
  8
AM_VIS
  5
4DD
 10
4.82937
 20
3.92103
 30
0.000000
  70
    32
  0
VERTEX
  8
AM_VIS
  5
4DE
 10
4.82981
 20
3.91913
 30
0.000000
  70
    32
  0
VERTEX
  8
AM_VIS
  5
4DF
 10
4.83025
 20
3.91723
 30
0.000000
  70
    32
  0
VERTEX
  8
AM_VIS
  5
4E0
 10
4.83071
 20
3.91533
 30
0.000000
  70
    32
  0
VERTEX
  8
AM_VIS
  5
4E1
 10
4.83117
 20
3.91343
 30
0.000000
  70
    32
  0
VERTEX
  8
AM_VIS
  5
4E2
 10
4.83165
 20
3.91153
 30
0.000000
  70
    32
  0
VERTEX
  8
AM_VIS
  5
4E3
 10
4.83214
 20
3.90964
 30
0.000000
  70
    32
  0
VERTEX
  8
AM_VIS
  5
4E4
 10
4.83263
 20
3.90774
 30
0.000000
  70
    32
  0
VERTEX
  8
AM_VIS
  5
4E5
 10
4.83314
 20
3.90585
 30
0.000000
  70
    32
  0
VERTEX
  8
AM_VIS
  5
4E6
 10
4.83366
 20
3.90397
 30
0.000000
  70
    32
  0
VERTEX
  8
AM_VIS
  5
4E7
 10
4.83419
 20
3.90208
 30
0.000000
  70
    32
  0
VERTEX
  8
AM_VIS
  5
4E8
 10
4.83473
 20
3.90020
 30
0.000000
  70
    32
  0
VERTEX
  8
AM_VIS
  5
4E9
 10
4.83528
 20
3.89831
 30
0.000000
  70
    32
  0
VERTEX
  8
AM_VIS
  5
4EA
 10
4.83584
 20
3.89644
 30
0.000000
  70
    32
  0
VERTEX
  8
AM_VIS
  5
4EB
 10
4.83641
 20
3.89456
 30
0.000000
  70
    32
  0
VERTEX
  8
AM_VIS
  5
4EC
 10
4.83700
 20
3.89269
 30
0.000000
  70
    32
  0
VERTEX
  8
AM_VIS
  5
4ED
 10
4.83759
 20
3.89082
 30
0.000000
  70
    32
  0
VERTEX
  8
AM_VIS
  5
4EE
 10
4.83819
 20
3.88895
 30
0.000000
  70
    32
  0
VERTEX
  8
AM_VIS
  5
4EF
 10
4.83881
 20
3.88709
 30
0.000000
  70
    32
  0
VERTEX
  8
AM_VIS
  5
4F0
 10
4.83944
 20
3.88523
 30
0.000000
  70
    32
  0
VERTEX
  8
AM_VIS
  5
4F1
 10
4.84007
 20
3.88337
 30
0.000000
  70
    32
  0
VERTEX
  8
AM_VIS
  5
4F2
 10
4.84072
 20
3.88152
 30
0.000000
  70
    32
  0
VERTEX
  8
AM_VIS
  5
4F3
 10
4.84138
 20
3.87967
 30
0.000000
  70
    32
  0
VERTEX
  8
AM_VIS
  5
4F4
 10
4.84205
 20
3.87783
 30
0.000000
  70
    32
  0
VERTEX
  8
AM_VIS
  5
4F5
 10
4.84273
 20
3.87598
 30
0.000000
  70
    32
  0
VERTEX
  8
AM_VIS
  5
4F6
 10
4.84342
 20
3.87415
 30
0.000000
  70
    32
  0
VERTEX
  8
AM_VIS
  5
4F7
 10
4.84412
 20
3.87231
 30
0.000000
  70
    32
  0
VERTEX
  8
AM_VIS
  5
4F8
 10
4.84483
 20
3.87049
 30
0.000000
  70
    32
  0
VERTEX
  8
AM_VIS
  5
4F9
 10
4.84555
 20
3.86866
 30
0.000000
  70
    32
  0
VERTEX
  8
AM_VIS
  5
4FA
 10
4.84629
 20
3.86684
 30
0.000000
  70
    32
  0
VERTEX
  8
AM_VIS
  5
4FB
 10
4.84703
 20
3.86503
 30
0.000000
  70
    32
  0
VERTEX
  8
AM_VIS
  5
4FC
 10
4.84779
 20
3.86322
 30
0.000000
  70
    32
  0
VERTEX
  8
AM_VIS
  5
4FD
 10
4.84855
 20
3.86141
 30
0.000000
  70
    32
  0
VERTEX
  8
AM_VIS
  5
4FE
 10
4.84933
 20
3.85961
 30
0.000000
  70
    32
  0
VERTEX
  8
AM_VIS
  5
4FF
 10
4.85011
 20
3.85782
 30
0.000000
  70
    32
  0
VERTEX
  8
AM_VIS
  5
500
 10
4.85091
 20
3.85603
 30
0.000000
  70
    32
  0
VERTEX
  8
AM_VIS
  5
501
 10
4.85172
 20
3.85424
 30
0.000000
  70
    32
  0
VERTEX
  8
AM_VIS
  5
502
 10
4.85253
 20
3.85246
 30
0.000000
  70
    32
  0
VERTEX
  8
AM_VIS
  5
503
 10
4.85336
 20
3.85069
 30
0.000000
  70
    32
  0
VERTEX
  8
AM_VIS
  5
504
 10
4.85419
 20
3.84892
 30
0.000000
  70
    32
  0
VERTEX
  8
AM_VIS
  5
505
 10
4.85504
 20
3.84716
 30
0.000000
  70
    32
  0
VERTEX
  8
AM_VIS
  5
506
 10
4.85589
 20
3.84540
 30
0.000000
  70
    32
  0
VERTEX
  8
AM_VIS
  5
507
 10
4.85676
 20
3.84365
 30
0.000000
  70
    32
  0
VERTEX
  8
AM_VIS
  5
508
 10
4.85763
 20
3.84190
 30
0.000000
  70
    32
  0
VERTEX
  8
AM_VIS
  5
509
 10
4.85852
 20
3.84016
 30
0.000000
  70
    32
  0
VERTEX
  8
AM_VIS
  5
50A
 10
4.85941
 20
3.83842
 30
0.000000
  70
    32
  0
VERTEX
  8
AM_VIS
  5
50B
 10
4.86031
 20
3.83669
 30
0.000000
  70
    32
  0
VERTEX
  8
AM_VIS
  5
50C
 10
4.86123
 20
3.83497
 30
0.000000
  70
    32
  0
VERTEX
  8
AM_VIS
  5
50D
 10
4.86215
 20
3.83325
 30
0.000000
  70
    32
  0
VERTEX
  8
AM_VIS
  5
50E
 10
4.86308
 20
3.83154
 30
0.000000
  70
    32
  0
VERTEX
  8
AM_VIS
  5
50F
 10
4.86402
 20
3.82984
 30
0.000000
  70
    32
  0
VERTEX
  8
AM_VIS
  5
510
 10
4.86497
 20
3.82814
 30
0.000000
  70
    32
  0
VERTEX
  8
AM_VIS
  5
511
 10
4.86592
 20
3.82645
 30
0.000000
  70
    32
  0
VERTEX
  8
AM_VIS
  5
512
 10
4.86689
 20
3.82476
 30
0.000000
  70
    32
  0
VERTEX
  8
AM_VIS
  5
513
 10
4.86786
 20
3.82308
 30
0.000000
  70
    32
  0
VERTEX
  8
AM_VIS
  5
514
 10
4.86884
 20
3.82141
 30
0.000000
  70
    32
  0
VERTEX
  8
AM_VIS
  5
515
 10
4.86984
 20
3.81975
 30
0.000000
  70
    32
  0
VERTEX
  8
AM_VIS
  5
516
 10
4.87083
 20
3.81809
 30
0.000000
  70
    32
  0
VERTEX
  8
AM_VIS
  5
517
 10
4.87184
 20
3.81644
 30
0.000000
  70
    32
  0
VERTEX
  8
AM_VIS
  5
518
 10
4.87286
 20
3.81479
 30
0.000000
  70
    32
  0
VERTEX
  8
AM_VIS
  5
519
 10
4.87388
 20
3.81316
 30
0.000000
  70
    32
  0
VERTEX
  8
AM_VIS
  5
51A
 10
4.87491
 20
3.81153
 30
0.000000
  70
    32
  0
VERTEX
  8
AM_VIS
  5
51B
 10
4.87595
 20
3.80990
 30
0.000000
  70
    32
  0
VERTEX
  8
AM_VIS
  5
51C
 10
4.87700
 20
3.80829
 30
0.000000
  70
    32
  0
VERTEX
  8
AM_VIS
  5
51D
 10
4.87806
 20
3.80668
 30
0.000000
  70
    32
  0
VERTEX
  8
AM_VIS
  5
51E
 10
4.87912
 20
3.80508
 30
0.000000
  70
    32
  0
VERTEX
  8
AM_VIS
  5
51F
 10
4.88019
 20
3.80349
 30
0.000000
  70
    32
  0
VERTEX
  8
AM_VIS
  5
520
 10
4.88127
 20
3.80190
 30
0.000000
  70
    32
  0
VERTEX
  8
AM_VIS
  5
521
 10
4.88236
 20
3.80032
 30
0.000000
  70
    32
  0
VERTEX
  8
AM_VIS
  5
522
 10
4.88345
 20
3.79876
 30
0.000000
  70
    32
  0
VERTEX
  8
AM_VIS
  5
523
 10
4.88455
 20
3.79719
 30
0.000000
  70
    32
  0
VERTEX
  8
AM_VIS
  5
524
 10
4.88566
 20
3.79564
 30
0.000000
  70
    32
  0
VERTEX
  8
AM_VIS
  5
525
 10
4.88678
 20
3.79409
 30
0.000000
  70
    32
  0
VERTEX
  8
AM_VIS
  5
526
 10
4.88790
 20
3.79256
 30
0.000000
  70
    32
  0
VERTEX
  8
AM_VIS
  5
527
 10
4.88903
 20
3.79103
 30
0.000000
  70
    32
  0
VERTEX
  8
AM_VIS
  5
528
 10
4.89016
 20
3.78951
 30
0.000000
  70
    32
  0
VERTEX
  8
AM_VIS
  5
529
 10
4.89131
 20
3.78800
 30
0.000000
  70
    32
  0
VERTEX
  8
AM_VIS
  5
52A
 10
4.89246
 20
3.78649
 30
0.000000
  70
    32
  0
VERTEX
  8
AM_VIS
  5
52B
 10
4.89361
 20
3.78500
 30
0.000000
  70
    32
  0
VERTEX
  8
AM_VIS
  5
52C
 10
4.89478
 20
3.78351
 30
0.000000
  70
    32
  0
VERTEX
  8
AM_VIS
  5
52D
 10
4.89595
 20
3.78203
 30
0.000000
  70
    32
  0
VERTEX
  8
AM_VIS
  5
52E
 10
4.89712
 20
3.78056
 30
0.000000
  70
    32
  0
VERTEX
  8
AM_VIS
  5
52F
 10
4.89830
 20
3.77910
 30
0.000000
  70
    32
  0
VERTEX
  8
AM_VIS
  5
530
 10
4.89949
 20
3.77765
 30
0.000000
  70
    32
  0
VERTEX
  8
AM_VIS
  5
531
 10
4.90069
 20
3.77621
 30
0.000000
  70
    32
  0
VERTEX
  8
AM_VIS
  5
532
 10
4.90189
 20
3.77478
 30
0.000000
  70
    32
  0
VERTEX
  8
AM_VIS
  5
533
 10
4.90309
 20
3.77336
 30
0.000000
  70
    32
  0
VERTEX
  8
AM_VIS
  5
534
 10
4.90431
 20
3.77194
 30
0.000000
  70
    32
  0
VERTEX
  8
AM_VIS
  5
535
 10
4.90552
 20
3.77054
 30
0.000000
  70
    32
  0
VERTEX
  8
AM_VIS
  5
536
 10
4.90675
 20
3.76914
 30
0.000000
  70
    32
  0
VERTEX
  8
AM_VIS
  5
537
 10
4.90798
 20
3.76776
 30
0.000000
  70
    32
  0
VERTEX
  8
AM_VIS
  5
538
 10
4.90921
 20
3.76638
 30
0.000000
  70
    32
  0
VERTEX
  8
AM_VIS
  5
539
 10
4.91045
 20
3.76501
 30
0.000000
  70
    32
  0
VERTEX
  8
AM_VIS
  5
53A
 10
4.91170
 20
3.76366
 30
0.000000
  70
    32
  0
VERTEX
  8
AM_VIS
  5
53B
 10
4.91295
 20
3.76231
 30
0.000000
  70
    32
  0
VERTEX
  8
AM_VIS
  5
53C
 10
4.91421
 20
3.76097
 30
0.000000
  70
    32
  0
VERTEX
  8
AM_VIS
  5
53D
 10
4.91547
 20
3.75964
 30
0.000000
  70
    32
  0
VERTEX
  8
AM_VIS
  5
53E
 10
4.91675
 20
3.75832
 30
0.000000
  70
    32
  0
VERTEX
  8
AM_VIS
  5
53F
 10
4.91804
 20
3.75699
 30
0.000000
  70
    32
  0
VERTEX
  8
AM_VIS
  5
540
 10
4.91934
 20
3.75568
 30
0.000000
  70
    32
  0
VERTEX
  8
AM_VIS
  5
541
 10
4.92064
 20
3.75437
 30
0.000000
  70
    32
  0
VERTEX
  8
AM_VIS
  5
542
 10
4.92196
 20
3.75306
 30
0.000000
  70
    32
  0
VERTEX
  8
AM_VIS
  5
543
 10
4.92329
 20
3.75176
 30
0.000000
  70
    32
  0
VERTEX
  8
AM_VIS
  5
544
 10
4.92462
 20
3.75046
 30
0.000000
  70
    32
  0
VERTEX
  8
AM_VIS
  5
545
 10
4.92597
 20
3.74917
 30
0.000000
  70
    32
  0
VERTEX
  8
AM_VIS
  5
546
 10
4.92733
 20
3.74789
 30
0.000000
  70
    32
  0
VERTEX
  8
AM_VIS
  5
547
 10
4.92869
 20
3.74661
 30
0.000000
  70
    32
  0
VERTEX
  8
AM_VIS
  5
548
 10
4.93007
 20
3.74533
 30
0.000000
  70
    32
  0
VERTEX
  8
AM_VIS
  5
549
 10
4.93145
 20
3.74407
 30
0.000000
  70
    32
  0
VERTEX
  8
AM_VIS
  5
54A
 10
4.93284
 20
3.74280
 30
0.000000
  70
    32
  0
VERTEX
  8
AM_VIS
  5
54B
 10
4.93425
 20
3.74155
 30
0.000000
  70
    32
  0
VERTEX
  8
AM_VIS
  5
54C
 10
4.93566
 20
3.74030
 30
0.000000
  70
    32
  0
VERTEX
  8
AM_VIS
  5
54D
 10
4.93708
 20
3.73906
 30
0.000000
  70
    32
  0
VERTEX
  8
AM_VIS
  5
54E
 10
4.93851
 20
3.73782
 30
0.000000
  70
    32
  0
VERTEX
  8
AM_VIS
  5
54F
 10
4.93995
 20
3.73659
 30
0.000000
  70
    32
  0
VERTEX
  8
AM_VIS
  5
550
 10
4.94139
 20
3.73537
 30
0.000000
  70
    32
  0
VERTEX
  8
AM_VIS
  5
551
 10
4.94285
 20
3.73415
 30
0.000000
  70
    32
  0
VERTEX
  8
AM_VIS
  5
552
 10
4.94431
 20
3.73294
 30
0.000000
  70
    32
  0
VERTEX
  8
AM_VIS
  5
553
 10
4.94579
 20
3.73174
 30
0.000000
  70
    32
  0
VERTEX
  8
AM_VIS
  5
554
 10
4.94727
 20
3.73054
 30
0.000000
  70
    32
  0
VERTEX
  8
AM_VIS
  5
555
 10
4.94876
 20
3.72935
 30
0.000000
  70
    32
  0
VERTEX
  8
AM_VIS
  5
556
 10
4.95026
 20
3.72817
 30
0.000000
  70
    32
  0
VERTEX
  8
AM_VIS
  5
557
 10
4.95176
 20
3.72700
 30
0.000000
  70
    32
  0
VERTEX
  8
AM_VIS
  5
558
 10
4.95328
 20
3.72583
 30
0.000000
  70
    32
  0
VERTEX
  8
AM_VIS
  5
559
 10
4.95480
 20
3.72467
 30
0.000000
  70
    32
  0
VERTEX
  8
AM_VIS
  5
55A
 10
4.95633
 20
3.72352
 30
0.000000
  70
    32
  0
VERTEX
  8
AM_VIS
  5
55B
 10
4.95787
 20
3.72238
 30
0.000000
  70
    32
  0
VERTEX
  8
AM_VIS
  5
55C
 10
4.95942
 20
3.72124
 30
0.000000
  70
    32
  0
VERTEX
  8
AM_VIS
  5
55D
 10
4.96098
 20
3.72011
 30
0.000000
  70
    32
  0
VERTEX
  8
AM_VIS
  5
55E
 10
4.96254
 20
3.71899
 30
0.000000
  70
    32
  0
VERTEX
  8
AM_VIS
  5
55F
 10
4.96411
 20
3.71788
 30
0.000000
  70
    32
  0
VERTEX
  8
AM_VIS
  5
560
 10
4.96569
 20
3.71677
 30
0.000000
  70
    32
  0
VERTEX
  8
AM_VIS
  5
561
 10
4.96727
 20
3.71568
 30
0.000000
  70
    32
  0
VERTEX
  8
AM_VIS
  5
562
 10
4.96886
 20
3.71459
 30
0.000000
  70
    32
  0
VERTEX
  8
AM_VIS
  5
563
 10
4.97046
 20
3.71351
 30
0.000000
  70
    32
  0
VERTEX
  8
AM_VIS
  5
564
 10
4.97207
 20
3.71244
 30
0.000000
  70
    32
  0
VERTEX
  8
AM_VIS
  5
565
 10
4.97369
 20
3.71138
 30
0.000000
  70
    32
  0
VERTEX
  8
AM_VIS
  5
566
 10
4.97531
 20
3.71033
 30
0.000000
  70
    32
  0
VERTEX
  8
AM_VIS
  5
567
 10
4.97694
 20
3.70928
 30
0.000000
  70
    32
  0
VERTEX
  8
AM_VIS
  5
568
 10
4.97857
 20
3.70825
 30
0.000000
  70
    32
  0
VERTEX
  8
AM_VIS
  5
569
 10
4.98022
 20
3.70722
 30
0.000000
  70
    32
  0
VERTEX
  8
AM_VIS
  5
56A
 10
4.98187
 20
3.70620
 30
0.000000
  70
    32
  0
VERTEX
  8
AM_VIS
  5
56B
 10
4.98352
 20
3.70519
 30
0.000000
  70
    32
  0
VERTEX
  8
AM_VIS
  5
56C
 10
4.98519
 20
3.70420
 30
0.000000
  70
    32
  0
VERTEX
  8
AM_VIS
  5
56D
 10
4.98686
 20
3.70321
 30
0.000000
  70
    32
  0
VERTEX
  8
AM_VIS
  5
56E
 10
4.98853
 20
3.70223
 30
0.000000
  70
    32
  0
VERTEX
  8
AM_VIS
  5
56F
 10
4.99022
 20
3.70126
 30
0.000000
  70
    32
  0
VERTEX
  8
AM_VIS
  5
570
 10
4.99191
 20
3.70030
 30
0.000000
  70
    32
  0
VERTEX
  8
AM_VIS
  5
571
 10
4.99360
 20
3.69935
 30
0.000000
  70
    32
  0
VERTEX
  8
AM_VIS
  5
572
 10
4.99530
 20
3.69841
 30
0.000000
  70
    32
  0
VERTEX
  8
AM_VIS
  5
573
 10
4.99701
 20
3.69748
 30
0.000000
  70
    32
  0
VERTEX
  8
AM_VIS
  5
574
 10
4.99873
 20
3.69656
 30
0.000000
  70
    32
  0
VERTEX
  8
AM_VIS
  5
575
 10
5.00045
 20
3.69565
 30
0.000000
  70
    32
  0
VERTEX
  8
AM_VIS
  5
576
 10
5.00217
 20
3.69475
 30
0.000000
  70
    32
  0
VERTEX
  8
AM_VIS
  5
577
 10
5.00390
 20
3.69386
 30
0.000000
  70
    32
  0
VERTEX
  8
AM_VIS
  5
578
 10
5.00564
 20
3.69298
 30
0.000000
  70
    32
  0
VERTEX
  8
AM_VIS
  5
579
 10
5.00739
 20
3.69211
 30
0.000000
  70
    32
  0
VERTEX
  8
AM_VIS
  5
57A
 10
5.00913
 20
3.69125
 30
0.000000
  70
    32
  0
VERTEX
  8
AM_VIS
  5
57B
 10
5.01089
 20
3.69041
 30
0.000000
  70
    32
  0
VERTEX
  8
AM_VIS
  5
57C
 10
5.01265
 20
3.68957
 30
0.000000
  70
    32
  0
VERTEX
  8
AM_VIS
  5
57D
 10
5.01441
 20
3.68875
 30
0.000000
  70
    32
  0
VERTEX
  8
AM_VIS
  5
57E
 10
5.01619
 20
3.68793
 30
0.000000
  70
    32
  0
VERTEX
  8
AM_VIS
  5
57F
 10
5.01796
 20
3.68713
 30
0.000000
  70
    32
  0
VERTEX
  8
AM_VIS
  5
580
 10
5.01974
 20
3.68634
 30
0.000000
  70
    32
  0
VERTEX
  8
AM_VIS
  5
581
 10
5.02153
 20
3.68556
 30
0.000000
  70
    32
  0
VERTEX
  8
AM_VIS
  5
582
 10
5.02332
 20
3.68479
 30
0.000000
  70
    32
  0
VERTEX
  8
AM_VIS
  5
583
 10
5.02512
 20
3.68404
 30
0.000000
  70
    32
  0
VERTEX
  8
AM_VIS
  5
584
 10
5.02692
 20
3.68329
 30
0.000000
  70
    32
  0
VERTEX
  8
AM_VIS
  5
585
 10
5.02873
 20
3.68256
 30
0.000000
  70
    32
  0
VERTEX
  8
AM_VIS
  5
586
 10
5.03054
 20
3.68184
 30
0.000000
  70
    32
  0
VERTEX
  8
AM_VIS
  5
587
 10
5.03235
 20
3.68113
 30
0.000000
  70
    32
  0
VERTEX
  8
AM_VIS
  5
588
 10
5.03417
 20
3.68043
 30
0.000000
  70
    32
  0
VERTEX
  8
AM_VIS
  5
589
 10
5.03599
 20
3.67974
 30
0.000000
  70
    32
  0
VERTEX
  8
AM_VIS
  5
58A
 10
5.03782
 20
3.67906
 30
0.000000
  70
    32
  0
VERTEX
  8
AM_VIS
  5
58B
 10
5.03965
 20
3.67840
 30
0.000000
  70
    32
  0
VERTEX
  8
AM_VIS
  5
58C
 10
5.04149
 20
3.67774
 30
0.000000
  70
    32
  0
VERTEX
  8
AM_VIS
  5
58D
 10
5.04333
 20
3.67710
 30
0.000000
  70
    32
  0
VERTEX
  8
AM_VIS
  5
58E
 10
5.04517
 20
3.67647
 30
0.000000
  70
    32
  0
VERTEX
  8
AM_VIS
  5
58F
 10
5.04701
 20
3.67585
 30
0.000000
  70
    32
  0
VERTEX
  8
AM_VIS
  5
590
 10
5.04886
 20
3.67524
 30
0.000000
  70
    32
  0
VERTEX
  8
AM_VIS
  5
591
 10
5.05071
 20
3.67465
 30
0.000000
  70
    32
  0
VERTEX
  8
AM_VIS
  5
592
 10
5.05257
 20
3.67406
 30
0.000000
  70
    32
  0
VERTEX
  8
AM_VIS
  5
593
 10
5.05443
 20
3.67349
 30
0.000000
  70
    32
  0
VERTEX
  8
AM_VIS
  5
594
 10
5.05629
 20
3.67293
 30
0.000000
  70
    32
  0
VERTEX
  8
AM_VIS
  5
595
 10
5.05815
 20
3.67238
 30
0.000000
  70
    32
  0
VERTEX
  8
AM_VIS
  5
596
 10
5.06002
 20
3.67184
 30
0.000000
  70
    32
  0
VERTEX
  8
AM_VIS
  5
597
 10
5.06189
 20
3.67131
 30
0.000000
  70
    32
  0
VERTEX
  8
AM_VIS
  5
598
 10
5.06376
 20
3.67080
 30
0.000000
  70
    32
  0
VERTEX
  8
AM_VIS
  5
599
 10
5.06563
 20
3.67029
 30
0.000000
  70
    32
  0
VERTEX
  8
AM_VIS
  5
59A
 10
5.06751
 20
3.66980
 30
0.000000
  70
    32
  0
VERTEX
  8
AM_VIS
  5
59B
 10
5.06939
 20
3.66932
 30
0.000000
  70
    32
  0
VERTEX
  8
AM_VIS
  5
59C
 10
5.07127
 20
3.66885
 30
0.000000
  70
    32
  0
VERTEX
  8
AM_VIS
  5
59D
 10
5.07315
 20
3.66839
 30
0.000000
  70
    32
  0
VERTEX
  8
AM_VIS
  5
59E
 10
5.07503
 20
3.66795
 30
0.000000
  70
    32
  0
VERTEX
  8
AM_VIS
  5
59F
 10
5.07691
 20
3.66751
 30
0.000000
  70
    32
  0
VERTEX
  8
AM_VIS
  5
5A0
 10
5.07880
 20
3.66709
 30
0.000000
  70
    32
  0
VERTEX
  8
AM_VIS
  5
5A1
 10
5.08069
 20
3.66668
 30
0.000000
  70
    32
  0
VERTEX
  8
AM_VIS
  5
5A2
 10
5.08258
 20
3.66628
 30
0.000000
  70
    32
  0
VERTEX
  8
AM_VIS
  5
5A3
 10
5.08446
 20
3.66589
 30
0.000000
  70
    32
  0
VERTEX
  8
AM_VIS
  5
5A4
 10
5.08635
 20
3.66551
 30
0.000000
  70
    32
  0
VERTEX
  8
AM_VIS
  5
5A5
 10
5.08825
 20
3.66515
 30
0.000000
  70
    32
  0
VERTEX
  8
AM_VIS
  5
5A6
 10
5.09014
 20
3.66479
 30
0.000000
  70
    32
  0
VERTEX
  8
AM_VIS
  5
5A7
 10
5.09203
 20
3.66445
 30
0.000000
  70
    32
  0
VERTEX
  8
AM_VIS
  5
5A8
 10
5.09392
 20
3.66412
 30
0.000000
  70
    32
  0
VERTEX
  8
AM_VIS
  5
5A9
 10
5.09581
 20
3.66380
 30
0.000000
  70
    32
  0
VERTEX
  8
AM_VIS
  5
5AA
 10
5.09771
 20
3.66349
 30
0.000000
  70
    32
  0
VERTEX
  8
AM_VIS
  5
5AB
 10
5.09960
 20
3.66319
 30
0.000000
  70
    32
  0
VERTEX
  8
AM_VIS
  5
5AC
 10
5.10149
 20
3.66291
 30
0.000000
  70
    32
  0
VERTEX
  8
AM_VIS
  5
5AD
 10
5.10339
 20
3.66264
 30
0.000000
  70
    32
  0
VERTEX
  8
AM_VIS
  5
5AE
 10
5.10528
 20
3.66238
 30
0.000000
  70
    32
  0
VERTEX
  8
AM_VIS
  5
5AF
 10
5.10717
 20
3.66213
 30
0.000000
  70
    32
  0
VERTEX
  8
AM_VIS
  5
5B0
 10
5.10906
 20
3.66189
 30
0.000000
  70
    32
  0
VERTEX
  8
AM_VIS
  5
5B1
 10
5.11095
 20
3.66166
 30
0.000000
  70
    32
  0
VERTEX
  8
AM_VIS
  5
5B2
 10
5.11284
 20
3.66145
 30
0.000000
  70
    32
  0
VERTEX
  8
AM_VIS
  5
5B3
 10
5.11473
 20
3.66124
 30
0.000000
  70
    32
  0
VERTEX
  8
AM_VIS
  5
5B4
 10
5.11662
 20
3.66105
 30
0.000000
  70
    32
  0
VERTEX
  8
AM_VIS
  5
5B5
 10
5.11850
 20
3.66087
 30
0.000000
  70
    32
  0
VERTEX
  8
AM_VIS
  5
5B6
 10
5.12039
 20
3.66070
 30
0.000000
  70
    32
  0
VERTEX
  8
AM_VIS
  5
5B7
 10
5.12227
 20
3.66054
 30
0.000000
  70
    32
  0
VERTEX
  8
AM_VIS
  5
5B8
 10
5.12416
 20
3.66040
 30
0.000000
  70
    32
  0
VERTEX
  8
AM_VIS
  5
5B9
 10
5.12604
 20
3.66026
 30
0.000000
  70
    32
  0
VERTEX
  8
AM_VIS
  5
5BA
 10
5.12792
 20
3.66014
 30
0.000000
  70
    32
  0
VERTEX
  8
AM_VIS
  5
5BB
 10
5.12979
 20
3.66003
 30
0.000000
  70
    32
  0
VERTEX
  8
AM_VIS
  5
5BC
 10
5.13167
 20
3.65993
 30
0.000000
  70
    32
  0
VERTEX
  8
AM_VIS
  5
5BD
 10
5.13354
 20
3.65985
 30
0.000000
  70
    32
  0
VERTEX
  8
AM_VIS
  5
5BE
 10
5.13541
 20
3.65977
 30
0.000000
  70
    32
  0
VERTEX
  8
AM_VIS
  5
5BF
 10
5.13728
 20
3.65971
 30
0.000000
  70
    32
  0
VERTEX
  8
AM_VIS
  5
5C0
 10
5.13915
 20
3.65965
 30
0.000000
  70
    32
  0
VERTEX
  8
AM_VIS
  5
5C1
 10
5.14101
 20
3.65961
 30
0.000000
  70
    32
  0
VERTEX
  8
AM_VIS
  5
5C2
 10
5.14287
 20
3.65958
 30
0.000000
  70
    32
  0
VERTEX
  8
AM_VIS
  5
5C3
 10
5.14473
 20
3.65957
 30
0.000000
  70
    32
  0
VERTEX
  8
AM_VIS
  5
5C4
 10
5.14658
 20
3.65956
 30
0.000000
  70
    32
  0
SEQEND
  8
AM_VIS
  5
5C5
  0
CIRCLE
  5
48
  8
AM_VIS
 10
5.1465841468164006
 20
3.998252406180868
 30
0.0
 40
0.3125
  0
POLYLINE
  8
AM_VIS
  5
5C6
  66
     1
 10
0.000000
 20
0.000000
 30
0.000000
  70
     8
  0
VERTEX
  8
AM_VIS
  5
5C7
 10
6.64658
 20
3.65956
 30
0.000000
  70
    32
  0
VERTEX
  8
AM_VIS
  5
5C8
 10
6.64844
 20
3.65957
 30
0.000000
  70
    32
  0
VERTEX
  8
AM_VIS
  5
5C9
 10
6.65030
 20
3.65958
 30
0.000000
  70
    32
  0
VERTEX
  8
AM_VIS
  5
5CA
 10
6.65216
 20
3.65961
 30
0.000000
  70
    32
  0
VERTEX
  8
AM_VIS
  5
5CB
 10
6.65402
 20
3.65965
 30
0.000000
  70
    32
  0
VERTEX
  8
AM_VIS
  5
5CC
 10
6.65589
 20
3.65971
 30
0.000000
  70
    32
  0
VERTEX
  8
AM_VIS
  5
5CD
 10
6.65776
 20
3.65977
 30
0.000000
  70
    32
  0
VERTEX
  8
AM_VIS
  5
5CE
 10
6.65963
 20
3.65985
 30
0.000000
  70
    32
  0
VERTEX
  8
AM_VIS
  5
5CF
 10
6.66150
 20
3.65993
 30
0.000000
  70
    32
  0
VERTEX
  8
AM_VIS
  5
5D0
 10
6.66337
 20
3.66003
 30
0.000000
  70
    32
  0
VERTEX
  8
AM_VIS
  5
5D1
 10
6.66525
 20
3.66014
 30
0.000000
  70
    32
  0
VERTEX
  8
AM_VIS
  5
5D2
 10
6.66713
 20
3.66026
 30
0.000000
  70
    32
  0
VERTEX
  8
AM_VIS
  5
5D3
 10
6.66901
 20
3.66040
 30
0.000000
  70
    32
  0
VERTEX
  8
AM_VIS
  5
5D4
 10
6.67089
 20
3.66054
 30
0.000000
  70
    32
  0
VERTEX
  8
AM_VIS
  5
5D5
 10
6.67278
 20
3.66070
 30
0.000000
  70
    32
  0
VERTEX
  8
AM_VIS
  5
5D6
 10
6.67466
 20
3.66087
 30
0.000000
  70
    32
  0
VERTEX
  8
AM_VIS
  5
5D7
 10
6.67655
 20
3.66105
 30
0.000000
  70
    32
  0
VERTEX
  8
AM_VIS
  5
5D8
 10
6.67844
 20
3.66124
 30
0.000000
  70
    32
  0
VERTEX
  8
AM_VIS
  5
5D9
 10
6.68033
 20
3.66145
 30
0.000000
  70
    32
  0
VERTEX
  8
AM_VIS
  5
5DA
 10
6.68222
 20
3.66166
 30
0.000000
  70
    32
  0
VERTEX
  8
AM_VIS
  5
5DB
 10
6.68411
 20
3.66189
 30
0.000000
  70
    32
  0
VERTEX
  8
AM_VIS
  5
5DC
 10
6.68600
 20
3.66213
 30
0.000000
  70
    32
  0
VERTEX
  8
AM_VIS
  5
5DD
 10
6.68789
 20
3.66238
 30
0.000000
  70
    32
  0
VERTEX
  8
AM_VIS
  5
5DE
 10
6.68978
 20
3.66264
 30
0.000000
  70
    32
  0
VERTEX
  8
AM_VIS
  5
5DF
 10
6.69168
 20
3.66291
 30
0.000000
  70
    32
  0
VERTEX
  8
AM_VIS
  5
5E0
 10
6.69357
 20
3.66319
 30
0.000000
  70
    32
  0
VERTEX
  8
AM_VIS
  5
5E1
 10
6.69546
 20
3.66349
 30
0.000000
  70
    32
  0
VERTEX
  8
AM_VIS
  5
5E2
 10
6.69735
 20
3.66380
 30
0.000000
  70
    32
  0
VERTEX
  8
AM_VIS
  5
5E3
 10
6.69925
 20
3.66412
 30
0.000000
  70
    32
  0
VERTEX
  8
AM_VIS
  5
5E4
 10
6.70114
 20
3.66445
 30
0.000000
  70
    32
  0
VERTEX
  8
AM_VIS
  5
5E5
 10
6.70303
 20
3.66479
 30
0.000000
  70
    32
  0
VERTEX
  8
AM_VIS
  5
5E6
 10
6.70492
 20
3.66515
 30
0.000000
  70
    32
  0
VERTEX
  8
AM_VIS
  5
5E7
 10
6.70681
 20
3.66551
 30
0.000000
  70
    32
  0
VERTEX
  8
AM_VIS
  5
5E8
 10
6.70870
 20
3.66589
 30
0.000000
  70
    32
  0
VERTEX
  8
AM_VIS
  5
5E9
 10
6.71059
 20
3.66628
 30
0.000000
  70
    32
  0
VERTEX
  8
AM_VIS
  5
5EA
 10
6.71248
 20
3.66668
 30
0.000000
  70
    32
  0
VERTEX
  8
AM_VIS
  5
5EB
 10
6.71437
 20
3.66709
 30
0.000000
  70
    32
  0
VERTEX
  8
AM_VIS
  5
5EC
 10
6.71625
 20
3.66751
 30
0.000000
  70
    32
  0
VERTEX
  8
AM_VIS
  5
5ED
 10
6.71814
 20
3.66795
 30
0.000000
  70
    32
  0
VERTEX
  8
AM_VIS
  5
5EE
 10
6.72002
 20
3.66839
 30
0.000000
  70
    32
  0
VERTEX
  8
AM_VIS
  5
5EF
 10
6.72190
 20
3.66885
 30
0.000000
  70
    32
  0
VERTEX
  8
AM_VIS
  5
5F0
 10
6.72378
 20
3.66932
 30
0.000000
  70
    32
  0
VERTEX
  8
AM_VIS
  5
5F1
 10
6.72566
 20
3.66980
 30
0.000000
  70
    32
  0
VERTEX
  8
AM_VIS
  5
5F2
 10
6.72754
 20
3.67029
 30
0.000000
  70
    32
  0
VERTEX
  8
AM_VIS
  5
5F3
 10
6.72941
 20
3.67080
 30
0.000000
  70
    32
  0
VERTEX
  8
AM_VIS
  5
5F4
 10
6.73128
 20
3.67131
 30
0.000000
  70
    32
  0
VERTEX
  8
AM_VIS
  5
5F5
 10
6.73315
 20
3.67184
 30
0.000000
  70
    32
  0
VERTEX
  8
AM_VIS
  5
5F6
 10
6.73502
 20
3.67238
 30
0.000000
  70
    32
  0
VERTEX
  8
AM_VIS
  5
5F7
 10
6.73688
 20
3.67293
 30
0.000000
  70
    32
  0
VERTEX
  8
AM_VIS
  5
5F8
 10
6.73874
 20
3.67349
 30
0.000000
  70
    32
  0
VERTEX
  8
AM_VIS
  5
5F9
 10
6.74060
 20
3.67406
 30
0.000000
  70
    32
  0
VERTEX
  8
AM_VIS
  5
5FA
 10
6.74245
 20
3.67465
 30
0.000000
  70
    32
  0
VERTEX
  8
AM_VIS
  5
5FB
 10
6.74431
 20
3.67524
 30
0.000000
  70
    32
  0
VERTEX
  8
AM_VIS
  5
5FC
 10
6.74616
 20
3.67585
 30
0.000000
  70
    32
  0
VERTEX
  8
AM_VIS
  5
5FD
 10
6.74800
 20
3.67647
 30
0.000000
  70
    32
  0
VERTEX
  8
AM_VIS
  5
5FE
 10
6.74984
 20
3.67710
 30
0.000000
  70
    32
  0
VERTEX
  8
AM_VIS
  5
5FF
 10
6.75168
 20
3.67774
 30
0.000000
  70
    32
  0
VERTEX
  8
AM_VIS
  5
600
 10
6.75352
 20
3.67840
 30
0.000000
  70
    32
  0
VERTEX
  8
AM_VIS
  5
601
 10
6.75535
 20
3.67906
 30
0.000000
  70
    32
  0
VERTEX
  8
AM_VIS
  5
602
 10
6.75718
 20
3.67974
 30
0.000000
  70
    32
  0
VERTEX
  8
AM_VIS
  5
603
 10
6.75900
 20
3.68043
 30
0.000000
  70
    32
  0
VERTEX
  8
AM_VIS
  5
604
 10
6.76082
 20
3.68113
 30
0.000000
  70
    32
  0
VERTEX
  8
AM_VIS
  5
605
 10
6.76263
 20
3.68184
 30
0.000000
  70
    32
  0
VERTEX
  8
AM_VIS
  5
606
 10
6.76444
 20
3.68256
 30
0.000000
  70
    32
  0
VERTEX
  8
AM_VIS
  5
607
 10
6.76625
 20
3.68329
 30
0.000000
  70
    32
  0
VERTEX
  8
AM_VIS
  5
608
 10
6.76805
 20
3.68404
 30
0.000000
  70
    32
  0
VERTEX
  8
AM_VIS
  5
609
 10
6.76985
 20
3.68479
 30
0.000000
  70
    32
  0
VERTEX
  8
AM_VIS
  5
60A
 10
6.77164
 20
3.68556
 30
0.000000
  70
    32
  0
VERTEX
  8
AM_VIS
  5
60B
 10
6.77342
 20
3.68634
 30
0.000000
  70
    32
  0
VERTEX
  8
AM_VIS
  5
60C
 10
6.77521
 20
3.68713
 30
0.000000
  70
    32
  0
VERTEX
  8
AM_VIS
  5
60D
 10
6.77698
 20
3.68793
 30
0.000000
  70
    32
  0
VERTEX
  8
AM_VIS
  5
60E
 10
6.77875
 20
3.68875
 30
0.000000
  70
    32
  0
VERTEX
  8
AM_VIS
  5
60F
 10
6.78052
 20
3.68957
 30
0.000000
  70
    32
  0
VERTEX
  8
AM_VIS
  5
610
 10
6.78228
 20
3.69041
 30
0.000000
  70
    32
  0
VERTEX
  8
AM_VIS
  5
611
 10
6.78403
 20
3.69125
 30
0.000000
  70
    32
  0
VERTEX
  8
AM_VIS
  5
612
 10
6.78578
 20
3.69211
 30
0.000000
  70
    32
  0
VERTEX
  8
AM_VIS
  5
613
 10
6.78753
 20
3.69298
 30
0.000000
  70
    32
  0
VERTEX
  8
AM_VIS
  5
614
 10
6.78926
 20
3.69386
 30
0.000000
  70
    32
  0
VERTEX
  8
AM_VIS
  5
615
 10
6.79100
 20
3.69475
 30
0.000000
  70
    32
  0
VERTEX
  8
AM_VIS
  5
616
 10
6.79272
 20
3.69565
 30
0.000000
  70
    32
  0
VERTEX
  8
AM_VIS
  5
617
 10
6.79444
 20
3.69656
 30
0.000000
  70
    32
  0
VERTEX
  8
AM_VIS
  5
618
 10
6.79616
 20
3.69748
 30
0.000000
  70
    32
  0
VERTEX
  8
AM_VIS
  5
619
 10
6.79786
 20
3.69841
 30
0.000000
  70
    32
  0
VERTEX
  8
AM_VIS
  5
61A
 10
6.79957
 20
3.69935
 30
0.000000
  70
    32
  0
VERTEX
  8
AM_VIS
  5
61B
 10
6.80126
 20
3.70030
 30
0.000000
  70
    32
  0
VERTEX
  8
AM_VIS
  5
61C
 10
6.80295
 20
3.70126
 30
0.000000
  70
    32
  0
VERTEX
  8
AM_VIS
  5
61D
 10
6.80463
 20
3.70223
 30
0.000000
  70
    32
  0
VERTEX
  8
AM_VIS
  5
61E
 10
6.80631
 20
3.70321
 30
0.000000
  70
    32
  0
VERTEX
  8
AM_VIS
  5
61F
 10
6.80798
 20
3.70420
 30
0.000000
  70
    32
  0
VERTEX
  8
AM_VIS
  5
620
 10
6.80964
 20
3.70519
 30
0.000000
  70
    32
  0
VERTEX
  8
AM_VIS
  5
621
 10
6.81130
 20
3.70620
 30
0.000000
  70
    32
  0
VERTEX
  8
AM_VIS
  5
622
 10
6.81295
 20
3.70722
 30
0.000000
  70
    32
  0
VERTEX
  8
AM_VIS
  5
623
 10
6.81459
 20
3.70825
 30
0.000000
  70
    32
  0
VERTEX
  8
AM_VIS
  5
624
 10
6.81623
 20
3.70928
 30
0.000000
  70
    32
  0
VERTEX
  8
AM_VIS
  5
625
 10
6.81786
 20
3.71033
 30
0.000000
  70
    32
  0
VERTEX
  8
AM_VIS
  5
626
 10
6.81948
 20
3.71138
 30
0.000000
  70
    32
  0
VERTEX
  8
AM_VIS
  5
627
 10
6.82110
 20
3.71244
 30
0.000000
  70
    32
  0
VERTEX
  8
AM_VIS
  5
628
 10
6.82270
 20
3.71351
 30
0.000000
  70
    32
  0
VERTEX
  8
AM_VIS
  5
629
 10
6.82430
 20
3.71459
 30
0.000000
  70
    32
  0
VERTEX
  8
AM_VIS
  5
62A
 10
6.82590
 20
3.71568
 30
0.000000
  70
    32
  0
VERTEX
  8
AM_VIS
  5
62B
 10
6.82748
 20
3.71677
 30
0.000000
  70
    32
  0
VERTEX
  8
AM_VIS
  5
62C
 10
6.82906
 20
3.71788
 30
0.000000
  70
    32
  0
VERTEX
  8
AM_VIS
  5
62D
 10
6.83063
 20
3.71899
 30
0.000000
  70
    32
  0
VERTEX
  8
AM_VIS
  5
62E
 10
6.83219
 20
3.72011
 30
0.000000
  70
    32
  0
VERTEX
  8
AM_VIS
  5
62F
 10
6.83375
 20
3.72124
 30
0.000000
  70
    32
  0
VERTEX
  8
AM_VIS
  5
630
 10
6.83530
 20
3.72238
 30
0.000000
  70
    32
  0
VERTEX
  8
AM_VIS
  5
631
 10
6.83683
 20
3.72352
 30
0.000000
  70
    32
  0
VERTEX
  8
AM_VIS
  5
632
 10
6.83837
 20
3.72467
 30
0.000000
  70
    32
  0
VERTEX
  8
AM_VIS
  5
633
 10
6.83989
 20
3.72583
 30
0.000000
  70
    32
  0
VERTEX
  8
AM_VIS
  5
634
 10
6.84140
 20
3.72700
 30
0.000000
  70
    32
  0
VERTEX
  8
AM_VIS
  5
635
 10
6.84291
 20
3.72817
 30
0.000000
  70
    32
  0
VERTEX
  8
AM_VIS
  5
636
 10
6.84441
 20
3.72935
 30
0.000000
  70
    32
  0
VERTEX
  8
AM_VIS
  5
637
 10
6.84590
 20
3.73054
 30
0.000000
  70
    32
  0
VERTEX
  8
AM_VIS
  5
638
 10
6.84738
 20
3.73174
 30
0.000000
  70
    32
  0
VERTEX
  8
AM_VIS
  5
639
 10
6.84885
 20
3.73294
 30
0.000000
  70
    32
  0
VERTEX
  8
AM_VIS
  5
63A
 10
6.85032
 20
3.73415
 30
0.000000
  70
    32
  0
VERTEX
  8
AM_VIS
  5
63B
 10
6.85178
 20
3.73537
 30
0.000000
  70
    32
  0
VERTEX
  8
AM_VIS
  5
63C
 10
6.85322
 20
3.73659
 30
0.000000
  70
    32
  0
VERTEX
  8
AM_VIS
  5
63D
 10
6.85466
 20
3.73782
 30
0.000000
  70
    32
  0
VERTEX
  8
AM_VIS
  5
63E
 10
6.85609
 20
3.73906
 30
0.000000
  70
    32
  0
VERTEX
  8
AM_VIS
  5
63F
 10
6.85751
 20
3.74030
 30
0.000000
  70
    32
  0
VERTEX
  8
AM_VIS
  5
640
 10
6.85892
 20
3.74155
 30
0.000000
  70
    32
  0
VERTEX
  8
AM_VIS
  5
641
 10
6.86033
 20
3.74280
 30
0.000000
  70
    32
  0
VERTEX
  8
AM_VIS
  5
642
 10
6.86172
 20
3.74407
 30
0.000000
  70
    32
  0
VERTEX
  8
AM_VIS
  5
643
 10
6.86310
 20
3.74533
 30
0.000000
  70
    32
  0
VERTEX
  8
AM_VIS
  5
644
 10
6.86448
 20
3.74661
 30
0.000000
  70
    32
  0
VERTEX
  8
AM_VIS
  5
645
 10
6.86584
 20
3.74789
 30
0.000000
  70
    32
  0
VERTEX
  8
AM_VIS
  5
646
 10
6.86720
 20
3.74917
 30
0.000000
  70
    32
  0
VERTEX
  8
AM_VIS
  5
647
 10
6.86854
 20
3.75046
 30
0.000000
  70
    32
  0
VERTEX
  8
AM_VIS
  5
648
 10
6.86988
 20
3.75176
 30
0.000000
  70
    32
  0
VERTEX
  8
AM_VIS
  5
649
 10
6.87121
 20
3.75306
 30
0.000000
  70
    32
  0
VERTEX
  8
AM_VIS
  5
64A
 10
6.87252
 20
3.75437
 30
0.000000
  70
    32
  0
VERTEX
  8
AM_VIS
  5
64B
 10
6.87383
 20
3.75568
 30
0.000000
  70
    32
  0
VERTEX
  8
AM_VIS
  5
64C
 10
6.87513
 20
3.75699
 30
0.000000
  70
    32
  0
VERTEX
  8
AM_VIS
  5
64D
 10
6.87642
 20
3.75832
 30
0.000000
  70
    32
  0
VERTEX
  8
AM_VIS
  5
64E
 10
6.87769
 20
3.75964
 30
0.000000
  70
    32
  0
VERTEX
  8
AM_VIS
  5
64F
 10
6.87896
 20
3.76097
 30
0.000000
  70
    32
  0
VERTEX
  8
AM_VIS
  5
650
 10
6.88022
 20
3.76231
 30
0.000000
  70
    32
  0
VERTEX
  8
AM_VIS
  5
651
 10
6.88147
 20
3.76366
 30
0.000000
  70
    32
  0
VERTEX
  8
AM_VIS
  5
652
 10
6.88272
 20
3.76501
 30
0.000000
  70
    32
  0
VERTEX
  8
AM_VIS
  5
653
 10
6.88396
 20
3.76638
 30
0.000000
  70
    32
  0
VERTEX
  8
AM_VIS
  5
654
 10
6.88519
 20
3.76776
 30
0.000000
  70
    32
  0
VERTEX
  8
AM_VIS
  5
655
 10
6.88642
 20
3.76914
 30
0.000000
  70
    32
  0
VERTEX
  8
AM_VIS
  5
656
 10
6.88764
 20
3.77054
 30
0.000000
  70
    32
  0
VERTEX
  8
AM_VIS
  5
657
 10
6.88886
 20
3.77194
 30
0.000000
  70
    32
  0
VERTEX
  8
AM_VIS
  5
658
 10
6.89008
 20
3.77336
 30
0.000000
  70
    32
  0
VERTEX
  8
AM_VIS
  5
659
 10
6.89128
 20
3.77478
 30
0.000000
  70
    32
  0
VERTEX
  8
AM_VIS
  5
65A
 10
6.89248
 20
3.77621
 30
0.000000
  70
    32
  0
VERTEX
  8
AM_VIS
  5
65B
 10
6.89368
 20
3.77765
 30
0.000000
  70
    32
  0
VERTEX
  8
AM_VIS
  5
65C
 10
6.89487
 20
3.77910
 30
0.000000
  70
    32
  0
VERTEX
  8
AM_VIS
  5
65D
 10
6.89605
 20
3.78056
 30
0.000000
  70
    32
  0
VERTEX
  8
AM_VIS
  5
65E
 10
6.89722
 20
3.78203
 30
0.000000
  70
    32
  0
VERTEX
  8
AM_VIS
  5
65F
 10
6.89839
 20
3.78351
 30
0.000000
  70
    32
  0
VERTEX
  8
AM_VIS
  5
660
 10
6.89956
 20
3.78500
 30
0.000000
  70
    32
  0
VERTEX
  8
AM_VIS
  5
661
 10
6.90071
 20
3.78649
 30
0.000000
  70
    32
  0
VERTEX
  8
AM_VIS
  5
662
 10
6.90186
 20
3.78800
 30
0.000000
  70
    32
  0
VERTEX
  8
AM_VIS
  5
663
 10
6.90300
 20
3.78951
 30
0.000000
  70
    32
  0
VERTEX
  8
AM_VIS
  5
664
 10
6.90414
 20
3.79103
 30
0.000000
  70
    32
  0
VERTEX
  8
AM_VIS
  5
665
 10
6.90527
 20
3.79256
 30
0.000000
  70
    32
  0
VERTEX
  8
AM_VIS
  5
666
 10
6.90639
 20
3.79409
 30
0.000000
  70
    32
  0
VERTEX
  8
AM_VIS
  5
667
 10
6.90751
 20
3.79564
 30
0.000000
  70
    32
  0
VERTEX
  8
AM_VIS
  5
668
 10
6.90862
 20
3.79719
 30
0.000000
  70
    32
  0
VERTEX
  8
AM_VIS
  5
669
 10
6.90972
 20
3.79876
 30
0.000000
  70
    32
  0
VERTEX
  8
AM_VIS
  5
66A
 10
6.91081
 20
3.80032
 30
0.000000
  70
    32
  0
VERTEX
  8
AM_VIS
  5
66B
 10
6.91190
 20
3.80190
 30
0.000000
  70
    32
  0
VERTEX
  8
AM_VIS
  5
66C
 10
6.91297
 20
3.80349
 30
0.000000
  70
    32
  0
VERTEX
  8
AM_VIS
  5
66D
 10
6.91405
 20
3.80508
 30
0.000000
  70
    32
  0
VERTEX
  8
AM_VIS
  5
66E
 10
6.91511
 20
3.80668
 30
0.000000
  70
    32
  0
VERTEX
  8
AM_VIS
  5
66F
 10
6.91617
 20
3.80829
 30
0.000000
  70
    32
  0
VERTEX
  8
AM_VIS
  5
670
 10
6.91721
 20
3.80990
 30
0.000000
  70
    32
  0
VERTEX
  8
AM_VIS
  5
671
 10
6.91825
 20
3.81153
 30
0.000000
  70
    32
  0
VERTEX
  8
AM_VIS
  5
672
 10
6.91929
 20
3.81316
 30
0.000000
  70
    32
  0
VERTEX
  8
AM_VIS
  5
673
 10
6.92031
 20
3.81479
 30
0.000000
  70
    32
  0
VERTEX
  8
AM_VIS
  5
674
 10
6.92133
 20
3.81644
 30
0.000000
  70
    32
  0
VERTEX
  8
AM_VIS
  5
675
 10
6.92233
 20
3.81809
 30
0.000000
  70
    32
  0
VERTEX
  8
AM_VIS
  5
676
 10
6.92333
 20
3.81975
 30
0.000000
  70
    32
  0
VERTEX
  8
AM_VIS
  5
677
 10
6.92432
 20
3.82141
 30
0.000000
  70
    32
  0
VERTEX
  8
AM_VIS
  5
678
 10
6.92531
 20
3.82308
 30
0.000000
  70
    32
  0
VERTEX
  8
AM_VIS
  5
679
 10
6.92628
 20
3.82476
 30
0.000000
  70
    32
  0
VERTEX
  8
AM_VIS
  5
67A
 10
6.92725
 20
3.82645
 30
0.000000
  70
    32
  0
VERTEX
  8
AM_VIS
  5
67B
 10
6.92820
 20
3.82814
 30
0.000000
  70
    32
  0
VERTEX
  8
AM_VIS
  5
67C
 10
6.92915
 20
3.82984
 30
0.000000
  70
    32
  0
VERTEX
  8
AM_VIS
  5
67D
 10
6.93009
 20
3.83154
 30
0.000000
  70
    32
  0
VERTEX
  8
AM_VIS
  5
67E
 10
6.93102
 20
3.83325
 30
0.000000
  70
    32
  0
VERTEX
  8
AM_VIS
  5
67F
 10
6.93194
 20
3.83497
 30
0.000000
  70
    32
  0
VERTEX
  8
AM_VIS
  5
680
 10
6.93285
 20
3.83669
 30
0.000000
  70
    32
  0
VERTEX
  8
AM_VIS
  5
681
 10
6.93376
 20
3.83842
 30
0.000000
  70
    32
  0
VERTEX
  8
AM_VIS
  5
682
 10
6.93465
 20
3.84016
 30
0.000000
  70
    32
  0
VERTEX
  8
AM_VIS
  5
683
 10
6.93553
 20
3.84190
 30
0.000000
  70
    32
  0
VERTEX
  8
AM_VIS
  5
684
 10
6.93641
 20
3.84365
 30
0.000000
  70
    32
  0
VERTEX
  8
AM_VIS
  5
685
 10
6.93727
 20
3.84540
 30
0.000000
  70
    32
  0
VERTEX
  8
AM_VIS
  5
686
 10
6.93813
 20
3.84716
 30
0.000000
  70
    32
  0
VERTEX
  8
AM_VIS
  5
687
 10
6.93897
 20
3.84892
 30
0.000000
  70
    32
  0
VERTEX
  8
AM_VIS
  5
688
 10
6.93981
 20
3.85069
 30
0.000000
  70
    32
  0
VERTEX
  8
AM_VIS
  5
689
 10
6.94064
 20
3.85246
 30
0.000000
  70
    32
  0
VERTEX
  8
AM_VIS
  5
68A
 10
6.94145
 20
3.85424
 30
0.000000
  70
    32
  0
VERTEX
  8
AM_VIS
  5
68B
 10
6.94226
 20
3.85603
 30
0.000000
  70
    32
  0
VERTEX
  8
AM_VIS
  5
68C
 10
6.94306
 20
3.85782
 30
0.000000
  70
    32
  0
VERTEX
  8
AM_VIS
  5
68D
 10
6.94384
 20
3.85961
 30
0.000000
  70
    32
  0
VERTEX
  8
AM_VIS
  5
68E
 10
6.94462
 20
3.86141
 30
0.000000
  70
    32
  0
VERTEX
  8
AM_VIS
  5
68F
 10
6.94538
 20
3.86322
 30
0.000000
  70
    32
  0
VERTEX
  8
AM_VIS
  5
690
 10
6.94614
 20
3.86503
 30
0.000000
  70
    32
  0
VERTEX
  8
AM_VIS
  5
691
 10
6.94688
 20
3.86684
 30
0.000000
  70
    32
  0
VERTEX
  8
AM_VIS
  5
692
 10
6.94761
 20
3.86866
 30
0.000000
  70
    32
  0
VERTEX
  8
AM_VIS
  5
693
 10
6.94834
 20
3.87049
 30
0.000000
  70
    32
  0
VERTEX
  8
AM_VIS
  5
694
 10
6.94905
 20
3.87231
 30
0.000000
  70
    32
  0
VERTEX
  8
AM_VIS
  5
695
 10
6.94975
 20
3.87415
 30
0.000000
  70
    32
  0
VERTEX
  8
AM_VIS
  5
696
 10
6.95044
 20
3.87598
 30
0.000000
  70
    32
  0
VERTEX
  8
AM_VIS
  5
697
 10
6.95112
 20
3.87783
 30
0.000000
  70
    32
  0
VERTEX
  8
AM_VIS
  5
698
 10
6.95179
 20
3.87967
 30
0.000000
  70
    32
  0
VERTEX
  8
AM_VIS
  5
699
 10
6.95245
 20
3.88152
 30
0.000000
  70
    32
  0
VERTEX
  8
AM_VIS
  5
69A
 10
6.95310
 20
3.88337
 30
0.000000
  70
    32
  0
VERTEX
  8
AM_VIS
  5
69B
 10
6.95373
 20
3.88523
 30
0.000000
  70
    32
  0
VERTEX
  8
AM_VIS
  5
69C
 10
6.95436
 20
3.88709
 30
0.000000
  70
    32
  0
VERTEX
  8
AM_VIS
  5
69D
 10
6.95497
 20
3.88895
 30
0.000000
  70
    32
  0
VERTEX
  8
AM_VIS
  5
69E
 10
6.95558
 20
3.89082
 30
0.000000
  70
    32
  0
VERTEX
  8
AM_VIS
  5
69F
 10
6.95617
 20
3.89269
 30
0.000000
  70
    32
  0
VERTEX
  8
AM_VIS
  5
6A0
 10
6.95675
 20
3.89456
 30
0.000000
  70
    32
  0
VERTEX
  8
AM_VIS
  5
6A1
 10
6.95733
 20
3.89644
 30
0.000000
  70
    32
  0
VERTEX
  8
AM_VIS
  5
6A2
 10
6.95789
 20
3.89831
 30
0.000000
  70
    32
  0
VERTEX
  8
AM_VIS
  5
6A3
 10
6.95844
 20
3.90020
 30
0.000000
  70
    32
  0
VERTEX
  8
AM_VIS
  5
6A4
 10
6.95898
 20
3.90208
 30
0.000000
  70
    32
  0
VERTEX
  8
AM_VIS
  5
6A5
 10
6.95951
 20
3.90397
 30
0.000000
  70
    32
  0
VERTEX
  8
AM_VIS
  5
6A6
 10
6.96003
 20
3.90585
 30
0.000000
  70
    32
  0
VERTEX
  8
AM_VIS
  5
6A7
 10
6.96054
 20
3.90774
 30
0.000000
  70
    32
  0
VERTEX
  8
AM_VIS
  5
6A8
 10
6.96103
 20
3.90964
 30
0.000000
  70
    32
  0
VERTEX
  8
AM_VIS
  5
6A9
 10
6.96152
 20
3.91153
 30
0.000000
  70
    32
  0
VERTEX
  8
AM_VIS
  5
6AA
 10
6.96200
 20
3.91343
 30
0.000000
  70
    32
  0
VERTEX
  8
AM_VIS
  5
6AB
 10
6.96246
 20
3.91533
 30
0.000000
  70
    32
  0
VERTEX
  8
AM_VIS
  5
6AC
 10
6.96292
 20
3.91723
 30
0.000000
  70
    32
  0
VERTEX
  8
AM_VIS
  5
6AD
 10
6.96336
 20
3.91913
 30
0.000000
  70
    32
  0
VERTEX
  8
AM_VIS
  5
6AE
 10
6.96379
 20
3.92103
 30
0.000000
  70
    32
  0
VERTEX
  8
AM_VIS
  5
6AF
 10
6.96422
 20
3.92293
 30
0.000000
  70
    32
  0
VERTEX
  8
AM_VIS
  5
6B0
 10
6.96463
 20
3.92484
 30
0.000000
  70
    32
  0
VERTEX
  8
AM_VIS
  5
6B1
 10
6.96503
 20
3.92675
 30
0.000000
  70
    32
  0
VERTEX
  8
AM_VIS
  5
6B2
 10
6.96542
 20
3.92865
 30
0.000000
  70
    32
  0
VERTEX
  8
AM_VIS
  5
6B3
 10
6.96580
 20
3.93056
 30
0.000000
  70
    32
  0
VERTEX
  8
AM_VIS
  5
6B4
 10
6.96617
 20
3.93247
 30
0.000000
  70
    32
  0
VERTEX
  8
AM_VIS
  5
6B5
 10
6.96653
 20
3.93438
 30
0.000000
  70
    32
  0
VERTEX
  8
AM_VIS
  5
6B6
 10
6.96688
 20
3.93629
 30
0.000000
  70
    32
  0
VERTEX
  8
AM_VIS
  5
6B7
 10
6.96722
 20
3.93820
 30
0.000000
  70
    32
  0
VERTEX
  8
AM_VIS
  5
6B8
 10
6.96754
 20
3.94011
 30
0.000000
  70
    32
  0
VERTEX
  8
AM_VIS
  5
6B9
 10
6.96786
 20
3.94202
 30
0.000000
  70
    32
  0
VERTEX
  8
AM_VIS
  5
6BA
 10
6.96817
 20
3.94392
 30
0.000000
  70
    32
  0
VERTEX
  8
AM_VIS
  5
6BB
 10
6.96846
 20
3.94583
 30
0.000000
  70
    32
  0
VERTEX
  8
AM_VIS
  5
6BC
 10
6.96875
 20
3.94774
 30
0.000000
  70
    32
  0
VERTEX
  8
AM_VIS
  5
6BD
 10
6.96902
 20
3.94965
 30
0.000000
  70
    32
  0
VERTEX
  8
AM_VIS
  5
6BE
 10
6.96929
 20
3.95156
 30
0.000000
  70
    32
  0
VERTEX
  8
AM_VIS
  5
6BF
 10
6.96954
 20
3.95347
 30
0.000000
  70
    32
  0
VERTEX
  8
AM_VIS
  5
6C0
 10
6.96978
 20
3.95537
 30
0.000000
  70
    32
  0
VERTEX
  8
AM_VIS
  5
6C1
 10
6.97002
 20
3.95728
 30
0.000000
  70
    32
  0
VERTEX
  8
AM_VIS
  5
6C2
 10
6.97024
 20
3.95918
 30
0.000000
  70
    32
  0
VERTEX
  8
AM_VIS
  5
6C3
 10
6.97045
 20
3.96109
 30
0.000000
  70
    32
  0
VERTEX
  8
AM_VIS
  5
6C4
 10
6.97065
 20
3.96299
 30
0.000000
  70
    32
  0
VERTEX
  8
AM_VIS
  5
6C5
 10
6.97084
 20
3.96489
 30
0.000000
  70
    32
  0
VERTEX
  8
AM_VIS
  5
6C6
 10
6.97102
 20
3.96679
 30
0.000000
  70
    32
  0
VERTEX
  8
AM_VIS
  5
6C7
 10
6.97119
 20
3.96868
 30
0.000000
  70
    32
  0
VERTEX
  8
AM_VIS
  5
6C8
 10
6.97135
 20
3.97058
 30
0.000000
  70
    32
  0
VERTEX
  8
AM_VIS
  5
6C9
 10
6.97150
 20
3.97247
 30
0.000000
  70
    32
  0
VERTEX
  8
AM_VIS
  5
6CA
 10
6.97164
 20
3.97437
 30
0.000000
  70
    32
  0
VERTEX
  8
AM_VIS
  5
6CB
 10
6.97176
 20
3.97625
 30
0.000000
  70
    32
  0
VERTEX
  8
AM_VIS
  5
6CC
 10
6.97188
 20
3.97814
 30
0.000000
  70
    32
  0
VERTEX
  8
AM_VIS
  5
6CD
 10
6.97199
 20
3.98003
 30
0.000000
  70
    32
  0
VERTEX
  8
AM_VIS
  5
6CE
 10
6.97208
 20
3.98191
 30
0.000000
  70
    32
  0
VERTEX
  8
AM_VIS
  5
6CF
 10
6.97217
 20
3.98379
 30
0.000000
  70
    32
  0
VERTEX
  8
AM_VIS
  5
6D0
 10
6.97224
 20
3.98567
 30
0.000000
  70
    32
  0
VERTEX
  8
AM_VIS
  5
6D1
 10
6.97231
 20
3.98754
 30
0.000000
  70
    32
  0
VERTEX
  8
AM_VIS
  5
6D2
 10
6.97236
 20
3.98941
 30
0.000000
  70
    32
  0
VERTEX
  8
AM_VIS
  5
6D3
 10
6.97241
 20
3.99128
 30
0.000000
  70
    32
  0
VERTEX
  8
AM_VIS
  5
6D4
 10
6.97244
 20
3.99314
 30
0.000000
  70
    32
  0
VERTEX
  8
AM_VIS
  5
6D5
 10
6.97247
 20
3.99500
 30
0.000000
  70
    32
  0
VERTEX
  8
AM_VIS
  5
6D6
 10
6.97248
 20
3.99686
 30
0.000000
  70
    32
  0
VERTEX
  8
AM_VIS
  5
6D7
 10
6.97248
 20
3.99872
 30
0.000000
  70
    32
  0
VERTEX
  8
AM_VIS
  5
6D8
 10
6.97247
 20
4.00057
 30
0.000000
  70
    32
  0
VERTEX
  8
AM_VIS
  5
6D9
 10
6.97246
 20
4.00243
 30
0.000000
  70
    32
  0
VERTEX
  8
AM_VIS
  5
6DA
 10
6.97243
 20
4.00429
 30
0.000000
  70
    32
  0
VERTEX
  8
AM_VIS
  5
6DB
 10
6.97239
 20
4.00616
 30
0.000000
  70
    32
  0
VERTEX
  8
AM_VIS
  5
6DC
 10
6.97234
 20
4.00803
 30
0.000000
  70
    32
  0
VERTEX
  8
AM_VIS
  5
6DD
 10
6.97228
 20
4.00990
 30
0.000000
  70
    32
  0
VERTEX
  8
AM_VIS
  5
6DE
 10
6.97221
 20
4.01178
 30
0.000000
  70
    32
  0
VERTEX
  8
AM_VIS
  5
6DF
 10
6.97213
 20
4.01366
 30
0.000000
  70
    32
  0
VERTEX
  8
AM_VIS
  5
6E0
 10
6.97204
 20
4.01554
 30
0.000000
  70
    32
  0
VERTEX
  8
AM_VIS
  5
6E1
 10
6.97194
 20
4.01742
 30
0.000000
  70
    32
  0
VERTEX
  8
AM_VIS
  5
6E2
 10
6.97182
 20
4.01931
 30
0.000000
  70
    32
  0
VERTEX
  8
AM_VIS
  5
6E3
 10
6.97170
 20
4.02119
 30
0.000000
  70
    32
  0
VERTEX
  8
AM_VIS
  5
6E4
 10
6.97157
 20
4.02308
 30
0.000000
  70
    32
  0
VERTEX
  8
AM_VIS
  5
6E5
 10
6.97142
 20
4.02498
 30
0.000000
  70
    32
  0
VERTEX
  8
AM_VIS
  5
6E6
 10
6.97127
 20
4.02687
 30
0.000000
  70
    32
  0
VERTEX
  8
AM_VIS
  5
6E7
 10
6.97111
 20
4.02877
 30
0.000000
  70
    32
  0
VERTEX
  8
AM_VIS
  5
6E8
 10
6.97093
 20
4.03067
 30
0.000000
  70
    32
  0
VERTEX
  8
AM_VIS
  5
6E9
 10
6.97075
 20
4.03257
 30
0.000000
  70
    32
  0
VERTEX
  8
AM_VIS
  5
6EA
 10
6.97055
 20
4.03447
 30
0.000000
  70
    32
  0
VERTEX
  8
AM_VIS
  5
6EB
 10
6.97034
 20
4.03637
 30
0.000000
  70
    32
  0
VERTEX
  8
AM_VIS
  5
6EC
 10
6.97013
 20
4.03827
 30
0.000000
  70
    32
  0
VERTEX
  8
AM_VIS
  5
6ED
 10
6.96990
 20
4.04018
 30
0.000000
  70
    32
  0
VERTEX
  8
AM_VIS
  5
6EE
 10
6.96966
 20
4.04208
 30
0.000000
  70
    32
  0
VERTEX
  8
AM_VIS
  5
6EF
 10
6.96941
 20
4.04399
 30
0.000000
  70
    32
  0
VERTEX
  8
AM_VIS
  5
6F0
 10
6.96916
 20
4.04590
 30
0.000000
  70
    32
  0
VERTEX
  8
AM_VIS
  5
6F1
 10
6.96889
 20
4.04781
 30
0.000000
  70
    32
  0
VERTEX
  8
AM_VIS
  5
6F2
 10
6.96861
 20
4.04972
 30
0.000000
  70
    32
  0
VERTEX
  8
AM_VIS
  5
6F3
 10
6.96832
 20
4.05163
 30
0.000000
  70
    32
  0
VERTEX
  8
AM_VIS
  5
6F4
 10
6.96802
 20
4.05353
 30
0.000000
  70
    32
  0
VERTEX
  8
AM_VIS
  5
6F5
 10
6.96770
 20
4.05544
 30
0.000000
  70
    32
  0
VERTEX
  8
AM_VIS
  5
6F6
 10
6.96738
 20
4.05735
 30
0.000000
  70
    32
  0
VERTEX
  8
AM_VIS
  5
6F7
 10
6.96705
 20
4.05926
 30
0.000000
  70
    32
  0
VERTEX
  8
AM_VIS
  5
6F8
 10
6.96671
 20
4.06117
 30
0.000000
  70
    32
  0
VERTEX
  8
AM_VIS
  5
6F9
 10
6.96635
 20
4.06308
 30
0.000000
  70
    32
  0
VERTEX
  8
AM_VIS
  5
6FA
 10
6.96599
 20
4.06499
 30
0.000000
  70
    32
  0
VERTEX
  8
AM_VIS
  5
6FB
 10
6.96561
 20
4.06690
 30
0.000000
  70
    32
  0
VERTEX
  8
AM_VIS
  5
6FC
 10
6.96523
 20
4.06881
 30
0.000000
  70
    32
  0
VERTEX
  8
AM_VIS
  5
6FD
 10
6.96483
 20
4.07071
 30
0.000000
  70
    32
  0
VERTEX
  8
AM_VIS
  5
6FE
 10
6.96442
 20
4.07262
 30
0.000000
  70
    32
  0
VERTEX
  8
AM_VIS
  5
6FF
 10
6.96401
 20
4.07452
 30
0.000000
  70
    32
  0
VERTEX
  8
AM_VIS
  5
700
 10
6.96358
 20
4.07643
 30
0.000000
  70
    32
  0
VERTEX
  8
AM_VIS
  5
701
 10
6.96314
 20
4.07833
 30
0.000000
  70
    32
  0
VERTEX
  8
AM_VIS
  5
702
 10
6.96269
 20
4.08023
 30
0.000000
  70
    32
  0
VERTEX
  8
AM_VIS
  5
703
 10
6.96223
 20
4.08213
 30
0.000000
  70
    32
  0
VERTEX
  8
AM_VIS
  5
704
 10
6.96176
 20
4.08402
 30
0.000000
  70
    32
  0
VERTEX
  8
AM_VIS
  5
705
 10
6.96128
 20
4.08592
 30
0.000000
  70
    32
  0
VERTEX
  8
AM_VIS
  5
706
 10
6.96079
 20
4.08781
 30
0.000000
  70
    32
  0
VERTEX
  8
AM_VIS
  5
707
 10
6.96028
 20
4.08971
 30
0.000000
  70
    32
  0
VERTEX
  8
AM_VIS
  5
708
 10
6.95977
 20
4.09160
 30
0.000000
  70
    32
  0
VERTEX
  8
AM_VIS
  5
709
 10
6.95925
 20
4.09348
 30
0.000000
  70
    32
  0
VERTEX
  8
AM_VIS
  5
70A
 10
6.95871
 20
4.09537
 30
0.000000
  70
    32
  0
VERTEX
  8
AM_VIS
  5
70B
 10
6.95817
 20
4.09725
 30
0.000000
  70
    32
  0
VERTEX
  8
AM_VIS
  5
70C
 10
6.95761
 20
4.09913
 30
0.000000
  70
    32
  0
VERTEX
  8
AM_VIS
  5
70D
 10
6.95704
 20
4.10101
 30
0.000000
  70
    32
  0
VERTEX
  8
AM_VIS
  5
70E
 10
6.95646
 20
4.10288
 30
0.000000
  70
    32
  0
VERTEX
  8
AM_VIS
  5
70F
 10
6.95588
 20
4.10475
 30
0.000000
  70
    32
  0
VERTEX
  8
AM_VIS
  5
710
 10
6.95528
 20
4.10662
 30
0.000000
  70
    32
  0
VERTEX
  8
AM_VIS
  5
711
 10
6.95467
 20
4.10849
 30
0.000000
  70
    32
  0
VERTEX
  8
AM_VIS
  5
712
 10
6.95405
 20
4.11035
 30
0.000000
  70
    32
  0
VERTEX
  8
AM_VIS
  5
713
 10
6.95342
 20
4.11221
 30
0.000000
  70
    32
  0
VERTEX
  8
AM_VIS
  5
714
 10
6.95277
 20
4.11406
 30
0.000000
  70
    32
  0
VERTEX
  8
AM_VIS
  5
715
 10
6.95212
 20
4.11591
 30
0.000000
  70
    32
  0
VERTEX
  8
AM_VIS
  5
716
 10
6.95146
 20
4.11776
 30
0.000000
  70
    32
  0
VERTEX
  8
AM_VIS
  5
717
 10
6.95078
 20
4.11960
 30
0.000000
  70
    32
  0
VERTEX
  8
AM_VIS
  5
718
 10
6.95010
 20
4.12144
 30
0.000000
  70
    32
  0
VERTEX
  8
AM_VIS
  5
719
 10
6.94940
 20
4.12327
 30
0.000000
  70
    32
  0
VERTEX
  8
AM_VIS
  5
71A
 10
6.94869
 20
4.12510
 30
0.000000
  70
    32
  0
VERTEX
  8
AM_VIS
  5
71B
 10
6.94798
 20
4.12693
 30
0.000000
  70
    32
  0
VERTEX
  8
AM_VIS
  5
71C
 10
6.94725
 20
4.12875
 30
0.000000
  70
    32
  0
VERTEX
  8
AM_VIS
  5
71D
 10
6.94651
 20
4.13057
 30
0.000000
  70
    32
  0
VERTEX
  8
AM_VIS
  5
71E
 10
6.94576
 20
4.13238
 30
0.000000
  70
    32
  0
VERTEX
  8
AM_VIS
  5
71F
 10
6.94500
 20
4.13419
 30
0.000000
  70
    32
  0
VERTEX
  8
AM_VIS
  5
720
 10
6.94423
 20
4.13599
 30
0.000000
  70
    32
  0
VERTEX
  8
AM_VIS
  5
721
 10
6.94345
 20
4.13779
 30
0.000000
  70
    32
  0
VERTEX
  8
AM_VIS
  5
722
 10
6.94266
 20
4.13958
 30
0.000000
  70
    32
  0
VERTEX
  8
AM_VIS
  5
723
 10
6.94186
 20
4.14137
 30
0.000000
  70
    32
  0
VERTEX
  8
AM_VIS
  5
724
 10
6.94105
 20
4.14315
 30
0.000000
  70
    32
  0
VERTEX
  8
AM_VIS
  5
725
 10
6.94023
 20
4.14493
 30
0.000000
  70
    32
  0
VERTEX
  8
AM_VIS
  5
726
 10
6.93939
 20
4.14670
 30
0.000000
  70
    32
  0
VERTEX
  8
AM_VIS
  5
727
 10
6.93855
 20
4.14847
 30
0.000000
  70
    32
  0
VERTEX
  8
AM_VIS
  5
728
 10
6.93770
 20
4.15023
 30
0.000000
  70
    32
  0
VERTEX
  8
AM_VIS
  5
729
 10
6.93684
 20
4.15198
 30
0.000000
  70
    32
  0
VERTEX
  8
AM_VIS
  5
72A
 10
6.93597
 20
4.15373
 30
0.000000
  70
    32
  0
VERTEX
  8
AM_VIS
  5
72B
 10
6.93509
 20
4.15548
 30
0.000000
  70
    32
  0
VERTEX
  8
AM_VIS
  5
72C
 10
6.93420
 20
4.15722
 30
0.000000
  70
    32
  0
VERTEX
  8
AM_VIS
  5
72D
 10
6.93331
 20
4.15895
 30
0.000000
  70
    32
  0
VERTEX
  8
AM_VIS
  5
72E
 10
6.93240
 20
4.16067
 30
0.000000
  70
    32
  0
VERTEX
  8
AM_VIS
  5
72F
 10
6.93148
 20
4.16239
 30
0.000000
  70
    32
  0
VERTEX
  8
AM_VIS
  5
730
 10
6.93056
 20
4.16411
 30
0.000000
  70
    32
  0
VERTEX
  8
AM_VIS
  5
731
 10
6.92962
 20
4.16582
 30
0.000000
  70
    32
  0
VERTEX
  8
AM_VIS
  5
732
 10
6.92868
 20
4.16752
 30
0.000000
  70
    32
  0
VERTEX
  8
AM_VIS
  5
733
 10
6.92773
 20
4.16921
 30
0.000000
  70
    32
  0
VERTEX
  8
AM_VIS
  5
734
 10
6.92676
 20
4.17090
 30
0.000000
  70
    32
  0
VERTEX
  8
AM_VIS
  5
735
 10
6.92580
 20
4.17258
 30
0.000000
  70
    32
  0
VERTEX
  8
AM_VIS
  5
736
 10
6.92482
 20
4.17426
 30
0.000000
  70
    32
  0
VERTEX
  8
AM_VIS
  5
737
 10
6.92383
 20
4.17593
 30
0.000000
  70
    32
  0
VERTEX
  8
AM_VIS
  5
738
 10
6.92283
 20
4.17759
 30
0.000000
  70
    32
  0
VERTEX
  8
AM_VIS
  5
739
 10
6.92183
 20
4.17924
 30
0.000000
  70
    32
  0
VERTEX
  8
AM_VIS
  5
73A
 10
6.92082
 20
4.18089
 30
0.000000
  70
    32
  0
VERTEX
  8
AM_VIS
  5
73B
 10
6.91980
 20
4.18253
 30
0.000000
  70
    32
  0
VERTEX
  8
AM_VIS
  5
73C
 10
6.91877
 20
4.18416
 30
0.000000
  70
    32
  0
VERTEX
  8
AM_VIS
  5
73D
 10
6.91773
 20
4.18579
 30
0.000000
  70
    32
  0
VERTEX
  8
AM_VIS
  5
73E
 10
6.91669
 20
4.18741
 30
0.000000
  70
    32
  0
VERTEX
  8
AM_VIS
  5
73F
 10
6.91564
 20
4.18902
 30
0.000000
  70
    32
  0
VERTEX
  8
AM_VIS
  5
740
 10
6.91458
 20
4.19063
 30
0.000000
  70
    32
  0
VERTEX
  8
AM_VIS
  5
741
 10
6.91351
 20
4.19222
 30
0.000000
  70
    32
  0
VERTEX
  8
AM_VIS
  5
742
 10
6.91244
 20
4.19381
 30
0.000000
  70
    32
  0
VERTEX
  8
AM_VIS
  5
743
 10
6.91135
 20
4.19539
 30
0.000000
  70
    32
  0
VERTEX
  8
AM_VIS
  5
744
 10
6.91026
 20
4.19697
 30
0.000000
  70
    32
  0
VERTEX
  8
AM_VIS
  5
745
 10
6.90917
 20
4.19853
 30
0.000000
  70
    32
  0
VERTEX
  8
AM_VIS
  5
746
 10
6.90806
 20
4.20009
 30
0.000000
  70
    32
  0
VERTEX
  8
AM_VIS
  5
747
 10
6.90695
 20
4.20164
 30
0.000000
  70
    32
  0
VERTEX
  8
AM_VIS
  5
748
 10
6.90583
 20
4.20318
 30
0.000000
  70
    32
  0
VERTEX
  8
AM_VIS
  5
749
 10
6.90471
 20
4.20471
 30
0.000000
  70
    32
  0
VERTEX
  8
AM_VIS
  5
74A
 10
6.90357
 20
4.20624
 30
0.000000
  70
    32
  0
VERTEX
  8
AM_VIS
  5
74B
 10
6.90243
 20
4.20775
 30
0.000000
  70
    32
  0
VERTEX
  8
AM_VIS
  5
74C
 10
6.90129
 20
4.20926
 30
0.000000
  70
    32
  0
VERTEX
  8
AM_VIS
  5
74D
 10
6.90013
 20
4.21076
 30
0.000000
  70
    32
  0
VERTEX
  8
AM_VIS
  5
74E
 10
6.89897
 20
4.21225
 30
0.000000
  70
    32
  0
VERTEX
  8
AM_VIS
  5
74F
 10
6.89781
 20
4.21373
 30
0.000000
  70
    32
  0
VERTEX
  8
AM_VIS
  5
750
 10
6.89664
 20
4.21521
 30
0.000000
  70
    32
  0
VERTEX
  8
AM_VIS
  5
751
 10
6.89546
 20
4.21667
 30
0.000000
  70
    32
  0
VERTEX
  8
AM_VIS
  5
752
 10
6.89427
 20
4.21813
 30
0.000000
  70
    32
  0
VERTEX
  8
AM_VIS
  5
753
 10
6.89308
 20
4.21957
 30
0.000000
  70
    32
  0
VERTEX
  8
AM_VIS
  5
754
 10
6.89188
 20
4.22101
 30
0.000000
  70
    32
  0
VERTEX
  8
AM_VIS
  5
755
 10
6.89068
 20
4.22244
 30
0.000000
  70
    32
  0
VERTEX
  8
AM_VIS
  5
756
 10
6.88947
 20
4.22386
 30
0.000000
  70
    32
  0
VERTEX
  8
AM_VIS
  5
757
 10
6.88825
 20
4.22527
 30
0.000000
  70
    32
  0
VERTEX
  8
AM_VIS
  5
758
 10
6.88703
 20
4.22667
 30
0.000000
  70
    32
  0
VERTEX
  8
AM_VIS
  5
759
 10
6.88581
 20
4.22806
 30
0.000000
  70
    32
  0
VERTEX
  8
AM_VIS
  5
75A
 10
6.88457
 20
4.22944
 30
0.000000
  70
    32
  0
VERTEX
  8
AM_VIS
  5
75B
 10
6.88334
 20
4.23081
 30
0.000000
  70
    32
  0
VERTEX
  8
AM_VIS
  5
75C
 10
6.88209
 20
4.23217
 30
0.000000
  70
    32
  0
VERTEX
  8
AM_VIS
  5
75D
 10
6.88084
 20
4.23352
 30
0.000000
  70
    32
  0
VERTEX
  8
AM_VIS
  5
75E
 10
6.87959
 20
4.23486
 30
0.000000
  70
    32
  0
VERTEX
  8
AM_VIS
  5
75F
 10
6.87833
 20
4.23620
 30
0.000000
  70
    32
  0
VERTEX
  8
AM_VIS
  5
760
 10
6.87706
 20
4.23753
 30
0.000000
  70
    32
  0
VERTEX
  8
AM_VIS
  5
761
 10
6.87577
 20
4.23885
 30
0.000000
  70
    32
  0
VERTEX
  8
AM_VIS
  5
762
 10
6.87448
 20
4.24017
 30
0.000000
  70
    32
  0
VERTEX
  8
AM_VIS
  5
763
 10
6.87318
 20
4.24148
 30
0.000000
  70
    32
  0
VERTEX
  8
AM_VIS
  5
764
 10
6.87187
 20
4.24279
 30
0.000000
  70
    32
  0
VERTEX
  8
AM_VIS
  5
765
 10
6.87055
 20
4.24410
 30
0.000000
  70
    32
  0
VERTEX
  8
AM_VIS
  5
766
 10
6.86921
 20
4.24540
 30
0.000000
  70
    32
  0
VERTEX
  8
AM_VIS
  5
767
 10
6.86787
 20
4.24669
 30
0.000000
  70
    32
  0
VERTEX
  8
AM_VIS
  5
768
 10
6.86652
 20
4.24798
 30
0.000000
  70
    32
  0
VERTEX
  8
AM_VIS
  5
769
 10
6.86516
 20
4.24926
 30
0.000000
  70
    32
  0
VERTEX
  8
AM_VIS
  5
76A
 10
6.86379
 20
4.25054
 30
0.000000
  70
    32
  0
VERTEX
  8
AM_VIS
  5
76B
 10
6.86241
 20
4.25181
 30
0.000000
  70
    32
  0
VERTEX
  8
AM_VIS
  5
76C
 10
6.86102
 20
4.25307
 30
0.000000
  70
    32
  0
VERTEX
  8
AM_VIS
  5
76D
 10
6.85963
 20
4.25433
 30
0.000000
  70
    32
  0
VERTEX
  8
AM_VIS
  5
76E
 10
6.85822
 20
4.25558
 30
0.000000
  70
    32
  0
VERTEX
  8
AM_VIS
  5
76F
 10
6.85680
 20
4.25683
 30
0.000000
  70
    32
  0
VERTEX
  8
AM_VIS
  5
770
 10
6.85538
 20
4.25807
 30
0.000000
  70
    32
  0
VERTEX
  8
AM_VIS
  5
771
 10
6.85394
 20
4.25930
 30
0.000000
  70
    32
  0
VERTEX
  8
AM_VIS
  5
772
 10
6.85250
 20
4.26053
 30
0.000000
  70
    32
  0
VERTEX
  8
AM_VIS
  5
773
 10
6.85105
 20
4.26175
 30
0.000000
  70
    32
  0
VERTEX
  8
AM_VIS
  5
774
 10
6.84959
 20
4.26296
 30
0.000000
  70
    32
  0
VERTEX
  8
AM_VIS
  5
775
 10
6.84812
 20
4.26417
 30
0.000000
  70
    32
  0
VERTEX
  8
AM_VIS
  5
776
 10
6.84664
 20
4.26536
 30
0.000000
  70
    32
  0
VERTEX
  8
AM_VIS
  5
777
 10
6.84516
 20
4.26656
 30
0.000000
  70
    32
  0
VERTEX
  8
AM_VIS
  5
778
 10
6.84366
 20
4.26774
 30
0.000000
  70
    32
  0
VERTEX
  8
AM_VIS
  5
779
 10
6.84216
 20
4.26892
 30
0.000000
  70
    32
  0
VERTEX
  8
AM_VIS
  5
77A
 10
6.84065
 20
4.27009
 30
0.000000
  70
    32
  0
VERTEX
  8
AM_VIS
  5
77B
 10
6.83913
 20
4.27125
 30
0.000000
  70
    32
  0
VERTEX
  8
AM_VIS
  5
77C
 10
6.83760
 20
4.27241
 30
0.000000
  70
    32
  0
VERTEX
  8
AM_VIS
  5
77D
 10
6.83607
 20
4.27356
 30
0.000000
  70
    32
  0
VERTEX
  8
AM_VIS
  5
77E
 10
6.83452
 20
4.27470
 30
0.000000
  70
    32
  0
VERTEX
  8
AM_VIS
  5
77F
 10
6.83297
 20
4.27583
 30
0.000000
  70
    32
  0
VERTEX
  8
AM_VIS
  5
780
 10
6.83141
 20
4.27695
 30
0.000000
  70
    32
  0
VERTEX
  8
AM_VIS
  5
781
 10
6.82985
 20
4.27807
 30
0.000000
  70
    32
  0
VERTEX
  8
AM_VIS
  5
782
 10
6.82827
 20
4.27918
 30
0.000000
  70
    32
  0
VERTEX
  8
AM_VIS
  5
783
 10
6.82669
 20
4.28028
 30
0.000000
  70
    32
  0
VERTEX
  8
AM_VIS
  5
784
 10
6.82510
 20
4.28137
 30
0.000000
  70
    32
  0
VERTEX
  8
AM_VIS
  5
785
 10
6.82350
 20
4.28246
 30
0.000000
  70
    32
  0
VERTEX
  8
AM_VIS
  5
786
 10
6.82190
 20
4.28353
 30
0.000000
  70
    32
  0
VERTEX
  8
AM_VIS
  5
787
 10
6.82029
 20
4.28460
 30
0.000000
  70
    32
  0
VERTEX
  8
AM_VIS
  5
788
 10
6.81867
 20
4.28565
 30
0.000000
  70
    32
  0
VERTEX
  8
AM_VIS
  5
789
 10
6.81705
 20
4.28670
 30
0.000000
  70
    32
  0
VERTEX
  8
AM_VIS
  5
78A
 10
6.81541
 20
4.28774
 30
0.000000
  70
    32
  0
VERTEX
  8
AM_VIS
  5
78B
 10
6.81377
 20
4.28877
 30
0.000000
  70
    32
  0
VERTEX
  8
AM_VIS
  5
78C
 10
6.81213
 20
4.28980
 30
0.000000
  70
    32
  0
VERTEX
  8
AM_VIS
  5
78D
 10
6.81047
 20
4.29081
 30
0.000000
  70
    32
  0
VERTEX
  8
AM_VIS
  5
78E
 10
6.80881
 20
4.29181
 30
0.000000
  70
    32
  0
VERTEX
  8
AM_VIS
  5
78F
 10
6.80715
 20
4.29281
 30
0.000000
  70
    32
  0
VERTEX
  8
AM_VIS
  5
790
 10
6.80547
 20
4.29379
 30
0.000000
  70
    32
  0
VERTEX
  8
AM_VIS
  5
791
 10
6.80379
 20
4.29476
 30
0.000000
  70
    32
  0
VERTEX
  8
AM_VIS
  5
792
 10
6.80211
 20
4.29573
 30
0.000000
  70
    32
  0
VERTEX
  8
AM_VIS
  5
793
 10
6.80042
 20
4.29668
 30
0.000000
  70
    32
  0
VERTEX
  8
AM_VIS
  5
794
 10
6.79872
 20
4.29763
 30
0.000000
  70
    32
  0
VERTEX
  8
AM_VIS
  5
795
 10
6.79701
 20
4.29857
 30
0.000000
  70
    32
  0
VERTEX
  8
AM_VIS
  5
796
 10
6.79530
 20
4.29949
 30
0.000000
  70
    32
  0
VERTEX
  8
AM_VIS
  5
797
 10
6.79358
 20
4.30041
 30
0.000000
  70
    32
  0
VERTEX
  8
AM_VIS
  5
798
 10
6.79186
 20
4.30131
 30
0.000000
  70
    32
  0
VERTEX
  8
AM_VIS
  5
799
 10
6.79013
 20
4.30220
 30
0.000000
  70
    32
  0
VERTEX
  8
AM_VIS
  5
79A
 10
6.78840
 20
4.30309
 30
0.000000
  70
    32
  0
VERTEX
  8
AM_VIS
  5
79B
 10
6.78666
 20
4.30396
 30
0.000000
  70
    32
  0
VERTEX
  8
AM_VIS
  5
79C
 10
6.78491
 20
4.30482
 30
0.000000
  70
    32
  0
VERTEX
  8
AM_VIS
  5
79D
 10
6.78316
 20
4.30568
 30
0.000000
  70
    32
  0
VERTEX
  8
AM_VIS
  5
79E
 10
6.78140
 20
4.30652
 30
0.000000
  70
    32
  0
VERTEX
  8
AM_VIS
  5
79F
 10
6.77964
 20
4.30735
 30
0.000000
  70
    32
  0
VERTEX
  8
AM_VIS
  5
7A0
 10
6.77787
 20
4.30817
 30
0.000000
  70
    32
  0
VERTEX
  8
AM_VIS
  5
7A1
 10
6.77609
 20
4.30897
 30
0.000000
  70
    32
  0
VERTEX
  8
AM_VIS
  5
7A2
 10
6.77432
 20
4.30977
 30
0.000000
  70
    32
  0
VERTEX
  8
AM_VIS
  5
7A3
 10
6.77253
 20
4.31056
 30
0.000000
  70
    32
  0
VERTEX
  8
AM_VIS
  5
7A4
 10
6.77074
 20
4.31133
 30
0.000000
  70
    32
  0
VERTEX
  8
AM_VIS
  5
7A5
 10
6.76895
 20
4.31209
 30
0.000000
  70
    32
  0
VERTEX
  8
AM_VIS
  5
7A6
 10
6.76715
 20
4.31284
 30
0.000000
  70
    32
  0
VERTEX
  8
AM_VIS
  5
7A7
 10
6.76535
 20
4.31358
 30
0.000000
  70
    32
  0
VERTEX
  8
AM_VIS
  5
7A8
 10
6.76354
 20
4.31431
 30
0.000000
  70
    32
  0
VERTEX
  8
AM_VIS
  5
7A9
 10
6.76173
 20
4.31503
 30
0.000000
  70
    32
  0
VERTEX
  8
AM_VIS
  5
7AA
 10
6.75991
 20
4.31573
 30
0.000000
  70
    32
  0
VERTEX
  8
AM_VIS
  5
7AB
 10
6.75809
 20
4.31642
 30
0.000000
  70
    32
  0
VERTEX
  8
AM_VIS
  5
7AC
 10
6.75626
 20
4.31711
 30
0.000000
  70
    32
  0
VERTEX
  8
AM_VIS
  5
7AD
 10
6.75443
 20
4.31778
 30
0.000000
  70
    32
  0
VERTEX
  8
AM_VIS
  5
7AE
 10
6.75260
 20
4.31844
 30
0.000000
  70
    32
  0
VERTEX
  8
AM_VIS
  5
7AF
 10
6.75076
 20
4.31908
 30
0.000000
  70
    32
  0
VERTEX
  8
AM_VIS
  5
7B0
 10
6.74892
 20
4.31972
 30
0.000000
  70
    32
  0
VERTEX
  8
AM_VIS
  5
7B1
 10
6.74708
 20
4.32034
 30
0.000000
  70
    32
  0
VERTEX
  8
AM_VIS
  5
7B2
 10
6.74523
 20
4.32096
 30
0.000000
  70
    32
  0
VERTEX
  8
AM_VIS
  5
7B3
 10
6.74338
 20
4.32156
 30
0.000000
  70
    32
  0
VERTEX
  8
AM_VIS
  5
7B4
 10
6.74153
 20
4.32215
 30
0.000000
  70
    32
  0
VERTEX
  8
AM_VIS
  5
7B5
 10
6.73967
 20
4.32273
 30
0.000000
  70
    32
  0
VERTEX
  8
AM_VIS
  5
7B6
 10
6.73781
 20
4.32330
 30
0.000000
  70
    32
  0
VERTEX
  8
AM_VIS
  5
7B7
 10
6.73595
 20
4.32385
 30
0.000000
  70
    32
  0
VERTEX
  8
AM_VIS
  5
7B8
 10
6.73408
 20
4.32440
 30
0.000000
  70
    32
  0
VERTEX
  8
AM_VIS
  5
7B9
 10
6.73221
 20
4.32493
 30
0.000000
  70
    32
  0
VERTEX
  8
AM_VIS
  5
7BA
 10
6.73034
 20
4.32545
 30
0.000000
  70
    32
  0
VERTEX
  8
AM_VIS
  5
7BB
 10
6.72847
 20
4.32596
 30
0.000000
  70
    32
  0
VERTEX
  8
AM_VIS
  5
7BC
 10
6.72660
 20
4.32646
 30
0.000000
  70
    32
  0
VERTEX
  8
AM_VIS
  5
7BD
 10
6.72472
 20
4.32694
 30
0.000000
  70
    32
  0
VERTEX
  8
AM_VIS
  5
7BE
 10
6.72284
 20
4.32742
 30
0.000000
  70
    32
  0
VERTEX
  8
AM_VIS
  5
7BF
 10
6.72096
 20
4.32788
 30
0.000000
  70
    32
  0
VERTEX
  8
AM_VIS
  5
7C0
 10
6.71908
 20
4.32834
 30
0.000000
  70
    32
  0
VERTEX
  8
AM_VIS
  5
7C1
 10
6.71720
 20
4.32878
 30
0.000000
  70
    32
  0
VERTEX
  8
AM_VIS
  5
7C2
 10
6.71531
 20
4.32921
 30
0.000000
  70
    32
  0
VERTEX
  8
AM_VIS
  5
7C3
 10
6.71342
 20
4.32962
 30
0.000000
  70
    32
  0
VERTEX
  8
AM_VIS
  5
7C4
 10
6.71154
 20
4.33003
 30
0.000000
  70
    32
  0
VERTEX
  8
AM_VIS
  5
7C5
 10
6.70965
 20
4.33042
 30
0.000000
  70
    32
  0
VERTEX
  8
AM_VIS
  5
7C6
 10
6.70776
 20
4.33081
 30
0.000000
  70
    32
  0
VERTEX
  8
AM_VIS
  5
7C7
 10
6.70587
 20
4.33118
 30
0.000000
  70
    32
  0
VERTEX
  8
AM_VIS
  5
7C8
 10
6.70398
 20
4.33154
 30
0.000000
  70
    32
  0
VERTEX
  8
AM_VIS
  5
7C9
 10
6.70209
 20
4.33189
 30
0.000000
  70
    32
  0
VERTEX
  8
AM_VIS
  5
7CA
 10
6.70019
 20
4.33222
 30
0.000000
  70
    32
  0
VERTEX
  8
AM_VIS
  5
7CB
 10
6.69830
 20
4.33255
 30
0.000000
  70
    32
  0
VERTEX
  8
AM_VIS
  5
7CC
 10
6.69641
 20
4.33286
 30
0.000000
  70
    32
  0
VERTEX
  8
AM_VIS
  5
7CD
 10
6.69452
 20
4.33316
 30
0.000000
  70
    32
  0
VERTEX
  8
AM_VIS
  5
7CE
 10
6.69262
 20
4.33345
 30
0.000000
  70
    32
  0
VERTEX
  8
AM_VIS
  5
7CF
 10
6.69073
 20
4.33373
 30
0.000000
  70
    32
  0
VERTEX
  8
AM_VIS
  5
7D0
 10
6.68884
 20
4.33400
 30
0.000000
  70
    32
  0
VERTEX
  8
AM_VIS
  5
7D1
 10
6.68694
 20
4.33426
 30
0.000000
  70
    32
  0
VERTEX
  8
AM_VIS
  5
7D2
 10
6.68505
 20
4.33450
 30
0.000000
  70
    32
  0
VERTEX
  8
AM_VIS
  5
7D3
 10
6.68316
 20
4.33473
 30
0.000000
  70
    32
  0
VERTEX
  8
AM_VIS
  5
7D4
 10
6.68127
 20
4.33495
 30
0.000000
  70
    32
  0
VERTEX
  8
AM_VIS
  5
7D5
 10
6.67938
 20
4.33516
 30
0.000000
  70
    32
  0
VERTEX
  8
AM_VIS
  5
7D6
 10
6.67749
 20
4.33536
 30
0.000000
  70
    32
  0
VERTEX
  8
AM_VIS
  5
7D7
 10
6.67561
 20
4.33555
 30
0.000000
  70
    32
  0
VERTEX
  8
AM_VIS
  5
7D8
 10
6.67372
 20
4.33572
 30
0.000000
  70
    32
  0
VERTEX
  8
AM_VIS
  5
7D9
 10
6.67184
 20
4.33588
 30
0.000000
  70
    32
  0
VERTEX
  8
AM_VIS
  5
7DA
 10
6.66995
 20
4.33604
 30
0.000000
  70
    32
  0
VERTEX
  8
AM_VIS
  5
7DB
 10
6.66807
 20
4.33617
 30
0.000000
  70
    32
  0
VERTEX
  8
AM_VIS
  5
7DC
 10
6.66619
 20
4.33630
 30
0.000000
  70
    32
  0
VERTEX
  8
AM_VIS
  5
7DD
 10
6.66431
 20
4.33642
 30
0.000000
  70
    32
  0
VERTEX
  8
AM_VIS
  5
7DE
 10
6.66244
 20
4.33652
 30
0.000000
  70
    32
  0
VERTEX
  8
AM_VIS
  5
7DF
 10
6.66056
 20
4.33662
 30
0.000000
  70
    32
  0
VERTEX
  8
AM_VIS
  5
7E0
 10
6.65869
 20
4.33670
 30
0.000000
  70
    32
  0
VERTEX
  8
AM_VIS
  5
7E1
 10
6.65682
 20
4.33677
 30
0.000000
  70
    32
  0
VERTEX
  8
AM_VIS
  5
7E2
 10
6.65495
 20
4.33683
 30
0.000000
  70
    32
  0
VERTEX
  8
AM_VIS
  5
7E3
 10
6.65309
 20
4.33687
 30
0.000000
  70
    32
  0
VERTEX
  8
AM_VIS
  5
7E4
 10
6.65123
 20
4.33691
 30
0.000000
  70
    32
  0
VERTEX
  8
AM_VIS
  5
7E5
 10
6.64937
 20
4.33693
 30
0.000000
  70
    32
  0
VERTEX
  8
AM_VIS
  5
7E6
 10
6.64751
 20
4.33694
 30
0.000000
  70
    32
  0
VERTEX
  8
AM_VIS
  5
7E7
 10
6.64566
 20
4.33694
 30
0.000000
  70
    32
  0
VERTEX
  8
AM_VIS
  5
7E8
 10
6.64380
 20
4.33693
 30
0.000000
  70
    32
  0
VERTEX
  8
AM_VIS
  5
7E9
 10
6.64194
 20
4.33691
 30
0.000000
  70
    32
  0
VERTEX
  8
AM_VIS
  5
7EA
 10
6.64008
 20
4.33687
 30
0.000000
  70
    32
  0
VERTEX
  8
AM_VIS
  5
7EB
 10
6.63822
 20
4.33683
 30
0.000000
  70
    32
  0
VERTEX
  8
AM_VIS
  5
7EC
 10
6.63635
 20
4.33677
 30
0.000000
  70
    32
  0
VERTEX
  8
AM_VIS
  5
7ED
 10
6.63448
 20
4.33670
 30
0.000000
  70
    32
  0
VERTEX
  8
AM_VIS
  5
7EE
 10
6.63261
 20
4.33662
 30
0.000000
  70
    32
  0
VERTEX
  8
AM_VIS
  5
7EF
 10
6.63073
 20
4.33652
 30
0.000000
  70
    32
  0
VERTEX
  8
AM_VIS
  5
7F0
 10
6.62886
 20
4.33642
 30
0.000000
  70
    32
  0
VERTEX
  8
AM_VIS
  5
7F1
 10
6.62698
 20
4.33630
 30
0.000000
  70
    32
  0
VERTEX
  8
AM_VIS
  5
7F2
 10
6.62510
 20
4.33617
 30
0.000000
  70
    32
  0
VERTEX
  8
AM_VIS
  5
7F3
 10
6.62322
 20
4.33604
 30
0.000000
  70
    32
  0
VERTEX
  8
AM_VIS
  5
7F4
 10
6.62133
 20
4.33588
 30
0.000000
  70
    32
  0
VERTEX
  8
AM_VIS
  5
7F5
 10
6.61945
 20
4.33572
 30
0.000000
  70
    32
  0
VERTEX
  8
AM_VIS
  5
7F6
 10
6.61756
 20
4.33555
 30
0.000000
  70
    32
  0
VERTEX
  8
AM_VIS
  5
7F7
 10
6.61567
 20
4.33536
 30
0.000000
  70
    32
  0
VERTEX
  8
AM_VIS
  5
7F8
 10
6.61379
 20
4.33516
 30
0.000000
  70
    32
  0
VERTEX
  8
AM_VIS
  5
7F9
 10
6.61190
 20
4.33495
 30
0.000000
  70
    32
  0
VERTEX
  8
AM_VIS
  5
7FA
 10
6.61001
 20
4.33473
 30
0.000000
  70
    32
  0
VERTEX
  8
AM_VIS
  5
7FB
 10
6.60812
 20
4.33450
 30
0.000000
  70
    32
  0
VERTEX
  8
AM_VIS
  5
7FC
 10
6.60622
 20
4.33426
 30
0.000000
  70
    32
  0
VERTEX
  8
AM_VIS
  5
7FD
 10
6.60433
 20
4.33400
 30
0.000000
  70
    32
  0
VERTEX
  8
AM_VIS
  5
7FE
 10
6.60244
 20
4.33373
 30
0.000000
  70
    32
  0
VERTEX
  8
AM_VIS
  5
7FF
 10
6.60055
 20
4.33345
 30
0.000000
  70
    32
  0
VERTEX
  8
AM_VIS
  5
800
 10
6.59865
 20
4.33316
 30
0.000000
  70
    32
  0
VERTEX
  8
AM_VIS
  5
801
 10
6.59676
 20
4.33286
 30
0.000000
  70
    32
  0
VERTEX
  8
AM_VIS
  5
802
 10
6.59487
 20
4.33255
 30
0.000000
  70
    32
  0
VERTEX
  8
AM_VIS
  5
803
 10
6.59297
 20
4.33222
 30
0.000000
  70
    32
  0
VERTEX
  8
AM_VIS
  5
804
 10
6.59108
 20
4.33189
 30
0.000000
  70
    32
  0
VERTEX
  8
AM_VIS
  5
805
 10
6.58919
 20
4.33154
 30
0.000000
  70
    32
  0
VERTEX
  8
AM_VIS
  5
806
 10
6.58730
 20
4.33118
 30
0.000000
  70
    32
  0
VERTEX
  8
AM_VIS
  5
807
 10
6.58541
 20
4.33081
 30
0.000000
  70
    32
  0
VERTEX
  8
AM_VIS
  5
808
 10
6.58352
 20
4.33042
 30
0.000000
  70
    32
  0
VERTEX
  8
AM_VIS
  5
809
 10
6.58163
 20
4.33003
 30
0.000000
  70
    32
  0
VERTEX
  8
AM_VIS
  5
80A
 10
6.57974
 20
4.32962
 30
0.000000
  70
    32
  0
VERTEX
  8
AM_VIS
  5
80B
 10
6.57786
 20
4.32921
 30
0.000000
  70
    32
  0
VERTEX
  8
AM_VIS
  5
80C
 10
6.57597
 20
4.32878
 30
0.000000
  70
    32
  0
VERTEX
  8
AM_VIS
  5
80D
 10
6.57409
 20
4.32834
 30
0.000000
  70
    32
  0
VERTEX
  8
AM_VIS
  5
80E
 10
6.57221
 20
4.32788
 30
0.000000
  70
    32
  0
VERTEX
  8
AM_VIS
  5
80F
 10
6.57033
 20
4.32742
 30
0.000000
  70
    32
  0
VERTEX
  8
AM_VIS
  5
810
 10
6.56845
 20
4.32694
 30
0.000000
  70
    32
  0
VERTEX
  8
AM_VIS
  5
811
 10
6.56657
 20
4.32646
 30
0.000000
  70
    32
  0
VERTEX
  8
AM_VIS
  5
812
 10
6.56470
 20
4.32596
 30
0.000000
  70
    32
  0
VERTEX
  8
AM_VIS
  5
813
 10
6.56282
 20
4.32545
 30
0.000000
  70
    32
  0
VERTEX
  8
AM_VIS
  5
814
 10
6.56095
 20
4.32493
 30
0.000000
  70
    32
  0
VERTEX
  8
AM_VIS
  5
815
 10
6.55909
 20
4.32440
 30
0.000000
  70
    32
  0
VERTEX
  8
AM_VIS
  5
816
 10
6.55722
 20
4.32385
 30
0.000000
  70
    32
  0
VERTEX
  8
AM_VIS
  5
817
 10
6.55536
 20
4.32330
 30
0.000000
  70
    32
  0
VERTEX
  8
AM_VIS
  5
818
 10
6.55350
 20
4.32273
 30
0.000000
  70
    32
  0
VERTEX
  8
AM_VIS
  5
819
 10
6.55164
 20
4.32215
 30
0.000000
  70
    32
  0
VERTEX
  8
AM_VIS
  5
81A
 10
6.54979
 20
4.32156
 30
0.000000
  70
    32
  0
VERTEX
  8
AM_VIS
  5
81B
 10
6.54794
 20
4.32096
 30
0.000000
  70
    32
  0
VERTEX
  8
AM_VIS
  5
81C
 10
6.54609
 20
4.32034
 30
0.000000
  70
    32
  0
VERTEX
  8
AM_VIS
  5
81D
 10
6.54425
 20
4.31972
 30
0.000000
  70
    32
  0
VERTEX
  8
AM_VIS
  5
81E
 10
6.54241
 20
4.31908
 30
0.000000
  70
    32
  0
VERTEX
  8
AM_VIS
  5
81F
 10
6.54057
 20
4.31844
 30
0.000000
  70
    32
  0
VERTEX
  8
AM_VIS
  5
820
 10
6.53874
 20
4.31778
 30
0.000000
  70
    32
  0
VERTEX
  8
AM_VIS
  5
821
 10
6.53691
 20
4.31711
 30
0.000000
  70
    32
  0
VERTEX
  8
AM_VIS
  5
822
 10
6.53508
 20
4.31642
 30
0.000000
  70
    32
  0
VERTEX
  8
AM_VIS
  5
823
 10
6.53326
 20
4.31573
 30
0.000000
  70
    32
  0
VERTEX
  8
AM_VIS
  5
824
 10
6.53144
 20
4.31503
 30
0.000000
  70
    32
  0
VERTEX
  8
AM_VIS
  5
825
 10
6.52963
 20
4.31431
 30
0.000000
  70
    32
  0
VERTEX
  8
AM_VIS
  5
826
 10
6.52782
 20
4.31358
 30
0.000000
  70
    32
  0
VERTEX
  8
AM_VIS
  5
827
 10
6.52602
 20
4.31284
 30
0.000000
  70
    32
  0
VERTEX
  8
AM_VIS
  5
828
 10
6.52422
 20
4.31209
 30
0.000000
  70
    32
  0
VERTEX
  8
AM_VIS
  5
829
 10
6.52243
 20
4.31133
 30
0.000000
  70
    32
  0
VERTEX
  8
AM_VIS
  5
82A
 10
6.52064
 20
4.31056
 30
0.000000
  70
    32
  0
VERTEX
  8
AM_VIS
  5
82B
 10
6.51885
 20
4.30977
 30
0.000000
  70
    32
  0
VERTEX
  8
AM_VIS
  5
82C
 10
6.51707
 20
4.30897
 30
0.000000
  70
    32
  0
VERTEX
  8
AM_VIS
  5
82D
 10
6.51530
 20
4.30817
 30
0.000000
  70
    32
  0
VERTEX
  8
AM_VIS
  5
82E
 10
6.51353
 20
4.30735
 30
0.000000
  70
    32
  0
VERTEX
  8
AM_VIS
  5
82F
 10
6.51177
 20
4.30652
 30
0.000000
  70
    32
  0
VERTEX
  8
AM_VIS
  5
830
 10
6.51001
 20
4.30568
 30
0.000000
  70
    32
  0
VERTEX
  8
AM_VIS
  5
831
 10
6.50826
 20
4.30482
 30
0.000000
  70
    32
  0
VERTEX
  8
AM_VIS
  5
832
 10
6.50651
 20
4.30396
 30
0.000000
  70
    32
  0
VERTEX
  8
AM_VIS
  5
833
 10
6.50477
 20
4.30309
 30
0.000000
  70
    32
  0
VERTEX
  8
AM_VIS
  5
834
 10
6.50304
 20
4.30220
 30
0.000000
  70
    32
  0
VERTEX
  8
AM_VIS
  5
835
 10
6.50131
 20
4.30131
 30
0.000000
  70
    32
  0
VERTEX
  8
AM_VIS
  5
836
 10
6.49959
 20
4.30041
 30
0.000000
  70
    32
  0
VERTEX
  8
AM_VIS
  5
837
 10
6.49787
 20
4.29949
 30
0.000000
  70
    32
  0
VERTEX
  8
AM_VIS
  5
838
 10
6.49616
 20
4.29857
 30
0.000000
  70
    32
  0
VERTEX
  8
AM_VIS
  5
839
 10
6.49445
 20
4.29763
 30
0.000000
  70
    32
  0
VERTEX
  8
AM_VIS
  5
83A
 10
6.49275
 20
4.29668
 30
0.000000
  70
    32
  0
VERTEX
  8
AM_VIS
  5
83B
 10
6.49106
 20
4.29573
 30
0.000000
  70
    32
  0
VERTEX
  8
AM_VIS
  5
83C
 10
6.48937
 20
4.29476
 30
0.000000
  70
    32
  0
VERTEX
  8
AM_VIS
  5
83D
 10
6.48769
 20
4.29379
 30
0.000000
  70
    32
  0
VERTEX
  8
AM_VIS
  5
83E
 10
6.48602
 20
4.29281
 30
0.000000
  70
    32
  0
VERTEX
  8
AM_VIS
  5
83F
 10
6.48435
 20
4.29181
 30
0.000000
  70
    32
  0
VERTEX
  8
AM_VIS
  5
840
 10
6.48269
 20
4.29081
 30
0.000000
  70
    32
  0
VERTEX
  8
AM_VIS
  5
841
 10
6.48104
 20
4.28980
 30
0.000000
  70
    32
  0
VERTEX
  8
AM_VIS
  5
842
 10
6.47940
 20
4.28877
 30
0.000000
  70
    32
  0
VERTEX
  8
AM_VIS
  5
843
 10
6.47776
 20
4.28774
 30
0.000000
  70
    32
  0
VERTEX
  8
AM_VIS
  5
844
 10
6.47612
 20
4.28670
 30
0.000000
  70
    32
  0
VERTEX
  8
AM_VIS
  5
845
 10
6.47450
 20
4.28565
 30
0.000000
  70
    32
  0
VERTEX
  8
AM_VIS
  5
846
 10
6.47288
 20
4.28460
 30
0.000000
  70
    32
  0
VERTEX
  8
AM_VIS
  5
847
 10
6.47127
 20
4.28353
 30
0.000000
  70
    32
  0
VERTEX
  8
AM_VIS
  5
848
 10
6.46966
 20
4.28246
 30
0.000000
  70
    32
  0
VERTEX
  8
AM_VIS
  5
849
 10
6.46807
 20
4.28137
 30
0.000000
  70
    32
  0
VERTEX
  8
AM_VIS
  5
84A
 10
6.46648
 20
4.28028
 30
0.000000
  70
    32
  0
VERTEX
  8
AM_VIS
  5
84B
 10
6.46490
 20
4.27918
 30
0.000000
  70
    32
  0
VERTEX
  8
AM_VIS
  5
84C
 10
6.46332
 20
4.27807
 30
0.000000
  70
    32
  0
VERTEX
  8
AM_VIS
  5
84D
 10
6.46176
 20
4.27695
 30
0.000000
  70
    32
  0
VERTEX
  8
AM_VIS
  5
84E
 10
6.46020
 20
4.27583
 30
0.000000
  70
    32
  0
VERTEX
  8
AM_VIS
  5
84F
 10
6.45865
 20
4.27470
 30
0.000000
  70
    32
  0
VERTEX
  8
AM_VIS
  5
850
 10
6.45710
 20
4.27356
 30
0.000000
  70
    32
  0
VERTEX
  8
AM_VIS
  5
851
 10
6.45557
 20
4.27241
 30
0.000000
  70
    32
  0
VERTEX
  8
AM_VIS
  5
852
 10
6.45404
 20
4.27125
 30
0.000000
  70
    32
  0
VERTEX
  8
AM_VIS
  5
853
 10
6.45252
 20
4.27009
 30
0.000000
  70
    32
  0
VERTEX
  8
AM_VIS
  5
854
 10
6.45101
 20
4.26892
 30
0.000000
  70
    32
  0
VERTEX
  8
AM_VIS
  5
855
 10
6.44951
 20
4.26774
 30
0.000000
  70
    32
  0
VERTEX
  8
AM_VIS
  5
856
 10
6.44801
 20
4.26656
 30
0.000000
  70
    32
  0
VERTEX
  8
AM_VIS
  5
857
 10
6.44653
 20
4.26536
 30
0.000000
  70
    32
  0
VERTEX
  8
AM_VIS
  5
858
 10
6.44505
 20
4.26417
 30
0.000000
  70
    32
  0
VERTEX
  8
AM_VIS
  5
859
 10
6.44358
 20
4.26296
 30
0.000000
  70
    32
  0
VERTEX
  8
AM_VIS
  5
85A
 10
6.44212
 20
4.26175
 30
0.000000
  70
    32
  0
VERTEX
  8
AM_VIS
  5
85B
 10
6.44067
 20
4.26053
 30
0.000000
  70
    32
  0
VERTEX
  8
AM_VIS
  5
85C
 10
6.43923
 20
4.25930
 30
0.000000
  70
    32
  0
VERTEX
  8
AM_VIS
  5
85D
 10
6.43779
 20
4.25807
 30
0.000000
  70
    32
  0
VERTEX
  8
AM_VIS
  5
85E
 10
6.43637
 20
4.25683
 30
0.000000
  70
    32
  0
VERTEX
  8
AM_VIS
  5
85F
 10
6.43495
 20
4.25558
 30
0.000000
  70
    32
  0
VERTEX
  8
AM_VIS
  5
860
 10
6.43354
 20
4.25433
 30
0.000000
  70
    32
  0
VERTEX
  8
AM_VIS
  5
861
 10
6.43215
 20
4.25307
 30
0.000000
  70
    32
  0
VERTEX
  8
AM_VIS
  5
862
 10
6.43076
 20
4.25181
 30
0.000000
  70
    32
  0
VERTEX
  8
AM_VIS
  5
863
 10
6.42938
 20
4.25054
 30
0.000000
  70
    32
  0
VERTEX
  8
AM_VIS
  5
864
 10
6.42801
 20
4.24926
 30
0.000000
  70
    32
  0
VERTEX
  8
AM_VIS
  5
865
 10
6.42665
 20
4.24798
 30
0.000000
  70
    32
  0
VERTEX
  8
AM_VIS
  5
866
 10
6.42530
 20
4.24669
 30
0.000000
  70
    32
  0
VERTEX
  8
AM_VIS
  5
867
 10
6.42395
 20
4.24540
 30
0.000000
  70
    32
  0
VERTEX
  8
AM_VIS
  5
868
 10
6.42262
 20
4.24410
 30
0.000000
  70
    32
  0
VERTEX
  8
AM_VIS
  5
869
 10
6.42130
 20
4.24279
 30
0.000000
  70
    32
  0
VERTEX
  8
AM_VIS
  5
86A
 10
6.41999
 20
4.24148
 30
0.000000
  70
    32
  0
VERTEX
  8
AM_VIS
  5
86B
 10
6.41869
 20
4.24017
 30
0.000000
  70
    32
  0
VERTEX
  8
AM_VIS
  5
86C
 10
6.41739
 20
4.23885
 30
0.000000
  70
    32
  0
VERTEX
  8
AM_VIS
  5
86D
 10
6.41611
 20
4.23753
 30
0.000000
  70
    32
  0
VERTEX
  8
AM_VIS
  5
86E
 10
6.41484
 20
4.23620
 30
0.000000
  70
    32
  0
VERTEX
  8
AM_VIS
  5
86F
 10
6.41358
 20
4.23486
 30
0.000000
  70
    32
  0
VERTEX
  8
AM_VIS
  5
870
 10
6.41232
 20
4.23352
 30
0.000000
  70
    32
  0
VERTEX
  8
AM_VIS
  5
871
 10
6.41108
 20
4.23217
 30
0.000000
  70
    32
  0
VERTEX
  8
AM_VIS
  5
872
 10
6.40983
 20
4.23081
 30
0.000000
  70
    32
  0
VERTEX
  8
AM_VIS
  5
873
 10
6.40859
 20
4.22944
 30
0.000000
  70
    32
  0
VERTEX
  8
AM_VIS
  5
874
 10
6.40736
 20
4.22806
 30
0.000000
  70
    32
  0
VERTEX
  8
AM_VIS
  5
875
 10
6.40613
 20
4.22667
 30
0.000000
  70
    32
  0
VERTEX
  8
AM_VIS
  5
876
 10
6.40491
 20
4.22527
 30
0.000000
  70
    32
  0
VERTEX
  8
AM_VIS
  5
877
 10
6.40370
 20
4.22386
 30
0.000000
  70
    32
  0
VERTEX
  8
AM_VIS
  5
878
 10
6.40249
 20
4.22244
 30
0.000000
  70
    32
  0
VERTEX
  8
AM_VIS
  5
879
 10
6.40129
 20
4.22101
 30
0.000000
  70
    32
  0
VERTEX
  8
AM_VIS
  5
87A
 10
6.40009
 20
4.21957
 30
0.000000
  70
    32
  0
VERTEX
  8
AM_VIS
  5
87B
 10
6.39890
 20
4.21813
 30
0.000000
  70
    32
  0
VERTEX
  8
AM_VIS
  5
87C
 10
6.39771
 20
4.21667
 30
0.000000
  70
    32
  0
VERTEX
  8
AM_VIS
  5
87D
 10
6.39653
 20
4.21521
 30
0.000000
  70
    32
  0
VERTEX
  8
AM_VIS
  5
87E
 10
6.39536
 20
4.21373
 30
0.000000
  70
    32
  0
VERTEX
  8
AM_VIS
  5
87F
 10
6.39419
 20
4.21225
 30
0.000000
  70
    32
  0
VERTEX
  8
AM_VIS
  5
880
 10
6.39303
 20
4.21076
 30
0.000000
  70
    32
  0
VERTEX
  8
AM_VIS
  5
881
 10
6.39188
 20
4.20926
 30
0.000000
  70
    32
  0
VERTEX
  8
AM_VIS
  5
882
 10
6.39073
 20
4.20775
 30
0.000000
  70
    32
  0
VERTEX
  8
AM_VIS
  5
883
 10
6.38960
 20
4.20624
 30
0.000000
  70
    32
  0
VERTEX
  8
AM_VIS
  5
884
 10
6.38846
 20
4.20471
 30
0.000000
  70
    32
  0
VERTEX
  8
AM_VIS
  5
885
 10
6.38734
 20
4.20318
 30
0.000000
  70
    32
  0
VERTEX
  8
AM_VIS
  5
886
 10
6.38622
 20
4.20164
 30
0.000000
  70
    32
  0
VERTEX
  8
AM_VIS
  5
887
 10
6.38511
 20
4.20009
 30
0.000000
  70
    32
  0
VERTEX
  8
AM_VIS
  5
888
 10
6.38400
 20
4.19853
 30
0.000000
  70
    32
  0
VERTEX
  8
AM_VIS
  5
889
 10
6.38290
 20
4.19697
 30
0.000000
  70
    32
  0
VERTEX
  8
AM_VIS
  5
88A
 10
6.38181
 20
4.19539
 30
0.000000
  70
    32
  0
VERTEX
  8
AM_VIS
  5
88B
 10
6.38073
 20
4.19381
 30
0.000000
  70
    32
  0
VERTEX
  8
AM_VIS
  5
88C
 10
6.37966
 20
4.19222
 30
0.000000
  70
    32
  0
VERTEX
  8
AM_VIS
  5
88D
 10
6.37859
 20
4.19063
 30
0.000000
  70
    32
  0
VERTEX
  8
AM_VIS
  5
88E
 10
6.37753
 20
4.18902
 30
0.000000
  70
    32
  0
VERTEX
  8
AM_VIS
  5
88F
 10
6.37648
 20
4.18741
 30
0.000000
  70
    32
  0
VERTEX
  8
AM_VIS
  5
890
 10
6.37543
 20
4.18579
 30
0.000000
  70
    32
  0
VERTEX
  8
AM_VIS
  5
891
 10
6.37440
 20
4.18416
 30
0.000000
  70
    32
  0
VERTEX
  8
AM_VIS
  5
892
 10
6.37337
 20
4.18253
 30
0.000000
  70
    32
  0
VERTEX
  8
AM_VIS
  5
893
 10
6.37235
 20
4.18089
 30
0.000000
  70
    32
  0
VERTEX
  8
AM_VIS
  5
894
 10
6.37134
 20
4.17924
 30
0.000000
  70
    32
  0
VERTEX
  8
AM_VIS
  5
895
 10
6.37033
 20
4.17759
 30
0.000000
  70
    32
  0
VERTEX
  8
AM_VIS
  5
896
 10
6.36934
 20
4.17593
 30
0.000000
  70
    32
  0
VERTEX
  8
AM_VIS
  5
897
 10
6.36835
 20
4.17426
 30
0.000000
  70
    32
  0
VERTEX
  8
AM_VIS
  5
898
 10
6.36737
 20
4.17258
 30
0.000000
  70
    32
  0
VERTEX
  8
AM_VIS
  5
899
 10
6.36640
 20
4.17090
 30
0.000000
  70
    32
  0
VERTEX
  8
AM_VIS
  5
89A
 10
6.36544
 20
4.16921
 30
0.000000
  70
    32
  0
VERTEX
  8
AM_VIS
  5
89B
 10
6.36449
 20
4.16752
 30
0.000000
  70
    32
  0
VERTEX
  8
AM_VIS
  5
89C
 10
6.36355
 20
4.16582
 30
0.000000
  70
    32
  0
VERTEX
  8
AM_VIS
  5
89D
 10
6.36261
 20
4.16411
 30
0.000000
  70
    32
  0
VERTEX
  8
AM_VIS
  5
89E
 10
6.36169
 20
4.16239
 30
0.000000
  70
    32
  0
VERTEX
  8
AM_VIS
  5
89F
 10
6.36077
 20
4.16067
 30
0.000000
  70
    32
  0
VERTEX
  8
AM_VIS
  5
8A0
 10
6.35986
 20
4.15895
 30
0.000000
  70
    32
  0
VERTEX
  8
AM_VIS
  5
8A1
 10
6.35896
 20
4.15722
 30
0.000000
  70
    32
  0
VERTEX
  8
AM_VIS
  5
8A2
 10
6.35808
 20
4.15548
 30
0.000000
  70
    32
  0
VERTEX
  8
AM_VIS
  5
8A3
 10
6.35720
 20
4.15373
 30
0.000000
  70
    32
  0
VERTEX
  8
AM_VIS
  5
8A4
 10
6.35633
 20
4.15198
 30
0.000000
  70
    32
  0
VERTEX
  8
AM_VIS
  5
8A5
 10
6.35547
 20
4.15023
 30
0.000000
  70
    32
  0
VERTEX
  8
AM_VIS
  5
8A6
 10
6.35462
 20
4.14847
 30
0.000000
  70
    32
  0
VERTEX
  8
AM_VIS
  5
8A7
 10
6.35377
 20
4.14670
 30
0.000000
  70
    32
  0
VERTEX
  8
AM_VIS
  5
8A8
 10
6.35294
 20
4.14493
 30
0.000000
  70
    32
  0
VERTEX
  8
AM_VIS
  5
8A9
 10
6.35212
 20
4.14315
 30
0.000000
  70
    32
  0
VERTEX
  8
AM_VIS
  5
8AA
 10
6.35131
 20
4.14137
 30
0.000000
  70
    32
  0
VERTEX
  8
AM_VIS
  5
8AB
 10
6.35051
 20
4.13958
 30
0.000000
  70
    32
  0
VERTEX
  8
AM_VIS
  5
8AC
 10
6.34972
 20
4.13779
 30
0.000000
  70
    32
  0
VERTEX
  8
AM_VIS
  5
8AD
 10
6.34894
 20
4.13599
 30
0.000000
  70
    32
  0
VERTEX
  8
AM_VIS
  5
8AE
 10
6.34817
 20
4.13419
 30
0.000000
  70
    32
  0
VERTEX
  8
AM_VIS
  5
8AF
 10
6.34741
 20
4.13238
 30
0.000000
  70
    32
  0
VERTEX
  8
AM_VIS
  5
8B0
 10
6.34666
 20
4.13057
 30
0.000000
  70
    32
  0
VERTEX
  8
AM_VIS
  5
8B1
 10
6.34592
 20
4.12875
 30
0.000000
  70
    32
  0
VERTEX
  8
AM_VIS
  5
8B2
 10
6.34519
 20
4.12693
 30
0.000000
  70
    32
  0
VERTEX
  8
AM_VIS
  5
8B3
 10
6.34447
 20
4.12510
 30
0.000000
  70
    32
  0
VERTEX
  8
AM_VIS
  5
8B4
 10
6.34377
 20
4.12327
 30
0.000000
  70
    32
  0
VERTEX
  8
AM_VIS
  5
8B5
 10
6.34307
 20
4.12144
 30
0.000000
  70
    32
  0
VERTEX
  8
AM_VIS
  5
8B6
 10
6.34239
 20
4.11960
 30
0.000000
  70
    32
  0
VERTEX
  8
AM_VIS
  5
8B7
 10
6.34171
 20
4.11776
 30
0.000000
  70
    32
  0
VERTEX
  8
AM_VIS
  5
8B8
 10
6.34105
 20
4.11591
 30
0.000000
  70
    32
  0
VERTEX
  8
AM_VIS
  5
8B9
 10
6.34039
 20
4.11406
 30
0.000000
  70
    32
  0
VERTEX
  8
AM_VIS
  5
8BA
 10
6.33975
 20
4.11221
 30
0.000000
  70
    32
  0
VERTEX
  8
AM_VIS
  5
8BB
 10
6.33912
 20
4.11035
 30
0.000000
  70
    32
  0
VERTEX
  8
AM_VIS
  5
8BC
 10
6.33850
 20
4.10849
 30
0.000000
  70
    32
  0
VERTEX
  8
AM_VIS
  5
8BD
 10
6.33789
 20
4.10662
 30
0.000000
  70
    32
  0
VERTEX
  8
AM_VIS
  5
8BE
 10
6.33729
 20
4.10475
 30
0.000000
  70
    32
  0
VERTEX
  8
AM_VIS
  5
8BF
 10
6.33670
 20
4.10288
 30
0.000000
  70
    32
  0
VERTEX
  8
AM_VIS
  5
8C0
 10
6.33613
 20
4.10101
 30
0.000000
  70
    32
  0
VERTEX
  8
AM_VIS
  5
8C1
 10
6.33556
 20
4.09913
 30
0.000000
  70
    32
  0
VERTEX
  8
AM_VIS
  5
8C2
 10
6.33500
 20
4.09725
 30
0.000000
  70
    32
  0
VERTEX
  8
AM_VIS
  5
8C3
 10
6.33446
 20
4.09537
 30
0.000000
  70
    32
  0
VERTEX
  8
AM_VIS
  5
8C4
 10
6.33392
 20
4.09348
 30
0.000000
  70
    32
  0
VERTEX
  8
AM_VIS
  5
8C5
 10
6.33340
 20
4.09160
 30
0.000000
  70
    32
  0
VERTEX
  8
AM_VIS
  5
8C6
 10
6.33289
 20
4.08971
 30
0.000000
  70
    32
  0
VERTEX
  8
AM_VIS
  5
8C7
 10
6.33238
 20
4.08781
 30
0.000000
  70
    32
  0
VERTEX
  8
AM_VIS
  5
8C8
 10
6.33189
 20
4.08592
 30
0.000000
  70
    32
  0
VERTEX
  8
AM_VIS
  5
8C9
 10
6.33141
 20
4.08402
 30
0.000000
  70
    32
  0
VERTEX
  8
AM_VIS
  5
8CA
 10
6.33094
 20
4.08213
 30
0.000000
  70
    32
  0
VERTEX
  8
AM_VIS
  5
8CB
 10
6.33048
 20
4.08023
 30
0.000000
  70
    32
  0
VERTEX
  8
AM_VIS
  5
8CC
 10
6.33003
 20
4.07833
 30
0.000000
  70
    32
  0
VERTEX
  8
AM_VIS
  5
8CD
 10
6.32959
 20
4.07643
 30
0.000000
  70
    32
  0
VERTEX
  8
AM_VIS
  5
8CE
 10
6.32916
 20
4.07452
 30
0.000000
  70
    32
  0
VERTEX
  8
AM_VIS
  5
8CF
 10
6.32874
 20
4.07262
 30
0.000000
  70
    32
  0
VERTEX
  8
AM_VIS
  5
8D0
 10
6.32834
 20
4.07071
 30
0.000000
  70
    32
  0
VERTEX
  8
AM_VIS
  5
8D1
 10
6.32794
 20
4.06881
 30
0.000000
  70
    32
  0
VERTEX
  8
AM_VIS
  5
8D2
 10
6.32756
 20
4.06690
 30
0.000000
  70
    32
  0
VERTEX
  8
AM_VIS
  5
8D3
 10
6.32718
 20
4.06499
 30
0.000000
  70
    32
  0
VERTEX
  8
AM_VIS
  5
8D4
 10
6.32682
 20
4.06308
 30
0.000000
  70
    32
  0
VERTEX
  8
AM_VIS
  5
8D5
 10
6.32646
 20
4.06117
 30
0.000000
  70
    32
  0
VERTEX
  8
AM_VIS
  5
8D6
 10
6.32612
 20
4.05926
 30
0.000000
  70
    32
  0
VERTEX
  8
AM_VIS
  5
8D7
 10
6.32579
 20
4.05735
 30
0.000000
  70
    32
  0
VERTEX
  8
AM_VIS
  5
8D8
 10
6.32546
 20
4.05544
 30
0.000000
  70
    32
  0
VERTEX
  8
AM_VIS
  5
8D9
 10
6.32515
 20
4.05353
 30
0.000000
  70
    32
  0
VERTEX
  8
AM_VIS
  5
8DA
 10
6.32485
 20
4.05163
 30
0.000000
  70
    32
  0
VERTEX
  8
AM_VIS
  5
8DB
 10
6.32456
 20
4.04972
 30
0.000000
  70
    32
  0
VERTEX
  8
AM_VIS
  5
8DC
 10
6.32428
 20
4.04781
 30
0.000000
  70
    32
  0
VERTEX
  8
AM_VIS
  5
8DD
 10
6.32401
 20
4.04590
 30
0.000000
  70
    32
  0
VERTEX
  8
AM_VIS
  5
8DE
 10
6.32375
 20
4.04399
 30
0.000000
  70
    32
  0
VERTEX
  8
AM_VIS
  5
8DF
 10
6.32351
 20
4.04208
 30
0.000000
  70
    32
  0
VERTEX
  8
AM_VIS
  5
8E0
 10
6.32327
 20
4.04018
 30
0.000000
  70
    32
  0
VERTEX
  8
AM_VIS
  5
8E1
 10
6.32304
 20
4.03827
 30
0.000000
  70
    32
  0
VERTEX
  8
AM_VIS
  5
8E2
 10
6.32282
 20
4.03637
 30
0.000000
  70
    32
  0
VERTEX
  8
AM_VIS
  5
8E3
 10
6.32262
 20
4.03447
 30
0.000000
  70
    32
  0
VERTEX
  8
AM_VIS
  5
8E4
 10
6.32242
 20
4.03257
 30
0.000000
  70
    32
  0
VERTEX
  8
AM_VIS
  5
8E5
 10
6.32224
 20
4.03067
 30
0.000000
  70
    32
  0
VERTEX
  8
AM_VIS
  5
8E6
 10
6.32206
 20
4.02877
 30
0.000000
  70
    32
  0
VERTEX
  8
AM_VIS
  5
8E7
 10
6.32190
 20
4.02687
 30
0.000000
  70
    32
  0
VERTEX
  8
AM_VIS
  5
8E8
 10
6.32174
 20
4.02498
 30
0.000000
  70
    32
  0
VERTEX
  8
AM_VIS
  5
8E9
 10
6.32160
 20
4.02308
 30
0.000000
  70
    32
  0
VERTEX
  8
AM_VIS
  5
8EA
 10
6.32147
 20
4.02119
 30
0.000000
  70
    32
  0
VERTEX
  8
AM_VIS
  5
8EB
 10
6.32134
 20
4.01931
 30
0.000000
  70
    32
  0
VERTEX
  8
AM_VIS
  5
8EC
 10
6.32123
 20
4.01742
 30
0.000000
  70
    32
  0
VERTEX
  8
AM_VIS
  5
8ED
 10
6.32113
 20
4.01554
 30
0.000000
  70
    32
  0
VERTEX
  8
AM_VIS
  5
8EE
 10
6.32104
 20
4.01366
 30
0.000000
  70
    32
  0
VERTEX
  8
AM_VIS
  5
8EF
 10
6.32096
 20
4.01178
 30
0.000000
  70
    32
  0
VERTEX
  8
AM_VIS
  5
8F0
 10
6.32089
 20
4.00990
 30
0.000000
  70
    32
  0
VERTEX
  8
AM_VIS
  5
8F1
 10
6.32083
 20
4.00803
 30
0.000000
  70
    32
  0
VERTEX
  8
AM_VIS
  5
8F2
 10
6.32078
 20
4.00616
 30
0.000000
  70
    32
  0
VERTEX
  8
AM_VIS
  5
8F3
 10
6.32074
 20
4.00429
 30
0.000000
  70
    32
  0
VERTEX
  8
AM_VIS
  5
8F4
 10
6.32071
 20
4.00243
 30
0.000000
  70
    32
  0
VERTEX
  8
AM_VIS
  5
8F5
 10
6.32069
 20
4.00057
 30
0.000000
  70
    32
  0
VERTEX
  8
AM_VIS
  5
8F6
 10
6.32069
 20
3.99872
 30
0.000000
  70
    32
  0
VERTEX
  8
AM_VIS
  5
8F7
 10
6.32069
 20
3.99686
 30
0.000000
  70
    32
  0
VERTEX
  8
AM_VIS
  5
8F8
 10
6.32070
 20
3.99500
 30
0.000000
  70
    32
  0
VERTEX
  8
AM_VIS
  5
8F9
 10
6.32073
 20
3.99314
 30
0.000000
  70
    32
  0
VERTEX
  8
AM_VIS
  5
8FA
 10
6.32076
 20
3.99128
 30
0.000000
  70
    32
  0
VERTEX
  8
AM_VIS
  5
8FB
 10
6.32080
 20
3.98941
 30
0.000000
  70
    32
  0
VERTEX
  8
AM_VIS
  5
8FC
 10
6.32086
 20
3.98754
 30
0.000000
  70
    32
  0
VERTEX
  8
AM_VIS
  5
8FD
 10
6.32092
 20
3.98567
 30
0.000000
  70
    32
  0
VERTEX
  8
AM_VIS
  5
8FE
 10
6.32100
 20
3.98379
 30
0.000000
  70
    32
  0
VERTEX
  8
AM_VIS
  5
8FF
 10
6.32108
 20
3.98191
 30
0.000000
  70
    32
  0
VERTEX
  8
AM_VIS
  5
900
 10
6.32118
 20
3.98003
 30
0.000000
  70
    32
  0
VERTEX
  8
AM_VIS
  5
901
 10
6.32129
 20
3.97814
 30
0.000000
  70
    32
  0
VERTEX
  8
AM_VIS
  5
902
 10
6.32140
 20
3.97625
 30
0.000000
  70
    32
  0
VERTEX
  8
AM_VIS
  5
903
 10
6.32153
 20
3.97437
 30
0.000000
  70
    32
  0
VERTEX
  8
AM_VIS
  5
904
 10
6.32167
 20
3.97247
 30
0.000000
  70
    32
  0
VERTEX
  8
AM_VIS
  5
905
 10
6.32182
 20
3.97058
 30
0.000000
  70
    32
  0
VERTEX
  8
AM_VIS
  5
906
 10
6.32198
 20
3.96868
 30
0.000000
  70
    32
  0
VERTEX
  8
AM_VIS
  5
907
 10
6.32215
 20
3.96679
 30
0.000000
  70
    32
  0
VERTEX
  8
AM_VIS
  5
908
 10
6.32233
 20
3.96489
 30
0.000000
  70
    32
  0
VERTEX
  8
AM_VIS
  5
909
 10
6.32252
 20
3.96299
 30
0.000000
  70
    32
  0
VERTEX
  8
AM_VIS
  5
90A
 10
6.32272
 20
3.96109
 30
0.000000
  70
    32
  0
VERTEX
  8
AM_VIS
  5
90B
 10
6.32293
 20
3.95918
 30
0.000000
  70
    32
  0
VERTEX
  8
AM_VIS
  5
90C
 10
6.32315
 20
3.95728
 30
0.000000
  70
    32
  0
VERTEX
  8
AM_VIS
  5
90D
 10
6.32338
 20
3.95537
 30
0.000000
  70
    32
  0
VERTEX
  8
AM_VIS
  5
90E
 10
6.32363
 20
3.95347
 30
0.000000
  70
    32
  0
VERTEX
  8
AM_VIS
  5
90F
 10
6.32388
 20
3.95156
 30
0.000000
  70
    32
  0
VERTEX
  8
AM_VIS
  5
910
 10
6.32415
 20
3.94965
 30
0.000000
  70
    32
  0
VERTEX
  8
AM_VIS
  5
911
 10
6.32442
 20
3.94774
 30
0.000000
  70
    32
  0
VERTEX
  8
AM_VIS
  5
912
 10
6.32471
 20
3.94583
 30
0.000000
  70
    32
  0
VERTEX
  8
AM_VIS
  5
913
 10
6.32500
 20
3.94392
 30
0.000000
  70
    32
  0
VERTEX
  8
AM_VIS
  5
914
 10
6.32531
 20
3.94202
 30
0.000000
  70
    32
  0
VERTEX
  8
AM_VIS
  5
915
 10
6.32562
 20
3.94011
 30
0.000000
  70
    32
  0
VERTEX
  8
AM_VIS
  5
916
 10
6.32595
 20
3.93820
 30
0.000000
  70
    32
  0
VERTEX
  8
AM_VIS
  5
917
 10
6.32629
 20
3.93629
 30
0.000000
  70
    32
  0
VERTEX
  8
AM_VIS
  5
918
 10
6.32664
 20
3.93438
 30
0.000000
  70
    32
  0
VERTEX
  8
AM_VIS
  5
919
 10
6.32700
 20
3.93247
 30
0.000000
  70
    32
  0
VERTEX
  8
AM_VIS
  5
91A
 10
6.32737
 20
3.93056
 30
0.000000
  70
    32
  0
VERTEX
  8
AM_VIS
  5
91B
 10
6.32775
 20
3.92865
 30
0.000000
  70
    32
  0
VERTEX
  8
AM_VIS
  5
91C
 10
6.32814
 20
3.92675
 30
0.000000
  70
    32
  0
VERTEX
  8
AM_VIS
  5
91D
 10
6.32854
 20
3.92484
 30
0.000000
  70
    32
  0
VERTEX
  8
AM_VIS
  5
91E
 10
6.32895
 20
3.92293
 30
0.000000
  70
    32
  0
VERTEX
  8
AM_VIS
  5
91F
 10
6.32937
 20
3.92103
 30
0.000000
  70
    32
  0
VERTEX
  8
AM_VIS
  5
920
 10
6.32981
 20
3.91913
 30
0.000000
  70
    32
  0
VERTEX
  8
AM_VIS
  5
921
 10
6.33025
 20
3.91723
 30
0.000000
  70
    32
  0
VERTEX
  8
AM_VIS
  5
922
 10
6.33071
 20
3.91533
 30
0.000000
  70
    32
  0
VERTEX
  8
AM_VIS
  5
923
 10
6.33117
 20
3.91343
 30
0.000000
  70
    32
  0
VERTEX
  8
AM_VIS
  5
924
 10
6.33165
 20
3.91153
 30
0.000000
  70
    32
  0
VERTEX
  8
AM_VIS
  5
925
 10
6.33214
 20
3.90964
 30
0.000000
  70
    32
  0
VERTEX
  8
AM_VIS
  5
926
 10
6.33263
 20
3.90774
 30
0.000000
  70
    32
  0
VERTEX
  8
AM_VIS
  5
927
 10
6.33314
 20
3.90585
 30
0.000000
  70
    32
  0
VERTEX
  8
AM_VIS
  5
928
 10
6.33366
 20
3.90397
 30
0.000000
  70
    32
  0
VERTEX
  8
AM_VIS
  5
929
 10
6.33419
 20
3.90208
 30
0.000000
  70
    32
  0
VERTEX
  8
AM_VIS
  5
92A
 10
6.33473
 20
3.90020
 30
0.000000
  70
    32
  0
VERTEX
  8
AM_VIS
  5
92B
 10
6.33528
 20
3.89831
 30
0.000000
  70
    32
  0
VERTEX
  8
AM_VIS
  5
92C
 10
6.33584
 20
3.89644
 30
0.000000
  70
    32
  0
VERTEX
  8
AM_VIS
  5
92D
 10
6.33641
 20
3.89456
 30
0.000000
  70
    32
  0
VERTEX
  8
AM_VIS
  5
92E
 10
6.33700
 20
3.89269
 30
0.000000
  70
    32
  0
VERTEX
  8
AM_VIS
  5
92F
 10
6.33759
 20
3.89082
 30
0.000000
  70
    32
  0
VERTEX
  8
AM_VIS
  5
930
 10
6.33819
 20
3.88895
 30
0.000000
  70
    32
  0
VERTEX
  8
AM_VIS
  5
931
 10
6.33881
 20
3.88709
 30
0.000000
  70
    32
  0
VERTEX
  8
AM_VIS
  5
932
 10
6.33944
 20
3.88523
 30
0.000000
  70
    32
  0
VERTEX
  8
AM_VIS
  5
933
 10
6.34007
 20
3.88337
 30
0.000000
  70
    32
  0
VERTEX
  8
AM_VIS
  5
934
 10
6.34072
 20
3.88152
 30
0.000000
  70
    32
  0
VERTEX
  8
AM_VIS
  5
935
 10
6.34138
 20
3.87967
 30
0.000000
  70
    32
  0
VERTEX
  8
AM_VIS
  5
936
 10
6.34205
 20
3.87783
 30
0.000000
  70
    32
  0
VERTEX
  8
AM_VIS
  5
937
 10
6.34273
 20
3.87598
 30
0.000000
  70
    32
  0
VERTEX
  8
AM_VIS
  5
938
 10
6.34342
 20
3.87415
 30
0.000000
  70
    32
  0
VERTEX
  8
AM_VIS
  5
939
 10
6.34412
 20
3.87231
 30
0.000000
  70
    32
  0
VERTEX
  8
AM_VIS
  5
93A
 10
6.34483
 20
3.87049
 30
0.000000
  70
    32
  0
VERTEX
  8
AM_VIS
  5
93B
 10
6.34555
 20
3.86866
 30
0.000000
  70
    32
  0
VERTEX
  8
AM_VIS
  5
93C
 10
6.34629
 20
3.86684
 30
0.000000
  70
    32
  0
VERTEX
  8
AM_VIS
  5
93D
 10
6.34703
 20
3.86503
 30
0.000000
  70
    32
  0
VERTEX
  8
AM_VIS
  5
93E
 10
6.34779
 20
3.86322
 30
0.000000
  70
    32
  0
VERTEX
  8
AM_VIS
  5
93F
 10
6.34855
 20
3.86141
 30
0.000000
  70
    32
  0
VERTEX
  8
AM_VIS
  5
940
 10
6.34933
 20
3.85961
 30
0.000000
  70
    32
  0
VERTEX
  8
AM_VIS
  5
941
 10
6.35011
 20
3.85782
 30
0.000000
  70
    32
  0
VERTEX
  8
AM_VIS
  5
942
 10
6.35091
 20
3.85603
 30
0.000000
  70
    32
  0
VERTEX
  8
AM_VIS
  5
943
 10
6.35172
 20
3.85424
 30
0.000000
  70
    32
  0
VERTEX
  8
AM_VIS
  5
944
 10
6.35253
 20
3.85246
 30
0.000000
  70
    32
  0
VERTEX
  8
AM_VIS
  5
945
 10
6.35336
 20
3.85069
 30
0.000000
  70
    32
  0
VERTEX
  8
AM_VIS
  5
946
 10
6.35419
 20
3.84892
 30
0.000000
  70
    32
  0
VERTEX
  8
AM_VIS
  5
947
 10
6.35504
 20
3.84716
 30
0.000000
  70
    32
  0
VERTEX
  8
AM_VIS
  5
948
 10
6.35589
 20
3.84540
 30
0.000000
  70
    32
  0
VERTEX
  8
AM_VIS
  5
949
 10
6.35676
 20
3.84365
 30
0.000000
  70
    32
  0
VERTEX
  8
AM_VIS
  5
94A
 10
6.35763
 20
3.84190
 30
0.000000
  70
    32
  0
VERTEX
  8
AM_VIS
  5
94B
 10
6.35852
 20
3.84016
 30
0.000000
  70
    32
  0
VERTEX
  8
AM_VIS
  5
94C
 10
6.35941
 20
3.83842
 30
0.000000
  70
    32
  0
VERTEX
  8
AM_VIS
  5
94D
 10
6.36031
 20
3.83669
 30
0.000000
  70
    32
  0
VERTEX
  8
AM_VIS
  5
94E
 10
6.36123
 20
3.83497
 30
0.000000
  70
    32
  0
VERTEX
  8
AM_VIS
  5
94F
 10
6.36215
 20
3.83325
 30
0.000000
  70
    32
  0
VERTEX
  8
AM_VIS
  5
950
 10
6.36308
 20
3.83154
 30
0.000000
  70
    32
  0
VERTEX
  8
AM_VIS
  5
951
 10
6.36402
 20
3.82984
 30
0.000000
  70
    32
  0
VERTEX
  8
AM_VIS
  5
952
 10
6.36497
 20
3.82814
 30
0.000000
  70
    32
  0
VERTEX
  8
AM_VIS
  5
953
 10
6.36592
 20
3.82645
 30
0.000000
  70
    32
  0
VERTEX
  8
AM_VIS
  5
954
 10
6.36689
 20
3.82476
 30
0.000000
  70
    32
  0
VERTEX
  8
AM_VIS
  5
955
 10
6.36786
 20
3.82308
 30
0.000000
  70
    32
  0
VERTEX
  8
AM_VIS
  5
956
 10
6.36884
 20
3.82141
 30
0.000000
  70
    32
  0
VERTEX
  8
AM_VIS
  5
957
 10
6.36984
 20
3.81975
 30
0.000000
  70
    32
  0
VERTEX
  8
AM_VIS
  5
958
 10
6.37083
 20
3.81809
 30
0.000000
  70
    32
  0
VERTEX
  8
AM_VIS
  5
959
 10
6.37184
 20
3.81644
 30
0.000000
  70
    32
  0
VERTEX
  8
AM_VIS
  5
95A
 10
6.37286
 20
3.81479
 30
0.000000
  70
    32
  0
VERTEX
  8
AM_VIS
  5
95B
 10
6.37388
 20
3.81316
 30
0.000000
  70
    32
  0
VERTEX
  8
AM_VIS
  5
95C
 10
6.37491
 20
3.81153
 30
0.000000
  70
    32
  0
VERTEX
  8
AM_VIS
  5
95D
 10
6.37595
 20
3.80990
 30
0.000000
  70
    32
  0
VERTEX
  8
AM_VIS
  5
95E
 10
6.37700
 20
3.80829
 30
0.000000
  70
    32
  0
VERTEX
  8
AM_VIS
  5
95F
 10
6.37806
 20
3.80668
 30
0.000000
  70
    32
  0
VERTEX
  8
AM_VIS
  5
960
 10
6.37912
 20
3.80508
 30
0.000000
  70
    32
  0
VERTEX
  8
AM_VIS
  5
961
 10
6.38019
 20
3.80349
 30
0.000000
  70
    32
  0
VERTEX
  8
AM_VIS
  5
962
 10
6.38127
 20
3.80190
 30
0.000000
  70
    32
  0
VERTEX
  8
AM_VIS
  5
963
 10
6.38236
 20
3.80032
 30
0.000000
  70
    32
  0
VERTEX
  8
AM_VIS
  5
964
 10
6.38345
 20
3.79876
 30
0.000000
  70
    32
  0
VERTEX
  8
AM_VIS
  5
965
 10
6.38455
 20
3.79719
 30
0.000000
  70
    32
  0
VERTEX
  8
AM_VIS
  5
966
 10
6.38566
 20
3.79564
 30
0.000000
  70
    32
  0
VERTEX
  8
AM_VIS
  5
967
 10
6.38678
 20
3.79409
 30
0.000000
  70
    32
  0
VERTEX
  8
AM_VIS
  5
968
 10
6.38790
 20
3.79256
 30
0.000000
  70
    32
  0
VERTEX
  8
AM_VIS
  5
969
 10
6.38903
 20
3.79103
 30
0.000000
  70
    32
  0
VERTEX
  8
AM_VIS
  5
96A
 10
6.39016
 20
3.78951
 30
0.000000
  70
    32
  0
VERTEX
  8
AM_VIS
  5
96B
 10
6.39131
 20
3.78800
 30
0.000000
  70
    32
  0
VERTEX
  8
AM_VIS
  5
96C
 10
6.39246
 20
3.78649
 30
0.000000
  70
    32
  0
VERTEX
  8
AM_VIS
  5
96D
 10
6.39361
 20
3.78500
 30
0.000000
  70
    32
  0
VERTEX
  8
AM_VIS
  5
96E
 10
6.39478
 20
3.78351
 30
0.000000
  70
    32
  0
VERTEX
  8
AM_VIS
  5
96F
 10
6.39595
 20
3.78203
 30
0.000000
  70
    32
  0
VERTEX
  8
AM_VIS
  5
970
 10
6.39712
 20
3.78056
 30
0.000000
  70
    32
  0
VERTEX
  8
AM_VIS
  5
971
 10
6.39830
 20
3.77910
 30
0.000000
  70
    32
  0
VERTEX
  8
AM_VIS
  5
972
 10
6.39949
 20
3.77765
 30
0.000000
  70
    32
  0
VERTEX
  8
AM_VIS
  5
973
 10
6.40069
 20
3.77621
 30
0.000000
  70
    32
  0
VERTEX
  8
AM_VIS
  5
974
 10
6.40189
 20
3.77478
 30
0.000000
  70
    32
  0
VERTEX
  8
AM_VIS
  5
975
 10
6.40309
 20
3.77336
 30
0.000000
  70
    32
  0
VERTEX
  8
AM_VIS
  5
976
 10
6.40431
 20
3.77194
 30
0.000000
  70
    32
  0
VERTEX
  8
AM_VIS
  5
977
 10
6.40552
 20
3.77054
 30
0.000000
  70
    32
  0
VERTEX
  8
AM_VIS
  5
978
 10
6.40675
 20
3.76914
 30
0.000000
  70
    32
  0
VERTEX
  8
AM_VIS
  5
979
 10
6.40798
 20
3.76776
 30
0.000000
  70
    32
  0
VERTEX
  8
AM_VIS
  5
97A
 10
6.40921
 20
3.76638
 30
0.000000
  70
    32
  0
VERTEX
  8
AM_VIS
  5
97B
 10
6.41045
 20
3.76501
 30
0.000000
  70
    32
  0
VERTEX
  8
AM_VIS
  5
97C
 10
6.41170
 20
3.76366
 30
0.000000
  70
    32
  0
VERTEX
  8
AM_VIS
  5
97D
 10
6.41295
 20
3.76231
 30
0.000000
  70
    32
  0
VERTEX
  8
AM_VIS
  5
97E
 10
6.41421
 20
3.76097
 30
0.000000
  70
    32
  0
VERTEX
  8
AM_VIS
  5
97F
 10
6.41547
 20
3.75964
 30
0.000000
  70
    32
  0
VERTEX
  8
AM_VIS
  5
980
 10
6.41675
 20
3.75832
 30
0.000000
  70
    32
  0
VERTEX
  8
AM_VIS
  5
981
 10
6.41804
 20
3.75699
 30
0.000000
  70
    32
  0
VERTEX
  8
AM_VIS
  5
982
 10
6.41934
 20
3.75568
 30
0.000000
  70
    32
  0
VERTEX
  8
AM_VIS
  5
983
 10
6.42064
 20
3.75437
 30
0.000000
  70
    32
  0
VERTEX
  8
AM_VIS
  5
984
 10
6.42196
 20
3.75306
 30
0.000000
  70
    32
  0
VERTEX
  8
AM_VIS
  5
985
 10
6.42329
 20
3.75176
 30
0.000000
  70
    32
  0
VERTEX
  8
AM_VIS
  5
986
 10
6.42462
 20
3.75046
 30
0.000000
  70
    32
  0
VERTEX
  8
AM_VIS
  5
987
 10
6.42597
 20
3.74917
 30
0.000000
  70
    32
  0
VERTEX
  8
AM_VIS
  5
988
 10
6.42733
 20
3.74789
 30
0.000000
  70
    32
  0
VERTEX
  8
AM_VIS
  5
989
 10
6.42869
 20
3.74661
 30
0.000000
  70
    32
  0
VERTEX
  8
AM_VIS
  5
98A
 10
6.43007
 20
3.74533
 30
0.000000
  70
    32
  0
VERTEX
  8
AM_VIS
  5
98B
 10
6.43145
 20
3.74407
 30
0.000000
  70
    32
  0
VERTEX
  8
AM_VIS
  5
98C
 10
6.43284
 20
3.74280
 30
0.000000
  70
    32
  0
VERTEX
  8
AM_VIS
  5
98D
 10
6.43425
 20
3.74155
 30
0.000000
  70
    32
  0
VERTEX
  8
AM_VIS
  5
98E
 10
6.43566
 20
3.74030
 30
0.000000
  70
    32
  0
VERTEX
  8
AM_VIS
  5
98F
 10
6.43708
 20
3.73906
 30
0.000000
  70
    32
  0
VERTEX
  8
AM_VIS
  5
990
 10
6.43851
 20
3.73782
 30
0.000000
  70
    32
  0
VERTEX
  8
AM_VIS
  5
991
 10
6.43995
 20
3.73659
 30
0.000000
  70
    32
  0
VERTEX
  8
AM_VIS
  5
992
 10
6.44139
 20
3.73537
 30
0.000000
  70
    32
  0
VERTEX
  8
AM_VIS
  5
993
 10
6.44285
 20
3.73415
 30
0.000000
  70
    32
  0
VERTEX
  8
AM_VIS
  5
994
 10
6.44431
 20
3.73294
 30
0.000000
  70
    32
  0
VERTEX
  8
AM_VIS
  5
995
 10
6.44579
 20
3.73174
 30
0.000000
  70
    32
  0
VERTEX
  8
AM_VIS
  5
996
 10
6.44727
 20
3.73054
 30
0.000000
  70
    32
  0
VERTEX
  8
AM_VIS
  5
997
 10
6.44876
 20
3.72935
 30
0.000000
  70
    32
  0
VERTEX
  8
AM_VIS
  5
998
 10
6.45026
 20
3.72817
 30
0.000000
  70
    32
  0
VERTEX
  8
AM_VIS
  5
999
 10
6.45176
 20
3.72700
 30
0.000000
  70
    32
  0
VERTEX
  8
AM_VIS
  5
99A
 10
6.45328
 20
3.72583
 30
0.000000
  70
    32
  0
VERTEX
  8
AM_VIS
  5
99B
 10
6.45480
 20
3.72467
 30
0.000000
  70
    32
  0
VERTEX
  8
AM_VIS
  5
99C
 10
6.45633
 20
3.72352
 30
0.000000
  70
    32
  0
VERTEX
  8
AM_VIS
  5
99D
 10
6.45787
 20
3.72238
 30
0.000000
  70
    32
  0
VERTEX
  8
AM_VIS
  5
99E
 10
6.45942
 20
3.72124
 30
0.000000
  70
    32
  0
VERTEX
  8
AM_VIS
  5
99F
 10
6.46098
 20
3.72011
 30
0.000000
  70
    32
  0
VERTEX
  8
AM_VIS
  5
9A0
 10
6.46254
 20
3.71899
 30
0.000000
  70
    32
  0
VERTEX
  8
AM_VIS
  5
9A1
 10
6.46411
 20
3.71788
 30
0.000000
  70
    32
  0
VERTEX
  8
AM_VIS
  5
9A2
 10
6.46569
 20
3.71677
 30
0.000000
  70
    32
  0
VERTEX
  8
AM_VIS
  5
9A3
 10
6.46727
 20
3.71568
 30
0.000000
  70
    32
  0
VERTEX
  8
AM_VIS
  5
9A4
 10
6.46886
 20
3.71459
 30
0.000000
  70
    32
  0
VERTEX
  8
AM_VIS
  5
9A5
 10
6.47046
 20
3.71351
 30
0.000000
  70
    32
  0
VERTEX
  8
AM_VIS
  5
9A6
 10
6.47207
 20
3.71244
 30
0.000000
  70
    32
  0
VERTEX
  8
AM_VIS
  5
9A7
 10
6.47369
 20
3.71138
 30
0.000000
  70
    32
  0
VERTEX
  8
AM_VIS
  5
9A8
 10
6.47531
 20
3.71033
 30
0.000000
  70
    32
  0
VERTEX
  8
AM_VIS
  5
9A9
 10
6.47694
 20
3.70928
 30
0.000000
  70
    32
  0
VERTEX
  8
AM_VIS
  5
9AA
 10
6.47857
 20
3.70825
 30
0.000000
  70
    32
  0
VERTEX
  8
AM_VIS
  5
9AB
 10
6.48022
 20
3.70722
 30
0.000000
  70
    32
  0
VERTEX
  8
AM_VIS
  5
9AC
 10
6.48187
 20
3.70620
 30
0.000000
  70
    32
  0
VERTEX
  8
AM_VIS
  5
9AD
 10
6.48352
 20
3.70519
 30
0.000000
  70
    32
  0
VERTEX
  8
AM_VIS
  5
9AE
 10
6.48519
 20
3.70420
 30
0.000000
  70
    32
  0
VERTEX
  8
AM_VIS
  5
9AF
 10
6.48686
 20
3.70321
 30
0.000000
  70
    32
  0
VERTEX
  8
AM_VIS
  5
9B0
 10
6.48853
 20
3.70223
 30
0.000000
  70
    32
  0
VERTEX
  8
AM_VIS
  5
9B1
 10
6.49022
 20
3.70126
 30
0.000000
  70
    32
  0
VERTEX
  8
AM_VIS
  5
9B2
 10
6.49191
 20
3.70030
 30
0.000000
  70
    32
  0
VERTEX
  8
AM_VIS
  5
9B3
 10
6.49360
 20
3.69935
 30
0.000000
  70
    32
  0
VERTEX
  8
AM_VIS
  5
9B4
 10
6.49530
 20
3.69841
 30
0.000000
  70
    32
  0
VERTEX
  8
AM_VIS
  5
9B5
 10
6.49701
 20
3.69748
 30
0.000000
  70
    32
  0
VERTEX
  8
AM_VIS
  5
9B6
 10
6.49873
 20
3.69656
 30
0.000000
  70
    32
  0
VERTEX
  8
AM_VIS
  5
9B7
 10
6.50045
 20
3.69565
 30
0.000000
  70
    32
  0
VERTEX
  8
AM_VIS
  5
9B8
 10
6.50217
 20
3.69475
 30
0.000000
  70
    32
  0
VERTEX
  8
AM_VIS
  5
9B9
 10
6.50390
 20
3.69386
 30
0.000000
  70
    32
  0
VERTEX
  8
AM_VIS
  5
9BA
 10
6.50564
 20
3.69298
 30
0.000000
  70
    32
  0
VERTEX
  8
AM_VIS
  5
9BB
 10
6.50739
 20
3.69211
 30
0.000000
  70
    32
  0
VERTEX
  8
AM_VIS
  5
9BC
 10
6.50913
 20
3.69125
 30
0.000000
  70
    32
  0
VERTEX
  8
AM_VIS
  5
9BD
 10
6.51089
 20
3.69041
 30
0.000000
  70
    32
  0
VERTEX
  8
AM_VIS
  5
9BE
 10
6.51265
 20
3.68957
 30
0.000000
  70
    32
  0
VERTEX
  8
AM_VIS
  5
9BF
 10
6.51441
 20
3.68875
 30
0.000000
  70
    32
  0
VERTEX
  8
AM_VIS
  5
9C0
 10
6.51619
 20
3.68793
 30
0.000000
  70
    32
  0
VERTEX
  8
AM_VIS
  5
9C1
 10
6.51796
 20
3.68713
 30
0.000000
  70
    32
  0
VERTEX
  8
AM_VIS
  5
9C2
 10
6.51974
 20
3.68634
 30
0.000000
  70
    32
  0
VERTEX
  8
AM_VIS
  5
9C3
 10
6.52153
 20
3.68556
 30
0.000000
  70
    32
  0
VERTEX
  8
AM_VIS
  5
9C4
 10
6.52332
 20
3.68479
 30
0.000000
  70
    32
  0
VERTEX
  8
AM_VIS
  5
9C5
 10
6.52512
 20
3.68404
 30
0.000000
  70
    32
  0
VERTEX
  8
AM_VIS
  5
9C6
 10
6.52692
 20
3.68329
 30
0.000000
  70
    32
  0
VERTEX
  8
AM_VIS
  5
9C7
 10
6.52873
 20
3.68256
 30
0.000000
  70
    32
  0
VERTEX
  8
AM_VIS
  5
9C8
 10
6.53054
 20
3.68184
 30
0.000000
  70
    32
  0
VERTEX
  8
AM_VIS
  5
9C9
 10
6.53235
 20
3.68113
 30
0.000000
  70
    32
  0
VERTEX
  8
AM_VIS
  5
9CA
 10
6.53417
 20
3.68043
 30
0.000000
  70
    32
  0
VERTEX
  8
AM_VIS
  5
9CB
 10
6.53599
 20
3.67974
 30
0.000000
  70
    32
  0
VERTEX
  8
AM_VIS
  5
9CC
 10
6.53782
 20
3.67906
 30
0.000000
  70
    32
  0
VERTEX
  8
AM_VIS
  5
9CD
 10
6.53965
 20
3.67840
 30
0.000000
  70
    32
  0
VERTEX
  8
AM_VIS
  5
9CE
 10
6.54149
 20
3.67774
 30
0.000000
  70
    32
  0
VERTEX
  8
AM_VIS
  5
9CF
 10
6.54333
 20
3.67710
 30
0.000000
  70
    32
  0
VERTEX
  8
AM_VIS
  5
9D0
 10
6.54517
 20
3.67647
 30
0.000000
  70
    32
  0
VERTEX
  8
AM_VIS
  5
9D1
 10
6.54701
 20
3.67585
 30
0.000000
  70
    32
  0
VERTEX
  8
AM_VIS
  5
9D2
 10
6.54886
 20
3.67524
 30
0.000000
  70
    32
  0
VERTEX
  8
AM_VIS
  5
9D3
 10
6.55071
 20
3.67465
 30
0.000000
  70
    32
  0
VERTEX
  8
AM_VIS
  5
9D4
 10
6.55257
 20
3.67406
 30
0.000000
  70
    32
  0
VERTEX
  8
AM_VIS
  5
9D5
 10
6.55443
 20
3.67349
 30
0.000000
  70
    32
  0
VERTEX
  8
AM_VIS
  5
9D6
 10
6.55629
 20
3.67293
 30
0.000000
  70
    32
  0
VERTEX
  8
AM_VIS
  5
9D7
 10
6.55815
 20
3.67238
 30
0.000000
  70
    32
  0
VERTEX
  8
AM_VIS
  5
9D8
 10
6.56002
 20
3.67184
 30
0.000000
  70
    32
  0
VERTEX
  8
AM_VIS
  5
9D9
 10
6.56189
 20
3.67131
 30
0.000000
  70
    32
  0
VERTEX
  8
AM_VIS
  5
9DA
 10
6.56376
 20
3.67080
 30
0.000000
  70
    32
  0
VERTEX
  8
AM_VIS
  5
9DB
 10
6.56563
 20
3.67029
 30
0.000000
  70
    32
  0
VERTEX
  8
AM_VIS
  5
9DC
 10
6.56751
 20
3.66980
 30
0.000000
  70
    32
  0
VERTEX
  8
AM_VIS
  5
9DD
 10
6.56939
 20
3.66932
 30
0.000000
  70
    32
  0
VERTEX
  8
AM_VIS
  5
9DE
 10
6.57127
 20
3.66885
 30
0.000000
  70
    32
  0
VERTEX
  8
AM_VIS
  5
9DF
 10
6.57315
 20
3.66839
 30
0.000000
  70
    32
  0
VERTEX
  8
AM_VIS
  5
9E0
 10
6.57503
 20
3.66795
 30
0.000000
  70
    32
  0
VERTEX
  8
AM_VIS
  5
9E1
 10
6.57691
 20
3.66751
 30
0.000000
  70
    32
  0
VERTEX
  8
AM_VIS
  5
9E2
 10
6.57880
 20
3.66709
 30
0.000000
  70
    32
  0
VERTEX
  8
AM_VIS
  5
9E3
 10
6.58069
 20
3.66668
 30
0.000000
  70
    32
  0
VERTEX
  8
AM_VIS
  5
9E4
 10
6.58258
 20
3.66628
 30
0.000000
  70
    32
  0
VERTEX
  8
AM_VIS
  5
9E5
 10
6.58446
 20
3.66589
 30
0.000000
  70
    32
  0
VERTEX
  8
AM_VIS
  5
9E6
 10
6.58635
 20
3.66551
 30
0.000000
  70
    32
  0
VERTEX
  8
AM_VIS
  5
9E7
 10
6.58825
 20
3.66515
 30
0.000000
  70
    32
  0
VERTEX
  8
AM_VIS
  5
9E8
 10
6.59014
 20
3.66479
 30
0.000000
  70
    32
  0
VERTEX
  8
AM_VIS
  5
9E9
 10
6.59203
 20
3.66445
 30
0.000000
  70
    32
  0
VERTEX
  8
AM_VIS
  5
9EA
 10
6.59392
 20
3.66412
 30
0.000000
  70
    32
  0
VERTEX
  8
AM_VIS
  5
9EB
 10
6.59581
 20
3.66380
 30
0.000000
  70
    32
  0
VERTEX
  8
AM_VIS
  5
9EC
 10
6.59771
 20
3.66349
 30
0.000000
  70
    32
  0
VERTEX
  8
AM_VIS
  5
9ED
 10
6.59960
 20
3.66319
 30
0.000000
  70
    32
  0
VERTEX
  8
AM_VIS
  5
9EE
 10
6.60149
 20
3.66291
 30
0.000000
  70
    32
  0
VERTEX
  8
AM_VIS
  5
9EF
 10
6.60339
 20
3.66264
 30
0.000000
  70
    32
  0
VERTEX
  8
AM_VIS
  5
9F0
 10
6.60528
 20
3.66238
 30
0.000000
  70
    32
  0
VERTEX
  8
AM_VIS
  5
9F1
 10
6.60717
 20
3.66213
 30
0.000000
  70
    32
  0
VERTEX
  8
AM_VIS
  5
9F2
 10
6.60906
 20
3.66189
 30
0.000000
  70
    32
  0
VERTEX
  8
AM_VIS
  5
9F3
 10
6.61095
 20
3.66166
 30
0.000000
  70
    32
  0
VERTEX
  8
AM_VIS
  5
9F4
 10
6.61284
 20
3.66145
 30
0.000000
  70
    32
  0
VERTEX
  8
AM_VIS
  5
9F5
 10
6.61473
 20
3.66124
 30
0.000000
  70
    32
  0
VERTEX
  8
AM_VIS
  5
9F6
 10
6.61662
 20
3.66105
 30
0.000000
  70
    32
  0
VERTEX
  8
AM_VIS
  5
9F7
 10
6.61850
 20
3.66087
 30
0.000000
  70
    32
  0
VERTEX
  8
AM_VIS
  5
9F8
 10
6.62039
 20
3.66070
 30
0.000000
  70
    32
  0
VERTEX
  8
AM_VIS
  5
9F9
 10
6.62227
 20
3.66054
 30
0.000000
  70
    32
  0
VERTEX
  8
AM_VIS
  5
9FA
 10
6.62416
 20
3.66040
 30
0.000000
  70
    32
  0
VERTEX
  8
AM_VIS
  5
9FB
 10
6.62604
 20
3.66026
 30
0.000000
  70
    32
  0
VERTEX
  8
AM_VIS
  5
9FC
 10
6.62792
 20
3.66014
 30
0.000000
  70
    32
  0
VERTEX
  8
AM_VIS
  5
9FD
 10
6.62979
 20
3.66003
 30
0.000000
  70
    32
  0
VERTEX
  8
AM_VIS
  5
9FE
 10
6.63167
 20
3.65993
 30
0.000000
  70
    32
  0
VERTEX
  8
AM_VIS
  5
9FF
 10
6.63354
 20
3.65985
 30
0.000000
  70
    32
  0
VERTEX
  8
AM_VIS
  5
A00
 10
6.63541
 20
3.65977
 30
0.000000
  70
    32
  0
VERTEX
  8
AM_VIS
  5
A01
 10
6.63728
 20
3.65971
 30
0.000000
  70
    32
  0
VERTEX
  8
AM_VIS
  5
A02
 10
6.63915
 20
3.65965
 30
0.000000
  70
    32
  0
VERTEX
  8
AM_VIS
  5
A03
 10
6.64101
 20
3.65961
 30
0.000000
  70
    32
  0
VERTEX
  8
AM_VIS
  5
A04
 10
6.64287
 20
3.65958
 30
0.000000
  70
    32
  0
VERTEX
  8
AM_VIS
  5
A05
 10
6.64473
 20
3.65957
 30
0.000000
  70
    32
  0
VERTEX
  8
AM_VIS
  5
A06
 10
6.64658
 20
3.65956
 30
0.000000
  70
    32
  0
SEQEND
  8
AM_VIS
  5
A07
  0
LINE
  5
4A
  8
AM_VIS
 10
6.5537801042721764
 20
4.1589937230152509
 30
0.0
 11
6.7393881893606276
 21
4.1589937230152509
 31
0.0
  0
LINE
  5
4B
  8
AM_VIS
 10
6.7393881893606276
 20
4.1589937230152527
 30
0.0
 11
6.8321922319048536
 21
3.9982524061808689
 31
0.0
  0
LINE
  5
4C
  8
AM_VIS
 10
6.8321922319048554
 20
3.998252406180868
 30
0.0
 11
6.7393881893606293
 21
3.8375110893464859
 31
0.0
  0
LINE
  5
4D
  8
AM_VIS
 10
6.7393881893606276
 20
3.8375110893464859
 30
0.0
 11
6.5537801042721764
 21
3.8375110893464859
 31
0.0
  0
LINE
  5
4E
  8
AM_VIS
 10
6.4609760617279486
 20
3.9982524061808689
 30
0.0
 11
6.5537801042721764
 21
4.1589937230152527
 31
0.0
  0
LINE
  5
4F
  8
AM_VIS
 10
6.5537801042721764
 20
3.8375110893464859
 30
0.0
 11
6.4609760617279512
 21
3.9982524061808689
 31
0.0
  0
CIRCLE
  5
50
  8
AM_VIS
 10
6.6465841468164006
 20
3.9982524061808689
 30
0.0
 40
0.3125
  0
LINE
  5
51
  8
AM_HID
 10
7.7406561371072327
 20
5.9670024061808693
 30
0.0
 11
7.2406561371072327
 21
5.9670024061808693
 31
0.0
  0
LINE
  5
52
  8
AM_HID
 10
7.7406561371072327
 20
6.5295024061808693
 30
0.0
 11
7.2406561371072327
 21
6.5295024061808693
 31
0.0
  0
LINE
  5
53
  8
AM_HID
 10
7.7406561371072327
 20
1.4670024061808691
 30
0.0
 11
7.2406561371072327
 21
1.4670024061808691
 31
0.0
  0
LINE
  5
54
  8
AM_HID
 10
7.7406561371072327
 20
2.0295024061808689
 30
0.0
 11
7.2406561371072327
 21
2.0295024061808689
 31
0.0
  0
LINE
  5
55
  8
AM_VIS
 10
7.7406561371072327
 20
0.9357524061808684
 30
0.0
 11
7.2406561371072327
 21
0.9357524061808684
 31
0.0
  0
LINE
  5
56
  8
AM_VIS
 10
7.7406561371072327
 20
7.0607524061808702
 30
0.0
 11
7.2406561371072327
 21
7.0607524061808702
 31
0.0
  0
LINE
  5
57
  8
AM_VIS
 10
7.2406561371072327
 20
2.7732524061808692
 30
0.0
 11
4.2406561371072327
 21
2.7732524061808692
 31
0.0
  0
LINE
  5
58
  8
AM_VIS
 10
7.2406561371072327
 20
5.2232524061808681
 30
0.0
 11
4.2406561371072327
 21
5.2232524061808681
 31
0.0
  0
LINE
  5
59
  8
AM_HID
 10
4.2406561371072327
 20
4.9732524061808681
 30
0.0
 11
7.7406561371072327
 21
4.9732524061808681
 31
0.0
  0
LINE
  5
5A
  8
AM_HID
 10
4.2406561371072327
 20
3.0232524061808692
 30
0.0
 11
7.7406561371072327
 21
3.0232524061808692
 31
0.0
  0
LINE
  5
15D
  8
0
 10
7.8031561371072327
 20
7.0607524061808702
 30
0.0
 11
9.5214084066892291
 21
7.0607524061808702
 31
0.0
  0
LINE
  5
15E
  8
0
 10
7.8031561371072327
 20
0.9357524061808682
 30
0.0
 11
9.5214084066892273
 21
0.9357524061808678
 31
0.0
  0
LINE
  5
15F
  8
0
 10
9.3414084066892293
 20
6.9357524061808702
 30
0.0
 11
9.3414084066892293
 21
4.3471809776094403
 31
0.0
  0
LINE
  5
160
  8
0
 10
9.3414084066892276
 20
1.0607524061808671
 30
0.0
 11
9.3414084066892276
 21
3.6493238347522969
 31
0.0
  0
SOLID
  5
161
  8
0
 10
9.3205750733558954
 20
6.9357524061808702
 30
0.0
 11
9.3622417400225633
 21
6.9357524061808702
 31
0.0
 12
9.3414084066892293
 22
7.0607524061808702
 32
0.0
 13
9.3414084066892293
 23
7.0607524061808702
 33
0.0
  0
SOLID
  5
162
  8
0
 10
9.3205750733558936
 20
1.0607524061808671
 30
0.0
 11
9.3622417400225615
 21
1.0607524061808671
 31
0.0
 12
9.3414084066892276
 22
0.9357524061808678
 32
0.0
 13
9.3414084066892276
 23
0.9357524061808678
 33
0.0
  0
INSERT
  5
163
  8
0
  2
*U2
 10
0.0
 20
0.0
 30
0.0
  0
ENDSEC
  0
EOF
