  0
SECTION
  2
HEADER
  9
$ACADVER
  1
AC1009
  9
$INSBASE
 10
0.0
 20
0.0
 30
0.0
  9
$EXTMIN
 10
8.530480999966743
 20
1.6138567826060579
 30
0.0
  9
$EXTMAX
 10
11.47648508937627
 20
5.216026443196971
 30
0.0
  9
$LIMMIN
 10
0.0
 20
0.0
  9
$LIMMAX
 10
12.0
 20
9.0
  9
$ORTHOMODE
 70
     1
  9
$REGENMODE
 70
     0
  9
$FILLMODE
 70
     1
  9
$QTEXTMODE
 70
     0
  9
$MIRRTEXT
 70
     0
  9
$DRAGMODE
 70
     2
  9
$LTSCALE
 40
1.0
  9
$OSMODE
 70
    55
  9
$ATTMODE
 70
     1
  9
$TEXTSIZE
 40
0.2
  9
$TRACEWID
 40
0.05
  9
$TEXTSTYLE
  7
STANDARD
  9
$CLAYER
  8
0
  9
$CELTYPE
  6
BYLAYER
  9
$CECOLOR
 62
   256
  9
$DIMSCALE
 40
1.0
  9
$DIMASZ
 40
0.125
  9
$DIMEXO
 40
0.0625
  9
$DIMDLI
 40
0.38
  9
$DIMRND
 40
0.0
  9
$DIMDLE
 40
0.0
  9
$DIMEXE
 40
0.18
  9
$DIMTP
 40
0.0
  9
$DIMTM
 40
0.0
  9
$DIMTXT
 40
0.09375
  9
$DIMCEN
 40
-0.125
  9
$DIMTSZ
 40
0.0
  9
$DIMTOL
 70
     0
  9
$DIMLIM
 70
     0
  9
$DIMTIH
 70
     0
  9
$DIMTOH
 70
     0
  9
$DIMSE1
 70
     0
  9
$DIMSE2
 70
     0
  9
$DIMTAD
 70
     0
  9
$DIMZIN
 70
     3
  9
$DIMBLK
  1

  9
$DIMASO
 70
     0
  9
$DIMSHO
 70
     1
  9
$DIMPOST
  1

  9
$DIMAPOST
  1

  9
$DIMALT
 70
     0
  9
$DIMALTD
 70
     2
  9
$DIMALTF
 40
25.399999999999999
  9
$DIMLFAC
 40
1.0
  9
$DIMTOFL
 70
     1
  9
$DIMTVP
 40
0.0
  9
$DIMTIX
 70
     0
  9
$DIMSOXD
 70
     0
  9
$DIMSAH
 70
     0
  9
$DIMBLK1
  1

  9
$DIMBLK2
  1

  9
$DIMSTYLE
  2
STANDARD
  9
$DIMCLRD
 70
     0
  9
$DIMCLRE
 70
     0
  9
$DIMCLRT
 70
     0
  9
$DIMTFAC
 40
1.0
  9
$DIMGAP
 40
0.09
  9
$LUNITS
 70
     4
  9
$LUPREC
 70
     4
  9
$SKETCHINC
 40
0.1
  9
$FILLETRAD
 40
1.3125
  9
$AUNITS
 70
     0
  9
$AUPREC
 70
     4
  9
$MENU
  1
.
  9
$ELEVATION
 40
0.0
  9
$PELEVATION
 40
0.0
  9
$THICKNESS
 40
0.0
  9
$LIMCHECK
 70
     0
  9
$BLIPMODE
 70
     0
  9
$CHAMFERA
 40
0.125
  9
$CHAMFERB
 40
0.5
  9
$SKPOLY
 70
     0
  9
$TDCREATE
 40
2451086.9109346061
  9
$TDUPDATE
 40
2453913.5741573148
  9
$TDINDWG
 40
0.0853699537
  9
$TDUSRTIMER
 40
0.0853699537
  9
$USRTIMER
 70
     1
  9
$ANGBASE
 50
0.0
  9
$ANGDIR
 70
     0
  9
$PDMODE
 70
    34
  9
$PDSIZE
 40
3.0
  9
$PLINEWID
 40
0.0
  9
$COORDS
 70
     1
  9
$SPLFRAME
 70
     0
  9
$SPLINETYPE
 70
     6
  9
$SPLINESEGS
 70
     8
  9
$ATTDIA
 70
     0
  9
$ATTREQ
 70
     1
  9
$HANDLING
 70
     1
  9
$HANDSEED
  5
38C
  9
$SURFTAB1
 70
     6
  9
$SURFTAB2
 70
     6
  9
$SURFTYPE
 70
     6
  9
$SURFU
 70
     6
  9
$SURFV
 70
     6
  9
$UCSNAME
  2

  9
$UCSORG
 10
0.0
 20
0.0
 30
0.0
  9
$UCSXDIR
 10
1.0
 20
0.0
 30
0.0
  9
$UCSYDIR
 10
0.0
 20
1.0
 30
0.0
  9
$PUCSNAME
  2

  9
$PUCSORG
 10
0.0
 20
0.0
 30
0.0
  9
$PUCSXDIR
 10
1.0
 20
0.0
 30
0.0
  9
$PUCSYDIR
 10
0.0
 20
1.0
 30
0.0
  9
$USERI1
 70
     0
  9
$USERI2
 70
     0
  9
$USERI3
 70
     0
  9
$USERI4
 70
     0
  9
$USERI5
 70
     0
  9
$USERR1
 40
0.0
  9
$USERR2
 40
0.0
  9
$USERR3
 40
0.0
  9
$USERR4
 40
0.0
  9
$USERR5
 40
0.0
  9
$WORLDVIEW
 70
     1
  9
$SHADEDGE
 70
     3
  9
$SHADEDIF
 70
    70
  9
$TILEMODE
 70
     1
  9
$MAXACTVP
 70
    48
  9
$PLIMCHECK
 70
     0
  9
$PEXTMIN
 10
7.8109463460747603
 20
0.9085787737632333
 30
0.0
  9
$PEXTMAX
 10
18.766850725076011
 20
10.631333352877689
 30
0.0
  9
$PLIMMIN
 10
-0.1579164520023376
 20
-0.2812499887361301
  9
$PLIMMAX
 10
10.84208330770177
 20
8.2187497709679782
  9
$UNITMODE
 70
     0
  9
$VISRETAIN
 70
     1
  9
$PLINEGEN
 70
     0
  9
$PSLTSCALE
 70
     1
  0
ENDSEC
  0
SECTION
  2
TABLES
  0
TABLE
  2
VPORT
 70
     2
  0
VPORT
  2
*ACTIVE
 70
     0
 10
0.0
 20
0.0
 11
1.0
 21
1.0
 12
5.2041833273364482
 22
0.1469979093009668
 13
0.0
 23
0.0
 14
0.5
 24
0.5
 15
0.5
 25
0.5
 16
0.0
 26
0.0
 36
1.0
 17
6.0132939572922579
 27
3.3872352037912088
 37
0.0
 40
5.0597007918326939
 41
2.2641129032258061
 42
50.0
 43
0.0
 44
0.0
 50
0.0
 51
0.0
 71
     0
 72
   100
 73
     1
 74
     1
 75
     0
 76
     0
 77
     0
 78
     0
  0
ENDTAB
  0
TABLE
  2
LTYPE
 70
    12
  0
LTYPE
  2
CONTINUOUS
 70
     0
  3
Solid line
 72
    65
 73
     0
 40
0.0
  0
LTYPE
  2
HIDDEN
 70
     0
  3
__ __ __ __ __ __ __ __ __ __ __ __ __ __ __ __
 72
    65
 73
     2
 40
0.375
 49
0.25
 49
-0.125
  0
LTYPE
  2
PHANTOM2
 70
     0
  3
Phantom (.5x) ___ _ _ ___ _ _ ___ _ _ ___ _ _
 72
    65
 73
     6
 40
1.25
 49
0.625
 49
-0.125
 49
0.125
 49
-0.125
 49
0.125
 49
-0.125
  0
LTYPE
  2
CENTER
 70
     0
  3
Center ____ _ ____ _ ____ _ ____ _ ____ _ ____
 72
    65
 73
     4
 40
2.0
 49
1.25
 49
-0.25
 49
0.25
 49
-0.25
  0
LTYPE
  2
AMCONSTR
 70
     0
  3
_______________________
 72
    65
 73
     2
 40
9999.0
 49
9999.0
 49
0.0
  0
LTYPE
  2
CENTER2
 70
     0
  3
Center (.5x) ___ _ ___ _ ___ _ ___ _ ___ _ ___
 72
    65
 73
     4
 40
1.125
 49
0.75
 49
-0.125
 49
0.125
 49
-0.125
  0
LTYPE
  2
HIDDEN2
 70
     0
  3
Hidden (.5x) _ _ _ _ _ _ _ _ _ _ _ _ _ _ _ _ _
 72
    65
 73
     2
 40
0.1875
 49
0.125
 49
-0.0625
  0
LTYPE
  2
AMZIGZAG2
 70
     0
  3
/\/-/\/-/\/-/\/-/\/-/\/
 72
    65
 73
     2
 40
0.4401
 49
0.0001
 49
-0.4400000000000001
  0
LTYPE
  2
ACANSTGB
 70
     0
  3
__ . . __ . .
 72
    65
 73
     6
 40
0.35433070866
 49
0.15748031496
 49
-0.03937007874
 49
0.03937007874
 49
-0.03937007874
 49
0.03937007874
 49
-0.03937007874
  0
LTYPE
  2
ACANSTGL
 70
     0
  3
_ _ _ _ _
 72
    65
 73
     2
 40
0.11811023622
 49
0.07874015748
 49
-0.03937007874
  0
LTYPE
  2
ASULTYPE
 70
     0
  3
Solid line
 72
    65
 73
     2
 40
3.0
 49
2.5
 49
0.5
  0
LTYPE
  2
ASVLTYPE
 70
     0
  3
__ __ __ __ __ __ __ __ __ __ __ __ __ __ __ __ __ __ __ __ __
 72
    65
 73
     2
 40
0.75
 49
0.5
 49
-0.25
  0
ENDTAB
  0
TABLE
  2
LAYER
 70
     4
  0
LAYER
  2
0
 70
     0
 62
     7
  6
CONTINUOUS
  0
LAYER
  2
AM_VIS
 70
     0
 62
     7
  6
CONTINUOUS
  0
LAYER
  2
AM_HID
 70
     0
 62
     7
  6
HIDDEN
  0
LAYER
  2
KEE10
 70
     0
 62
     7
  6
CONTINUOUS
  0
ENDTAB
  0
TABLE
  2
STYLE
 70
     5
  0
STYLE
  2
STANDARD
 70
     0
 40
0.0
 41
1.0
 50
0.0
 71
     0
 42
0.2
  3
txt
  4

  0
STYLE
  2

 70
     1
 40
0.0
 41
1.0
 50
0.0
 71
     0
 42
0.2
  3
ltypeshp.shx
  4

  0
STYLE
  2
ACANSTS
 70
     0
 40
1.0
 41
1.0
 50
0.0
 71
     0
 42
0.2
  3
romans.shx
  4

  0
STYLE
  2
ACANSGDT
 70
     0
 40
0.0
 41
1.0
 50
0.0
 71
     0
 42
0.2
  3
amgdtans.shx
  4

  0
STYLE
  2
ACANSTSB
 70
     0
 40
1.0
 41
1.0
 50
0.0
 71
     0
 42
0.2
  3
romans.shx
  4

  0
ENDTAB
  0
TABLE
  2
VIEW
 70
     0
  0
ENDTAB
  0
TABLE
  2
UCS
 70
     0
  0
ENDTAB
  0
TABLE
  2
APPID
 70
    13
  0
APPID
  2
ACAD
 70
     0
  0
APPID
  2
GENIUS_GENDIM_13
 70
     0
  0
APPID
  2
GENIUS_GENDTOL_13
 70
     0
  0
APPID
  2
GENIUS_GE3DTOL_13
 70
     0
  0
APPID
  2
MCAD_NO_VIS
 70
     0
  0
APPID
  2
ACAD_TEMP_GRAPHIC
 70
     0
  0
APPID
  2
AD_DRAW
 70
     0
  0
APPID
  2
ACATTRIBSERVICES
 70
     0
  0
APPID
  2
ASURF_PCURVE_APPNAME
 70
     0
  0
APPID
  2
AMG_3D2D_5_0
 70
     0
  0
APPID
  2
DESIGNERASSEMBLIES
 70
     0
  0
APPID
  2
ACADM_DIM_EDIT
 70
     0
  0
APPID
  2
AMDT_DM_ADJ
 70
     0
  0
ENDTAB
  0
TABLE
  2
DIMSTYLE
 70
     7
  0
DIMSTYLE
  2
STANDARD
 70
     0
  3

  4

  5

  6

  7

 40
1.0
 41
0.18
 42
0.0625
 43
0.38
 44
0.18
 45
0.0
 46
0.0
 47
0.0
 48
0.0
140
0.18
141
0.09
142
0.0
143
25.399999999999999
144
1.0
145
0.0
146
1.0
147
0.09
 71
     0
 72
     0
 73
     1
 74
     1
 75
     0
 76
     0
 77
     0
 78
     0
170
     0
171
     2
172
     0
173
     0
174
     0
175
     0
176
     0
177
     0
178
     0
  0
DIMSTYLE
  2
AM_ANSI
 70
     0
  3

  4
mm
  5

  6

  7

 40
1.0
 41
0.1
 42
0.05
 43
0.5
 44
0.1
 45
0.0
 46
0.0
 47
0.1
 48
0.1
140
0.12
141
0.0
142
0.0
143
25.399999999999999
144
1.0
145
0.0
146
0.71
147
0.06
 71
     0
 72
     0
 73
     1
 74
     1
 75
     0
 76
     0
 77
     0
 78
     7
170
     0
171
     2
172
     0
173
     0
174
     0
175
     0
176
   256
177
   256
178
     2
  0
DIMSTYLE
  2
AM_ANSI$3
 70
     0
  3

  4
mm
  5

  6

  7

 40
1.0
 41
0.1
 42
0.05
 43
0.5
 44
0.1
 45
0.0
 46
0.0
 47
0.1
 48
0.1
140
0.12
141
0.0
142
0.0
143
25.399999999999999
144
1.0
145
0.0
146
0.71
147
0.06
 71
     0
 72
     0
 73
     1
 74
     1
 75
     0
 76
     0
 77
     0
 78
     7
170
     0
171
     2
172
     0
173
     0
174
     0
175
     0
176
   256
177
   256
178
     2
  0
DIMSTYLE
  2
AM_ANSI$4
 70
     0
  3

  4
mm
  5

  6

  7

 40
1.0
 41
0.1
 42
0.05
 43
0.5
 44
0.1
 45
0.0
 46
0.0
 47
0.1
 48
0.1
140
0.12
141
0.0
142
0.0
143
25.399999999999999
144
1.0
145
0.0
146
0.71
147
0.06
 71
     0
 72
     0
 73
     1
 74
     1
 75
     0
 76
     0
 77
     0
 78
     7
170
     0
171
     2
172
     0
173
     0
174
     0
175
     0
176
   256
177
   256
178
     2
  0
DIMSTYLE
  2
AM_ANSI$7
 70
     0
  3

  4
mm
  5

  6

  7

 40
1.0
 41
0.1
 42
0.05
 43
0.5
 44
0.1
 45
0.0
 46
0.0
 47
0.1
 48
0.1
140
0.24
141
0.0
142
0.0
143
25.399999999999999
144
1.0
145
0.0
146
0.71
147
0.06
 71
     0
 72
     0
 73
     1
 74
     1
 75
     0
 76
     0
 77
     0
 78
     7
170
     0
171
     2
172
     0
173
     0
174
     0
175
     0
176
   256
177
   256
178
     2
  0
DIMSTYLE
  2
AM_ANSI$SF
 70
     0
  3

  4
mm
  5

  6

  7

 40
1.0
 41
0.1
 42
0.05
 43
0.5
 44
0.1
 45
0.0
 46
0.0
 47
0.1
 48
0.1
140
0.12
141
0.0
142
0.0
143
25.399999999999999
144
1.0
145
0.0
146
0.71
147
0.06
 71
     0
 72
     0
 73
     1
 74
     1
 75
     1
 76
     1
 77
     0
 78
     7
170
     0
171
     2
172
     0
173
     0
174
     0
175
     0
176
   256
177
   256
178
     2
  0
DIMSTYLE
  2
AM_ANSI$SH
 70
     0
  3

  4
mm
  5

  6
GENAXEH
  7

 40
1.0
 41
0.1
 42
0.05
 43
0.5
 44
0.1
 45
0.0
 46
0.0
 47
0.1
 48
0.1
140
0.12
141
0.0
142
0.0
143
25.399999999999999
144
1.0
145
0.0
146
0.71
147
0.06
 71
     0
 72
     0
 73
     1
 74
     1
 75
     1
 76
     1
 77
     0
 78
     7
170
     0
171
     2
172
     0
173
     1
174
     0
175
     0
176
   256
177
   256
178
     2
  0
ENDTAB
  0
ENDSEC
  0
SECTION
  2
BLOCKS
  0
BLOCK
  8
0
  2
$MODEL_SPACE
 70
     0
 10
0.0
 20
0.0
 30
0.0
  3
$MODEL_SPACE
  1

  0
ENDBLK
  5
A
  8
0
  0
BLOCK
 67
     1
  8
0
  2
$PAPER_SPACE
 70
     0
 10
0.0
 20
0.0
 30
0.0
  3
$PAPER_SPACE
  1

  0
ENDBLK
  5
F
 67
     1
  8
0
  0
BLOCK
  8
0
  2
*U0
 70
     1
 10
0.0
 20
0.0
 30
0.0
  3
*U0
  1

  0
ENDBLK
  5
147
  8
0
  0
BLOCK
  8
0
  2
GENAXEH
 70
     0
 10
0.0
 20
0.0
 30
0.0
  3
GENAXEH
  1

  0
LINE
  5
185
  8
0
 10
-1.0
 20
0.0
 30
0.0
 11
1.0
 21
0.0
 31
0.0
  0
ENDBLK
  5
187
  8
0
  0
BLOCK
  8
0
  2
_DOT
 70
     0
 10
0.0
 20
0.0
 30
0.0
  3
_DOT
  1

  0
POLYLINE
  5
1C2
  8
0
  6
BYBLOCK
 62
     0
 66
     1
 10
0.0
 20
0.0
 30
0.0
 70
     1
 40
0.5
 41
0.5
  0
VERTEX
  5
1C3
  8
0
  6
BYBLOCK
 62
     0
 10
-0.25
 20
0.0
 30
0.0
 42
1.0
  0
VERTEX
  5
1C4
  8
0
  6
BYBLOCK
 62
     0
 10
0.25
 20
0.0
 30
0.0
 42
1.0
  0
SEQEND
  5
1C5
  8
0
  6
BYBLOCK
 62
     0
  0
LINE
  5
1C6
  8
0
  6
BYBLOCK
 62
     0
 10
-0.5
 20
0.0
 30
0.0
 11
-1.0
 21
0.0
 31
0.0
  0
ENDBLK
  5
1C8
  8
0
  0
BLOCK
  8
0
  2
2D
 70
     0
 10
0.0
 20
0.0
 30
0.0
  3
2D
  1

  0
INSERT
  5
1CC
  8
0
  2
*U5
 10
0.0
 20
0.0
 30
0.0
  0
INSERT
  5
1CD
  8
0
  2
*U6
 10
0.0
 20
0.0
 30
0.0
  0
INSERT
  5
1CE
  8
0
  2
*U7
 10
0.0
 20
0.0
 30
0.0
  0
ENDBLK
  5
1D0
  8
0
  0
BLOCK
  8
0
  2
*U4
 70
     1
 10
0.0
 20
0.0
 30
0.0
  3
*U4
  1

  0
TEXT
  5
231
  8
0
 10
10.342339733158189
 20
5.0526764431969697
 30
0.0
 40
0.0675
  1
1-3/4"
  0
ENDBLK
  5
233
  8
0
  0
BLOCK
  8
0
  2
*U5
 70
     1
 10
0.0
 20
0.0
 30
0.0
  3
*U5
  1

  0
TEXT
  5
235
  8
KEE10
 10
-0.167740653382606
 20
0.7944046258072062
 30
0.0
 40
0.140625
  1
KEE
  0
ENDBLK
  5
237
  8
0
  0
BLOCK
  8
0
  2
*U6
 70
     1
 10
0.0
 20
0.0
 30
0.0
  3
*U6
  1

  0
TEXT
  5
239
  8
KEE10
 10
-0.308365653382606
 20
0.4858688129746218
 30
0.0
 40
0.140625
  1
KLAMP
  0
ENDBLK
  5
23B
  8
0
  0
BLOCK
  8
0
  2
*U7
 70
     1
 10
0.0
 20
0.0
 30
0.0
  3
*U7
  1

  0
TEXT
  5
23D
  8
KEE10
 10
-0.202896903382606
 20
0.2018753139112972
 30
0.0
 40
0.140625
  1
10-8
  0
ENDBLK
  5
23F
  8
0
  0
BLOCK
  8
0
  2
*U8
 70
     1
 10
0.0
 20
0.0
 30
0.0
  3
*U8
  1

  0
TEXT
  5
241
  8
KEE10
 10
9.4057068493923808
 20
2.8294575151827548
 30
0.0
 40
0.10125
  1
KEE
  0
ENDBLK
  5
243
  8
0
  0
BLOCK
  8
0
  2
*U9
 70
     1
 10
0.0
 20
0.0
 30
0.0
  3
*U9
  1

  0
TEXT
  5
245
  8
KEE10
 10
9.3044568493923805
 20
2.6073117299432949
 30
0.0
 40
0.10125
  1
KLAMP
  0
ENDBLK
  5
247
  8
0
  0
ENDSEC
  0
SECTION
  2
ENTITIES
  0
POINT
  5
25
  8
0
 10
0.0
 20
0.0
 30
0.0
  0
POINT
  5
26
  8
0
 10
0.0
 20
0.0
 30
0.0
  0
LINE
  5
29
  8
AM_VIS
 10
11.47648508937627
 20
1.8094608720155829
 30
0.0
 11
11.47648508937627
 21
3.4654608720155831
 31
0.0
  0
ARC
  5
2A
  8
AM_HID
 10
11.07328508937626
 20
2.637460872015577
 30
0.0
 40
0.2249999999999938
 50
179.99999999999821
 51
270.00000000000119
  0
ARC
  5
2D
  8
AM_HID
 10
11.07328508937626
 20
2.637460872015589
 30
0.0
 40
0.2249999999999936
 50
89.999999999998764
 51
180.00000000000179
  0
ARC
  5
2E
  8
AM_HID
 10
11.07328508937627
 20
2.6374608720155899
 30
0.0
 40
0.2249999999999931
 50
359.99999999999818
 51
90.000000000001336
  0
ARC
  5
2F
  8
AM_HID
 10
11.07328508937627
 20
2.637460872015577
 30
0.0
 40
0.2249999999999941
 50
269.99999999999892
 51
0.0000000000017586
  0
ARC
  5
30
  8
AM_HID
 10
11.07328508937627
 20
2.637460872015585
 30
0.0
 40
0.2924999999999999
 50
270.00000000000023
 51
320.92769244081973
  0
ARC
  5
31
  8
AM_HID
 10
11.07631596763061
 20
2.6458515844517381
 30
0.0
 40
0.2954374076912758
 50
319.29431560951798
 51
358.37178989421977
  0
ARC
  5
32
  8
AM_HID
 10
11.07631596763061
 20
2.6290701595794288
 30
0.0
 40
0.2954374076912743
 50
1.6282101057800871
 51
40.705684390482119
  0
ARC
  5
33
  8
AM_HID
 10
11.07328508937627
 20
2.6374608720155801
 30
0.0
 40
0.2925000000000011
 50
39.072307559180622
 51
89.999999999999915
  0
ARC
  5
34
  8
AM_HID
 10
11.07328508937627
 20
2.6374608720155819
 30
0.0
 40
0.2924999999999989
 50
90.000000000000028
 51
140.92769244081961
  0
ARC
  5
35
  8
AM_HID
 10
11.07025421112192
 20
2.6290701595794288
 30
0.0
 40
0.2954374076912746
 50
139.29431560951789
 51
178.37178989421989
  0
ARC
  5
36
  8
AM_HID
 10
11.07025421112192
 20
2.6458515844517372
 30
0.0
 40
0.2954374076912731
 50
181.62821010578
 51
220.70568439048211
  0
ARC
  5
37
  8
AM_HID
 10
11.07328508937627
 20
2.6374608720155841
 30
0.0
 40
0.2924999999999993
 50
219.0723075591803
 51
270.0
  0
LINE
  5
45
  8
AM_VIS
 10
10.382085089376259
 20
4.5598608720155847
 30
0.0
 11
8.7260850893762676
 21
4.5598608720155847
 31
0.0
  0
ARC
  5
46
  8
AM_HID
 10
9.5540850893762741
 20
4.1566608720155811
 30
0.0
 40
0.2249999999999939
 50
270.0
 51
0.0000000000028777
  0
ARC
  5
47
  8
AM_HID
 10
9.5540850893762617
 20
4.1566608720155811
 30
0.0
 40
0.2249999999999941
 50
179.99999999999719
 51
270.0
  0
ARC
  5
48
  8
AM_HID
 10
9.5540850893762599
 20
4.1566608720155909
 30
0.0
 40
0.2249999999999935
 50
90.0
 51
180.00000000000301
  0
ARC
  5
49
  8
AM_HID
 10
9.5540850893762741
 20
4.15666087201559
 30
0.0
 40
0.2249999999999943
 50
359.99999999999733
 51
90.0
  0
ARC
  5
4B
  8
AM_HID
 10
9.5540850893762652
 20
4.1566608720155847
 30
0.0
 40
0.2924999999999993
 50
0.0000000000000799
 51
50.927692440819783
  0
ARC
  5
4C
  8
AM_HID
 10
9.5456943769401121
 20
4.1596917502699302
 30
0.0
 40
0.2954374076912733
 50
49.294315609517831
 51
88.371789894220001
  0
ARC
  5
4D
  8
AM_HID
 10
9.5624758018124218
 20
4.1596917502699284
 30
0.0
 40
0.2954374076912743
 50
91.62821010578007
 51
130.70568439048199
  0
ARC
  5
4E
  8
AM_HID
 10
9.5540850893762688
 20
4.1566608720155847
 30
0.0
 40
0.2925000000000001
 50
129.0723075591805
 51
179.99999999999989
  0
ARC
  5
4F
  8
AM_HID
 10
9.5540850893762688
 20
4.1566608720155873
 30
0.0
 40
0.2924999999999999
 50
180.00000000000011
 51
230.92769244081961
  0
ARC
  5
50
  8
AM_HID
 10
9.5624758018124218
 20
4.1536299937612418
 30
0.0
 40
0.295437407691274
 50
229.29431560951789
 51
268.37178989422
  0
ARC
  5
51
  8
AM_HID
 10
9.5456943769401121
 20
4.1536299937612418
 30
0.0
 40
0.2954374076912735
 50
271.62821010578
 51
310.70568439048208
  0
ARC
  5
52
  8
AM_HID
 10
9.5540850893762652
 20
4.1566608720155864
 30
0.0
 40
0.2924999999999993
 50
309.07230755918039
 51
0.0
  0
LINE
  5
56
  8
AM_HID
 10
10.13956950428647
 20
3.2229452867503028
 30
0.0
 11
10.198522284612199
 21
3.2818980673269258
 31
0.0
  0
ARC
  5
57
  8
AM_HID
 10
9.5540850893762652
 20
2.6374608720155841
 30
0.0
 40
0.8279999999999999
 50
44.999999999999972
 51
179.99999999999989
  0
ARC
  5
58
  8
AM_VIS
 10
9.5540850893762652
 20
2.6374608720155841
 30
0.0
 40
0.8279999999999999
 50
179.99999999999989
 51
225.0
  0
LINE
  5
5B
  8
AM_VIS
 10
10.499085089376219
 20
3.465460872015198
 30
0.0
 11
10.501010482463601
 21
3.465460872015198
 31
0.0
  0
ARC
  5
5D
  8
AM_VIS
 10
9.5540850893762652
 20
2.6374608720155841
 30
0.0
 40
0.8279999999999999
 50
225.0
 51
269.99999999999989
  0
ARC
  5
5E
  8
AM_HID
 10
9.5540850893762652
 20
2.6374608720155841
 30
0.0
 40
0.8279999999999999
 50
269.99999999999989
 51
44.999999999999972
  0
LINE
  5
5F
  8
AM_VIS
 10
10.499085089375381
 20
1.9174608720160271
 30
0.0
 11
10.50101048246359
 21
1.9174608720160271
 31
0.0
  0
LINE
  5
60
  8
AM_VIS
 10
10.4990850893762
 20
3.3574608720151402
 30
0.0
 11
10.501010482463601
 21
3.3574608720151402
 31
0.0
  0
LINE
  5
65
  8
AM_HID
 10
10.06320197188443
 20
3.1465777544160471
 30
0.0
 11
10.085678272282159
 21
3.169054054976844
 31
0.0
  0
ARC
  5
66
  8
AM_HID
 10
9.5540850893762652
 20
2.6374608720155841
 30
0.0
 40
0.7200000000000001
 50
225.0
 51
44.999999999999972
  0
ARC
  5
6A
  8
AM_HID
 10
9.5540850893762652
 20
2.6374608720155841
 30
0.0
 40
0.7200000000000001
 50
45.0
 51
225.0
  0
POLYLINE
  8
AM_HID
  5
248
  66
     1
 10
0.000000
 20
0.000000
 30
0.000000
  70
     8
  0
VERTEX
  8
AM_HID
  5
249
 10
10.1494
 20
3.23276
 30
0.000000
  70
    32
  0
VERTEX
  8
AM_HID
  5
24A
 10
10.1486
 20
3.23352
 30
0.000000
  70
    32
  0
VERTEX
  8
AM_HID
  5
24B
 10
10.1478
 20
3.23429
 30
0.000000
  70
    32
  0
VERTEX
  8
AM_HID
  5
24C
 10
10.1471
 20
3.23505
 30
0.000000
  70
    32
  0
VERTEX
  8
AM_HID
  5
24D
 10
10.1463
 20
3.23580
 30
0.000000
  70
    32
  0
VERTEX
  8
AM_HID
  5
24E
 10
10.1455
 20
3.23656
 30
0.000000
  70
    32
  0
VERTEX
  8
AM_HID
  5
24F
 10
10.1448
 20
3.23731
 30
0.000000
  70
    32
  0
VERTEX
  8
AM_HID
  5
250
 10
10.1440
 20
3.23805
 30
0.000000
  70
    32
  0
VERTEX
  8
AM_HID
  5
251
 10
10.1432
 20
3.23880
 30
0.000000
  70
    32
  0
VERTEX
  8
AM_HID
  5
252
 10
10.1424
 20
3.23954
 30
0.000000
  70
    32
  0
VERTEX
  8
AM_HID
  5
253
 10
10.1416
 20
3.24027
 30
0.000000
  70
    32
  0
VERTEX
  8
AM_HID
  5
254
 10
10.1409
 20
3.24101
 30
0.000000
  70
    32
  0
VERTEX
  8
AM_HID
  5
255
 10
10.1401
 20
3.24174
 30
0.000000
  70
    32
  0
VERTEX
  8
AM_HID
  5
256
 10
10.1393
 20
3.24247
 30
0.000000
  70
    32
  0
VERTEX
  8
AM_HID
  5
257
 10
10.1385
 20
3.24319
 30
0.000000
  70
    32
  0
VERTEX
  8
AM_HID
  5
258
 10
10.1377
 20
3.24392
 30
0.000000
  70
    32
  0
VERTEX
  8
AM_HID
  5
259
 10
10.1369
 20
3.24464
 30
0.000000
  70
    32
  0
VERTEX
  8
AM_HID
  5
25A
 10
10.1361
 20
3.24535
 30
0.000000
  70
    32
  0
VERTEX
  8
AM_HID
  5
25B
 10
10.1354
 20
3.24607
 30
0.000000
  70
    32
  0
VERTEX
  8
AM_HID
  5
25C
 10
10.1346
 20
3.24678
 30
0.000000
  70
    32
  0
VERTEX
  8
AM_HID
  5
25D
 10
10.1338
 20
3.24748
 30
0.000000
  70
    32
  0
VERTEX
  8
AM_HID
  5
25E
 10
10.1330
 20
3.24819
 30
0.000000
  70
    32
  0
VERTEX
  8
AM_HID
  5
25F
 10
10.1322
 20
3.24889
 30
0.000000
  70
    32
  0
VERTEX
  8
AM_HID
  5
260
 10
10.1314
 20
3.24959
 30
0.000000
  70
    32
  0
VERTEX
  8
AM_HID
  5
261
 10
10.1306
 20
3.25029
 30
0.000000
  70
    32
  0
VERTEX
  8
AM_HID
  5
262
 10
10.1298
 20
3.25098
 30
0.000000
  70
    32
  0
VERTEX
  8
AM_HID
  5
263
 10
10.1290
 20
3.25167
 30
0.000000
  70
    32
  0
VERTEX
  8
AM_HID
  5
264
 10
10.1282
 20
3.25236
 30
0.000000
  70
    32
  0
VERTEX
  8
AM_HID
  5
265
 10
10.1274
 20
3.25305
 30
0.000000
  70
    32
  0
VERTEX
  8
AM_HID
  5
266
 10
10.1266
 20
3.25373
 30
0.000000
  70
    32
  0
VERTEX
  8
AM_HID
  5
267
 10
10.1258
 20
3.25441
 30
0.000000
  70
    32
  0
VERTEX
  8
AM_HID
  5
268
 10
10.1250
 20
3.25509
 30
0.000000
  70
    32
  0
VERTEX
  8
AM_HID
  5
269
 10
10.1242
 20
3.25577
 30
0.000000
  70
    32
  0
VERTEX
  8
AM_HID
  5
26A
 10
10.1233
 20
3.25644
 30
0.000000
  70
    32
  0
VERTEX
  8
AM_HID
  5
26B
 10
10.1225
 20
3.25711
 30
0.000000
  70
    32
  0
VERTEX
  8
AM_HID
  5
26C
 10
10.1217
 20
3.25778
 30
0.000000
  70
    32
  0
VERTEX
  8
AM_HID
  5
26D
 10
10.1209
 20
3.25845
 30
0.000000
  70
    32
  0
VERTEX
  8
AM_HID
  5
26E
 10
10.1201
 20
3.25911
 30
0.000000
  70
    32
  0
VERTEX
  8
AM_HID
  5
26F
 10
10.1193
 20
3.25978
 30
0.000000
  70
    32
  0
VERTEX
  8
AM_HID
  5
270
 10
10.1184
 20
3.26044
 30
0.000000
  70
    32
  0
VERTEX
  8
AM_HID
  5
271
 10
10.1176
 20
3.26109
 30
0.000000
  70
    32
  0
VERTEX
  8
AM_HID
  5
272
 10
10.1168
 20
3.26175
 30
0.000000
  70
    32
  0
VERTEX
  8
AM_HID
  5
273
 10
10.1160
 20
3.26240
 30
0.000000
  70
    32
  0
VERTEX
  8
AM_HID
  5
274
 10
10.1152
 20
3.26305
 30
0.000000
  70
    32
  0
VERTEX
  8
AM_HID
  5
275
 10
10.1143
 20
3.26370
 30
0.000000
  70
    32
  0
VERTEX
  8
AM_HID
  5
276
 10
10.1135
 20
3.26435
 30
0.000000
  70
    32
  0
VERTEX
  8
AM_HID
  5
277
 10
10.1127
 20
3.26500
 30
0.000000
  70
    32
  0
VERTEX
  8
AM_HID
  5
278
 10
10.1118
 20
3.26564
 30
0.000000
  70
    32
  0
VERTEX
  8
AM_HID
  5
279
 10
10.1110
 20
3.26628
 30
0.000000
  70
    32
  0
VERTEX
  8
AM_HID
  5
27A
 10
10.1102
 20
3.26692
 30
0.000000
  70
    32
  0
VERTEX
  8
AM_HID
  5
27B
 10
10.1093
 20
3.26756
 30
0.000000
  70
    32
  0
VERTEX
  8
AM_HID
  5
27C
 10
10.1085
 20
3.26819
 30
0.000000
  70
    32
  0
VERTEX
  8
AM_HID
  5
27D
 10
10.1076
 20
3.26883
 30
0.000000
  70
    32
  0
VERTEX
  8
AM_HID
  5
27E
 10
10.1068
 20
3.26946
 30
0.000000
  70
    32
  0
VERTEX
  8
AM_HID
  5
27F
 10
10.1060
 20
3.27009
 30
0.000000
  70
    32
  0
VERTEX
  8
AM_HID
  5
280
 10
10.1051
 20
3.27071
 30
0.000000
  70
    32
  0
VERTEX
  8
AM_HID
  5
281
 10
10.1043
 20
3.27134
 30
0.000000
  70
    32
  0
VERTEX
  8
AM_HID
  5
282
 10
10.1034
 20
3.27197
 30
0.000000
  70
    32
  0
VERTEX
  8
AM_HID
  5
283
 10
10.1026
 20
3.27259
 30
0.000000
  70
    32
  0
VERTEX
  8
AM_HID
  5
284
 10
10.1017
 20
3.27321
 30
0.000000
  70
    32
  0
VERTEX
  8
AM_HID
  5
285
 10
10.1009
 20
3.27383
 30
0.000000
  70
    32
  0
VERTEX
  8
AM_HID
  5
286
 10
10.1000
 20
3.27445
 30
0.000000
  70
    32
  0
VERTEX
  8
AM_HID
  5
287
 10
10.0991
 20
3.27506
 30
0.000000
  70
    32
  0
VERTEX
  8
AM_HID
  5
288
 10
10.0983
 20
3.27568
 30
0.000000
  70
    32
  0
VERTEX
  8
AM_HID
  5
289
 10
10.0974
 20
3.27629
 30
0.000000
  70
    32
  0
VERTEX
  8
AM_HID
  5
28A
 10
10.0966
 20
3.27691
 30
0.000000
  70
    32
  0
VERTEX
  8
AM_HID
  5
28B
 10
10.0957
 20
3.27752
 30
0.000000
  70
    32
  0
VERTEX
  8
AM_HID
  5
28C
 10
10.0948
 20
3.27813
 30
0.000000
  70
    32
  0
VERTEX
  8
AM_HID
  5
28D
 10
10.0940
 20
3.27873
 30
0.000000
  70
    32
  0
VERTEX
  8
AM_HID
  5
28E
 10
10.0931
 20
3.27934
 30
0.000000
  70
    32
  0
VERTEX
  8
AM_HID
  5
28F
 10
10.0922
 20
3.27994
 30
0.000000
  70
    32
  0
VERTEX
  8
AM_HID
  5
290
 10
10.0913
 20
3.28055
 30
0.000000
  70
    32
  0
VERTEX
  8
AM_HID
  5
291
 10
10.0905
 20
3.28115
 30
0.000000
  70
    32
  0
VERTEX
  8
AM_HID
  5
292
 10
10.0896
 20
3.28175
 30
0.000000
  70
    32
  0
VERTEX
  8
AM_HID
  5
293
 10
10.0887
 20
3.28235
 30
0.000000
  70
    32
  0
VERTEX
  8
AM_HID
  5
294
 10
10.0878
 20
3.28295
 30
0.000000
  70
    32
  0
VERTEX
  8
AM_HID
  5
295
 10
10.0869
 20
3.28355
 30
0.000000
  70
    32
  0
VERTEX
  8
AM_HID
  5
296
 10
10.0861
 20
3.28415
 30
0.000000
  70
    32
  0
VERTEX
  8
AM_HID
  5
297
 10
10.0852
 20
3.28474
 30
0.000000
  70
    32
  0
VERTEX
  8
AM_HID
  5
298
 10
10.0843
 20
3.28534
 30
0.000000
  70
    32
  0
VERTEX
  8
AM_HID
  5
299
 10
10.0834
 20
3.28593
 30
0.000000
  70
    32
  0
VERTEX
  8
AM_HID
  5
29A
 10
10.0825
 20
3.28652
 30
0.000000
  70
    32
  0
VERTEX
  8
AM_HID
  5
29B
 10
10.0816
 20
3.28712
 30
0.000000
  70
    32
  0
VERTEX
  8
AM_HID
  5
29C
 10
10.0807
 20
3.28771
 30
0.000000
  70
    32
  0
VERTEX
  8
AM_HID
  5
29D
 10
10.0798
 20
3.28830
 30
0.000000
  70
    32
  0
VERTEX
  8
AM_HID
  5
29E
 10
10.0789
 20
3.28889
 30
0.000000
  70
    32
  0
VERTEX
  8
AM_HID
  5
29F
 10
10.0780
 20
3.28947
 30
0.000000
  70
    32
  0
VERTEX
  8
AM_HID
  5
2A0
 10
10.0771
 20
3.29006
 30
0.000000
  70
    32
  0
VERTEX
  8
AM_HID
  5
2A1
 10
10.0762
 20
3.29065
 30
0.000000
  70
    32
  0
VERTEX
  8
AM_HID
  5
2A2
 10
10.0753
 20
3.29123
 30
0.000000
  70
    32
  0
VERTEX
  8
AM_HID
  5
2A3
 10
10.0744
 20
3.29182
 30
0.000000
  70
    32
  0
VERTEX
  8
AM_HID
  5
2A4
 10
10.0735
 20
3.29240
 30
0.000000
  70
    32
  0
VERTEX
  8
AM_HID
  5
2A5
 10
10.0725
 20
3.29299
 30
0.000000
  70
    32
  0
VERTEX
  8
AM_HID
  5
2A6
 10
10.0716
 20
3.29357
 30
0.000000
  70
    32
  0
VERTEX
  8
AM_HID
  5
2A7
 10
10.0707
 20
3.29415
 30
0.000000
  70
    32
  0
VERTEX
  8
AM_HID
  5
2A8
 10
10.0698
 20
3.29473
 30
0.000000
  70
    32
  0
VERTEX
  8
AM_HID
  5
2A9
 10
10.0689
 20
3.29531
 30
0.000000
  70
    32
  0
VERTEX
  8
AM_HID
  5
2AA
 10
10.0679
 20
3.29589
 30
0.000000
  70
    32
  0
VERTEX
  8
AM_HID
  5
2AB
 10
10.0670
 20
3.29647
 30
0.000000
  70
    32
  0
VERTEX
  8
AM_HID
  5
2AC
 10
10.0661
 20
3.29705
 30
0.000000
  70
    32
  0
VERTEX
  8
AM_HID
  5
2AD
 10
10.0652
 20
3.29762
 30
0.000000
  70
    32
  0
VERTEX
  8
AM_HID
  5
2AE
 10
10.0642
 20
3.29820
 30
0.000000
  70
    32
  0
VERTEX
  8
AM_HID
  5
2AF
 10
10.0633
 20
3.29877
 30
0.000000
  70
    32
  0
VERTEX
  8
AM_HID
  5
2B0
 10
10.0624
 20
3.29934
 30
0.000000
  70
    32
  0
VERTEX
  8
AM_HID
  5
2B1
 10
10.0615
 20
3.29991
 30
0.000000
  70
    32
  0
VERTEX
  8
AM_HID
  5
2B2
 10
10.0605
 20
3.30048
 30
0.000000
  70
    32
  0
VERTEX
  8
AM_HID
  5
2B3
 10
10.0596
 20
3.30105
 30
0.000000
  70
    32
  0
VERTEX
  8
AM_HID
  5
2B4
 10
10.0587
 20
3.30162
 30
0.000000
  70
    32
  0
VERTEX
  8
AM_HID
  5
2B5
 10
10.0577
 20
3.30219
 30
0.000000
  70
    32
  0
VERTEX
  8
AM_HID
  5
2B6
 10
10.0568
 20
3.30275
 30
0.000000
  70
    32
  0
VERTEX
  8
AM_HID
  5
2B7
 10
10.0559
 20
3.30332
 30
0.000000
  70
    32
  0
VERTEX
  8
AM_HID
  5
2B8
 10
10.0549
 20
3.30388
 30
0.000000
  70
    32
  0
VERTEX
  8
AM_HID
  5
2B9
 10
10.0540
 20
3.30445
 30
0.000000
  70
    32
  0
VERTEX
  8
AM_HID
  5
2BA
 10
10.0531
 20
3.30501
 30
0.000000
  70
    32
  0
VERTEX
  8
AM_HID
  5
2BB
 10
10.0521
 20
3.30557
 30
0.000000
  70
    32
  0
VERTEX
  8
AM_HID
  5
2BC
 10
10.0512
 20
3.30613
 30
0.000000
  70
    32
  0
VERTEX
  8
AM_HID
  5
2BD
 10
10.0502
 20
3.30669
 30
0.000000
  70
    32
  0
VERTEX
  8
AM_HID
  5
2BE
 10
10.0493
 20
3.30725
 30
0.000000
  70
    32
  0
VERTEX
  8
AM_HID
  5
2BF
 10
10.0484
 20
3.30781
 30
0.000000
  70
    32
  0
VERTEX
  8
AM_HID
  5
2C0
 10
10.0474
 20
3.30837
 30
0.000000
  70
    32
  0
VERTEX
  8
AM_HID
  5
2C1
 10
10.0465
 20
3.30893
 30
0.000000
  70
    32
  0
VERTEX
  8
AM_HID
  5
2C2
 10
10.0455
 20
3.30948
 30
0.000000
  70
    32
  0
VERTEX
  8
AM_HID
  5
2C3
 10
10.0446
 20
3.31004
 30
0.000000
  70
    32
  0
VERTEX
  8
AM_HID
  5
2C4
 10
10.0437
 20
3.31059
 30
0.000000
  70
    32
  0
VERTEX
  8
AM_HID
  5
2C5
 10
10.0427
 20
3.31115
 30
0.000000
  70
    32
  0
VERTEX
  8
AM_HID
  5
2C6
 10
10.0418
 20
3.31170
 30
0.000000
  70
    32
  0
VERTEX
  8
AM_HID
  5
2C7
 10
10.0408
 20
3.31226
 30
0.000000
  70
    32
  0
VERTEX
  8
AM_HID
  5
2C8
 10
10.0399
 20
3.31281
 30
0.000000
  70
    32
  0
VERTEX
  8
AM_HID
  5
2C9
 10
10.0389
 20
3.31336
 30
0.000000
  70
    32
  0
VERTEX
  8
AM_HID
  5
2CA
 10
10.0380
 20
3.31392
 30
0.000000
  70
    32
  0
VERTEX
  8
AM_HID
  5
2CB
 10
10.0370
 20
3.31447
 30
0.000000
  70
    32
  0
VERTEX
  8
AM_HID
  5
2CC
 10
10.0361
 20
3.31502
 30
0.000000
  70
    32
  0
VERTEX
  8
AM_HID
  5
2CD
 10
10.0351
 20
3.31557
 30
0.000000
  70
    32
  0
VERTEX
  8
AM_HID
  5
2CE
 10
10.0342
 20
3.31612
 30
0.000000
  70
    32
  0
VERTEX
  8
AM_HID
  5
2CF
 10
10.0332
 20
3.31667
 30
0.000000
  70
    32
  0
VERTEX
  8
AM_HID
  5
2D0
 10
10.0323
 20
3.31722
 30
0.000000
  70
    32
  0
VERTEX
  8
AM_HID
  5
2D1
 10
10.0313
 20
3.31777
 30
0.000000
  70
    32
  0
VERTEX
  8
AM_HID
  5
2D2
 10
10.0304
 20
3.31832
 30
0.000000
  70
    32
  0
VERTEX
  8
AM_HID
  5
2D3
 10
10.0294
 20
3.31887
 30
0.000000
  70
    32
  0
VERTEX
  8
AM_HID
  5
2D4
 10
10.0285
 20
3.31942
 30
0.000000
  70
    32
  0
VERTEX
  8
AM_HID
  5
2D5
 10
10.0275
 20
3.31997
 30
0.000000
  70
    32
  0
VERTEX
  8
AM_HID
  5
2D6
 10
10.0266
 20
3.32052
 30
0.000000
  70
    32
  0
VERTEX
  8
AM_HID
  5
2D7
 10
10.0256
 20
3.32107
 30
0.000000
  70
    32
  0
VERTEX
  8
AM_HID
  5
2D8
 10
10.0247
 20
3.32162
 30
0.000000
  70
    32
  0
VERTEX
  8
AM_HID
  5
2D9
 10
10.0237
 20
3.32216
 30
0.000000
  70
    32
  0
VERTEX
  8
AM_HID
  5
2DA
 10
10.0228
 20
3.32271
 30
0.000000
  70
    32
  0
VERTEX
  8
AM_HID
  5
2DB
 10
10.0218
 20
3.32326
 30
0.000000
  70
    32
  0
VERTEX
  8
AM_HID
  5
2DC
 10
10.0209
 20
3.32381
 30
0.000000
  70
    32
  0
VERTEX
  8
AM_HID
  5
2DD
 10
10.0199
 20
3.32436
 30
0.000000
  70
    32
  0
VERTEX
  8
AM_HID
  5
2DE
 10
10.0190
 20
3.32491
 30
0.000000
  70
    32
  0
VERTEX
  8
AM_HID
  5
2DF
 10
10.0180
 20
3.32546
 30
0.000000
  70
    32
  0
VERTEX
  8
AM_HID
  5
2E0
 10
10.0170
 20
3.32600
 30
0.000000
  70
    32
  0
VERTEX
  8
AM_HID
  5
2E1
 10
10.0161
 20
3.32655
 30
0.000000
  70
    32
  0
VERTEX
  8
AM_HID
  5
2E2
 10
10.0151
 20
3.32710
 30
0.000000
  70
    32
  0
VERTEX
  8
AM_HID
  5
2E3
 10
10.0142
 20
3.32765
 30
0.000000
  70
    32
  0
VERTEX
  8
AM_HID
  5
2E4
 10
10.0132
 20
3.32820
 30
0.000000
  70
    32
  0
VERTEX
  8
AM_HID
  5
2E5
 10
10.0123
 20
3.32875
 30
0.000000
  70
    32
  0
VERTEX
  8
AM_HID
  5
2E6
 10
10.0113
 20
3.32930
 30
0.000000
  70
    32
  0
VERTEX
  8
AM_HID
  5
2E7
 10
10.0103
 20
3.32985
 30
0.000000
  70
    32
  0
VERTEX
  8
AM_HID
  5
2E8
 10
10.0094
 20
3.33040
 30
0.000000
  70
    32
  0
VERTEX
  8
AM_HID
  5
2E9
 10
10.0084
 20
3.33095
 30
0.000000
  70
    32
  0
VERTEX
  8
AM_HID
  5
2EA
 10
10.0075
 20
3.33150
 30
0.000000
  70
    32
  0
VERTEX
  8
AM_HID
  5
2EB
 10
10.0065
 20
3.33205
 30
0.000000
  70
    32
  0
VERTEX
  8
AM_HID
  5
2EC
 10
10.0056
 20
3.33260
 30
0.000000
  70
    32
  0
VERTEX
  8
AM_HID
  5
2ED
 10
10.0046
 20
3.33315
 30
0.000000
  70
    32
  0
VERTEX
  8
AM_HID
  5
2EE
 10
10.0036
 20
3.33370
 30
0.000000
  70
    32
  0
VERTEX
  8
AM_HID
  5
2EF
 10
10.0027
 20
3.33426
 30
0.000000
  70
    32
  0
VERTEX
  8
AM_HID
  5
2F0
 10
10.0017
 20
3.33481
 30
0.000000
  70
    32
  0
VERTEX
  8
AM_HID
  5
2F1
 10
10.0008
 20
3.33536
 30
0.000000
  70
    32
  0
VERTEX
  8
AM_HID
  5
2F2
 10
9.99981
 20
3.33592
 30
0.000000
  70
    32
  0
VERTEX
  8
AM_HID
  5
2F3
 10
9.99885
 20
3.33647
 30
0.000000
  70
    32
  0
VERTEX
  8
AM_HID
  5
2F4
 10
9.99789
 20
3.33703
 30
0.000000
  70
    32
  0
VERTEX
  8
AM_HID
  5
2F5
 10
9.99693
 20
3.33758
 30
0.000000
  70
    32
  0
VERTEX
  8
AM_HID
  5
2F6
 10
9.99597
 20
3.33814
 30
0.000000
  70
    32
  0
VERTEX
  8
AM_HID
  5
2F7
 10
9.99502
 20
3.33869
 30
0.000000
  70
    32
  0
VERTEX
  8
AM_HID
  5
2F8
 10
9.99406
 20
3.33925
 30
0.000000
  70
    32
  0
VERTEX
  8
AM_HID
  5
2F9
 10
9.99310
 20
3.33981
 30
0.000000
  70
    32
  0
VERTEX
  8
AM_HID
  5
2FA
 10
9.99214
 20
3.34037
 30
0.000000
  70
    32
  0
VERTEX
  8
AM_HID
  5
2FB
 10
9.99118
 20
3.34093
 30
0.000000
  70
    32
  0
VERTEX
  8
AM_HID
  5
2FC
 10
9.99022
 20
3.34149
 30
0.000000
  70
    32
  0
VERTEX
  8
AM_HID
  5
2FD
 10
9.98926
 20
3.34205
 30
0.000000
  70
    32
  0
VERTEX
  8
AM_HID
  5
2FE
 10
9.98831
 20
3.34261
 30
0.000000
  70
    32
  0
VERTEX
  8
AM_HID
  5
2FF
 10
9.98735
 20
3.34317
 30
0.000000
  70
    32
  0
VERTEX
  8
AM_HID
  5
300
 10
9.98639
 20
3.34374
 30
0.000000
  70
    32
  0
VERTEX
  8
AM_HID
  5
301
 10
9.98543
 20
3.34430
 30
0.000000
  70
    32
  0
VERTEX
  8
AM_HID
  5
302
 10
9.98447
 20
3.34487
 30
0.000000
  70
    32
  0
VERTEX
  8
AM_HID
  5
303
 10
9.98352
 20
3.34543
 30
0.000000
  70
    32
  0
VERTEX
  8
AM_HID
  5
304
 10
9.98256
 20
3.34600
 30
0.000000
  70
    32
  0
VERTEX
  8
AM_HID
  5
305
 10
9.98160
 20
3.34657
 30
0.000000
  70
    32
  0
VERTEX
  8
AM_HID
  5
306
 10
9.98064
 20
3.34714
 30
0.000000
  70
    32
  0
VERTEX
  8
AM_HID
  5
307
 10
9.97969
 20
3.34771
 30
0.000000
  70
    32
  0
VERTEX
  8
AM_HID
  5
308
 10
9.97873
 20
3.34828
 30
0.000000
  70
    32
  0
SEQEND
  8
AM_HID
  5
309
  0
POLYLINE
  8
AM_HID
  5
30A
  66
     1
 10
0.000000
 20
0.000000
 30
0.000000
  70
     8
  0
VERTEX
  8
AM_HID
  5
30B
 10
10.2649
 20
3.06210
 30
0.000000
  70
    32
  0
VERTEX
  8
AM_HID
  5
30C
 10
10.2641
 20
3.06352
 30
0.000000
  70
    32
  0
VERTEX
  8
AM_HID
  5
30D
 10
10.2632
 20
3.06494
 30
0.000000
  70
    32
  0
VERTEX
  8
AM_HID
  5
30E
 10
10.2624
 20
3.06636
 30
0.000000
  70
    32
  0
VERTEX
  8
AM_HID
  5
30F
 10
10.2615
 20
3.06778
 30
0.000000
  70
    32
  0
VERTEX
  8
AM_HID
  5
310
 10
10.2607
 20
3.06920
 30
0.000000
  70
    32
  0
VERTEX
  8
AM_HID
  5
311
 10
10.2599
 20
3.07061
 30
0.000000
  70
    32
  0
VERTEX
  8
AM_HID
  5
312
 10
10.2590
 20
3.07203
 30
0.000000
  70
    32
  0
VERTEX
  8
AM_HID
  5
313
 10
10.2582
 20
3.07344
 30
0.000000
  70
    32
  0
VERTEX
  8
AM_HID
  5
314
 10
10.2574
 20
3.07486
 30
0.000000
  70
    32
  0
VERTEX
  8
AM_HID
  5
315
 10
10.2566
 20
3.07627
 30
0.000000
  70
    32
  0
VERTEX
  8
AM_HID
  5
316
 10
10.2557
 20
3.07769
 30
0.000000
  70
    32
  0
VERTEX
  8
AM_HID
  5
317
 10
10.2549
 20
3.07910
 30
0.000000
  70
    32
  0
VERTEX
  8
AM_HID
  5
318
 10
10.2541
 20
3.08051
 30
0.000000
  70
    32
  0
VERTEX
  8
AM_HID
  5
319
 10
10.2533
 20
3.08192
 30
0.000000
  70
    32
  0
VERTEX
  8
AM_HID
  5
31A
 10
10.2525
 20
3.08334
 30
0.000000
  70
    32
  0
VERTEX
  8
AM_HID
  5
31B
 10
10.2517
 20
3.08475
 30
0.000000
  70
    32
  0
VERTEX
  8
AM_HID
  5
31C
 10
10.2508
 20
3.08615
 30
0.000000
  70
    32
  0
VERTEX
  8
AM_HID
  5
31D
 10
10.2500
 20
3.08756
 30
0.000000
  70
    32
  0
VERTEX
  8
AM_HID
  5
31E
 10
10.2492
 20
3.08897
 30
0.000000
  70
    32
  0
VERTEX
  8
AM_HID
  5
31F
 10
10.2484
 20
3.09038
 30
0.000000
  70
    32
  0
VERTEX
  8
AM_HID
  5
320
 10
10.2476
 20
3.09178
 30
0.000000
  70
    32
  0
VERTEX
  8
AM_HID
  5
321
 10
10.2468
 20
3.09319
 30
0.000000
  70
    32
  0
VERTEX
  8
AM_HID
  5
322
 10
10.2460
 20
3.09459
 30
0.000000
  70
    32
  0
VERTEX
  8
AM_HID
  5
323
 10
10.2452
 20
3.09600
 30
0.000000
  70
    32
  0
VERTEX
  8
AM_HID
  5
324
 10
10.2444
 20
3.09740
 30
0.000000
  70
    32
  0
VERTEX
  8
AM_HID
  5
325
 10
10.2436
 20
3.09880
 30
0.000000
  70
    32
  0
VERTEX
  8
AM_HID
  5
326
 10
10.2428
 20
3.10020
 30
0.000000
  70
    32
  0
VERTEX
  8
AM_HID
  5
327
 10
10.2420
 20
3.10160
 30
0.000000
  70
    32
  0
VERTEX
  8
AM_HID
  5
328
 10
10.2412
 20
3.10300
 30
0.000000
  70
    32
  0
VERTEX
  8
AM_HID
  5
329
 10
10.2404
 20
3.10440
 30
0.000000
  70
    32
  0
VERTEX
  8
AM_HID
  5
32A
 10
10.2396
 20
3.10580
 30
0.000000
  70
    32
  0
VERTEX
  8
AM_HID
  5
32B
 10
10.2388
 20
3.10720
 30
0.000000
  70
    32
  0
VERTEX
  8
AM_HID
  5
32C
 10
10.2380
 20
3.10859
 30
0.000000
  70
    32
  0
VERTEX
  8
AM_HID
  5
32D
 10
10.2372
 20
3.10998
 30
0.000000
  70
    32
  0
VERTEX
  8
AM_HID
  5
32E
 10
10.2364
 20
3.11138
 30
0.000000
  70
    32
  0
VERTEX
  8
AM_HID
  5
32F
 10
10.2356
 20
3.11277
 30
0.000000
  70
    32
  0
VERTEX
  8
AM_HID
  5
330
 10
10.2348
 20
3.11416
 30
0.000000
  70
    32
  0
VERTEX
  8
AM_HID
  5
331
 10
10.2340
 20
3.11555
 30
0.000000
  70
    32
  0
VERTEX
  8
AM_HID
  5
332
 10
10.2332
 20
3.11694
 30
0.000000
  70
    32
  0
VERTEX
  8
AM_HID
  5
333
 10
10.2324
 20
3.11833
 30
0.000000
  70
    32
  0
VERTEX
  8
AM_HID
  5
334
 10
10.2316
 20
3.11971
 30
0.000000
  70
    32
  0
VERTEX
  8
AM_HID
  5
335
 10
10.2308
 20
3.12110
 30
0.000000
  70
    32
  0
VERTEX
  8
AM_HID
  5
336
 10
10.2300
 20
3.12248
 30
0.000000
  70
    32
  0
VERTEX
  8
AM_HID
  5
337
 10
10.2291
 20
3.12387
 30
0.000000
  70
    32
  0
VERTEX
  8
AM_HID
  5
338
 10
10.2283
 20
3.12525
 30
0.000000
  70
    32
  0
VERTEX
  8
AM_HID
  5
339
 10
10.2275
 20
3.12663
 30
0.000000
  70
    32
  0
VERTEX
  8
AM_HID
  5
33A
 10
10.2267
 20
3.12801
 30
0.000000
  70
    32
  0
VERTEX
  8
AM_HID
  5
33B
 10
10.2259
 20
3.12939
 30
0.000000
  70
    32
  0
VERTEX
  8
AM_HID
  5
33C
 10
10.2251
 20
3.13076
 30
0.000000
  70
    32
  0
VERTEX
  8
AM_HID
  5
33D
 10
10.2243
 20
3.13214
 30
0.000000
  70
    32
  0
VERTEX
  8
AM_HID
  5
33E
 10
10.2235
 20
3.13351
 30
0.000000
  70
    32
  0
VERTEX
  8
AM_HID
  5
33F
 10
10.2226
 20
3.13488
 30
0.000000
  70
    32
  0
VERTEX
  8
AM_HID
  5
340
 10
10.2218
 20
3.13625
 30
0.000000
  70
    32
  0
VERTEX
  8
AM_HID
  5
341
 10
10.2210
 20
3.13762
 30
0.000000
  70
    32
  0
VERTEX
  8
AM_HID
  5
342
 10
10.2202
 20
3.13899
 30
0.000000
  70
    32
  0
VERTEX
  8
AM_HID
  5
343
 10
10.2194
 20
3.14036
 30
0.000000
  70
    32
  0
VERTEX
  8
AM_HID
  5
344
 10
10.2185
 20
3.14173
 30
0.000000
  70
    32
  0
VERTEX
  8
AM_HID
  5
345
 10
10.2177
 20
3.14309
 30
0.000000
  70
    32
  0
VERTEX
  8
AM_HID
  5
346
 10
10.2169
 20
3.14445
 30
0.000000
  70
    32
  0
VERTEX
  8
AM_HID
  5
347
 10
10.2160
 20
3.14581
 30
0.000000
  70
    32
  0
VERTEX
  8
AM_HID
  5
348
 10
10.2152
 20
3.14717
 30
0.000000
  70
    32
  0
VERTEX
  8
AM_HID
  5
349
 10
10.2143
 20
3.14853
 30
0.000000
  70
    32
  0
VERTEX
  8
AM_HID
  5
34A
 10
10.2135
 20
3.14989
 30
0.000000
  70
    32
  0
VERTEX
  8
AM_HID
  5
34B
 10
10.2127
 20
3.15124
 30
0.000000
  70
    32
  0
VERTEX
  8
AM_HID
  5
34C
 10
10.2118
 20
3.15260
 30
0.000000
  70
    32
  0
VERTEX
  8
AM_HID
  5
34D
 10
10.2110
 20
3.15395
 30
0.000000
  70
    32
  0
VERTEX
  8
AM_HID
  5
34E
 10
10.2101
 20
3.15530
 30
0.000000
  70
    32
  0
VERTEX
  8
AM_HID
  5
34F
 10
10.2092
 20
3.15665
 30
0.000000
  70
    32
  0
VERTEX
  8
AM_HID
  5
350
 10
10.2084
 20
3.15800
 30
0.000000
  70
    32
  0
VERTEX
  8
AM_HID
  5
351
 10
10.2075
 20
3.15934
 30
0.000000
  70
    32
  0
VERTEX
  8
AM_HID
  5
352
 10
10.2066
 20
3.16069
 30
0.000000
  70
    32
  0
VERTEX
  8
AM_HID
  5
353
 10
10.2058
 20
3.16203
 30
0.000000
  70
    32
  0
VERTEX
  8
AM_HID
  5
354
 10
10.2049
 20
3.16337
 30
0.000000
  70
    32
  0
VERTEX
  8
AM_HID
  5
355
 10
10.2040
 20
3.16471
 30
0.000000
  70
    32
  0
VERTEX
  8
AM_HID
  5
356
 10
10.2031
 20
3.16604
 30
0.000000
  70
    32
  0
VERTEX
  8
AM_HID
  5
357
 10
10.2022
 20
3.16738
 30
0.000000
  70
    32
  0
VERTEX
  8
AM_HID
  5
358
 10
10.2013
 20
3.16871
 30
0.000000
  70
    32
  0
VERTEX
  8
AM_HID
  5
359
 10
10.2004
 20
3.17005
 30
0.000000
  70
    32
  0
VERTEX
  8
AM_HID
  5
35A
 10
10.1995
 20
3.17138
 30
0.000000
  70
    32
  0
VERTEX
  8
AM_HID
  5
35B
 10
10.1986
 20
3.17270
 30
0.000000
  70
    32
  0
VERTEX
  8
AM_HID
  5
35C
 10
10.1977
 20
3.17403
 30
0.000000
  70
    32
  0
VERTEX
  8
AM_HID
  5
35D
 10
10.1968
 20
3.17535
 30
0.000000
  70
    32
  0
VERTEX
  8
AM_HID
  5
35E
 10
10.1959
 20
3.17668
 30
0.000000
  70
    32
  0
VERTEX
  8
AM_HID
  5
35F
 10
10.1950
 20
3.17800
 30
0.000000
  70
    32
  0
VERTEX
  8
AM_HID
  5
360
 10
10.1940
 20
3.17932
 30
0.000000
  70
    32
  0
VERTEX
  8
AM_HID
  5
361
 10
10.1931
 20
3.18063
 30
0.000000
  70
    32
  0
VERTEX
  8
AM_HID
  5
362
 10
10.1922
 20
3.18195
 30
0.000000
  70
    32
  0
VERTEX
  8
AM_HID
  5
363
 10
10.1912
 20
3.18326
 30
0.000000
  70
    32
  0
VERTEX
  8
AM_HID
  5
364
 10
10.1903
 20
3.18457
 30
0.000000
  70
    32
  0
VERTEX
  8
AM_HID
  5
365
 10
10.1893
 20
3.18588
 30
0.000000
  70
    32
  0
VERTEX
  8
AM_HID
  5
366
 10
10.1884
 20
3.18719
 30
0.000000
  70
    32
  0
VERTEX
  8
AM_HID
  5
367
 10
10.1874
 20
3.18849
 30
0.000000
  70
    32
  0
VERTEX
  8
AM_HID
  5
368
 10
10.1864
 20
3.18980
 30
0.000000
  70
    32
  0
VERTEX
  8
AM_HID
  5
369
 10
10.1854
 20
3.19110
 30
0.000000
  70
    32
  0
VERTEX
  8
AM_HID
  5
36A
 10
10.1845
 20
3.19239
 30
0.000000
  70
    32
  0
VERTEX
  8
AM_HID
  5
36B
 10
10.1835
 20
3.19369
 30
0.000000
  70
    32
  0
VERTEX
  8
AM_HID
  5
36C
 10
10.1825
 20
3.19499
 30
0.000000
  70
    32
  0
VERTEX
  8
AM_HID
  5
36D
 10
10.1815
 20
3.19628
 30
0.000000
  70
    32
  0
VERTEX
  8
AM_HID
  5
36E
 10
10.1805
 20
3.19757
 30
0.000000
  70
    32
  0
VERTEX
  8
AM_HID
  5
36F
 10
10.1794
 20
3.19886
 30
0.000000
  70
    32
  0
VERTEX
  8
AM_HID
  5
370
 10
10.1784
 20
3.20014
 30
0.000000
  70
    32
  0
VERTEX
  8
AM_HID
  5
371
 10
10.1774
 20
3.20143
 30
0.000000
  70
    32
  0
VERTEX
  8
AM_HID
  5
372
 10
10.1764
 20
3.20271
 30
0.000000
  70
    32
  0
VERTEX
  8
AM_HID
  5
373
 10
10.1753
 20
3.20399
 30
0.000000
  70
    32
  0
VERTEX
  8
AM_HID
  5
374
 10
10.1743
 20
3.20526
 30
0.000000
  70
    32
  0
VERTEX
  8
AM_HID
  5
375
 10
10.1732
 20
3.20654
 30
0.000000
  70
    32
  0
VERTEX
  8
AM_HID
  5
376
 10
10.1722
 20
3.20781
 30
0.000000
  70
    32
  0
VERTEX
  8
AM_HID
  5
377
 10
10.1711
 20
3.20908
 30
0.000000
  70
    32
  0
VERTEX
  8
AM_HID
  5
378
 10
10.1700
 20
3.21035
 30
0.000000
  70
    32
  0
VERTEX
  8
AM_HID
  5
379
 10
10.1689
 20
3.21162
 30
0.000000
  70
    32
  0
VERTEX
  8
AM_HID
  5
37A
 10
10.1679
 20
3.21288
 30
0.000000
  70
    32
  0
VERTEX
  8
AM_HID
  5
37B
 10
10.1668
 20
3.21414
 30
0.000000
  70
    32
  0
VERTEX
  8
AM_HID
  5
37C
 10
10.1657
 20
3.21540
 30
0.000000
  70
    32
  0
VERTEX
  8
AM_HID
  5
37D
 10
10.1646
 20
3.21665
 30
0.000000
  70
    32
  0
VERTEX
  8
AM_HID
  5
37E
 10
10.1634
 20
3.21791
 30
0.000000
  70
    32
  0
VERTEX
  8
AM_HID
  5
37F
 10
10.1623
 20
3.21916
 30
0.000000
  70
    32
  0
VERTEX
  8
AM_HID
  5
380
 10
10.1612
 20
3.22041
 30
0.000000
  70
    32
  0
VERTEX
  8
AM_HID
  5
381
 10
10.1600
 20
3.22165
 30
0.000000
  70
    32
  0
VERTEX
  8
AM_HID
  5
382
 10
10.1589
 20
3.22290
 30
0.000000
  70
    32
  0
VERTEX
  8
AM_HID
  5
383
 10
10.1577
 20
3.22414
 30
0.000000
  70
    32
  0
VERTEX
  8
AM_HID
  5
384
 10
10.1566
 20
3.22538
 30
0.000000
  70
    32
  0
VERTEX
  8
AM_HID
  5
385
 10
10.1554
 20
3.22661
 30
0.000000
  70
    32
  0
VERTEX
  8
AM_HID
  5
386
 10
10.1542
 20
3.22785
 30
0.000000
  70
    32
  0
VERTEX
  8
AM_HID
  5
387
 10
10.1530
 20
3.22908
 30
0.000000
  70
    32
  0
VERTEX
  8
AM_HID
  5
388
 10
10.1518
 20
3.23031
 30
0.000000
  70
    32
  0
VERTEX
  8
AM_HID
  5
389
 10
10.1506
 20
3.23153
 30
0.000000
  70
    32
  0
VERTEX
  8
AM_HID
  5
38A
 10
10.1494
 20
3.23276
 30
0.000000
  70
    32
  0
SEQEND
  8
AM_HID
  5
38B
  0
ARC
  5
6D
  8
AM_HID
 10
10.51779917036307
 20
2.9329590447811031
 30
0.0
 40
0.179999999999999
 50
135.00000000000011
 51
197.04681311661921
  0
ARC
  5
6E
  8
AM_HID
 10
9.8495832621417847
 20
3.6011749530023889
 30
0.0
 40
0.1800000000000013
 50
252.95318688338131
 51
314.99999999999972
  0
LINE
  5
6F
  8
AM_HID
 10
10.02820018616185
 20
3.5252334357952941
 30
0.0
 11
10.104664634141519
 21
3.4487689878156171
 31
0.0
  0
LINE
  5
70
  8
AM_HID
 10
10.10466463414172
 20
3.448768987815817
 30
0.0
 11
10.235028919659349
 21
3.3184047022976841
 31
0.0
  0
LINE
  5
71
  8
AM_HID
 10
10.23502891965836
 20
3.318404702298674
 30
0.0
 11
10.365393205176501
 21
3.188040416781043
 31
0.0
  0
LINE
  5
72
  8
AM_HID
 10
10.3653932051763
 20
3.1880404167808418
 30
0.0
 11
10.441857653155971
 21
3.1115759688011648
 31
0.0
  0
LINE
  5
73
  8
AM_VIS
 10
11.47648508937627
 20
1.8094608720155829
 30
0.0
 11
10.501010482463601
 21
1.8094608720155829
 31
0.0
  0
LINE
  5
74
  8
AM_VIS
 10
11.47648508937627
 20
3.4654608720155831
 30
0.0
 11
10.501010482463601
 21
3.4654608720155831
 31
0.0
  0
LINE
  5
75
  8
AM_HID
 10
11.47648508937627
 20
1.917460872015583
 30
0.0
 11
9.9629664902738853
 21
1.917460872015583
 31
0.0
  0
LINE
  5
76
  8
AM_HID
 10
11.47648508937627
 20
3.357460872015583
 30
0.0
 11
10.501010482463601
 21
3.357460872015583
 31
0.0
  0
ARC
  5
7A
  8
AM_VIS
 10
10.49908508937626
 20
3.584386265102919
 30
0.0
 40
0.1170000000000001
 50
179.99999999999989
 51
269.99999999999989
  0
LINE
  5
7B
  8
AM_VIS
 10
10.382085089376259
 20
4.5598608720155847
 30
0.0
 11
10.382085089376259
 21
3.584386265102919
 31
0.0
  0
LINE
  5
7C
  8
AM_VIS
 10
8.7260850893762658
 20
4.5598608720155847
 30
0.0
 11
8.7260850893762658
 21
3.584386265102919
 31
0.0
  0
LINE
  5
7D
  8
AM_HID
 10
10.274085089376269
 20
4.5598608720155847
 30
0.0
 11
10.274085089376269
 21
3.584386265102919
 31
0.0
  0
LINE
  5
7E
  8
AM_HID
 10
8.8340850893762664
 20
4.5598608720155847
 30
0.0
 11
8.8340850893762664
 21
3.0463422729132028
 31
0.0
  0
LINE
  5
7F
  8
AM_HID
 10
8.8340850893762664
 20
3.0331801978219679
 30
0.0
 11
8.8340850893762664
 21
2.814573753646973
 31
0.0
  0
LINE
  5
80
  8
AM_VIS
 10
8.7260850893762658
 20
3.584386265102919
 30
0.0
 11
8.7260850893762658
 21
2.6374608720155841
 31
0.0
  0
LINE
  5
81
  8
AM_VIS
 10
9.5540850893762652
 20
1.809460872015584
 30
0.0
 11
10.501010482463601
 21
1.8094608720155829
 31
0.0
  0
LINE
  5
82
  8
AM_HID
 10
10.501010482463601
 20
3.4654608720155831
 30
0.0
 11
10.49908508937626
 21
3.4654608720155831
 31
0.0
  0
LINE
  5
83
  8
AM_HID
 10
10.49908508937626
 20
1.917460872015583
 30
0.0
 11
10.50101048246359
 21
1.917460872015583
 31
0.0
  0
LINE
  5
84
  8
AM_HID
 10
10.501010482463601
 20
3.357460872015583
 30
0.0
 11
10.49908508937626
 21
3.357460872015583
 31
0.0
  0
LINE
  5
85
  8
AM_HID
 10
10.274085089376269
 20
2.6374608720155832
 30
0.0
 11
10.274085089376269
 21
2.644992179911656
 31
0.0
  0
LINE
  5
86
  8
AM_HID
 10
10.02820018616185
 20
3.5252334357952941
 30
0.0
 11
9.9768624827553634
 21
3.4738957323888089
 31
0.0
  0
LINE
  5
87
  8
AM_HID
 10
10.390519949749489
 20
3.06023826539468
 30
0.0
 11
10.441857653155971
 21
3.1115759688011648
 31
0.0
  0
LINE
  5
88
  8
AM_HID
 10
10.394127945425881
 20
3.1593056765312548
 30
0.0
 11
10.196803283497839
 21
2.9619810146032148
 31
0.0
  0
LINE
  5
89
  8
AM_HID
 10
10.07592989389194
 20
3.477503728065201
 30
0.0
 11
9.8786052319638991
 21
3.2801790661371619
 31
0.0
  0
LINE
  5
8A
  8
AM_HID
 10
9.7311979710076564
 20
1.9174608720155839
 30
0.0
 11
9.9524235304600381
 21
1.9174608720155839
 31
0.0
  0
LINE
  5
8B
  8
AM_HID
 10
9.5616119987373018
 20
3.3574608720155839
 30
0.0
 11
9.5540850893762652
 21
3.3574608720155839
 31
0.0
  0
LINE
  5
1B8
  8
0
 10
9.5456943769401121
 20
4.2046917502699301
 30
0.0
 11
9.5456943769401121
 21
5.216026443196971
 31
0.0
  0
LINE
  5
1B9
  8
0
 10
11.47648508937627
 20
3.510460872015583
 30
0.0
 11
11.47648508937627
 21
5.216026443196971
 31
0.0
  0
LINE
  5
1BA
  8
0
 10
9.6356943769401138
 20
5.086426443196971
 30
0.0
 11
10.266289733158191
 21
5.086426443196971
 31
0.0
  0
LINE
  5
1BB
  8
0
 10
11.38648508937627
 20
5.086426443196971
 30
0.0
 11
10.75588973315819
 21
5.086426443196971
 31
0.0
  0
SOLID
  5
1BC
  8
0
 10
9.6356943769401138
 20
5.1014264431969716
 30
0.0
 11
9.6356943769401138
 21
5.0714264431969722
 31
0.0
 12
9.5456943769401121
 22
5.086426443196971
 32
0.0
 13
9.5456943769401121
 23
5.086426443196971
 33
0.0
  0
SOLID
  5
1BD
  8
0
 10
11.38648508937627
 20
5.1014264431969716
 30
0.0
 11
11.38648508937627
 21
5.0714264431969722
 31
0.0
 12
11.47648508937627
 22
5.086426443196971
 32
0.0
 13
11.47648508937627
 23
5.086426443196971
 33
0.0
  0
INSERT
  5
1BE
  8
0
  2
*U4
 10
0.0
 20
0.0
 30
0.0
  0
INSERT
  5
1D4
  8
0
  2
*U8
 10
0.0
 20
0.0
 30
0.0
  0
INSERT
  5
1D5
  8
0
  2
*U9
 10
0.0
 20
0.0
 30
0.0
  0
ENDSEC
  0
EOF
