  0
SECTION
  2
HEADER
  9
$ACADVER
  1
AC1009
  9
$INSBASE
 10
0.0
 20
0.0
 30
0.0
  9
$EXTMIN
 10
4.7234957024282043
 20
-0.9552959371523641
 30
0.0
  9
$EXTMAX
 10
18.896952239202768
 20
10.78696029196329
 30
0.0
  9
$LIMMIN
 10
0.0
 20
0.0
  9
$LIMMAX
 10
12.0
 20
9.0
  9
$ORTHOMODE
 70
     1
  9
$REGENMODE
 70
     1
  9
$FILLMODE
 70
     1
  9
$QTEXTMODE
 70
     0
  9
$MIRRTEXT
 70
     0
  9
$DRAGMODE
 70
     2
  9
$LTSCALE
 40
1.0
  9
$OSMODE
 70
    39
  9
$ATTMODE
 70
     1
  9
$TEXTSIZE
 40
0.2
  9
$TRACEWID
 40
0.05
  9
$TEXTSTYLE
  7
STANDARD
  9
$CLAYER
  8
0
  9
$CELTYPE
  6
BYLAYER
  9
$CECOLOR
 62
   256
  9
$DIMSCALE
 40
1.0
  9
$DIMASZ
 40
0.18
  9
$DIMEXO
 40
0.0625
  9
$DIMDLI
 40
0.38
  9
$DIMRND
 40
0.0
  9
$DIMDLE
 40
0.0
  9
$DIMEXE
 40
0.18
  9
$DIMTP
 40
0.0
  9
$DIMTM
 40
0.0
  9
$DIMTXT
 40
0.18
  9
$DIMCEN
 40
0.09
  9
$DIMTSZ
 40
0.0
  9
$DIMTOL
 70
     0
  9
$DIMLIM
 70
     0
  9
$DIMTIH
 70
     1
  9
$DIMTOH
 70
     1
  9
$DIMSE1
 70
     0
  9
$DIMSE2
 70
     0
  9
$DIMTAD
 70
     0
  9
$DIMZIN
 70
     4
  9
$DIMBLK
  1

  9
$DIMASO
 70
     1
  9
$DIMSHO
 70
     1
  9
$DIMPOST
  1

  9
$DIMAPOST
  1

  9
$DIMALT
 70
     0
  9
$DIMALTD
 70
     2
  9
$DIMALTF
 40
25.399999999999999
  9
$DIMLFAC
 40
1.0
  9
$DIMTOFL
 70
     0
  9
$DIMTVP
 40
0.0
  9
$DIMTIX
 70
     0
  9
$DIMSOXD
 70
     0
  9
$DIMSAH
 70
     0
  9
$DIMBLK1
  1

  9
$DIMBLK2
  1

  9
$DIMSTYLE
  2
STANDARD
  9
$DIMCLRD
 70
     0
  9
$DIMCLRE
 70
     0
  9
$DIMCLRT
 70
     0
  9
$DIMTFAC
 40
1.0
  9
$DIMGAP
 40
0.09
  9
$LUNITS
 70
     2
  9
$LUPREC
 70
     4
  9
$SKETCHINC
 40
0.1
  9
$FILLETRAD
 40
0.5
  9
$AUNITS
 70
     0
  9
$AUPREC
 70
     0
  9
$MENU
  1
.
  9
$ELEVATION
 40
0.0
  9
$PELEVATION
 40
0.0
  9
$THICKNESS
 40
0.0
  9
$LIMCHECK
 70
     0
  9
$BLIPMODE
 70
     0
  9
$CHAMFERA
 40
0.5
  9
$CHAMFERB
 40
0.5
  9
$SKPOLY
 70
     0
  9
$TDCREATE
 40
2452088.6132909721
  9
$TDUPDATE
 40
2453031.6299831588
  9
$TDINDWG
 40
0.2367236111
  9
$TDUSRTIMER
 40
0.2367236111
  9
$USRTIMER
 70
     1
  9
$ANGBASE
 50
0.0
  9
$ANGDIR
 70
     0
  9
$PDMODE
 70
     0
  9
$PDSIZE
 40
0.0
  9
$PLINEWID
 40
0.0
  9
$COORDS
 70
     1
  9
$SPLFRAME
 70
     0
  9
$SPLINETYPE
 70
     6
  9
$SPLINESEGS
 70
     8
  9
$ATTDIA
 70
     0
  9
$ATTREQ
 70
     1
  9
$HANDLING
 70
 22529
  9
$HANDSEED
  5
23D
  9
$SURFTAB1
 70
     6
  9
$SURFTAB2
 70
     6
  9
$SURFTYPE
 70
     6
  9
$SURFU
 70
     6
  9
$SURFV
 70
     6
  9
$UCSNAME
  2

  9
$UCSORG
 10
0.0
 20
0.0
 30
0.0
  9
$UCSXDIR
 10
1.0
 20
0.0
 30
0.0
  9
$UCSYDIR
 10
0.0
 20
1.0
 30
0.0
  9
$PUCSNAME
  2

  9
$PUCSORG
 10
0.0
 20
0.0
 30
0.0
  9
$PUCSXDIR
 10
1.0
 20
0.0
 30
0.0
  9
$PUCSYDIR
 10
0.0
 20
1.0
 30
0.0
  9
$USERI1
 70
     0
  9
$USERI2
 70
     0
  9
$USERI3
 70
     0
  9
$USERI4
 70
     0
  9
$USERI5
 70
     0
  9
$USERR1
 40
0.0
  9
$USERR2
 40
0.0
  9
$USERR3
 40
0.0
  9
$USERR4
 40
0.0
  9
$USERR5
 40
0.0
  9
$WORLDVIEW
 70
     1
  9
$SHADEDGE
 70
     3
  9
$SHADEDIF
 70
    70
  9
$TILEMODE
 70
     1
  9
$MAXACTVP
 70
    64
  9
$PLIMCHECK
 70
     0
  9
$PEXTMIN
 10
1.04775008441895
 20
0.7937500251559762
 30
0.0
  9
$PEXTMAX
 10
9.4297507597705472
 20
7.1437502264037827
 30
0.0
  9
$PLIMMIN
 10
-0.2812495194082185
 20
-0.2812499887361301
  9
$PLIMMAX
 10
10.71875024029589
 20
8.2187497709679782
  9
$UNITMODE
 70
     0
  9
$VISRETAIN
 70
     1
  9
$PLINEGEN
 70
     0
  9
$PSLTSCALE
 70
     1
  0
ENDSEC
  0
SECTION
  2
TABLES
  0
TABLE
  2
VPORT
 70
     3
  0
VPORT
  2
*ACTIVE
 70
     0
 10
0.0
 20
0.0
 11
1.0
 21
1.0
 12
16.063107575168139
 22
4.915698711918246
 13
0.0
 23
0.0
 14
0.5
 24
0.5
 15
0.5
 25
0.5
 16
0.0
 26
0.0
 36
1.0
 17
0.0
 27
0.0
 37
0.0
 40
17.689395768918899
 41
2.100352112676056
 42
50.0
 43
0.0
 44
0.0
 50
0.0
 51
0.0
 71
     8
 72
   100
 73
     1
 74
     2
 75
     0
 76
     0
 77
     0
 78
     0
  0
ENDTAB
  0
TABLE
  2
LTYPE
 70
     1
  0
LTYPE
  2
CONTINUOUS
 70
     0
  3
Solid line
 72
    65
 73
     0
 40
0.0
  0
ENDTAB
  0
TABLE
  2
LAYER
 70
     3
  0
LAYER
  2
0
 70
     0
 62
     7
  6
CONTINUOUS
  0
LAYER
  2
LAYER1
 70
     0
 62
     7
  6
CONTINUOUS
  0
LAYER
  2
DEFPOINTS
 70
     0
 62
     7
  6
CONTINUOUS
  0
ENDTAB
  0
TABLE
  2
STYLE
 70
     2
  0
STYLE
  2
STANDARD
 70
     0
 40
0.0
 41
1.0
 50
0.0
 71
     0
 42
0.2
  3
txt
  4

  0
STYLE
  2
DAVES
 70
     0
 40
2.0
 41
0.85
 50
0.0
 71
     0
 42
2.0
  3
txt
  4

  0
ENDTAB
  0
TABLE
  2
VIEW
 70
     0
  0
ENDTAB
  0
TABLE
  2
UCS
 70
     0
  0
ENDTAB
  0
TABLE
  2
APPID
 70
     3
  0
APPID
  2
ACAD
 70
     0
  0
APPID
  2
AVE_RENDER
 70
     0
  0
APPID
  2
AVE_FINISH
 70
     0
  0
ENDTAB
  0
TABLE
  2
DIMSTYLE
 70
     1
  0
DIMSTYLE
  2
STANDARD
 70
     0
  3

  4

  5

  6

  7

 40
1.0
 41
0.18
 42
0.0625
 43
0.38
 44
0.18
 45
0.0
 46
0.0
 47
0.0
 48
0.0
140
0.18
141
0.09
142
0.0
143
25.399999999999999
144
1.0
145
0.0
146
1.0
147
0.09
 71
     0
 72
     0
 73
     1
 74
     1
 75
     0
 76
     0
 77
     0
 78
     0
170
     0
171
     2
172
     0
173
     0
174
     0
175
     0
176
     0
177
     0
178
     0
  0
ENDTAB
  0
ENDSEC
  0
SECTION
  2
BLOCKS
  0
BLOCK
  8
0
  2
$MODEL_SPACE
 70
     0
 10
0.0
 20
0.0
 30
0.0
  3
$MODEL_SPACE
  1

  0
ENDBLK
  5
21
  8
0
  0
BLOCK
 67
     1
  8
0
  2
$PAPER_SPACE
 70
     0
 10
0.0
 20
0.0
 30
0.0
  3
$PAPER_SPACE
  1

  0
ENDBLK
  5
1D
 67
     1
  8
0
  0
BLOCK
  8
0
  2
*D1
 70
     1
 10
0.0
 20
0.0
 30
0.0
  3
*D1
  1

  0
LINE
  5
1E1
  8
0
 62
     0
 10
17.561652901600361
 20
9.5105378373472966
 30
0.0
 11
17.561652901600361
 21
9.9689573697470486
 31
0.0
  0
LINE
  5
1E2
  8
0
 62
     0
 10
15.62165290160036
 20
9.5105378373472966
 30
0.0
 11
15.62165290160036
 21
9.9689573697470486
 31
0.0
  0
LINE
  5
1E3
  8
0
 62
     0
 10
17.381652901600361
 20
9.7889573697470489
 30
0.0
 11
16.921652901600361
 21
9.7889573697470489
 31
0.0
  0
LINE
  5
1E4
  8
0
 62
     0
 10
15.80165290160036
 20
9.7889573697470489
 30
0.0
 11
16.26165290160036
 21
9.7889573697470489
 31
0.0
  0
SOLID
  5
1E5
  8
0
 62
     0
 10
17.381652901600361
 20
9.8189573697470482
 30
0.0
 11
17.381652901600361
 21
9.7589573697470495
 31
0.0
 12
17.561652901600361
 22
9.7889573697470489
 32
0.0
 13
17.561652901600361
 23
9.7889573697470489
 33
0.0
  0
SOLID
  5
1E6
  8
0
 62
     0
 10
15.80165290160036
 20
9.8189573697470482
 30
0.0
 11
15.80165290160036
 21
9.7589573697470495
 31
0.0
 12
15.62165290160036
 22
9.7889573697470489
 32
0.0
 13
15.62165290160036
 23
9.7889573697470489
 33
0.0
  0
TEXT
  5
1E7
  8
0
 62
     0
 10
16.35165290160036
 20
9.698957369747049
 30
0.0
 40
0.18
  1
1.94
  0
POINT
  5
1E8
  8
DEFPOINTS
 62
     0
 10
17.561652901600361
 20
9.4480378373472966
 30
0.0
  0
POINT
  5
1E9
  8
DEFPOINTS
 62
     0
 10
15.62165290160036
 20
9.4480378373472966
 30
0.0
  0
POINT
  5
1EA
  8
DEFPOINTS
 62
     0
 10
15.62165290160036
 20
9.7889573697470489
 30
0.0
  0
ENDBLK
  5
17F
  8
0
  0
BLOCK
  8
0
  2
*D3
 70
     1
 10
0.0
 20
0.0
 30
0.0
  3
*D3
  1

  0
LINE
  5
1D7
  8
0
 62
     0
 10
17.561652901600361
 20
6.2955378373472959
 30
0.0
 11
17.561652901600361
 21
0.043034245549336
 31
0.0
  0
LINE
  5
1D8
  8
0
 62
     0
 10
6.0678154497777221
 20
5.3829412611024701
 30
0.0
 11
6.0678154497777221
 21
0.043034245549336
 31
0.0
  0
LINE
  5
1D9
  8
0
 62
     0
 10
17.381652901600361
 20
0.2230342455493357
 30
0.0
 11
12.20473417568904
 21
0.2230342455493357
 31
0.0
  0
LINE
  5
1DA
  8
0
 62
     0
 10
6.247815449777721
 20
0.2230342455493357
 30
0.0
 11
11.424734175689039
 21
0.2230342455493357
 31
0.0
  0
SOLID
  5
1DB
  8
0
 62
     0
 10
17.381652901600361
 20
0.2530342455493357
 30
0.0
 11
17.381652901600361
 21
0.1930342455493357
 31
0.0
 12
17.561652901600361
 22
0.2230342455493357
 32
0.0
 13
17.561652901600361
 23
0.2230342455493357
 33
0.0
  0
SOLID
  5
1DC
  8
0
 62
     0
 10
6.247815449777721
 20
0.2530342455493357
 30
0.0
 11
6.247815449777721
 21
0.1930342455493357
 31
0.0
 12
6.0678154497777221
 22
0.2230342455493357
 32
0.0
 13
6.0678154497777221
 23
0.2230342455493357
 33
0.0
  0
TEXT
  5
1DD
  8
0
 62
     0
 10
11.514734175689039
 20
0.1330342455493357
 30
0.0
 40
0.18
  1
11.49
  0
POINT
  5
1DE
  8
DEFPOINTS
 62
     0
 10
17.561652901600361
 20
6.3580378373472959
 30
0.0
  0
POINT
  5
1DF
  8
DEFPOINTS
 62
     0
 10
6.0678154497777221
 20
5.4454412611024701
 30
0.0
  0
POINT
  5
1E0
  8
DEFPOINTS
 62
     0
 10
6.0678154497777221
 20
0.2230342455493357
 30
0.0
  0
ENDBLK
  5
1A7
  8
0
  0
BLOCK
  8
0
  2
*D4
 70
     1
 10
0.0
 20
0.0
 30
0.0
  3
*D4
  1

  0
LINE
  5
1CD
  8
0
 62
     0
 10
9.7741133105237061
 20
0.6401599613538309
 30
0.0
 11
4.8134957024282041
 21
0.6401599613538324
 31
0.0
  0
LINE
  5
1CE
  8
0
 62
     0
 10
9.8035874007105281
 20
9.9206213189859014
 30
0.0
 11
4.813495702428205
 21
9.9206213189859014
 31
0.0
  0
LINE
  5
1CF
  8
0
 62
     0
 10
4.993495702428203
 20
0.8201599613538324
 30
0.0
 11
4.9934957024282038
 21
5.1003906401698682
 31
0.0
  0
LINE
  5
1D0
  8
0
 62
     0
 10
4.9934957024282047
 20
9.7406213189859017
 30
0.0
 11
4.9934957024282038
 21
5.4603906401698667
 31
0.0
  0
SOLID
  5
1D1
  8
0
 62
     0
 10
4.9634957024282027
 20
0.8201599613538324
 30
0.0
 11
5.0234957024282041
 21
0.8201599613538324
 31
0.0
 12
4.993495702428203
 22
0.6401599613538324
 32
0.0
 13
4.993495702428203
 23
0.6401599613538324
 33
0.0
  0
SOLID
  5
1D2
  8
0
 62
     0
 10
4.9634957024282054
 20
9.7406213189859017
 30
0.0
 11
5.023495702428205
 21
9.7406213189859017
 31
0.0
 12
4.9934957024282047
 22
9.9206213189859014
 32
0.0
 13
4.9934957024282047
 23
9.9206213189859014
 33
0.0
  0
TEXT
  5
1D3
  8
0
 62
     0
 10
4.7234957024282043
 20
5.1903906401698681
 30
0.0
 40
0.18
  1
9.28
  0
POINT
  5
1D4
  8
DEFPOINTS
 62
     0
 10
9.8366133105237061
 20
0.6401599613538309
 30
0.0
  0
POINT
  5
1D5
  8
DEFPOINTS
 62
     0
 10
9.8660874007105281
 20
9.9206213189859014
 30
0.0
  0
POINT
  5
1D6
  8
DEFPOINTS
 62
     0
 10
4.9934957024282047
 20
9.9206213189859014
 30
0.0
  0
ENDBLK
  5
1B5
  8
0
  0
ENDSEC
  0
SECTION
  2
ENTITIES
  0
LINE
  5
134
  8
0
 10
17.561652901600361
 20
9.4480378373472966
 30
0.0
 11
17.561652901600361
 21
6.3580378373472959
 31
0.0
  0
LINE
  5
135
  8
0
 10
15.62165290160036
 20
9.4480378373472966
 30
0.0
 11
15.62165290160036
 21
6.3982283409947298
 31
0.0
  0
LINE
  5
136
  8
0
 10
17.561652901600361
 20
9.4480378373472966
 30
0.0
 11
15.62165290160036
 21
9.4480378373472966
 31
0.0
  0
ARC
  5
139
  8
0
 10
11.66343638300871
 20
6.5804169094104772
 30
0.0
 40
5.9024071828262574
 50
229.2637139575094
 51
357.84081338827991
  0
ARC
  5
13A
  8
0
 10
10.701283921984849
 20
5.7421990671826917
 30
0.0
 40
4.6429619079211744
 50
135.81845393166819
 51
231.51073302805969
  0
ARC
  5
13B
  8
0
 10
9.8890839651906841
 20
6.0878605722938364
 30
0.0
 40
3.8328297357646082
 50
49.630699435374538
 51
131.05684166836841
  0
ARC
  5
13C
  8
0
 10
10.66737513726452
 20
6.892962831298421
 30
0.0
 40
2.7162667356543242
 50
316.9297145121713
 51
51.13894875738923
  0
ARC
  5
13D
  8
0
 10
11.12248714418992
 20
6.447364078482047
 30
0.0
 40
2.0795548484201252
 50
220.0940867457598
 51
317.3353800403633
  0
ARC
  5
13E
  8
0
 10
10.992843377790839
 20
6.3749425992520576
 30
0.0
 40
1.9339403515741429
 50
123.87984837320811
 51
220.9264658388912
  0
ARC
  5
13F
  8
0
 10
11.66343638300871
 20
6.5804169094104772
 30
0.0
 40
3.962407182826257
 50
229.2637139575094
 51
357.84081338827991
  0
ARC
  5
140
  8
0
 10
10.701283921984849
 20
5.7421990671826917
 30
0.0
 40
2.702961907921174
 50
137.60019070171111
 51
231.51073302805969
  0
ARC
  5
141
  8
0
 10
9.8890839651906841
 20
6.0878605722938364
 30
0.0
 40
1.892829735764608
 50
89.222697209762913
 51
128.7133775916229
  0
LINE
  5
142
  8
0
 10
9.0776550126838202
 20
3.578016971461869
 30
0.0
 11
9.0190468649197513
 21
3.6265238653830809
 31
0.0
  0
LINE
  5
18E
  8
0
 10
17.311652901600361
 20
9.4480378373472966
 30
0.0
 11
17.311652901600361
 21
6.3580378373472959
 31
0.0
  0
LINE
  5
18F
  8
0
 10
15.87165290160036
 20
9.4480378373472966
 30
0.0
 11
15.87165290160036
 21
6.3982283409947298
 31
0.0
  0
ARC
  5
190
  8
0
 10
11.66343638300871
 20
6.5804169094104772
 30
0.0
 40
5.6524071828262574
 50
229.2637139575094
 51
357.8408133882798
  0
ARC
  5
191
  8
0
 10
11.66343638300871
 20
6.5804169094104772
 30
0.0
 40
4.212407182826257
 50
229.2637139575094
 51
357.8408133882798
  0
ARC
  5
192
  8
0
 10
10.701283921984849
 20
5.7421990671826917
 30
0.0
 40
2.952961907921174
 50
137.60019070171111
 51
231.51073302805969
  0
ARC
  5
193
  8
0
 10
10.701283921984849
 20
5.7421990671826917
 30
0.0
 40
4.3929619079211744
 50
135.81845393166819
 51
231.51073302805969
  0
ARC
  5
194
  8
0
 10
9.8890839651906841
 20
6.0878605722938364
 30
0.0
 40
3.5828297357646082
 50
49.630699435374538
 51
131.05684166836841
  0
ARC
  5
195
  8
0
 10
9.8890839651906841
 20
6.0878605722938364
 30
0.0
 40
2.1428297357646078
 50
89.222697209762913
 51
128.7133775916229
  0
ARC
  5
196
  8
0
 10
10.992843377790839
 20
6.3749425992520576
 30
0.0
 40
1.6839403515741429
 50
123.87984837320811
 51
220.9264658388912
  0
ARC
  5
197
  8
0
 10
11.12248714418992
 20
6.447364078482047
 30
0.0
 40
1.8295548484201249
 50
220.0940867457598
 51
317.3353800403633
  0
ARC
  5
198
  8
0
 10
10.66737513726452
 20
6.892962831298421
 30
0.0
 40
2.4662667356543242
 50
316.9297145121713
 51
51.13894875738923
  0
ARC
  5
199
  8
0
 10
9.9147622388061958
 20
7.9805161233275799
 30
0.0
 40
0.2500000000000003
 50
303.87984837320812
 51
89.222697209762899
  0
VIEWPORT
  5
2E
 67
     1
  8
0
 10
5.2187503604438348
 20
3.968749891115924
 30
0.0
 40
17.157696883371148
 41
8.9929997457669462
 68
     1
 69
     1
1001
ACAD
1000
MVIEW
1002
{
1070
    16
1010
0.0
1020
0.0
1030
0.0
1010
0.0
1020
0.0
1030
1.0
1040
0.0
1040
8.9929997457669462
1040
5.2187503604438348
1040
3.968749891115924
1040
50.0
1040
0.0
1040
0.0
1070
     0
1070
   100
1070
     1
1070
     1
1070
     0
1070
     0
1070
     0
1070
     0
1040
0.0
1040
0.0
1040
0.0
1040
0.5
1040
0.5
1040
0.5
1040
0.5
1070
     0
1002
{
1002
}
1002
}
  0
VIEWPORT
  5
30
 67
     1
  8
0
 10
5.2387504220947489
 20
3.968750125779879
 30
0.0
 40
8.3820006753515983
 41
6.3500002012478074
 68
     2
 69
     2
1001
ACAD
1000
MVIEW
1002
{
1070
    16
1010
0.0
1020
0.0
1030
0.0
1010
0.0
1020
0.0
1030
1.0
1040
0.0
1040
9.2454283402629365
1040
6.0
1040
4.5
1040
50.0
1040
0.0
1040
0.0
1070
     0
1070
   100
1070
     1
1070
     3
1070
     0
1070
     0
1070
     0
1070
     0
1040
0.0
1040
0.0
1040
0.0
1040
0.5
1040
0.5
1040
0.5
1040
0.5
1070
     0
1002
{
1002
}
1002
}
  0
ENDSEC
  0
EOF
