  0
SECTION
  2
HEADER
  9
$ACADVER
  1
AC1009
  9
$INSBASE
 10
0.0
 20
0.0
 30
0.0
  9
$EXTMIN
 10
6.4882067396145677
 20
-0.1701659333893599
 30
0.0
  9
$EXTMAX
 10
14.47166228826646
 20
6.7674314746340354
 30
0.0
  9
$LIMMIN
 10
0.0
 20
0.0
  9
$LIMMAX
 10
12.0
 20
9.0
  9
$ORTHOMODE
 70
     1
  9
$REGENMODE
 70
     0
  9
$FILLMODE
 70
     1
  9
$QTEXTMODE
 70
     0
  9
$MIRRTEXT
 70
     0
  9
$DRAGMODE
 70
     2
  9
$LTSCALE
 40
1.0
  9
$OSMODE
 70
    55
  9
$ATTMODE
 70
     1
  9
$TEXTSIZE
 40
0.2
  9
$TRACEWID
 40
0.05
  9
$TEXTSTYLE
  7
STANDARD
  9
$CLAYER
  8
0
  9
$CELTYPE
  6
BYLAYER
  9
$CECOLOR
 62
   256
  9
$DIMSCALE
 40
1.0
  9
$DIMASZ
 40
0.125
  9
$DIMEXO
 40
0.0625
  9
$DIMDLI
 40
0.38
  9
$DIMRND
 40
0.0
  9
$DIMDLE
 40
0.0
  9
$DIMEXE
 40
0.18
  9
$DIMTP
 40
0.0
  9
$DIMTM
 40
0.0
  9
$DIMTXT
 40
0.09375
  9
$DIMCEN
 40
-0.125
  9
$DIMTSZ
 40
0.0
  9
$DIMTOL
 70
     0
  9
$DIMLIM
 70
     0
  9
$DIMTIH
 70
     0
  9
$DIMTOH
 70
     0
  9
$DIMSE1
 70
     0
  9
$DIMSE2
 70
     0
  9
$DIMTAD
 70
     0
  9
$DIMZIN
 70
     3
  9
$DIMBLK
  1

  9
$DIMASO
 70
     0
  9
$DIMSHO
 70
     1
  9
$DIMPOST
  1

  9
$DIMAPOST
  1

  9
$DIMALT
 70
     0
  9
$DIMALTD
 70
     2
  9
$DIMALTF
 40
25.399999999999999
  9
$DIMLFAC
 40
1.0
  9
$DIMTOFL
 70
     1
  9
$DIMTVP
 40
0.0
  9
$DIMTIX
 70
     0
  9
$DIMSOXD
 70
     0
  9
$DIMSAH
 70
     0
  9
$DIMBLK1
  1

  9
$DIMBLK2
  1

  9
$DIMSTYLE
  2
STANDARD
  9
$DIMCLRD
 70
     0
  9
$DIMCLRE
 70
     0
  9
$DIMCLRT
 70
     0
  9
$DIMTFAC
 40
1.0
  9
$DIMGAP
 40
0.09
  9
$LUNITS
 70
     4
  9
$LUPREC
 70
     4
  9
$SKETCHINC
 40
0.1
  9
$FILLETRAD
 40
0.025
  9
$AUNITS
 70
     0
  9
$AUPREC
 70
     4
  9
$MENU
  1
.
  9
$ELEVATION
 40
0.0
  9
$PELEVATION
 40
0.0
  9
$THICKNESS
 40
0.0
  9
$LIMCHECK
 70
     0
  9
$BLIPMODE
 70
     0
  9
$CHAMFERA
 40
0.125
  9
$CHAMFERB
 40
0.5
  9
$SKPOLY
 70
     0
  9
$TDCREATE
 40
2451086.9109346061
  9
$TDUPDATE
 40
2453913.5608202079
  9
$TDINDWG
 40
0.053163125
  9
$TDUSRTIMER
 40
0.053163125
  9
$USRTIMER
 70
     1
  9
$ANGBASE
 50
0.0
  9
$ANGDIR
 70
     0
  9
$PDMODE
 70
    34
  9
$PDSIZE
 40
3.0
  9
$PLINEWID
 40
0.0
  9
$COORDS
 70
     1
  9
$SPLFRAME
 70
     0
  9
$SPLINETYPE
 70
     6
  9
$SPLINESEGS
 70
     8
  9
$ATTDIA
 70
     0
  9
$ATTREQ
 70
     1
  9
$HANDLING
 70
     1
  9
$HANDSEED
  5
2ED
  9
$SURFTAB1
 70
     6
  9
$SURFTAB2
 70
     6
  9
$SURFTYPE
 70
     6
  9
$SURFU
 70
     6
  9
$SURFV
 70
     6
  9
$UCSNAME
  2

  9
$UCSORG
 10
0.0
 20
0.0
 30
0.0
  9
$UCSXDIR
 10
1.0
 20
0.0
 30
0.0
  9
$UCSYDIR
 10
0.0
 20
1.0
 30
0.0
  9
$PUCSNAME
  2

  9
$PUCSORG
 10
0.0
 20
0.0
 30
0.0
  9
$PUCSXDIR
 10
1.0
 20
0.0
 30
0.0
  9
$PUCSYDIR
 10
0.0
 20
1.0
 30
0.0
  9
$USERI1
 70
     0
  9
$USERI2
 70
     0
  9
$USERI3
 70
     0
  9
$USERI4
 70
     0
  9
$USERI5
 70
     0
  9
$USERR1
 40
0.0
  9
$USERR2
 40
0.0
  9
$USERR3
 40
0.0
  9
$USERR4
 40
0.0
  9
$USERR5
 40
0.0
  9
$WORLDVIEW
 70
     1
  9
$SHADEDGE
 70
     3
  9
$SHADEDIF
 70
    70
  9
$TILEMODE
 70
     1
  9
$MAXACTVP
 70
    48
  9
$PLIMCHECK
 70
     0
  9
$PEXTMIN
 10
6.8556992632481304
 20
-1.0317734420560929
 30
0.0
  9
$PEXTMAX
 10
15.24222232624042
 20
7.4176901705215768
 30
0.0
  9
$PLIMMIN
 10
-0.1579164520023376
 20
-0.2812499887361301
  9
$PLIMMAX
 10
10.84208330770177
 20
8.2187497709679782
  9
$UNITMODE
 70
     0
  9
$VISRETAIN
 70
     1
  9
$PLINEGEN
 70
     0
  9
$PSLTSCALE
 70
     1
  0
ENDSEC
  0
SECTION
  2
TABLES
  0
TABLE
  2
VPORT
 70
     2
  0
VPORT
  2
*ACTIVE
 70
     0
 10
0.0
 20
0.0
 11
1.0
 21
1.0
 12
1.943875231315322
 22
0.5986896720478505
 13
0.0
 23
0.0
 14
0.5
 24
0.5
 15
0.5
 25
0.5
 16
0.0
 26
0.0
 36
1.0
 17
7.4636111631202118
 27
3.5984346309777191
 37
0.0
 40
9.9648449040030265
 41
2.1654275092936799
 42
50.0
 43
0.0
 44
0.0
 50
0.0
 51
0.0
 71
     0
 72
   100
 73
     1
 74
     1
 75
     0
 76
     0
 77
     0
 78
     0
  0
ENDTAB
  0
TABLE
  2
LTYPE
 70
    18
  0
LTYPE
  2
CONTINUOUS
 70
     0
  3
Solid line
 72
    65
 73
     0
 40
0.0
  0
LTYPE
  2
HIDDEN
 70
     0
  3
__ __ __ __ __ __ __ __ __ __ __ __ __ __ __ __
 72
    65
 73
     2
 40
0.375
 49
0.25
 49
-0.125
  0
LTYPE
  2
PHANTOM2
 70
     0
  3
Phantom (.5x) ___ _ _ ___ _ _ ___ _ _ ___ _ _
 72
    65
 73
     6
 40
1.25
 49
0.625
 49
-0.125
 49
0.125
 49
-0.125
 49
0.125
 49
-0.125
  0
LTYPE
  2
CENTER
 70
     0
  3
Center ____ _ ____ _ ____ _ ____ _ ____ _ ____
 72
    65
 73
     4
 40
2.0
 49
1.25
 49
-0.25
 49
0.25
 49
-0.25
  0
LTYPE
  2
ASULTYPE
 70
     0
  3
Solid line
 72
    65
 73
     2
 40
3.0
 49
2.5
 49
0.5
  0
LTYPE
  2
ASVLTYPE
 70
     0
  3
__ __ __ __ __ __ __ __ __ __ __ __ __ __ __ __ __ __ __ __ __
 72
    65
 73
     2
 40
0.75
 49
0.5
 49
-0.25
  0
LTYPE
  2
AM_ISO02W050
 70
     0
  3
__ __ __ __ __ __ __ __ __ __ __ __ __ __ __
 72
    65
 73
     2
 40
7.5
 49
6.0
 49
-1.5
  0
LTYPE
  2
AM_ISO08W050
 70
     0
  3
____ . ____ . ____ . ____ . ____ . ____ . ____
 72
    65
 73
     4
 40
18.0
 49
12.0
 49
-1.5
 49
3.0
 49
-1.5
  0
LTYPE
  2
AM_ISO09W050
 70
     0
  3
_____ . . _____ . . _____ . . ____ .. ____
 72
    65
 73
     6
 40
22.5
 49
12.0
 49
-1.5
 49
3.0
 49
-1.5
 49
3.0
 49
-1.5
  0
LTYPE
  2
AMCONSTR
 70
     0
  3
_______________________
 72
    65
 73
     2
 40
9999.0
 49
9999.0
 49
0.0
  0
LTYPE
  2
AM_ISO08W050X2
 70
     0
  3
__ . __ . __ . __ . __ . __
 72
    65
 73
     4
 40
9.0
 49
6.0
 49
-0.75
 49
1.5
 49
-0.75
  0
LTYPE
  2
AM_ISO02W050X2
 70
     0
  3
 _ _ _ _ _ _ _ _ _ _ _ _
 72
    65
 73
     2
 40
3.75
 49
3.0
 49
-0.75
  0
LTYPE
  2
AMZIGZAG
 70
     0
  3
/\/-/\/-/\/-/\/-/\/-/\/
 72
    65
 73
     2
 40
11.0001
 49
0.0001
 49
-11.0
  0
LTYPE
  2
CENTER2
 70
     0
  3
Center (.5x) ___ _ ___ _ ___ _ ___ _ ___ _ ___
 72
    65
 73
     4
 40
1.125
 49
0.75
 49
-0.125
 49
0.125
 49
-0.125
  0
LTYPE
  2
HIDDEN2
 70
     0
  3
Hidden (.5x) _ _ _ _ _ _ _ _ _ _ _ _ _ _ _ _ _
 72
    65
 73
     2
 40
0.1875
 49
0.125
 49
-0.0625
  0
LTYPE
  2
AMZIGZAG2
 70
     0
  3
/\/-/\/-/\/-/\/-/\/-/\/
 72
    65
 73
     2
 40
0.4401
 49
0.0001
 49
-0.4400000000000001
  0
LTYPE
  2
ACANSTGB
 70
     0
  3
__ . . __ . .
 72
    65
 73
     6
 40
0.35433070866
 49
0.15748031496
 49
-0.03937007874
 49
0.03937007874
 49
-0.03937007874
 49
0.03937007874
 49
-0.03937007874
  0
LTYPE
  2
ACANSTGL
 70
     0
  3
_ _ _ _ _
 72
    65
 73
     2
 40
0.11811023622
 49
0.07874015748
 49
-0.03937007874
  0
ENDTAB
  0
TABLE
  2
LAYER
 70
     4
  0
LAYER
  2
0
 70
     0
 62
     7
  6
CONTINUOUS
  0
LAYER
  2
AM_VIS
 70
     0
 62
     7
  6
CONTINUOUS
  0
LAYER
  2
AM_HID
 70
     0
 62
     7
  6
HIDDEN
  0
LAYER
  2
KEE10
 70
     0
 62
     7
  6
CONTINUOUS
  0
ENDTAB
  0
TABLE
  2
STYLE
 70
     5
  0
STYLE
  2
STANDARD
 70
     0
 40
0.0
 41
1.0
 50
0.0
 71
     0
 42
0.2
  3
txt
  4

  0
STYLE
  2

 70
     1
 40
0.0
 41
1.0
 50
0.0
 71
     0
 42
0.2
  3
ltypeshp.shx
  4

  0
STYLE
  2
ACANSTS
 70
     0
 40
1.0
 41
1.0
 50
0.0
 71
     0
 42
0.2
  3
romans.shx
  4

  0
STYLE
  2
ACANSGDT
 70
     0
 40
0.0
 41
1.0
 50
0.0
 71
     0
 42
0.2
  3
amgdtans.shx
  4

  0
STYLE
  2
ACANSTSB
 70
     0
 40
1.0
 41
1.0
 50
0.0
 71
     0
 42
0.2
  3
romans.shx
  4

  0
ENDTAB
  0
TABLE
  2
VIEW
 70
     0
  0
ENDTAB
  0
TABLE
  2
UCS
 70
     0
  0
ENDTAB
  0
TABLE
  2
APPID
 70
    13
  0
APPID
  2
ACAD
 70
     0
  0
APPID
  2
GENIUS_GENDIM_13
 70
     0
  0
APPID
  2
GENIUS_GENDTOL_13
 70
     0
  0
APPID
  2
GENIUS_GE3DTOL_13
 70
     0
  0
APPID
  2
MCAD_NO_VIS
 70
     0
  0
APPID
  2
ACAD_TEMP_GRAPHIC
 70
     0
  0
APPID
  2
AD_DRAW
 70
     0
  0
APPID
  2
ACATTRIBSERVICES
 70
     0
  0
APPID
  2
ASURF_PCURVE_APPNAME
 70
     0
  0
APPID
  2
AMG_3D2D_5_0
 70
     0
  0
APPID
  2
DESIGNERASSEMBLIES
 70
     0
  0
APPID
  2
ACADM_DIM_EDIT
 70
     0
  0
APPID
  2
AMDT_DM_ADJ
 70
     0
  0
ENDTAB
  0
TABLE
  2
DIMSTYLE
 70
     7
  0
DIMSTYLE
  2
STANDARD
 70
     0
  3

  4

  5

  6

  7

 40
1.0
 41
0.18
 42
0.0625
 43
0.38
 44
0.18
 45
0.0
 46
0.0
 47
0.0
 48
0.0
140
0.18
141
0.09
142
0.0
143
25.399999999999999
144
1.0
145
0.0
146
1.0
147
0.09
 71
     0
 72
     0
 73
     1
 74
     1
 75
     0
 76
     0
 77
     0
 78
     0
170
     0
171
     2
172
     0
173
     0
174
     0
175
     0
176
     0
177
     0
178
     0
  0
DIMSTYLE
  2
AM_ANSI
 70
     0
  3

  4
mm
  5

  6

  7

 40
1.0
 41
0.1
 42
0.05
 43
0.5
 44
0.1
 45
0.0
 46
0.0
 47
0.1
 48
0.1
140
0.12
141
0.0
142
0.0
143
25.399999999999999
144
1.0
145
0.0
146
0.71
147
0.06
 71
     0
 72
     0
 73
     1
 74
     1
 75
     0
 76
     0
 77
     0
 78
     7
170
     0
171
     2
172
     0
173
     0
174
     0
175
     0
176
   256
177
   256
178
     2
  0
DIMSTYLE
  2
AM_ANSI$3
 70
     0
  3

  4
mm
  5

  6

  7

 40
1.0
 41
0.1
 42
0.05
 43
0.5
 44
0.1
 45
0.0
 46
0.0
 47
0.1
 48
0.1
140
0.12
141
0.0
142
0.0
143
25.399999999999999
144
1.0
145
0.0
146
0.71
147
0.06
 71
     0
 72
     0
 73
     1
 74
     1
 75
     0
 76
     0
 77
     0
 78
     7
170
     0
171
     2
172
     0
173
     0
174
     0
175
     0
176
   256
177
   256
178
     2
  0
DIMSTYLE
  2
AM_ANSI$4
 70
     0
  3

  4
mm
  5

  6

  7

 40
1.0
 41
0.1
 42
0.05
 43
0.5
 44
0.1
 45
0.0
 46
0.0
 47
0.1
 48
0.1
140
0.12
141
0.0
142
0.0
143
25.399999999999999
144
1.0
145
0.0
146
0.71
147
0.06
 71
     0
 72
     0
 73
     1
 74
     1
 75
     0
 76
     0
 77
     0
 78
     7
170
     0
171
     2
172
     0
173
     0
174
     0
175
     0
176
   256
177
   256
178
     2
  0
DIMSTYLE
  2
AM_ANSI$7
 70
     0
  3

  4
mm
  5

  6

  7

 40
1.0
 41
0.1
 42
0.05
 43
0.5
 44
0.1
 45
0.0
 46
0.0
 47
0.1
 48
0.1
140
0.24
141
0.0
142
0.0
143
25.399999999999999
144
1.0
145
0.0
146
0.71
147
0.06
 71
     0
 72
     0
 73
     1
 74
     1
 75
     0
 76
     0
 77
     0
 78
     7
170
     0
171
     2
172
     0
173
     0
174
     0
175
     0
176
   256
177
   256
178
     2
  0
DIMSTYLE
  2
AM_ANSI$SF
 70
     0
  3

  4
mm
  5

  6

  7

 40
1.0
 41
0.1
 42
0.05
 43
0.5
 44
0.1
 45
0.0
 46
0.0
 47
0.1
 48
0.1
140
0.12
141
0.0
142
0.0
143
25.399999999999999
144
1.0
145
0.0
146
0.71
147
0.06
 71
     0
 72
     0
 73
     1
 74
     1
 75
     1
 76
     1
 77
     0
 78
     7
170
     0
171
     2
172
     0
173
     0
174
     0
175
     0
176
   256
177
   256
178
     2
  0
DIMSTYLE
  2
AM_ANSI$SH
 70
     0
  3

  4
mm
  5

  6
GENAXEH
  7

 40
1.0
 41
0.1
 42
0.05
 43
0.5
 44
0.1
 45
0.0
 46
0.0
 47
0.1
 48
0.1
140
0.12
141
0.0
142
0.0
143
25.399999999999999
144
1.0
145
0.0
146
0.71
147
0.06
 71
     0
 72
     0
 73
     1
 74
     1
 75
     1
 76
     1
 77
     0
 78
     7
170
     0
171
     2
172
     0
173
     1
174
     0
175
     0
176
   256
177
   256
178
     2
  0
ENDTAB
  0
ENDSEC
  0
SECTION
  2
BLOCKS
  0
BLOCK
  8
0
  2
$MODEL_SPACE
 70
     0
 10
0.0
 20
0.0
 30
0.0
  3
$MODEL_SPACE
  1

  0
ENDBLK
  5
A
  8
0
  0
BLOCK
 67
     1
  8
0
  2
$PAPER_SPACE
 70
     0
 10
0.0
 20
0.0
 30
0.0
  3
$PAPER_SPACE
  1

  0
ENDBLK
  5
F
 67
     1
  8
0
  0
BLOCK
  8
0
  2
*U0
 70
     1
 10
0.0
 20
0.0
 30
0.0
  3
*U0
  1

  0
ENDBLK
  5
12B
  8
0
  0
BLOCK
  8
0
  2
GENAXEH
 70
     0
 10
0.0
 20
0.0
 30
0.0
  3
GENAXEH
  1

  0
LINE
  5
169
  8
0
 10
-1.0
 20
0.0
 30
0.0
 11
1.0
 21
0.0
 31
0.0
  0
ENDBLK
  5
16B
  8
0
  0
BLOCK
  8
0
  2
_DOT
 70
     0
 10
0.0
 20
0.0
 30
0.0
  3
_DOT
  1

  0
POLYLINE
  5
172
  8
0
  6
BYBLOCK
 62
     0
 66
     1
 10
0.0
 20
0.0
 30
0.0
 70
     1
 40
0.5
 41
0.5
  0
VERTEX
  5
173
  8
0
  6
BYBLOCK
 62
     0
 10
-0.25
 20
0.0
 30
0.0
 42
1.0
  0
VERTEX
  5
174
  8
0
  6
BYBLOCK
 62
     0
 10
0.25
 20
0.0
 30
0.0
 42
1.0
  0
SEQEND
  5
175
  8
0
  6
BYBLOCK
 62
     0
  0
LINE
  5
176
  8
0
  6
BYBLOCK
 62
     0
 10
-0.5
 20
0.0
 30
0.0
 11
-1.0
 21
0.0
 31
0.0
  0
ENDBLK
  5
178
  8
0
  0
BLOCK
  8
0
  2
2D
 70
     0
 10
0.0
 20
0.0
 30
0.0
  3
2D
  1

  0
INSERT
  5
17C
  8
0
  2
*U4
 10
0.0
 20
0.0
 30
0.0
  0
INSERT
  5
17D
  8
0
  2
*U5
 10
0.0
 20
0.0
 30
0.0
  0
INSERT
  5
17E
  8
0
  2
*U6
 10
0.0
 20
0.0
 30
0.0
  0
ENDBLK
  5
180
  8
0
  0
BLOCK
  8
0
  2
*U4
 70
     1
 10
0.0
 20
0.0
 30
0.0
  3
*U4
  1

  0
TEXT
  5
1D2
  8
KEE10
 10
-0.167740653382606
 20
0.7944046258072062
 30
0.0
 40
0.140625
  1
KEE
  0
ENDBLK
  5
1D4
  8
0
  0
BLOCK
  8
0
  2
*U5
 70
     1
 10
0.0
 20
0.0
 30
0.0
  3
*U5
  1

  0
TEXT
  5
1D6
  8
KEE10
 10
-0.308365653382606
 20
0.4858688129746218
 30
0.0
 40
0.140625
  1
KLAMP
  0
ENDBLK
  5
1D8
  8
0
  0
BLOCK
  8
0
  2
*U6
 70
     1
 10
0.0
 20
0.0
 30
0.0
  3
*U6
  1

  0
TEXT
  5
1DA
  8
KEE10
 10
-0.202896903382606
 20
0.2018753139112972
 30
0.0
 40
0.140625
  1
10-8
  0
ENDBLK
  5
1DC
  8
0
  0
BLOCK
  8
0
  2
*U7
 70
     1
 10
0.0
 20
0.0
 30
0.0
  3
*U7
  1

  0
TEXT
  5
1DE
  8
KEE10
 10
8.3112696706001472
 20
2.0936675093506212
 30
0.0
 40
0.1265625
  1
KEE
  0
ENDBLK
  5
1E0
  8
0
  0
BLOCK
  8
0
  2
*U8
 70
     1
 10
0.0
 20
0.0
 30
0.0
  3
*U8
  1

  0
TEXT
  5
1E2
  8
KEE10
 10
8.1847071706001486
 20
1.815985277801295
 30
0.0
 40
0.1265625
  1
KLAMP
  0
ENDBLK
  5
1E4
  8
0
  0
BLOCK
  8
0
  2
*U9
 70
     1
 10
0.0
 20
0.0
 30
0.0
  3
*U9
  1

  0
TEXT
  5
1E6
  8
0
 10
6.6923942396145693
 20
1.5735840666106411
 30
0.0
 40
0.084375
  1
4"
 50
90.0
  0
ENDBLK
  5
1E8
  8
0
  0
ENDSEC
  0
SECTION
  2
ENTITIES
  0
POINT
  5
25
  8
0
 10
0.0
 20
0.0
 30
0.0
  0
POINT
  5
26
  8
0
 10
0.0
 20
0.0
 30
0.0
  0
LINE
  5
27
  8
AM_VIS
 10
7.5010773069955468
 20
3.4298340666106402
 30
0.0
 11
9.5621238332402712
 21
3.4298340666106402
 31
0.0
  0
LINE
  5
29
  8
AM_VIS
 10
9.5621238332402712
 20
3.4298340659590361
 30
0.0
 11
9.5723210570836752
 21
3.4298340659590361
 31
0.0
  0
ARC
  5
2A
  8
AM_VIS
 10
9.7960773069948512
 20
3.453459066609752
 30
0.0
 40
0.2249999999989428
 50
186.0271665609543
 51
255.52248781418541
  0
LINE
  5
2B
  8
AM_VIS
 10
9.7398273069958154
 20
3.2356037533865361
 30
0.0
 11
9.7398273069958154
 21
3.1466874511990852
 31
0.0
  0
ARC
  5
2C
  8
AM_VIS
 10
9.7960773069955476
 20
2.2722090666106398
 30
0.0
 40
0.2250000000000006
 50
104.4775121859299
 51
179.9999999999998
  0
LINE
  5
2D
  8
AM_VIS
 10
9.7398273069955472
 20
2.5789806820221961
 30
0.0
 11
9.7398273069955472
 21
3.1466874511990852
 31
0.0
  0
LINE
  5
2E
  8
AM_VIS
 10
9.7398273069958154
 20
2.5789806820221961
 30
0.0
 11
9.7398273069958154
 21
2.4900643798347462
 31
0.0
  0
ARC
  5
2F
  8
AM_HID
 10
10.3281555773444
 20
2.8690727067358979
 30
0.0
 40
0.9371947784786261
 50
180.381413430967
 51
197.86249115412619
  0
ARC
  5
32
  8
AM_HID
 10
10.32815557734439
 20
2.8565954264853861
 30
0.0
 40
0.9371947784786187
 50
162.13750884587381
 51
179.618586569033
  0
LINE
  5
33
  8
AM_VIS
 10
7.5010773069955468
 20
-0.170165933389359
 30
0.0
 11
9.5621238332402712
 21
-0.1701659333893599
 31
0.0
  0
LINE
  5
34
  8
AM_VIS
 10
9.5621238332402712
 20
-0.1701659327377545
 30
0.0
 11
9.5723210570836752
 21
-0.1701659327377545
 31
0.0
  0
ARC
  5
35
  8
AM_VIS
 10
9.7960773069948512
 20
-0.1937909333884718
 30
0.0
 40
0.2249999999989432
 50
104.4775121858146
 51
173.9728334390457
  0
LINE
  5
36
  8
AM_VIS
 10
9.7398273069958154
 20
0.1129806820221959
 30
0.0
 11
9.7398273069958154
 21
0.0240643798347451
 31
0.0
  0
ARC
  5
37
  8
AM_HID
 10
10.3281555773444
 20
0.3905954264853837
 30
0.0
 40
0.9371947784786264
 50
162.1375088458739
 51
179.618586569033
  0
ARC
  5
38
  8
AM_HID
 10
10.32815557734439
 20
0.4030727067358955
 30
0.0
 40
0.9371947784786181
 50
180.38141343096689
 51
197.86249115412619
  0
ARC
  5
39
  8
AM_VIS
 10
9.7960773069955476
 20
0.9874590666106403
 30
0.0
 40
0.225000000000001
 50
180.0000000000002
 51
255.52248781406999
  0
LINE
  5
3A
  8
AM_VIS
 10
9.7398273069958154
 20
0.769603753386535
 30
0.0
 11
9.7398273069958154
 21
0.6806874511990843
 31
0.0
  0
LINE
  5
3B
  8
AM_VIS
 10
9.7398273069955472
 20
0.6806874511990846
 30
0.0
 11
9.7398273069955472
 21
0.1129806820221959
 31
0.0
  0
LINE
  5
3C
  8
AM_HID
 10
9.4360773069955481
 20
3.1440840666106409
 30
0.0
 11
9.7398273069955472
 21
3.1440840666106409
 31
0.0
  0
LINE
  5
3D
  8
AM_HID
 10
9.4360773069955481
 20
2.58158406661064
 30
0.0
 11
9.7398273069955472
 21
2.58158406661064
 31
0.0
  0
LINE
  5
3E
  8
AM_VIS
 10
9.5710773069955462
 20
2.2722090666106411
 30
0.0
 11
9.5710773069955462
 21
0.9874590666106397
 31
0.0
  0
LINE
  5
3F
  8
AM_VIS
 10
7.5010773069955468
 20
3.4298340666106402
 30
0.0
 11
7.5010773069955468
 21
-0.170165933389359
 31
0.0
  0
LINE
  5
40
  8
AM_HID
 10
9.4360773069955481
 20
3.4298340666106402
 30
0.0
 11
9.4360773069955481
 21
3.14408406661064
 31
0.0
  0
LINE
  5
41
  8
AM_HID
 10
9.4360773069955481
 20
2.58158406661064
 30
0.0
 11
9.4360773069955481
 21
0.6780840666106394
 31
0.0
  0
LINE
  5
42
  8
AM_HID
 10
9.4360773069955481
 20
0.1155840666106402
 30
0.0
 11
9.4360773069955481
 21
-0.1701659333893599
 31
0.0
  0
LINE
  5
43
  8
AM_HID
 10
7.6360773069955474
 20
3.4298340666106402
 30
0.0
 11
7.6360773069955474
 21
-0.170165933389359
 31
0.0
  0
LINE
  5
44
  8
AM_HID
 10
9.7398273069955472
 20
0.1155840666106402
 30
0.0
 11
9.4360773069955481
 21
0.1155840666106402
 31
0.0
  0
LINE
  5
45
  8
AM_HID
 10
9.7398273069955472
 20
0.6780840666106398
 30
0.0
 11
9.4360773069955481
 21
0.6780840666106398
 31
0.0
  0
ARC
  5
46
  8
AM_VIS
 10
8.5360773069955478
 20
5.7324314746340352
 30
0.0
 40
1.034999999999999
 50
7.5418313198843281
 51
352.4581686801157
  0
POLYLINE
  8
AM_VIS
  5
1E9
  66
     1
 10
0.000000
 20
0.000000
 30
0.000000
  70
     8
  0
VERTEX
  8
AM_VIS
  5
1EA
 10
9.57232
 20
5.73243
 30
0.000000
  70
    32
  0
VERTEX
  8
AM_VIS
  5
1EB
 10
9.57232
 20
5.73129
 30
0.000000
  70
    32
  0
VERTEX
  8
AM_VIS
  5
1EC
 10
9.57232
 20
5.73014
 30
0.000000
  70
    32
  0
VERTEX
  8
AM_VIS
  5
1ED
 10
9.57231
 20
5.72900
 30
0.000000
  70
    32
  0
VERTEX
  8
AM_VIS
  5
1EE
 10
9.57231
 20
5.72786
 30
0.000000
  70
    32
  0
VERTEX
  8
AM_VIS
  5
1EF
 10
9.57230
 20
5.72672
 30
0.000000
  70
    32
  0
VERTEX
  8
AM_VIS
  5
1F0
 10
9.57229
 20
5.72558
 30
0.000000
  70
    32
  0
VERTEX
  8
AM_VIS
  5
1F1
 10
9.57228
 20
5.72445
 30
0.000000
  70
    32
  0
VERTEX
  8
AM_VIS
  5
1F2
 10
9.57227
 20
5.72332
 30
0.000000
  70
    32
  0
VERTEX
  8
AM_VIS
  5
1F3
 10
9.57226
 20
5.72218
 30
0.000000
  70
    32
  0
VERTEX
  8
AM_VIS
  5
1F4
 10
9.57224
 20
5.72106
 30
0.000000
  70
    32
  0
VERTEX
  8
AM_VIS
  5
1F5
 10
9.57222
 20
5.71993
 30
0.000000
  70
    32
  0
VERTEX
  8
AM_VIS
  5
1F6
 10
9.57221
 20
5.71880
 30
0.000000
  70
    32
  0
VERTEX
  8
AM_VIS
  5
1F7
 10
9.57219
 20
5.71768
 30
0.000000
  70
    32
  0
VERTEX
  8
AM_VIS
  5
1F8
 10
9.57216
 20
5.71655
 30
0.000000
  70
    32
  0
VERTEX
  8
AM_VIS
  5
1F9
 10
9.57214
 20
5.71543
 30
0.000000
  70
    32
  0
VERTEX
  8
AM_VIS
  5
1FA
 10
9.57212
 20
5.71431
 30
0.000000
  70
    32
  0
VERTEX
  8
AM_VIS
  5
1FB
 10
9.57209
 20
5.71320
 30
0.000000
  70
    32
  0
VERTEX
  8
AM_VIS
  5
1FC
 10
9.57206
 20
5.71208
 30
0.000000
  70
    32
  0
VERTEX
  8
AM_VIS
  5
1FD
 10
9.57204
 20
5.71097
 30
0.000000
  70
    32
  0
VERTEX
  8
AM_VIS
  5
1FE
 10
9.57201
 20
5.70985
 30
0.000000
  70
    32
  0
VERTEX
  8
AM_VIS
  5
1FF
 10
9.57197
 20
5.70874
 30
0.000000
  70
    32
  0
VERTEX
  8
AM_VIS
  5
200
 10
9.57194
 20
5.70763
 30
0.000000
  70
    32
  0
VERTEX
  8
AM_VIS
  5
201
 10
9.57191
 20
5.70652
 30
0.000000
  70
    32
  0
VERTEX
  8
AM_VIS
  5
202
 10
9.57187
 20
5.70542
 30
0.000000
  70
    32
  0
VERTEX
  8
AM_VIS
  5
203
 10
9.57183
 20
5.70431
 30
0.000000
  70
    32
  0
VERTEX
  8
AM_VIS
  5
204
 10
9.57179
 20
5.70321
 30
0.000000
  70
    32
  0
VERTEX
  8
AM_VIS
  5
205
 10
9.57175
 20
5.70211
 30
0.000000
  70
    32
  0
VERTEX
  8
AM_VIS
  5
206
 10
9.57171
 20
5.70101
 30
0.000000
  70
    32
  0
VERTEX
  8
AM_VIS
  5
207
 10
9.57167
 20
5.69991
 30
0.000000
  70
    32
  0
VERTEX
  8
AM_VIS
  5
208
 10
9.57163
 20
5.69881
 30
0.000000
  70
    32
  0
VERTEX
  8
AM_VIS
  5
209
 10
9.57158
 20
5.69771
 30
0.000000
  70
    32
  0
VERTEX
  8
AM_VIS
  5
20A
 10
9.57153
 20
5.69662
 30
0.000000
  70
    32
  0
VERTEX
  8
AM_VIS
  5
20B
 10
9.57148
 20
5.69552
 30
0.000000
  70
    32
  0
VERTEX
  8
AM_VIS
  5
20C
 10
9.57143
 20
5.69443
 30
0.000000
  70
    32
  0
VERTEX
  8
AM_VIS
  5
20D
 10
9.57138
 20
5.69334
 30
0.000000
  70
    32
  0
VERTEX
  8
AM_VIS
  5
20E
 10
9.57133
 20
5.69225
 30
0.000000
  70
    32
  0
VERTEX
  8
AM_VIS
  5
20F
 10
9.57128
 20
5.69116
 30
0.000000
  70
    32
  0
VERTEX
  8
AM_VIS
  5
210
 10
9.57122
 20
5.69008
 30
0.000000
  70
    32
  0
VERTEX
  8
AM_VIS
  5
211
 10
9.57117
 20
5.68899
 30
0.000000
  70
    32
  0
VERTEX
  8
AM_VIS
  5
212
 10
9.57111
 20
5.68791
 30
0.000000
  70
    32
  0
VERTEX
  8
AM_VIS
  5
213
 10
9.57105
 20
5.68682
 30
0.000000
  70
    32
  0
VERTEX
  8
AM_VIS
  5
214
 10
9.57099
 20
5.68574
 30
0.000000
  70
    32
  0
VERTEX
  8
AM_VIS
  5
215
 10
9.57093
 20
5.68466
 30
0.000000
  70
    32
  0
VERTEX
  8
AM_VIS
  5
216
 10
9.57086
 20
5.68358
 30
0.000000
  70
    32
  0
VERTEX
  8
AM_VIS
  5
217
 10
9.57080
 20
5.68250
 30
0.000000
  70
    32
  0
VERTEX
  8
AM_VIS
  5
218
 10
9.57073
 20
5.68143
 30
0.000000
  70
    32
  0
VERTEX
  8
AM_VIS
  5
219
 10
9.57067
 20
5.68035
 30
0.000000
  70
    32
  0
VERTEX
  8
AM_VIS
  5
21A
 10
9.57060
 20
5.67928
 30
0.000000
  70
    32
  0
VERTEX
  8
AM_VIS
  5
21B
 10
9.57053
 20
5.67820
 30
0.000000
  70
    32
  0
VERTEX
  8
AM_VIS
  5
21C
 10
9.57046
 20
5.67713
 30
0.000000
  70
    32
  0
VERTEX
  8
AM_VIS
  5
21D
 10
9.57039
 20
5.67606
 30
0.000000
  70
    32
  0
VERTEX
  8
AM_VIS
  5
21E
 10
9.57032
 20
5.67499
 30
0.000000
  70
    32
  0
VERTEX
  8
AM_VIS
  5
21F
 10
9.57024
 20
5.67392
 30
0.000000
  70
    32
  0
VERTEX
  8
AM_VIS
  5
220
 10
9.57017
 20
5.67285
 30
0.000000
  70
    32
  0
VERTEX
  8
AM_VIS
  5
221
 10
9.57009
 20
5.67178
 30
0.000000
  70
    32
  0
VERTEX
  8
AM_VIS
  5
222
 10
9.57002
 20
5.67072
 30
0.000000
  70
    32
  0
VERTEX
  8
AM_VIS
  5
223
 10
9.56994
 20
5.66965
 30
0.000000
  70
    32
  0
VERTEX
  8
AM_VIS
  5
224
 10
9.56986
 20
5.66859
 30
0.000000
  70
    32
  0
VERTEX
  8
AM_VIS
  5
225
 10
9.56978
 20
5.66752
 30
0.000000
  70
    32
  0
VERTEX
  8
AM_VIS
  5
226
 10
9.56969
 20
5.66646
 30
0.000000
  70
    32
  0
VERTEX
  8
AM_VIS
  5
227
 10
9.56961
 20
5.66540
 30
0.000000
  70
    32
  0
VERTEX
  8
AM_VIS
  5
228
 10
9.56953
 20
5.66434
 30
0.000000
  70
    32
  0
VERTEX
  8
AM_VIS
  5
229
 10
9.56944
 20
5.66328
 30
0.000000
  70
    32
  0
VERTEX
  8
AM_VIS
  5
22A
 10
9.56936
 20
5.66222
 30
0.000000
  70
    32
  0
VERTEX
  8
AM_VIS
  5
22B
 10
9.56927
 20
5.66116
 30
0.000000
  70
    32
  0
VERTEX
  8
AM_VIS
  5
22C
 10
9.56918
 20
5.66011
 30
0.000000
  70
    32
  0
VERTEX
  8
AM_VIS
  5
22D
 10
9.56909
 20
5.65905
 30
0.000000
  70
    32
  0
VERTEX
  8
AM_VIS
  5
22E
 10
9.56900
 20
5.65800
 30
0.000000
  70
    32
  0
VERTEX
  8
AM_VIS
  5
22F
 10
9.56891
 20
5.65694
 30
0.000000
  70
    32
  0
VERTEX
  8
AM_VIS
  5
230
 10
9.56882
 20
5.65589
 30
0.000000
  70
    32
  0
VERTEX
  8
AM_VIS
  5
231
 10
9.56872
 20
5.65483
 30
0.000000
  70
    32
  0
VERTEX
  8
AM_VIS
  5
232
 10
9.56863
 20
5.65378
 30
0.000000
  70
    32
  0
VERTEX
  8
AM_VIS
  5
233
 10
9.56853
 20
5.65273
 30
0.000000
  70
    32
  0
VERTEX
  8
AM_VIS
  5
234
 10
9.56844
 20
5.65168
 30
0.000000
  70
    32
  0
VERTEX
  8
AM_VIS
  5
235
 10
9.56834
 20
5.65063
 30
0.000000
  70
    32
  0
VERTEX
  8
AM_VIS
  5
236
 10
9.56824
 20
5.64958
 30
0.000000
  70
    32
  0
VERTEX
  8
AM_VIS
  5
237
 10
9.56814
 20
5.64853
 30
0.000000
  70
    32
  0
VERTEX
  8
AM_VIS
  5
238
 10
9.56804
 20
5.64748
 30
0.000000
  70
    32
  0
VERTEX
  8
AM_VIS
  5
239
 10
9.56794
 20
5.64644
 30
0.000000
  70
    32
  0
VERTEX
  8
AM_VIS
  5
23A
 10
9.56784
 20
5.64539
 30
0.000000
  70
    32
  0
VERTEX
  8
AM_VIS
  5
23B
 10
9.56773
 20
5.64434
 30
0.000000
  70
    32
  0
VERTEX
  8
AM_VIS
  5
23C
 10
9.56763
 20
5.64330
 30
0.000000
  70
    32
  0
VERTEX
  8
AM_VIS
  5
23D
 10
9.56753
 20
5.64225
 30
0.000000
  70
    32
  0
VERTEX
  8
AM_VIS
  5
23E
 10
9.56742
 20
5.64121
 30
0.000000
  70
    32
  0
VERTEX
  8
AM_VIS
  5
23F
 10
9.56731
 20
5.64016
 30
0.000000
  70
    32
  0
VERTEX
  8
AM_VIS
  5
240
 10
9.56720
 20
5.63912
 30
0.000000
  70
    32
  0
VERTEX
  8
AM_VIS
  5
241
 10
9.56710
 20
5.63808
 30
0.000000
  70
    32
  0
VERTEX
  8
AM_VIS
  5
242
 10
9.56699
 20
5.63703
 30
0.000000
  70
    32
  0
VERTEX
  8
AM_VIS
  5
243
 10
9.56688
 20
5.63599
 30
0.000000
  70
    32
  0
VERTEX
  8
AM_VIS
  5
244
 10
9.56676
 20
5.63495
 30
0.000000
  70
    32
  0
VERTEX
  8
AM_VIS
  5
245
 10
9.56665
 20
5.63391
 30
0.000000
  70
    32
  0
VERTEX
  8
AM_VIS
  5
246
 10
9.56654
 20
5.63287
 30
0.000000
  70
    32
  0
VERTEX
  8
AM_VIS
  5
247
 10
9.56643
 20
5.63183
 30
0.000000
  70
    32
  0
VERTEX
  8
AM_VIS
  5
248
 10
9.56631
 20
5.63079
 30
0.000000
  70
    32
  0
VERTEX
  8
AM_VIS
  5
249
 10
9.56620
 20
5.62975
 30
0.000000
  70
    32
  0
VERTEX
  8
AM_VIS
  5
24A
 10
9.56608
 20
5.62871
 30
0.000000
  70
    32
  0
VERTEX
  8
AM_VIS
  5
24B
 10
9.56596
 20
5.62767
 30
0.000000
  70
    32
  0
VERTEX
  8
AM_VIS
  5
24C
 10
9.56584
 20
5.62663
 30
0.000000
  70
    32
  0
VERTEX
  8
AM_VIS
  5
24D
 10
9.56573
 20
5.62560
 30
0.000000
  70
    32
  0
VERTEX
  8
AM_VIS
  5
24E
 10
9.56561
 20
5.62456
 30
0.000000
  70
    32
  0
VERTEX
  8
AM_VIS
  5
24F
 10
9.56549
 20
5.62352
 30
0.000000
  70
    32
  0
VERTEX
  8
AM_VIS
  5
250
 10
9.56537
 20
5.62248
 30
0.000000
  70
    32
  0
VERTEX
  8
AM_VIS
  5
251
 10
9.56524
 20
5.62145
 30
0.000000
  70
    32
  0
VERTEX
  8
AM_VIS
  5
252
 10
9.56512
 20
5.62041
 30
0.000000
  70
    32
  0
VERTEX
  8
AM_VIS
  5
253
 10
9.56500
 20
5.61937
 30
0.000000
  70
    32
  0
VERTEX
  8
AM_VIS
  5
254
 10
9.56487
 20
5.61834
 30
0.000000
  70
    32
  0
VERTEX
  8
AM_VIS
  5
255
 10
9.56475
 20
5.61730
 30
0.000000
  70
    32
  0
VERTEX
  8
AM_VIS
  5
256
 10
9.56463
 20
5.61626
 30
0.000000
  70
    32
  0
VERTEX
  8
AM_VIS
  5
257
 10
9.56450
 20
5.61523
 30
0.000000
  70
    32
  0
VERTEX
  8
AM_VIS
  5
258
 10
9.56437
 20
5.61419
 30
0.000000
  70
    32
  0
VERTEX
  8
AM_VIS
  5
259
 10
9.56425
 20
5.61316
 30
0.000000
  70
    32
  0
VERTEX
  8
AM_VIS
  5
25A
 10
9.56412
 20
5.61212
 30
0.000000
  70
    32
  0
VERTEX
  8
AM_VIS
  5
25B
 10
9.56399
 20
5.61108
 30
0.000000
  70
    32
  0
VERTEX
  8
AM_VIS
  5
25C
 10
9.56386
 20
5.61005
 30
0.000000
  70
    32
  0
VERTEX
  8
AM_VIS
  5
25D
 10
9.56373
 20
5.60901
 30
0.000000
  70
    32
  0
VERTEX
  8
AM_VIS
  5
25E
 10
9.56360
 20
5.60798
 30
0.000000
  70
    32
  0
VERTEX
  8
AM_VIS
  5
25F
 10
9.56347
 20
5.60694
 30
0.000000
  70
    32
  0
VERTEX
  8
AM_VIS
  5
260
 10
9.56334
 20
5.60591
 30
0.000000
  70
    32
  0
VERTEX
  8
AM_VIS
  5
261
 10
9.56320
 20
5.60487
 30
0.000000
  70
    32
  0
VERTEX
  8
AM_VIS
  5
262
 10
9.56307
 20
5.60384
 30
0.000000
  70
    32
  0
VERTEX
  8
AM_VIS
  5
263
 10
9.56294
 20
5.60280
 30
0.000000
  70
    32
  0
VERTEX
  8
AM_VIS
  5
264
 10
9.56280
 20
5.60177
 30
0.000000
  70
    32
  0
VERTEX
  8
AM_VIS
  5
265
 10
9.56267
 20
5.60073
 30
0.000000
  70
    32
  0
VERTEX
  8
AM_VIS
  5
266
 10
9.56253
 20
5.59970
 30
0.000000
  70
    32
  0
VERTEX
  8
AM_VIS
  5
267
 10
9.56240
 20
5.59866
 30
0.000000
  70
    32
  0
VERTEX
  8
AM_VIS
  5
268
 10
9.56226
 20
5.59762
 30
0.000000
  70
    32
  0
VERTEX
  8
AM_VIS
  5
269
 10
9.56212
 20
5.59659
 30
0.000000
  70
    32
  0
SEQEND
  8
AM_VIS
  5
26A
  0
POLYLINE
  8
AM_VIS
  5
26B
  66
     1
 10
0.000000
 20
0.000000
 30
0.000000
  70
     8
  0
VERTEX
  8
AM_VIS
  5
26C
 10
9.56212
 20
5.86828
 30
0.000000
  70
    32
  0
VERTEX
  8
AM_VIS
  5
26D
 10
9.56226
 20
5.86724
 30
0.000000
  70
    32
  0
VERTEX
  8
AM_VIS
  5
26E
 10
9.56240
 20
5.86620
 30
0.000000
  70
    32
  0
VERTEX
  8
AM_VIS
  5
26F
 10
9.56253
 20
5.86517
 30
0.000000
  70
    32
  0
VERTEX
  8
AM_VIS
  5
270
 10
9.56267
 20
5.86413
 30
0.000000
  70
    32
  0
VERTEX
  8
AM_VIS
  5
271
 10
9.56280
 20
5.86310
 30
0.000000
  70
    32
  0
VERTEX
  8
AM_VIS
  5
272
 10
9.56294
 20
5.86206
 30
0.000000
  70
    32
  0
VERTEX
  8
AM_VIS
  5
273
 10
9.56307
 20
5.86103
 30
0.000000
  70
    32
  0
VERTEX
  8
AM_VIS
  5
274
 10
9.56320
 20
5.85999
 30
0.000000
  70
    32
  0
VERTEX
  8
AM_VIS
  5
275
 10
9.56334
 20
5.85895
 30
0.000000
  70
    32
  0
VERTEX
  8
AM_VIS
  5
276
 10
9.56347
 20
5.85792
 30
0.000000
  70
    32
  0
VERTEX
  8
AM_VIS
  5
277
 10
9.56360
 20
5.85688
 30
0.000000
  70
    32
  0
VERTEX
  8
AM_VIS
  5
278
 10
9.56373
 20
5.85585
 30
0.000000
  70
    32
  0
VERTEX
  8
AM_VIS
  5
279
 10
9.56386
 20
5.85481
 30
0.000000
  70
    32
  0
VERTEX
  8
AM_VIS
  5
27A
 10
9.56399
 20
5.85378
 30
0.000000
  70
    32
  0
VERTEX
  8
AM_VIS
  5
27B
 10
9.56412
 20
5.85274
 30
0.000000
  70
    32
  0
VERTEX
  8
AM_VIS
  5
27C
 10
9.56425
 20
5.85171
 30
0.000000
  70
    32
  0
VERTEX
  8
AM_VIS
  5
27D
 10
9.56437
 20
5.85067
 30
0.000000
  70
    32
  0
VERTEX
  8
AM_VIS
  5
27E
 10
9.56450
 20
5.84964
 30
0.000000
  70
    32
  0
VERTEX
  8
AM_VIS
  5
27F
 10
9.56463
 20
5.84860
 30
0.000000
  70
    32
  0
VERTEX
  8
AM_VIS
  5
280
 10
9.56475
 20
5.84756
 30
0.000000
  70
    32
  0
VERTEX
  8
AM_VIS
  5
281
 10
9.56487
 20
5.84653
 30
0.000000
  70
    32
  0
VERTEX
  8
AM_VIS
  5
282
 10
9.56500
 20
5.84549
 30
0.000000
  70
    32
  0
VERTEX
  8
AM_VIS
  5
283
 10
9.56512
 20
5.84445
 30
0.000000
  70
    32
  0
VERTEX
  8
AM_VIS
  5
284
 10
9.56524
 20
5.84342
 30
0.000000
  70
    32
  0
VERTEX
  8
AM_VIS
  5
285
 10
9.56537
 20
5.84238
 30
0.000000
  70
    32
  0
VERTEX
  8
AM_VIS
  5
286
 10
9.56549
 20
5.84134
 30
0.000000
  70
    32
  0
VERTEX
  8
AM_VIS
  5
287
 10
9.56561
 20
5.84031
 30
0.000000
  70
    32
  0
VERTEX
  8
AM_VIS
  5
288
 10
9.56573
 20
5.83927
 30
0.000000
  70
    32
  0
VERTEX
  8
AM_VIS
  5
289
 10
9.56584
 20
5.83823
 30
0.000000
  70
    32
  0
VERTEX
  8
AM_VIS
  5
28A
 10
9.56596
 20
5.83719
 30
0.000000
  70
    32
  0
VERTEX
  8
AM_VIS
  5
28B
 10
9.56608
 20
5.83615
 30
0.000000
  70
    32
  0
VERTEX
  8
AM_VIS
  5
28C
 10
9.56620
 20
5.83511
 30
0.000000
  70
    32
  0
VERTEX
  8
AM_VIS
  5
28D
 10
9.56631
 20
5.83407
 30
0.000000
  70
    32
  0
VERTEX
  8
AM_VIS
  5
28E
 10
9.56643
 20
5.83303
 30
0.000000
  70
    32
  0
VERTEX
  8
AM_VIS
  5
28F
 10
9.56654
 20
5.83199
 30
0.000000
  70
    32
  0
VERTEX
  8
AM_VIS
  5
290
 10
9.56665
 20
5.83095
 30
0.000000
  70
    32
  0
VERTEX
  8
AM_VIS
  5
291
 10
9.56676
 20
5.82991
 30
0.000000
  70
    32
  0
VERTEX
  8
AM_VIS
  5
292
 10
9.56688
 20
5.82887
 30
0.000000
  70
    32
  0
VERTEX
  8
AM_VIS
  5
293
 10
9.56699
 20
5.82783
 30
0.000000
  70
    32
  0
VERTEX
  8
AM_VIS
  5
294
 10
9.56710
 20
5.82679
 30
0.000000
  70
    32
  0
VERTEX
  8
AM_VIS
  5
295
 10
9.56720
 20
5.82574
 30
0.000000
  70
    32
  0
VERTEX
  8
AM_VIS
  5
296
 10
9.56731
 20
5.82470
 30
0.000000
  70
    32
  0
VERTEX
  8
AM_VIS
  5
297
 10
9.56742
 20
5.82366
 30
0.000000
  70
    32
  0
VERTEX
  8
AM_VIS
  5
298
 10
9.56753
 20
5.82261
 30
0.000000
  70
    32
  0
VERTEX
  8
AM_VIS
  5
299
 10
9.56763
 20
5.82157
 30
0.000000
  70
    32
  0
VERTEX
  8
AM_VIS
  5
29A
 10
9.56773
 20
5.82052
 30
0.000000
  70
    32
  0
VERTEX
  8
AM_VIS
  5
29B
 10
9.56784
 20
5.81947
 30
0.000000
  70
    32
  0
VERTEX
  8
AM_VIS
  5
29C
 10
9.56794
 20
5.81843
 30
0.000000
  70
    32
  0
VERTEX
  8
AM_VIS
  5
29D
 10
9.56804
 20
5.81738
 30
0.000000
  70
    32
  0
VERTEX
  8
AM_VIS
  5
29E
 10
9.56814
 20
5.81633
 30
0.000000
  70
    32
  0
VERTEX
  8
AM_VIS
  5
29F
 10
9.56824
 20
5.81528
 30
0.000000
  70
    32
  0
VERTEX
  8
AM_VIS
  5
2A0
 10
9.56834
 20
5.81423
 30
0.000000
  70
    32
  0
VERTEX
  8
AM_VIS
  5
2A1
 10
9.56844
 20
5.81318
 30
0.000000
  70
    32
  0
VERTEX
  8
AM_VIS
  5
2A2
 10
9.56853
 20
5.81213
 30
0.000000
  70
    32
  0
VERTEX
  8
AM_VIS
  5
2A3
 10
9.56863
 20
5.81108
 30
0.000000
  70
    32
  0
VERTEX
  8
AM_VIS
  5
2A4
 10
9.56872
 20
5.81003
 30
0.000000
  70
    32
  0
VERTEX
  8
AM_VIS
  5
2A5
 10
9.56882
 20
5.80898
 30
0.000000
  70
    32
  0
VERTEX
  8
AM_VIS
  5
2A6
 10
9.56891
 20
5.80792
 30
0.000000
  70
    32
  0
VERTEX
  8
AM_VIS
  5
2A7
 10
9.56900
 20
5.80687
 30
0.000000
  70
    32
  0
VERTEX
  8
AM_VIS
  5
2A8
 10
9.56909
 20
5.80581
 30
0.000000
  70
    32
  0
VERTEX
  8
AM_VIS
  5
2A9
 10
9.56918
 20
5.80476
 30
0.000000
  70
    32
  0
VERTEX
  8
AM_VIS
  5
2AA
 10
9.56927
 20
5.80370
 30
0.000000
  70
    32
  0
VERTEX
  8
AM_VIS
  5
2AB
 10
9.56936
 20
5.80264
 30
0.000000
  70
    32
  0
VERTEX
  8
AM_VIS
  5
2AC
 10
9.56944
 20
5.80158
 30
0.000000
  70
    32
  0
VERTEX
  8
AM_VIS
  5
2AD
 10
9.56953
 20
5.80052
 30
0.000000
  70
    32
  0
VERTEX
  8
AM_VIS
  5
2AE
 10
9.56961
 20
5.79946
 30
0.000000
  70
    32
  0
VERTEX
  8
AM_VIS
  5
2AF
 10
9.56969
 20
5.79840
 30
0.000000
  70
    32
  0
VERTEX
  8
AM_VIS
  5
2B0
 10
9.56978
 20
5.79734
 30
0.000000
  70
    32
  0
VERTEX
  8
AM_VIS
  5
2B1
 10
9.56986
 20
5.79628
 30
0.000000
  70
    32
  0
VERTEX
  8
AM_VIS
  5
2B2
 10
9.56994
 20
5.79521
 30
0.000000
  70
    32
  0
VERTEX
  8
AM_VIS
  5
2B3
 10
9.57002
 20
5.79415
 30
0.000000
  70
    32
  0
VERTEX
  8
AM_VIS
  5
2B4
 10
9.57009
 20
5.79308
 30
0.000000
  70
    32
  0
VERTEX
  8
AM_VIS
  5
2B5
 10
9.57017
 20
5.79201
 30
0.000000
  70
    32
  0
VERTEX
  8
AM_VIS
  5
2B6
 10
9.57024
 20
5.79094
 30
0.000000
  70
    32
  0
VERTEX
  8
AM_VIS
  5
2B7
 10
9.57032
 20
5.78987
 30
0.000000
  70
    32
  0
VERTEX
  8
AM_VIS
  5
2B8
 10
9.57039
 20
5.78880
 30
0.000000
  70
    32
  0
VERTEX
  8
AM_VIS
  5
2B9
 10
9.57046
 20
5.78773
 30
0.000000
  70
    32
  0
VERTEX
  8
AM_VIS
  5
2BA
 10
9.57053
 20
5.78666
 30
0.000000
  70
    32
  0
VERTEX
  8
AM_VIS
  5
2BB
 10
9.57060
 20
5.78559
 30
0.000000
  70
    32
  0
VERTEX
  8
AM_VIS
  5
2BC
 10
9.57067
 20
5.78451
 30
0.000000
  70
    32
  0
VERTEX
  8
AM_VIS
  5
2BD
 10
9.57073
 20
5.78344
 30
0.000000
  70
    32
  0
VERTEX
  8
AM_VIS
  5
2BE
 10
9.57080
 20
5.78236
 30
0.000000
  70
    32
  0
VERTEX
  8
AM_VIS
  5
2BF
 10
9.57086
 20
5.78128
 30
0.000000
  70
    32
  0
VERTEX
  8
AM_VIS
  5
2C0
 10
9.57093
 20
5.78020
 30
0.000000
  70
    32
  0
VERTEX
  8
AM_VIS
  5
2C1
 10
9.57099
 20
5.77912
 30
0.000000
  70
    32
  0
VERTEX
  8
AM_VIS
  5
2C2
 10
9.57105
 20
5.77804
 30
0.000000
  70
    32
  0
VERTEX
  8
AM_VIS
  5
2C3
 10
9.57111
 20
5.77696
 30
0.000000
  70
    32
  0
VERTEX
  8
AM_VIS
  5
2C4
 10
9.57117
 20
5.77587
 30
0.000000
  70
    32
  0
VERTEX
  8
AM_VIS
  5
2C5
 10
9.57122
 20
5.77479
 30
0.000000
  70
    32
  0
VERTEX
  8
AM_VIS
  5
2C6
 10
9.57128
 20
5.77370
 30
0.000000
  70
    32
  0
VERTEX
  8
AM_VIS
  5
2C7
 10
9.57133
 20
5.77261
 30
0.000000
  70
    32
  0
VERTEX
  8
AM_VIS
  5
2C8
 10
9.57138
 20
5.77152
 30
0.000000
  70
    32
  0
VERTEX
  8
AM_VIS
  5
2C9
 10
9.57143
 20
5.77043
 30
0.000000
  70
    32
  0
VERTEX
  8
AM_VIS
  5
2CA
 10
9.57148
 20
5.76934
 30
0.000000
  70
    32
  0
VERTEX
  8
AM_VIS
  5
2CB
 10
9.57153
 20
5.76824
 30
0.000000
  70
    32
  0
VERTEX
  8
AM_VIS
  5
2CC
 10
9.57158
 20
5.76715
 30
0.000000
  70
    32
  0
VERTEX
  8
AM_VIS
  5
2CD
 10
9.57163
 20
5.76605
 30
0.000000
  70
    32
  0
VERTEX
  8
AM_VIS
  5
2CE
 10
9.57167
 20
5.76496
 30
0.000000
  70
    32
  0
VERTEX
  8
AM_VIS
  5
2CF
 10
9.57171
 20
5.76386
 30
0.000000
  70
    32
  0
VERTEX
  8
AM_VIS
  5
2D0
 10
9.57175
 20
5.76276
 30
0.000000
  70
    32
  0
VERTEX
  8
AM_VIS
  5
2D1
 10
9.57179
 20
5.76165
 30
0.000000
  70
    32
  0
VERTEX
  8
AM_VIS
  5
2D2
 10
9.57183
 20
5.76055
 30
0.000000
  70
    32
  0
VERTEX
  8
AM_VIS
  5
2D3
 10
9.57187
 20
5.75945
 30
0.000000
  70
    32
  0
VERTEX
  8
AM_VIS
  5
2D4
 10
9.57191
 20
5.75834
 30
0.000000
  70
    32
  0
VERTEX
  8
AM_VIS
  5
2D5
 10
9.57194
 20
5.75723
 30
0.000000
  70
    32
  0
VERTEX
  8
AM_VIS
  5
2D6
 10
9.57197
 20
5.75612
 30
0.000000
  70
    32
  0
VERTEX
  8
AM_VIS
  5
2D7
 10
9.57201
 20
5.75501
 30
0.000000
  70
    32
  0
VERTEX
  8
AM_VIS
  5
2D8
 10
9.57204
 20
5.75390
 30
0.000000
  70
    32
  0
VERTEX
  8
AM_VIS
  5
2D9
 10
9.57206
 20
5.75278
 30
0.000000
  70
    32
  0
VERTEX
  8
AM_VIS
  5
2DA
 10
9.57209
 20
5.75167
 30
0.000000
  70
    32
  0
VERTEX
  8
AM_VIS
  5
2DB
 10
9.57212
 20
5.75055
 30
0.000000
  70
    32
  0
VERTEX
  8
AM_VIS
  5
2DC
 10
9.57214
 20
5.74943
 30
0.000000
  70
    32
  0
VERTEX
  8
AM_VIS
  5
2DD
 10
9.57216
 20
5.74831
 30
0.000000
  70
    32
  0
VERTEX
  8
AM_VIS
  5
2DE
 10
9.57219
 20
5.74719
 30
0.000000
  70
    32
  0
VERTEX
  8
AM_VIS
  5
2DF
 10
9.57221
 20
5.74606
 30
0.000000
  70
    32
  0
VERTEX
  8
AM_VIS
  5
2E0
 10
9.57222
 20
5.74494
 30
0.000000
  70
    32
  0
VERTEX
  8
AM_VIS
  5
2E1
 10
9.57224
 20
5.74381
 30
0.000000
  70
    32
  0
VERTEX
  8
AM_VIS
  5
2E2
 10
9.57226
 20
5.74268
 30
0.000000
  70
    32
  0
VERTEX
  8
AM_VIS
  5
2E3
 10
9.57227
 20
5.74155
 30
0.000000
  70
    32
  0
VERTEX
  8
AM_VIS
  5
2E4
 10
9.57228
 20
5.74041
 30
0.000000
  70
    32
  0
VERTEX
  8
AM_VIS
  5
2E5
 10
9.57229
 20
5.73928
 30
0.000000
  70
    32
  0
VERTEX
  8
AM_VIS
  5
2E6
 10
9.57230
 20
5.73814
 30
0.000000
  70
    32
  0
VERTEX
  8
AM_VIS
  5
2E7
 10
9.57231
 20
5.73700
 30
0.000000
  70
    32
  0
VERTEX
  8
AM_VIS
  5
2E8
 10
9.57231
 20
5.73586
 30
0.000000
  70
    32
  0
VERTEX
  8
AM_VIS
  5
2E9
 10
9.57232
 20
5.73472
 30
0.000000
  70
    32
  0
VERTEX
  8
AM_VIS
  5
2EA
 10
9.57232
 20
5.73358
 30
0.000000
  70
    32
  0
VERTEX
  8
AM_VIS
  5
2EB
 10
9.57232
 20
5.73243
 30
0.000000
  70
    32
  0
SEQEND
  8
AM_VIS
  5
2EC
  0
CIRCLE
  5
49
  8
AM_VIS
 10
8.5360773069955478
 20
5.7324314746340352
 30
0.0
 40
0.9
  0
LINE
  5
4A
  8
AM_VIS
 10
9.7398273069958154
 20
5.9628851504187441
 30
0.0
 11
9.7398273069958154
 21
5.7324314746331613
 31
0.0
  0
ARC
  5
4B
  8
AM_VIS
 10
9.6490742114723762
 20
6.3230564746340336
 30
0.0
 40
0.2250000000000008
 50
207.95318688338119
 51
269.99999999999977
  0
ARC
  5
4C
  8
AM_VIS
 10
9.6490742114723744
 20
5.1418064746340377
 30
0.0
 40
0.2249999999999988
 50
90.0
 51
152.04681311661909
  0
LINE
  5
4D
  8
AM_VIS
 10
9.7398273069958154
 20
5.7324314746349101
 30
0.0
 11
9.7398273069958154
 21
5.5019777988493264
 31
0.0
  0
LINE
  5
4E
  8
AM_VIS
 10
9.7398273069955472
 20
5.9628851504187441
 30
0.0
 11
9.7398273069955472
 21
6.0980564746340331
 31
0.0
  0
ARC
  5
4F
  8
AM_HID
 10
8.5360773069956526
 20
5.7324314746340423
 30
0.0
 40
1.034999999999894
 50
359.9999999999996
 51
7.5418313198847979
  0
LINE
  5
50
  8
AM_VIS
 10
9.7398273069955472
 20
5.3668064746340374
 30
0.0
 11
9.7398273069955472
 21
5.5019777988493273
 31
0.0
  0
ARC
  5
51
  8
AM_HID
 10
8.5360773069956561
 20
5.732431474634029
 30
0.0
 40
1.0349999999998909
 50
352.45816868011519
 51
0.0000000000003997
  0
LINE
  5
52
  8
AM_VIS
 10
9.6490742114723744
 20
6.0980564746340331
 30
0.0
 11
9.7398273069955472
 21
6.0980564746340331
 31
0.0
  0
LINE
  5
53
  8
AM_VIS
 10
9.7398273069955472
 20
5.3668064746340374
 30
0.0
 11
9.6490742114723744
 21
5.3668064746340374
 31
0.0
  0
LINE
  5
54
  8
AM_HID
 10
9.3910032906338952
 20
6.0136814746340326
 30
0.0
 11
9.7398273069955472
 21
6.0136814746340326
 31
0.0
  0
LINE
  5
55
  8
AM_HID
 10
9.3910032906338952
 20
5.4511814746340326
 30
0.0
 11
9.7398273069955472
 21
5.4511814746340326
 31
0.0
  0
LINE
  5
56
  8
AM_VIS
 10
12.40166228826646
 20
3.4298340666106402
 30
0.0
 11
13.300818532498541
 21
3.4298340666106402
 31
0.0
  0
LINE
  5
57
  8
AM_VIS
 10
13.57250604403438
 20
3.4298340666106402
 30
0.0
 11
14.47166228826646
 21
3.4298340666106402
 31
0.0
  0
LINE
  5
58
  8
AM_VIS
 10
13.300818532498541
 20
3.429834066107174
 30
0.0
 11
13.43666228826646
 21
3.429834066107174
 31
0.0
  0
LINE
  5
59
  8
AM_VIS
 10
13.43666228826646
 20
3.429834066107174
 30
0.0
 11
13.572506044034389
 21
3.429834066107174
 31
0.0
  0
ARC
  5
5A
  8
AM_VIS
 10
13.42617389772127
 20
2.8666226644285691
 30
0.0
 40
0.3692967596140932
 50
49.29431560951793
 51
88.371789894219916
  0
ARC
  5
5B
  8
AM_VIS
 10
13.447150678811649
 20
2.8666226644285668
 30
0.0
 40
0.3692967596140956
 50
91.628210105780184
 51
130.70568439048191
  0
ARC
  5
5C
  8
AM_VIS
 10
13.43666228826646
 20
2.8628340666106409
 30
0.0
 40
0.365625
 50
309.07230755918039
 51
50.927692440819548
  0
ARC
  5
5D
  8
AM_VIS
 10
13.42617389772127
 20
2.85904546879271
 30
0.0
 40
0.369296759614091
 50
271.62821010577989
 51
310.70568439048219
  0
CIRCLE
  5
5E
  8
AM_VIS
 10
13.43666228826646
 20
2.8628340666106409
 30
0.0
 40
0.28125
  0
ARC
  5
5F
  8
AM_VIS
 10
13.43666228826646
 20
2.86283406661064
 30
0.0
 40
0.365625
 50
129.07230755918039
 51
230.92769244081941
  0
ARC
  5
60
  8
AM_VIS
 10
13.447150678811649
 20
2.8590454687927109
 30
0.0
 40
0.3692967596140912
 50
229.29431560951781
 51
268.37178989422
  0
LINE
  5
61
  8
AM_VIS
 10
12.40166228826646
 20
-0.170165933389359
 30
0.0
 11
13.300818532498541
 21
-0.1701659333893599
 31
0.0
  0
LINE
  5
62
  8
AM_VIS
 10
13.57250604403438
 20
-0.1701659333893599
 30
0.0
 11
14.47166228826646
 21
-0.170165933389359
 31
0.0
  0
LINE
  5
63
  8
AM_VIS
 10
13.43666228826646
 20
-0.1701659328858929
 30
0.0
 11
13.572506044034389
 21
-0.1701659328858929
 31
0.0
  0
LINE
  5
64
  8
AM_VIS
 10
13.300818532498541
 20
-0.1701659328858929
 30
0.0
 11
13.43666228826646
 21
-0.1701659328858929
 31
0.0
  0
ARC
  5
65
  8
AM_VIS
 10
13.42617389772127
 20
0.393045468792709
 30
0.0
 40
0.3692967596140903
 50
271.62821010577989
 51
310.70568439048219
  0
ARC
  5
66
  8
AM_VIS
 10
13.447150678811649
 20
0.393045468792709
 30
0.0
 40
0.3692967596140905
 50
229.29431560951781
 51
268.37178989422011
  0
ARC
  5
67
  8
AM_VIS
 10
13.43666228826646
 20
0.3968340666106398
 30
0.0
 40
0.365625
 50
309.0723075591805
 51
50.927692440819548
  0
ARC
  5
68
  8
AM_VIS
 10
13.42617389772127
 20
0.400622664428572
 30
0.0
 40
0.3692967596140897
 50
49.29431560951776
 51
88.3717898942201
  0
CIRCLE
  5
69
  8
AM_VIS
 10
13.43666228826646
 20
0.3968340666106398
 30
0.0
 40
0.28125
  0
ARC
  5
6A
  8
AM_VIS
 10
13.447150678811649
 20
0.4006226644285698
 30
0.0
 40
0.3692967596140919
 50
91.628210105779985
 51
130.70568439048211
  0
ARC
  5
6B
  8
AM_VIS
 10
13.43666228826646
 20
0.3968340666106407
 30
0.0
 40
0.365625
 50
129.0723075591805
 51
230.9276924408195
  0
LINE
  5
6C
  8
AM_VIS
 10
14.47166228826646
 20
3.4298340666106402
 30
0.0
 11
14.47166228826646
 21
-0.170165933389359
 31
0.0
  0
LINE
  5
6D
  8
AM_VIS
 10
12.40166228826646
 20
3.4298340666106402
 30
0.0
 11
12.40166228826646
 21
-0.170165933389359
 31
0.0
  0
LINE
  5
6E
  8
AM_HID
 10
14.33666228826646
 20
3.4298340666106402
 30
0.0
 11
14.33666228826646
 21
-0.170165933389359
 31
0.0
  0
LINE
  5
6F
  8
AM_HID
 10
12.536662288266459
 20
3.4298340666106402
 30
0.0
 11
12.536662288266459
 21
-0.170165933389359
 31
0.0
  0
INSERT
  5
188
  8
0
  2
*U7
 10
0.0
 20
0.0
 30
0.0
  0
INSERT
  5
189
  8
0
  2
*U8
 10
0.0
 20
0.0
 30
0.0
  0
LINE
  5
18B
  8
0
 10
7.4448273069955473
 20
-0.170165933389359
 30
0.0
 11
6.4882067396145677
 21
-0.170165933389359
 31
0.0
  0
LINE
  5
18C
  8
0
 10
7.4448273069955473
 20
3.4298340666106402
 30
0.0
 11
6.4882067396145704
 21
3.4298340666106402
 31
0.0
  0
LINE
  5
18D
  8
0
 10
6.6502067396145694
 20
-0.0576659333893588
 30
0.0
 11
6.6502067396145694
 21
1.3378965666106399
 31
0.0
  0
LINE
  5
18E
  8
0
 10
6.6502067396145694
 20
3.3173340666106399
 30
0.0
 11
6.6502067396145694
 21
1.9217715666106401
 31
0.0
  0
SOLID
  5
18F
  8
0
 10
6.6314567396145678
 20
-0.0576659333893588
 30
0.0
 11
6.6689567396145684
 21
-0.0576659333893588
 31
0.0
 12
6.6502067396145694
 22
-0.170165933389359
 32
0.0
 13
6.6502067396145694
 23
-0.170165933389359
 33
0.0
  0
SOLID
  5
190
  8
0
 10
6.6314567396145696
 20
3.3173340666106399
 30
0.0
 11
6.6689567396145693
 21
3.3173340666106399
 31
0.0
 12
6.6502067396145694
 22
3.4298340666106402
 32
0.0
 13
6.6502067396145694
 23
3.4298340666106402
 33
0.0
  0
INSERT
  5
191
  8
0
  2
*U9
 10
0.0
 20
0.0
 30
0.0
  0
ENDSEC
  0
EOF
