  0
SECTION
  2
HEADER
  9
$ACADVER
  1
AC1009
  9
$INSBASE
 10
0.0
 20
0.0
 30
0.0
  9
$EXTMIN
 10
33.420974797731958
 20
15.50059676324214
 30
-0.0000000349181948
  9
$EXTMAX
 10
37.259358202463993
 20
19.120260638106998
 30
0.0000000814935746
  9
$LIMMIN
 10
0.0
 20
0.0
  9
$LIMMAX
 10
12.0
 20
9.0
  9
$ORTHOMODE
 70
     1
  9
$REGENMODE
 70
     1
  9
$FILLMODE
 70
     1
  9
$QTEXTMODE
 70
     0
  9
$MIRRTEXT
 70
     0
  9
$DRAGMODE
 70
     2
  9
$LTSCALE
 40
1.0
  9
$OSMODE
 70
    55
  9
$ATTMODE
 70
     1
  9
$TEXTSIZE
 40
0.2
  9
$TRACEWID
 40
0.05
  9
$TEXTSTYLE
  7
STANDARD
  9
$CLAYER
  8
0
  9
$CELTYPE
  6
BYLAYER
  9
$CECOLOR
 62
   256
  9
$DIMSCALE
 40
1.0
  9
$DIMASZ
 40
0.18
  9
$DIMEXO
 40
0.0625
  9
$DIMDLI
 40
0.38
  9
$DIMRND
 40
0.0
  9
$DIMDLE
 40
0.0
  9
$DIMEXE
 40
0.18
  9
$DIMTP
 40
0.0
  9
$DIMTM
 40
0.0
  9
$DIMTXT
 40
0.18
  9
$DIMCEN
 40
0.09
  9
$DIMTSZ
 40
0.0
  9
$DIMTOL
 70
     0
  9
$DIMLIM
 70
     0
  9
$DIMTIH
 70
     1
  9
$DIMTOH
 70
     1
  9
$DIMSE1
 70
     0
  9
$DIMSE2
 70
     0
  9
$DIMTAD
 70
     0
  9
$DIMZIN
 70
     0
  9
$DIMBLK
  1

  9
$DIMASO
 70
     1
  9
$DIMSHO
 70
     1
  9
$DIMPOST
  1

  9
$DIMAPOST
  1

  9
$DIMALT
 70
     0
  9
$DIMALTD
 70
     2
  9
$DIMALTF
 40
25.399999999999999
  9
$DIMLFAC
 40
1.0
  9
$DIMTOFL
 70
     0
  9
$DIMTVP
 40
0.0
  9
$DIMTIX
 70
     0
  9
$DIMSOXD
 70
     0
  9
$DIMSAH
 70
     0
  9
$DIMBLK1
  1

  9
$DIMBLK2
  1

  9
$DIMSTYLE
  2
STANDARD
  9
$DIMCLRD
 70
     0
  9
$DIMCLRE
 70
     0
  9
$DIMCLRT
 70
     0
  9
$DIMTFAC
 40
1.0
  9
$DIMGAP
 40
0.09
  9
$LUNITS
 70
     2
  9
$LUPREC
 70
     4
  9
$SKETCHINC
 40
0.1
  9
$FILLETRAD
 40
0.065
  9
$AUNITS
 70
     0
  9
$AUPREC
 70
     0
  9
$MENU
  1
.
  9
$ELEVATION
 40
0.0
  9
$PELEVATION
 40
0.0
  9
$THICKNESS
 40
0.0
  9
$LIMCHECK
 70
     0
  9
$BLIPMODE
 70
     0
  9
$CHAMFERA
 40
0.0
  9
$CHAMFERB
 40
0.0
  9
$SKPOLY
 70
     0
  9
$TDCREATE
 40
2453091.3796749078
  9
$TDUPDATE
 40
2453091.4364838768
  9
$TDINDWG
 40
0.0568210301
  9
$TDUSRTIMER
 40
0.0568094329
  9
$USRTIMER
 70
     1
  9
$ANGBASE
 50
0.0
  9
$ANGDIR
 70
     0
  9
$PDMODE
 70
     0
  9
$PDSIZE
 40
0.0
  9
$PLINEWID
 40
0.0
  9
$COORDS
 70
     1
  9
$SPLFRAME
 70
     0
  9
$SPLINETYPE
 70
     6
  9
$SPLINESEGS
 70
     8
  9
$ATTDIA
 70
     0
  9
$ATTREQ
 70
     1
  9
$HANDLING
 70
     1
  9
$HANDSEED
  5
3DA
  9
$SURFTAB1
 70
     6
  9
$SURFTAB2
 70
     6
  9
$SURFTYPE
 70
     6
  9
$SURFU
 70
     6
  9
$SURFV
 70
     6
  9
$UCSNAME
  2

  9
$UCSORG
 10
0.0
 20
0.0
 30
0.0
  9
$UCSXDIR
 10
1.0
 20
0.0
 30
0.0
  9
$UCSYDIR
 10
0.0
 20
1.0
 30
0.0
  9
$PUCSNAME
  2

  9
$PUCSORG
 10
0.0
 20
0.0
 30
0.0
  9
$PUCSXDIR
 10
1.0
 20
0.0
 30
0.0
  9
$PUCSYDIR
 10
0.0
 20
1.0
 30
0.0
  9
$USERI1
 70
     0
  9
$USERI2
 70
     0
  9
$USERI3
 70
     0
  9
$USERI4
 70
     0
  9
$USERI5
 70
     0
  9
$USERR1
 40
0.0
  9
$USERR2
 40
0.0
  9
$USERR3
 40
0.0
  9
$USERR4
 40
0.0
  9
$USERR5
 40
0.0
  9
$WORLDVIEW
 70
     1
  9
$SHADEDGE
 70
     3
  9
$SHADEDIF
 70
    70
  9
$TILEMODE
 70
     1
  9
$MAXACTVP
 70
    64
  9
$PLIMCHECK
 70
     0
  9
$PEXTMIN
 10
0.0
 20
0.0
 30
0.0
  9
$PEXTMAX
 10
0.0
 20
0.0
 30
0.0
  9
$PLIMMIN
 10
0.0
 20
0.0
  9
$PLIMMAX
 10
12.0
 20
9.0
  9
$UNITMODE
 70
     0
  9
$VISRETAIN
 70
     1
  9
$PLINEGEN
 70
     0
  9
$PSLTSCALE
 70
     1
  0
ENDSEC
  0
SECTION
  2
TABLES
  0
TABLE
  2
VPORT
 70
    16
  0
VPORT
  2
*ACTIVE
 70
     0
 10
0.0
 20
0.0
 11
1.0
 21
1.0
 12
35.340166500097972
 22
17.310428700674571
 13
0.0
 23
0.0
 14
0.5
 24
0.5
 15
0.5
 25
0.5
 16
0.0
 26
0.0
 36
1.0
 17
0.0
 27
0.0
 37
0.0
 40
3.658307973173021
 41
2.0837789661319071
 42
50.0
 43
0.0
 44
0.0
 50
0.0
 51
0.0
 71
     0
 72
  1000
 73
     1
 74
     3
 75
     0
 76
     0
 77
     0
 78
     0
  0
ENDTAB
  0
TABLE
  2
LTYPE
 70
     1
  0
LTYPE
  2
CONTINUOUS
 70
     0
  3
Solid line
 72
    65
 73
     0
 40
0.0
  0
ENDTAB
  0
TABLE
  2
LAYER
 70
     2
  0
LAYER
  2
0
 70
     0
 62
     7
  6
CONTINUOUS
  0
LAYER
  2
DEFPOINTS
 70
     0
 62
     7
  6
CONTINUOUS
  0
ENDTAB
  0
TABLE
  2
STYLE
 70
     1
  0
STYLE
  2
STANDARD
 70
     0
 40
0.0
 41
1.0
 50
0.0
 71
     0
 42
0.2
  3
txt
  4

  0
ENDTAB
  0
TABLE
  2
VIEW
 70
     0
  0
ENDTAB
  0
TABLE
  2
UCS
 70
     0
  0
ENDTAB
  0
TABLE
  2
APPID
 70
     1
  0
APPID
  2
ACAD
 70
     0
  0
ENDTAB
  0
TABLE
  2
DIMSTYLE
 70
     1
  0
DIMSTYLE
  2
STANDARD
 70
     0
  3

  4

  5

  6

  7

 40
1.0
 41
0.18
 42
0.0625
 43
0.38
 44
0.18
 45
0.0
 46
0.0
 47
0.0
 48
0.0
140
0.18
141
0.09
142
0.0
143
25.399999999999999
144
1.0
145
0.0
146
1.0
147
0.09
 71
     0
 72
     0
 73
     1
 74
     1
 75
     0
 76
     0
 77
     0
 78
     0
170
     0
171
     2
172
     0
173
     0
174
     0
175
     0
176
     0
177
     0
178
     0
  0
ENDTAB
  0
ENDSEC
  0
SECTION
  2
BLOCKS
  0
BLOCK
  8
0
  2
$MODEL_SPACE
 70
     0
 10
0.0
 20
0.0
 30
0.0
  3
$MODEL_SPACE
  1

  0
ENDBLK
  5
21
  8
0
  0
BLOCK
 67
     1
  8
0
  2
$PAPER_SPACE
 70
     0
 10
0.0
 20
0.0
 30
0.0
  3
$PAPER_SPACE
  1

  0
ENDBLK
  5
5B
 67
     1
  8
0
  0
BLOCK
  8
0
  2
*D1
 70
     1
 10
0.0
 20
0.0
 30
0.0
  3
*D1
  1

  0
LINE
  5
11E
  8
0
 62
     0
 10
32.415266709954302
 20
16.387374901573899
 30
0.0
 11
32.415266709954302
 21
17.430323277149231
 31
0.0
  0
LINE
  5
11F
  8
0
 62
     0
 10
33.915266709954302
 20
16.387374901573899
 30
0.0
 11
33.915266709954302
 21
17.430323277149231
 31
0.0
  0
LINE
  5
120
  8
0
 62
     0
 10
32.595266709954302
 20
17.250323277149231
 30
0.0
 11
32.850266709954298
 21
17.250323277149231
 31
0.0
  0
LINE
  5
121
  8
0
 62
     0
 10
33.735266709954303
 20
17.250323277149231
 30
0.0
 11
33.480266709954293
 21
17.250323277149231
 31
0.0
  0
SOLID
  5
122
  8
0
 62
     0
 10
32.595266709954302
 20
17.280323277149229
 30
0.0
 11
32.595266709954302
 21
17.22032327714923
 31
0.0
 12
32.415266709954302
 22
17.250323277149231
 32
0.0
 13
32.415266709954302
 23
17.250323277149231
 33
0.0
  0
SOLID
  5
123
  8
0
 62
     0
 10
33.735266709954303
 20
17.280323277149229
 30
0.0
 11
33.735266709954303
 21
17.22032327714923
 31
0.0
 12
33.915266709954302
 22
17.250323277149231
 32
0.0
 13
33.915266709954302
 23
17.250323277149231
 33
0.0
  0
INSERT
  5
124
  8
0
  2
*U13
 10
0.0
 20
0.0
 30
0.0
  0
POINT
  5
125
  8
DEFPOINTS
 62
     0
 10
32.415266709954302
 20
16.324874901573899
 30
0.0
  0
POINT
  5
126
  8
DEFPOINTS
 62
     0
 10
33.915266709954302
 20
16.324874901573899
 30
0.0
  0
POINT
  5
127
  8
DEFPOINTS
 62
     0
 10
33.915266709954302
 20
17.250323277149231
 30
0.0
  0
ENDBLK
  5
E1
  8
0
  0
BLOCK
  8
0
  2
*D2
 70
     1
 10
0.0
 20
0.0
 30
0.0
  3
*D2
  1

  0
LINE
  5
137
  8
0
 62
     0
 10
32.852766709954288
 20
16.014676464852261
 30
0.0
 11
32.852766709954288
 21
15.44918210551992
 31
0.0
  0
LINE
  5
138
  8
0
 62
     0
 10
33.477766709954288
 20
16.014676464852261
 30
0.0
 11
33.477766709954288
 21
15.44918210551992
 31
0.0
  0
LINE
  5
139
  8
0
 62
     0
 10
33.032766709954302
 20
15.62918210551992
 30
0.0
 11
33.297766709954303
 21
15.62918210551992
 31
0.0
  0
LINE
  5
13A
  8
0
 62
     0
 10
33.477766709954288
 20
15.62918210551992
 30
0.0
 11
33.657766709954302
 21
15.62918210551992
 31
0.0
  0
SOLID
  5
13B
  8
0
 62
     0
 10
33.032766709954302
 20
15.659182105519919
 30
0.0
 11
33.032766709954302
 21
15.599182105519921
 31
0.0
 12
32.852766709954288
 22
15.62918210551992
 32
0.0
 13
32.852766709954288
 23
15.62918210551992
 33
0.0
  0
SOLID
  5
13C
  8
0
 62
     0
 10
33.297766709954303
 20
15.659182105519919
 30
0.0
 11
33.297766709954303
 21
15.599182105519921
 31
0.0
 12
33.477766709954288
 22
15.62918210551992
 32
0.0
 13
33.477766709954288
 23
15.62918210551992
 33
0.0
  0
INSERT
  5
13D
  8
0
  2
*U14
 10
0.0
 20
0.0
 30
0.0
  0
POINT
  5
13E
  8
DEFPOINTS
 62
     0
 10
32.852766709954288
 20
16.077176464852261
 30
0.0
  0
POINT
  5
13F
  8
DEFPOINTS
 62
     0
 10
33.477766709954288
 20
16.077176464852261
 30
0.0
  0
POINT
  5
140
  8
DEFPOINTS
 62
     0
 10
33.477766709954288
 20
15.62918210551992
 30
0.0
  0
ENDBLK
  5
135
  8
0
  0
BLOCK
  8
0
  2
*D3
 70
     1
 10
0.0
 20
0.0
 30
0.0
  3
*D3
  1

  0
LINE
  5
151
  8
0
 62
     0
 10
33.727266709954293
 20
15.82420915919112
 30
0.0
 11
34.681006155677963
 21
15.82420915919112
 31
0.0
  0
LINE
  5
152
  8
0
 62
     0
 10
33.478266709954298
 20
16.8292574417605
 30
0.0
 11
34.68100615567797
 21
16.8292574417605
 31
0.0
  0
LINE
  5
153
  8
0
 62
     0
 10
34.50100615567797
 20
16.00420915919112
 30
0.0
 11
34.50100615567797
 21
16.146733300475809
 31
0.0
  0
LINE
  5
154
  8
0
 62
     0
 10
34.50100615567797
 20
16.649257441760501
 30
0.0
 11
34.50100615567797
 21
16.506733300475808
 31
0.0
  0
SOLID
  5
155
  8
0
 62
     0
 10
34.471006155677969
 20
16.00420915919112
 30
0.0
 11
34.531006155677971
 21
16.00420915919112
 31
0.0
 12
34.50100615567797
 22
15.82420915919112
 32
0.0
 13
34.50100615567797
 23
15.82420915919112
 33
0.0
  0
SOLID
  5
156
  8
0
 62
     0
 10
34.471006155677969
 20
16.649257441760501
 30
0.0
 11
34.531006155677971
 21
16.649257441760501
 31
0.0
 12
34.50100615567797
 22
16.8292574417605
 32
0.0
 13
34.50100615567797
 23
16.8292574417605
 33
0.0
  0
INSERT
  5
157
  8
0
  2
*U15
 10
0.0
 20
0.0
 30
0.0
  0
POINT
  5
158
  8
DEFPOINTS
 62
     0
 10
33.664766709954293
 20
15.82420915919112
 30
0.0
  0
POINT
  5
159
  8
DEFPOINTS
 62
     0
 10
33.415766709954298
 20
16.8292574417605
 30
0.0
  0
POINT
  5
15A
  8
DEFPOINTS
 62
     0
 10
34.50100615567797
 20
16.8292574417605
 30
0.0
  0
ENDBLK
  5
14F
  8
0
  0
BLOCK
  8
0
  2
*D4
 70
     1
 10
0.0
 20
0.0
 30
0.0
  3
*D4
  1

  0
LINE
  5
1C9
  8
0
 62
     0
 10
33.921049187786821
 20
16.37211424410582
 30
0.0
 11
33.921049187786821
 21
17.68689459901131
 31
0.0
  0
LINE
  5
1CA
  8
0
 62
     0
 10
35.921049187786821
 20
16.37211424410582
 30
0.0
 11
35.921049187786821
 21
17.68689459901131
 31
0.0
  0
LINE
  5
1CB
  8
0
 62
     0
 10
34.10104918778682
 20
17.506894599011311
 30
0.0
 11
34.591049187786822
 21
17.506894599011311
 31
0.0
  0
LINE
  5
1CC
  8
0
 62
     0
 10
35.741049187786821
 20
17.506894599011311
 30
0.0
 11
35.251049187786819
 21
17.506894599011311
 31
0.0
  0
SOLID
  5
1CD
  8
0
 62
     0
 10
34.10104918778682
 20
17.536894599011308
 30
0.0
 11
34.10104918778682
 21
17.47689459901131
 31
0.0
 12
33.921049187786821
 22
17.506894599011311
 32
0.0
 13
33.921049187786821
 23
17.506894599011311
 33
0.0
  0
SOLID
  5
1CE
  8
0
 62
     0
 10
35.741049187786821
 20
17.536894599011308
 30
0.0
 11
35.741049187786821
 21
17.47689459901131
 31
0.0
 12
35.921049187786821
 22
17.506894599011311
 32
0.0
 13
35.921049187786821
 23
17.506894599011311
 33
0.0
  0
INSERT
  5
1CF
  8
0
  2
*U16
 10
0.0
 20
0.0
 30
0.0
  0
POINT
  5
1D0
  8
DEFPOINTS
 62
     0
 10
33.921049187786821
 20
16.30961424410582
 30
0.0
  0
POINT
  5
1D1
  8
DEFPOINTS
 62
     0
 10
35.921049187786821
 20
16.30961424410582
 30
0.0
  0
POINT
  5
1D2
  8
DEFPOINTS
 62
     0
 10
35.921049187786821
 20
17.506894599011311
 30
0.0
  0
ENDBLK
  5
1C7
  8
0
  0
BLOCK
  8
0
  2
*D5
 70
     1
 10
0.0
 20
0.0
 30
0.0
  3
*D5
  1

  0
LINE
  5
1E3
  8
0
 62
     0
 10
34.608549187786821
 20
15.797114244105821
 30
0.0
 11
34.608549187786821
 21
15.07823485472731
 31
0.0
  0
LINE
  5
1E4
  8
0
 62
     0
 10
35.233549187786807
 20
15.797114244105821
 30
0.0
 11
35.233549187786807
 21
15.07823485472731
 31
0.0
  0
LINE
  5
1E5
  8
0
 62
     0
 10
34.78854918778682
 20
15.258234854727309
 30
0.0
 11
35.053549187786821
 21
15.258234854727309
 31
0.0
  0
LINE
  5
1E6
  8
0
 62
     0
 10
35.233549187786807
 20
15.258234854727309
 30
0.0
 11
35.41354918778682
 21
15.258234854727309
 31
0.0
  0
SOLID
  5
1E7
  8
0
 62
     0
 10
34.78854918778682
 20
15.28823485472731
 30
0.0
 11
34.78854918778682
 21
15.22823485472731
 31
0.0
 12
34.608549187786821
 22
15.258234854727309
 32
0.0
 13
34.608549187786821
 23
15.258234854727309
 33
0.0
  0
SOLID
  5
1E8
  8
0
 62
     0
 10
35.053549187786821
 20
15.28823485472731
 30
0.0
 11
35.053549187786821
 21
15.22823485472731
 31
0.0
 12
35.233549187786807
 22
15.258234854727309
 32
0.0
 13
35.233549187786807
 23
15.258234854727309
 33
0.0
  0
INSERT
  5
1E9
  8
0
  2
*U17
 10
0.0
 20
0.0
 30
0.0
  0
POINT
  5
1EA
  8
DEFPOINTS
 62
     0
 10
34.608549187786821
 20
15.859614244105829
 30
0.0
  0
POINT
  5
1EB
  8
DEFPOINTS
 62
     0
 10
35.233549187786807
 20
15.859614244105821
 30
0.0
  0
POINT
  5
1EC
  8
DEFPOINTS
 62
     0
 10
35.233549187786807
 20
15.258234854727309
 30
0.0
  0
ENDBLK
  5
1E1
  8
0
  0
BLOCK
  8
0
  2
*D6
 70
     1
 10
0.0
 20
0.0
 30
0.0
  3
*D6
  1

  0
LINE
  5
1FD
  8
0
 62
     0
 10
35.446049187786819
 20
15.437543165771739
 30
0.0
 11
36.696987220027601
 21
15.437543165771739
 31
0.0
  0
LINE
  5
1FE
  8
0
 62
     0
 10
35.23404918778683
 20
16.93461424410583
 30
0.0
 11
36.696987220027601
 21
16.93461424410583
 31
0.0
  0
LINE
  5
1FF
  8
0
 62
     0
 10
36.516987220027588
 20
15.617543165771741
 30
0.0
 11
36.516987220027602
 21
16.00607870493879
 31
0.0
  0
LINE
  5
200
  8
0
 62
     0
 10
36.516987220027602
 20
16.75461424410582
 30
0.0
 11
36.516987220027602
 21
16.366078704938779
 31
0.0
  0
SOLID
  5
201
  8
0
 62
     0
 10
36.486987220027594
 20
15.617543165771741
 30
0.0
 11
36.546987220027603
 21
15.617543165771741
 31
0.0
 12
36.516987220027588
 22
15.437543165771739
 32
0.0
 13
36.516987220027588
 23
15.437543165771739
 33
0.0
  0
SOLID
  5
202
  8
0
 62
     0
 10
36.486987220027601
 20
16.75461424410582
 30
0.0
 11
36.546987220027603
 21
16.75461424410582
 31
0.0
 12
36.516987220027602
 22
16.93461424410583
 32
0.0
 13
36.516987220027602
 23
16.93461424410583
 33
0.0
  0
INSERT
  5
203
  8
0
  2
*U18
 10
0.0
 20
0.0
 30
0.0
  0
POINT
  5
204
  8
DEFPOINTS
 62
     0
 10
35.383549187786819
 20
15.437543165771739
 30
0.0
  0
POINT
  5
205
  8
DEFPOINTS
 62
     0
 10
35.17154918778683
 20
16.93461424410583
 30
0.0
  0
POINT
  5
206
  8
DEFPOINTS
 62
     0
 10
36.516987220027602
 20
16.93461424410583
 30
0.0
  0
ENDBLK
  5
1FB
  8
0
  0
BLOCK
  8
0
  2
*D7
 70
     1
 10
0.0
 20
0.0
 30
0.0
  3
*D7
  1

  0
LINE
  5
299
  8
0
 62
     0
 10
35.359049187786823
 20
17.313531126422689
 30
0.0
 11
37.102430578818378
 21
17.313531126422689
 31
0.0
  0
LINE
  5
29A
  8
0
 62
     0
 10
35.55024266818986
 20
15.83776883496469
 30
0.0
 11
37.102430578818371
 21
15.83776883496469
 31
0.0
  0
LINE
  5
29B
  8
0
 62
     0
 10
36.922430578818378
 20
17.133531126422689
 30
0.0
 11
36.922430578818378
 21
16.75564998069369
 31
0.0
  0
LINE
  5
29C
  8
0
 62
     0
 10
36.922430578818378
 20
16.017768834964691
 30
0.0
 11
36.922430578818378
 21
16.39564998069369
 31
0.0
  0
SOLID
  5
29D
  8
0
 62
     0
 10
36.892430578818377
 20
17.133531126422689
 30
0.0
 11
36.95243057881838
 21
17.133531126422689
 31
0.0
 12
36.922430578818378
 22
17.313531126422689
 32
0.0
 13
36.922430578818378
 23
17.313531126422689
 33
0.0
  0
SOLID
  5
29E
  8
0
 62
     0
 10
36.892430578818377
 20
16.017768834964691
 30
0.0
 11
36.95243057881838
 21
16.017768834964691
 31
0.0
 12
36.922430578818371
 22
15.83776883496469
 32
0.0
 13
36.922430578818371
 23
15.83776883496469
 33
0.0
  0
INSERT
  5
29F
  8
0
  2
*U20
 10
0.0
 20
0.0
 30
0.0
  0
POINT
  5
2A0
  8
DEFPOINTS
 62
     0
 10
35.296549187786823
 20
17.313531126422689
 30
0.0
  0
POINT
  5
2A1
  8
DEFPOINTS
 62
     0
 10
35.48774266818986
 20
15.83776883496469
 30
0.0
  0
POINT
  5
2A2
  8
DEFPOINTS
 62
     0
 10
36.922430578818371
 20
15.83776883496469
 30
0.0
  0
ENDBLK
  5
25A
  8
0
  0
BLOCK
  8
0
  2
*D8
 70
     1
 10
0.0
 20
0.0
 30
0.0
  3
*D8
  1

  0
LINE
  5
276
  8
0
 62
     0
 10
33.671049187786821
 20
16.99711424410582
 30
0.0
 11
33.671049187786821
 21
18.544192528297359
 31
0.0
  0
LINE
  5
277
  8
0
 62
     0
 10
36.171049187786821
 20
16.99711424410582
 30
0.0
 11
36.171049187786821
 21
18.544192528297359
 31
0.0
  0
LINE
  5
278
  8
0
 62
     0
 10
33.85104918778682
 20
18.364192528297359
 30
0.0
 11
34.576049187786822
 21
18.364192528297359
 31
0.0
  0
LINE
  5
279
  8
0
 62
     0
 10
35.991049187786821
 20
18.364192528297359
 30
0.0
 11
35.26604918778682
 21
18.364192528297359
 31
0.0
  0
SOLID
  5
27A
  8
0
 62
     0
 10
33.85104918778682
 20
18.394192528297371
 30
0.0
 11
33.85104918778682
 21
18.334192528297361
 31
0.0
 12
33.671049187786821
 22
18.364192528297359
 32
0.0
 13
33.671049187786821
 23
18.364192528297359
 33
0.0
  0
SOLID
  5
27B
  8
0
 62
     0
 10
35.991049187786821
 20
18.394192528297371
 30
0.0
 11
35.991049187786821
 21
18.334192528297361
 31
0.0
 12
36.171049187786821
 22
18.364192528297359
 32
0.0
 13
36.171049187786821
 23
18.364192528297359
 33
0.0
  0
INSERT
  5
27C
  8
0
  2
*U19
 10
0.0
 20
0.0
 30
0.0
  0
POINT
  5
27D
  8
DEFPOINTS
 62
     0
 10
33.671049187786821
 20
16.93461424410582
 30
0.0
  0
POINT
  5
27E
  8
DEFPOINTS
 62
     0
 10
36.171049187786821
 20
16.93461424410582
 30
0.0
  0
POINT
  5
27F
  8
DEFPOINTS
 62
     0
 10
36.171049187786821
 20
18.364192528297359
 30
0.0
  0
ENDBLK
  5
274
  8
0
  0
BLOCK
  8
0
  2
*D9
 70
     1
 10
0.0
 20
0.0
 30
0.0
  3
*D9
  1

  0
LINE
  5
2B2
  8
0
 62
     0
 10
34.546049187786821
 20
16.142185760862638
 30
0.0
 11
34.546049187786821
 21
15.440250064044291
 31
0.0
  0
LINE
  5
2B3
  8
0
 62
     0
 10
35.296049187786807
 20
16.142185760862638
 30
0.0
 11
35.296049187786807
 21
15.440250064044291
 31
0.0
  0
LINE
  5
2B4
  8
0
 62
     0
 10
34.72604918778682
 20
15.62025006404429
 30
0.0
 11
35.116049187786821
 21
15.62025006404429
 31
0.0
  0
LINE
  5
2B5
  8
0
 62
     0
 10
35.296049187786807
 20
15.62025006404429
 30
0.0
 11
35.476049187786813
 21
15.62025006404429
 31
0.0
  0
SOLID
  5
2B6
  8
0
 62
     0
 10
34.72604918778682
 20
15.65025006404429
 30
0.0
 11
34.72604918778682
 21
15.590250064044289
 31
0.0
 12
34.546049187786821
 22
15.62025006404429
 32
0.0
 13
34.546049187786821
 23
15.62025006404429
 33
0.0
  0
SOLID
  5
2B7
  8
0
 62
     0
 10
35.116049187786821
 20
15.65025006404429
 30
0.0
 11
35.116049187786821
 21
15.590250064044289
 31
0.0
 12
35.296049187786807
 22
15.62025006404429
 32
0.0
 13
35.296049187786807
 23
15.62025006404429
 33
0.0
  0
INSERT
  5
2B8
  8
0
  2
*U21
 10
0.0
 20
0.0
 30
0.0
  0
POINT
  5
2B9
  8
DEFPOINTS
 62
     0
 10
34.546049187786821
 20
16.204685760862638
 30
0.0
  0
POINT
  5
2BA
  8
DEFPOINTS
 62
     0
 10
35.296049187786807
 20
16.204685760862638
 30
0.0
  0
POINT
  5
2BB
  8
DEFPOINTS
 62
     0
 10
35.296049187786807
 20
15.62025006404429
 30
0.0
  0
ENDBLK
  5
2B0
  8
0
  0
BLOCK
  8
0
  2
*D10
 70
     1
 10
0.0
 20
0.0
 30
0.0
  3
*D10
  1

  0
LINE
  5
33B
  8
0
 62
     0
 10
34.546049187786821
 20
16.142185760862638
 30
0.0
 11
34.546049187786821
 21
15.501472412446359
 31
0.0
  0
LINE
  5
33C
  8
0
 62
     0
 10
35.296049187786807
 20
16.142185760862638
 30
0.0
 11
35.296049187786807
 21
15.501472412446359
 31
0.0
  0
LINE
  5
33D
  8
0
 62
     0
 10
34.72604918778682
 20
15.681472412446359
 30
0.0
 11
35.116049187786821
 21
15.681472412446359
 31
0.0
  0
LINE
  5
33E
  8
0
 62
     0
 10
35.296049187786807
 20
15.681472412446359
 30
0.0
 11
35.476049187786813
 21
15.681472412446359
 31
0.0
  0
SOLID
  5
33F
  8
0
 62
     0
 10
34.72604918778682
 20
15.71147241244636
 30
0.0
 11
34.72604918778682
 21
15.65147241244636
 31
0.0
 12
34.546049187786821
 22
15.681472412446359
 32
0.0
 13
34.546049187786821
 23
15.681472412446359
 33
0.0
  0
SOLID
  5
340
  8
0
 62
     0
 10
35.116049187786821
 20
15.71147241244636
 30
0.0
 11
35.116049187786821
 21
15.65147241244636
 31
0.0
 12
35.296049187786807
 22
15.681472412446359
 32
0.0
 13
35.296049187786807
 23
15.681472412446359
 33
0.0
  0
INSERT
  5
341
  8
0
  2
*U22
 10
0.0
 20
0.0
 30
0.0
  0
POINT
  5
342
  8
DEFPOINTS
 62
     0
 10
34.546049187786821
 20
16.204685760862638
 30
0.0
  0
POINT
  5
343
  8
DEFPOINTS
 62
     0
 10
35.296049187786807
 20
16.204685760862638
 30
0.0
  0
POINT
  5
344
  8
DEFPOINTS
 62
     0
 10
35.296049187786807
 20
15.681472412446359
 30
0.0
  0
ENDBLK
  5
339
  8
0
  0
BLOCK
  8
0
  2
*D11
 70
     1
 10
0.0
 20
0.0
 30
0.0
  3
*D11
  1

  0
LINE
  5
38C
  8
0
 62
     0
 10
33.421049187786821
 20
17.279154947501919
 30
0.0
 11
33.421049187786821
 21
19.11987239069397
 31
0.0
  0
LINE
  5
38D
  8
0
 62
     0
 10
36.421049187786821
 20
17.279154947501919
 30
0.0
 11
36.421049187786821
 21
19.11987239069397
 31
0.0
  0
LINE
  5
38E
  8
0
 62
     0
 10
33.60104918778682
 20
18.939872390693971
 30
0.0
 11
34.591049187786822
 21
18.939872390693971
 31
0.0
  0
LINE
  5
38F
  8
0
 62
     0
 10
36.241049187786821
 20
18.939872390693971
 30
0.0
 11
35.251049187786819
 21
18.939872390693971
 31
0.0
  0
SOLID
  5
390
  8
0
 62
     0
 10
33.60104918778682
 20
18.969872390693968
 30
0.0
 11
33.60104918778682
 21
18.90987239069397
 31
0.0
 12
33.421049187786821
 22
18.939872390693971
 32
0.0
 13
33.421049187786821
 23
18.939872390693971
 33
0.0
  0
SOLID
  5
391
  8
0
 62
     0
 10
36.241049187786821
 20
18.969872390693968
 30
0.0
 11
36.241049187786821
 21
18.90987239069397
 31
0.0
 12
36.421049187786821
 22
18.939872390693971
 32
0.0
 13
36.421049187786821
 23
18.939872390693971
 33
0.0
  0
INSERT
  5
392
  8
0
  2
*U24
 10
0.0
 20
0.0
 30
0.0
  0
POINT
  5
393
  8
DEFPOINTS
 62
     0
 10
33.421049187786821
 20
17.216654947501919
 30
0.0
  0
POINT
  5
394
  8
DEFPOINTS
 62
     0
 10
36.421049187786821
 20
17.216654947501919
 30
0.0
  0
POINT
  5
395
  8
DEFPOINTS
 62
     0
 10
36.421049187786821
 20
18.939872390693971
 30
0.0
  0
ENDBLK
  5
353
  8
0
  0
BLOCK
  8
0
  2
*D12
 70
     1
 10
0.0
 20
0.0
 30
0.0
  3
*D12
  1

  0
LINE
  5
36F
  8
0
 62
     0
 10
35.550242668189867
 20
15.838864662071559
 30
0.0
 11
37.212371431243021
 21
15.838864662071559
 31
0.0
  0
LINE
  5
370
  8
0
 62
     0
 10
35.296549187786823
 20
17.315468748625658
 30
0.0
 11
37.212371431243021
 21
17.315468748625658
 31
0.0
  0
LINE
  5
371
  8
0
 62
     0
 10
37.032371431243021
 20
16.018864662071561
 30
0.0
 11
37.032371431243021
 21
16.39716670534861
 31
0.0
  0
LINE
  5
372
  8
0
 62
     0
 10
37.032371431243021
 20
17.135468748625659
 30
0.0
 11
37.032371431243021
 21
16.75716670534861
 31
0.0
  0
SOLID
  5
373
  8
0
 62
     0
 10
37.00237143124302
 20
16.018864662071561
 30
0.0
 11
37.062371431243022
 21
16.018864662071561
 31
0.0
 12
37.032371431243007
 22
15.838864662071559
 32
0.0
 13
37.032371431243007
 23
15.838864662071559
 33
0.0
  0
SOLID
  5
374
  8
0
 62
     0
 10
37.00237143124302
 20
17.135468748625659
 30
0.0
 11
37.062371431243022
 21
17.135468748625659
 31
0.0
 12
37.032371431243021
 22
17.315468748625658
 32
0.0
 13
37.032371431243021
 23
17.315468748625658
 33
0.0
  0
INSERT
  5
375
  8
0
  2
*U23
 10
0.0
 20
0.0
 30
0.0
  0
POINT
  5
376
  8
DEFPOINTS
 62
     0
 10
35.487742668189867
 20
15.838864662071559
 30
0.0
  0
POINT
  5
377
  8
DEFPOINTS
 62
     0
 10
35.23404918778683
 20
17.315468748625658
 30
0.0
  0
POINT
  5
378
  8
DEFPOINTS
 62
     0
 10
37.032371431243021
 20
17.315468748625658
 30
0.0
  0
ENDBLK
  5
36D
  8
0
  0
BLOCK
  8
0
  2
*U13
 70
     1
 10
0.0
 20
0.0
 30
0.0
  3
*U13
  1

  0
TEXT
  5
3AB
  8
0
 62
     0
 10
32.940266709954301
 20
17.160323277149232
 30
0.0
 40
0.18
  1
1.50
  0
ENDBLK
  5
3AD
  8
0
  0
BLOCK
  8
0
  2
*U14
 70
     1
 10
0.0
 20
0.0
 30
0.0
  3
*U14
  1

  0
TEXT
  5
3AF
  8
0
 62
     0
 10
33.747766709954291
 20
15.53918210551992
 30
0.0
 40
0.18
  1
.625
  0
ENDBLK
  5
3B1
  8
0
  0
BLOCK
  8
0
  2
*U15
 70
     1
 10
0.0
 20
0.0
 30
0.0
  3
*U15
  1

  0
TEXT
  5
3B3
  8
0
 62
     0
 10
34.291006155677962
 20
16.236733300475809
 30
0.0
 40
0.18
  1
1.00
  0
ENDBLK
  5
3B5
  8
0
  0
BLOCK
  8
0
  2
*U16
 70
     1
 10
0.0
 20
0.0
 30
0.0
  3
*U16
  1

  0
TEXT
  5
3B7
  8
0
 62
     0
 10
34.681049187786819
 20
17.416894599011311
 30
0.0
 40
0.18
  1
2.00
  0
ENDBLK
  5
3B9
  8
0
  0
BLOCK
  8
0
  2
*U17
 70
     1
 10
0.0
 20
0.0
 30
0.0
  3
*U17
  1

  0
TEXT
  5
3BB
  8
0
 62
     0
 10
35.50354918778681
 20
15.168234854727309
 30
0.0
 40
0.18
  1
.625
  0
ENDBLK
  5
3BD
  8
0
  0
BLOCK
  8
0
  2
*U18
 70
     1
 10
0.0
 20
0.0
 30
0.0
  3
*U18
  1

  0
TEXT
  5
3BF
  8
0
 62
     0
 10
36.291987220027593
 20
16.09607870493879
 30
0.0
 40
0.18
  1
1.50
  0
ENDBLK
  5
3C1
  8
0
  0
BLOCK
  8
0
  2
*U19
 70
     1
 10
0.0
 20
0.0
 30
0.0
  3
*U19
  1

  0
TEXT
  5
3C3
  8
0
 62
     0
 10
34.666049187786818
 20
18.274192528297359
 30
0.0
 40
0.18
  1
2.50
  0
ENDBLK
  5
3C5
  8
0
  0
BLOCK
  8
0
  2
*U20
 70
     1
 10
0.0
 20
0.0
 30
0.0
  3
*U20
  1

  0
TEXT
  5
3C7
  8
0
 62
     0
 10
36.69743057881837
 20
16.48564998069369
 30
0.0
 40
0.18
  1
1.50
  0
ENDBLK
  5
3C9
  8
0
  0
BLOCK
  8
0
  2
*U21
 70
     1
 10
0.0
 20
0.0
 30
0.0
  3
*U21
  1

  0
TEXT
  5
3CB
  8
0
 62
     0
 10
35.56604918778681
 20
15.53025006404429
 30
0.0
 40
0.18
  1
0.7500
  0
ENDBLK
  5
3CD
  8
0
  0
BLOCK
  8
0
  2
*U22
 70
     1
 10
0.0
 20
0.0
 30
0.0
  3
*U22
  1

  0
TEXT
  5
3CF
  8
0
 62
     0
 10
35.566049187786817
 20
15.591472412446359
 30
0.0
 40
0.18
  1
.75
  0
ENDBLK
  5
3D1
  8
0
  0
BLOCK
  8
0
  2
*U23
 70
     1
 10
0.0
 20
0.0
 30
0.0
  3
*U23
  1

  0
TEXT
  5
3D3
  8
0
 62
     0
 10
36.807371431243013
 20
16.48716670534861
 30
0.0
 40
0.18
  1
1.50
  0
ENDBLK
  5
3D5
  8
0
  0
BLOCK
  8
0
  2
*U24
 70
     1
 10
0.0
 20
0.0
 30
0.0
  3
*U24
  1

  0
TEXT
  5
3D7
  8
0
 62
     0
 10
34.681049187786819
 20
18.849872390693971
 30
0.0
 40
0.18
  1
3.00
  0
ENDBLK
  5
3D9
  8
0
  0
ENDSEC
  0
SECTION
  2
ENTITIES
  0
LINE
  5
92
  8
0
 10
35.296049187786807
 20
16.204685760862638
 30
0.0
 11
35.296049187786821
 21
17.253468748625661
 31
0.0
  0
LINE
  5
93
  8
0
 10
35.23404918778683
 20
17.315468748625658
 30
0.0
 11
34.608049187786818
 21
17.315468748625658
 31
0.0
  0
LINE
  5
94
  8
0
 10
34.546049187786821
 20
17.253468748625661
 30
0.0
 11
34.546049187786821
 21
16.204685760862638
 31
0.0
  0
ARC
  5
9B
  8
0
 10
34.608049187786818
 20
17.253468748625661
 30
0.0
 40
0.062
 50
90.0
 51
180.0
  0
ARC
  5
9C
  8
0
 10
35.23404918778683
 20
17.253468748625661
 30
0.0
 40
0.062
 50
0.0
 51
90.000000000000455
  0
LINE
  5
1AA
  8
0
 10
34.479359388969669
 20
16.404685760862641
 30
0.0
 11
34.479359388969669
 21
15.96386299673093
 31
0.0
  0
LINE
  5
1AD
  8
0
 10
35.362742668189867
 20
16.40468576086263
 30
0.0
 11
35.362742668189867
 21
15.963864662071559
 31
0.0
  0
LINE
  5
1B7
  8
0
 10
35.361049187786811
 20
16.204685760862631
 30
0.0
 11
35.296049187786807
 21
16.204685760862638
 31
0.0
  0
LINE
  5
1B8
  8
0
 10
34.546049187786821
 20
16.204685760862638
 30
0.0
 11
34.48104918778683
 21
16.204685760862638
 31
0.0
  0
LINE
  5
1B9
  8
0
 10
35.427742668189858
 20
16.40468576086263
 30
0.0
 11
35.362742668189867
 21
16.40468576086263
 31
0.0
  0
LINE
  5
23F
  8
0
 10
35.361049187786811
 20
16.204685760862631
 30
0.0
 11
35.361049187786833
 21
17.253468748625661
 31
0.0
  0
LINE
  5
240
  8
0
 10
35.23404918778683
 20
17.38046874862566
 30
0.0
 11
34.608049187786818
 21
17.38046874862566
 31
0.0
  0
ARC
  5
241
  8
0
 10
35.23404918778683
 20
17.253468748625661
 30
0.0
 40
0.127
 50
0.0
 51
90.000000000000455
  0
ARC
  5
242
  8
0
 10
34.608049187786818
 20
17.253468748625661
 30
0.0
 40
0.127
 50
90.0
 51
180.0
  0
LINE
  5
243
  8
0
 10
34.481049187786823
 20
17.253468748625661
 30
0.0
 11
34.48104918778683
 21
16.204685760862638
 31
0.0
  0
LINE
  5
244
  8
0
 10
35.427742668189858
 20
16.40468576086263
 30
0.0
 11
35.427742668189858
 21
15.971638255057741
 31
0.0
  0
LINE
  5
245
  8
0
 10
34.414359388969672
 20
16.404685760862641
 30
0.0
 11
34.414359388969672
 21
15.97163656453386
 31
0.0
  0
LINE
  5
24C
  8
0
 10
34.479359388969669
 20
16.404685760862641
 30
0.0
 11
34.414359388969672
 21
16.404685760862641
 31
0.0
  0
ARC
  5
325
  8
0
 10
34.921049187786821
 20
17.216654947501919
 30
0.0
 40
1.5
 50
294.33938216804682
 51
245.66078620745489
  0
ARC
  5
327
  8
0
 10
34.354359388969662
 20
15.96386299673094
 30
0.0
 40
0.125
 50
245.66078620745461
 51
359.9999999999992
  0
ARC
  5
328
  8
0
 10
35.487742668189867
 20
15.963864662071559
 30
0.0
 40
0.125
 50
179.9999999999992
 51
294.33938216804643
  0
ARC
  5
329
  8
0
 10
35.492742668189862
 20
15.971638255057741
 30
0.0
 40
0.065
 50
180.0
 51
294.6638961235771
  0
ARC
  5
32A
  8
0
 10
34.349359388969681
 20
15.97163656453386
 30
0.0
 40
0.065
 50
245.3362733032227
 51
0.0
  0
ARC
  5
32B
  8
0
 10
34.921049187786821
 20
17.216654947501919
 30
0.0
 40
1.4350000000000001
 50
294.66389612357523
 51
245.33627330322199
  0
ENDSEC
  0
EOF
