  0
SECTION
  2
HEADER
  9
$ACADVER
  1
AC1009
  9
$INSBASE
 10
0.0
 20
0.0
 30
0.0
  9
$EXTMIN
 10
7.2844927623190721
 20
2.536945768805178
 30
0.0
  9
$EXTMAX
 10
16.744020864558301
 20
6.8962080306802847
 30
0.0
  9
$LIMMIN
 10
0.0
 20
0.0
  9
$LIMMAX
 10
12.0
 20
9.0
  9
$ORTHOMODE
 70
     1
  9
$REGENMODE
 70
     0
  9
$FILLMODE
 70
     1
  9
$QTEXTMODE
 70
     0
  9
$MIRRTEXT
 70
     0
  9
$DRAGMODE
 70
     2
  9
$LTSCALE
 40
1.0
  9
$OSMODE
 70
    55
  9
$ATTMODE
 70
     1
  9
$TEXTSIZE
 40
0.2
  9
$TRACEWID
 40
0.05
  9
$TEXTSTYLE
  7
STANDARD
  9
$CLAYER
  8
0
  9
$CELTYPE
  6
BYLAYER
  9
$CECOLOR
 62
   256
  9
$DIMSCALE
 40
1.0
  9
$DIMASZ
 40
0.125
  9
$DIMEXO
 40
0.0625
  9
$DIMDLI
 40
0.38
  9
$DIMRND
 40
0.0
  9
$DIMDLE
 40
0.0
  9
$DIMEXE
 40
0.18
  9
$DIMTP
 40
0.0
  9
$DIMTM
 40
0.0
  9
$DIMTXT
 40
0.09375
  9
$DIMCEN
 40
-0.125
  9
$DIMTSZ
 40
0.0
  9
$DIMTOL
 70
     0
  9
$DIMLIM
 70
     0
  9
$DIMTIH
 70
     0
  9
$DIMTOH
 70
     0
  9
$DIMSE1
 70
     0
  9
$DIMSE2
 70
     0
  9
$DIMTAD
 70
     0
  9
$DIMZIN
 70
     3
  9
$DIMBLK
  1

  9
$DIMASO
 70
     0
  9
$DIMSHO
 70
     1
  9
$DIMPOST
  1

  9
$DIMAPOST
  1

  9
$DIMALT
 70
     0
  9
$DIMALTD
 70
     2
  9
$DIMALTF
 40
25.399999999999999
  9
$DIMLFAC
 40
1.0
  9
$DIMTOFL
 70
     1
  9
$DIMTVP
 40
0.0
  9
$DIMTIX
 70
     0
  9
$DIMSOXD
 70
     0
  9
$DIMSAH
 70
     0
  9
$DIMBLK1
  1

  9
$DIMBLK2
  1

  9
$DIMSTYLE
  2
STANDARD
  9
$DIMCLRD
 70
     0
  9
$DIMCLRE
 70
     0
  9
$DIMCLRT
 70
     0
  9
$DIMTFAC
 40
1.0
  9
$DIMGAP
 40
0.09
  9
$LUNITS
 70
     4
  9
$LUPREC
 70
     4
  9
$SKETCHINC
 40
0.1
  9
$FILLETRAD
 40
0.025
  9
$AUNITS
 70
     0
  9
$AUPREC
 70
     4
  9
$MENU
  1
.
  9
$ELEVATION
 40
0.0
  9
$PELEVATION
 40
0.0
  9
$THICKNESS
 40
0.0
  9
$LIMCHECK
 70
     0
  9
$BLIPMODE
 70
     0
  9
$CHAMFERA
 40
0.125
  9
$CHAMFERB
 40
0.5
  9
$SKPOLY
 70
     0
  9
$TDCREATE
 40
2451086.9109346061
  9
$TDUPDATE
 40
2453913.5777322799
  9
$TDINDWG
 40
0.2424840046
  9
$TDUSRTIMER
 40
0.2424840046
  9
$USRTIMER
 70
     1
  9
$ANGBASE
 50
0.0
  9
$ANGDIR
 70
     0
  9
$PDMODE
 70
    34
  9
$PDSIZE
 40
3.0
  9
$PLINEWID
 40
0.0
  9
$COORDS
 70
     1
  9
$SPLFRAME
 70
     0
  9
$SPLINETYPE
 70
     6
  9
$SPLINESEGS
 70
     8
  9
$ATTDIA
 70
     0
  9
$ATTREQ
 70
     1
  9
$HANDLING
 70
     1
  9
$HANDSEED
  5
1F6
  9
$SURFTAB1
 70
     6
  9
$SURFTAB2
 70
     6
  9
$SURFTYPE
 70
     6
  9
$SURFU
 70
     6
  9
$SURFV
 70
     6
  9
$UCSNAME
  2

  9
$UCSORG
 10
0.0
 20
0.0
 30
0.0
  9
$UCSXDIR
 10
1.0
 20
0.0
 30
0.0
  9
$UCSYDIR
 10
0.0
 20
1.0
 30
0.0
  9
$PUCSNAME
  2

  9
$PUCSORG
 10
0.0
 20
0.0
 30
0.0
  9
$PUCSXDIR
 10
1.0
 20
0.0
 30
0.0
  9
$PUCSYDIR
 10
0.0
 20
1.0
 30
0.0
  9
$USERI1
 70
     0
  9
$USERI2
 70
     0
  9
$USERI3
 70
     0
  9
$USERI4
 70
     0
  9
$USERI5
 70
     0
  9
$USERR1
 40
0.0
  9
$USERR2
 40
0.0
  9
$USERR3
 40
0.0
  9
$USERR4
 40
0.0
  9
$USERR5
 40
0.0
  9
$WORLDVIEW
 70
     1
  9
$SHADEDGE
 70
     3
  9
$SHADEDIF
 70
    70
  9
$TILEMODE
 70
     1
  9
$MAXACTVP
 70
    48
  9
$PLIMCHECK
 70
     0
  9
$PEXTMIN
 10
6.555677779507401
 20
1.8223373967821539
 30
0.0
  9
$PEXTMAX
 10
17.61170246862595
 20
7.5814009058377732
 30
0.0
  9
$PLIMMIN
 10
-0.1579164520023376
 20
-0.2812499887361301
  9
$PLIMMAX
 10
10.84208330770177
 20
8.2187497709679782
  9
$UNITMODE
 70
     0
  9
$VISRETAIN
 70
     1
  9
$PLINEGEN
 70
     0
  9
$PSLTSCALE
 70
     1
  0
ENDSEC
  0
SECTION
  2
TABLES
  0
TABLE
  2
VPORT
 70
     2
  0
VPORT
  2
*ACTIVE
 70
     0
 10
0.0
 20
0.0
 11
1.0
 21
1.0
 12
5.6327091448324751
 22
0.0
 13
0.0
 23
0.0
 14
0.5
 24
0.5
 15
0.5
 25
0.5
 16
0.0
 26
0.0
 36
1.0
 17
8.6401369146340041
 27
4.8669125658381409
 37
0.0
 40
9.7338251316762836
 41
2.3227848101265818
 42
50.0
 43
0.0
 44
0.0
 50
0.0
 51
0.0
 71
     0
 72
   100
 73
     1
 74
     1
 75
     0
 76
     0
 77
     0
 78
     0
  0
ENDTAB
  0
TABLE
  2
LTYPE
 70
    18
  0
LTYPE
  2
CONTINUOUS
 70
     0
  3
Solid line
 72
    65
 73
     0
 40
0.0
  0
LTYPE
  2
HIDDEN
 70
     0
  3
__ __ __ __ __ __ __ __ __ __ __ __ __ __ __ __
 72
    65
 73
     2
 40
0.375
 49
0.25
 49
-0.125
  0
LTYPE
  2
PHANTOM2
 70
     0
  3
Phantom (.5x) ___ _ _ ___ _ _ ___ _ _ ___ _ _
 72
    65
 73
     6
 40
1.25
 49
0.625
 49
-0.125
 49
0.125
 49
-0.125
 49
0.125
 49
-0.125
  0
LTYPE
  2
CENTER
 70
     0
  3
Center ____ _ ____ _ ____ _ ____ _ ____ _ ____
 72
    65
 73
     4
 40
2.0
 49
1.25
 49
-0.25
 49
0.25
 49
-0.25
  0
LTYPE
  2
ASULTYPE
 70
     0
  3
Solid line
 72
    65
 73
     2
 40
3.0
 49
2.5
 49
0.5
  0
LTYPE
  2
ASVLTYPE
 70
     0
  3
__ __ __ __ __ __ __ __ __ __ __ __ __ __ __ __ __ __ __ __ __
 72
    65
 73
     2
 40
0.75
 49
0.5
 49
-0.25
  0
LTYPE
  2
AM_ISO02W050
 70
     0
  3
__ __ __ __ __ __ __ __ __ __ __ __ __ __ __
 72
    65
 73
     2
 40
7.5
 49
6.0
 49
-1.5
  0
LTYPE
  2
AM_ISO08W050
 70
     0
  3
____ . ____ . ____ . ____ . ____ . ____ . ____
 72
    65
 73
     4
 40
18.0
 49
12.0
 49
-1.5
 49
3.0
 49
-1.5
  0
LTYPE
  2
AM_ISO09W050
 70
     0
  3
_____ . . _____ . . _____ . . ____ .. ____
 72
    65
 73
     6
 40
22.5
 49
12.0
 49
-1.5
 49
3.0
 49
-1.5
 49
3.0
 49
-1.5
  0
LTYPE
  2
AMCONSTR
 70
     0
  3
_______________________
 72
    65
 73
     2
 40
9999.0
 49
9999.0
 49
0.0
  0
LTYPE
  2
AM_ISO08W050X2
 70
     0
  3
__ . __ . __ . __ . __ . __
 72
    65
 73
     4
 40
9.0
 49
6.0
 49
-0.75
 49
1.5
 49
-0.75
  0
LTYPE
  2
AM_ISO02W050X2
 70
     0
  3
 _ _ _ _ _ _ _ _ _ _ _ _
 72
    65
 73
     2
 40
3.75
 49
3.0
 49
-0.75
  0
LTYPE
  2
AMZIGZAG
 70
     0
  3
/\/-/\/-/\/-/\/-/\/-/\/
 72
    65
 73
     2
 40
11.0001
 49
0.0001
 49
-11.0
  0
LTYPE
  2
CENTER2
 70
     0
  3
Center (.5x) ___ _ ___ _ ___ _ ___ _ ___ _ ___
 72
    65
 73
     4
 40
1.125
 49
0.75
 49
-0.125
 49
0.125
 49
-0.125
  0
LTYPE
  2
HIDDEN2
 70
     0
  3
Hidden (.5x) _ _ _ _ _ _ _ _ _ _ _ _ _ _ _ _ _
 72
    65
 73
     2
 40
0.1875
 49
0.125
 49
-0.0625
  0
LTYPE
  2
AMZIGZAG2
 70
     0
  3
/\/-/\/-/\/-/\/-/\/-/\/
 72
    65
 73
     2
 40
0.4401
 49
0.0001
 49
-0.4400000000000001
  0
LTYPE
  2
ACANSTGB
 70
     0
  3
__ . . __ . .
 72
    65
 73
     6
 40
0.35433070866
 49
0.15748031496
 49
-0.03937007874
 49
0.03937007874
 49
-0.03937007874
 49
0.03937007874
 49
-0.03937007874
  0
LTYPE
  2
ACANSTGL
 70
     0
  3
_ _ _ _ _
 72
    65
 73
     2
 40
0.11811023622
 49
0.07874015748
 49
-0.03937007874
  0
ENDTAB
  0
TABLE
  2
LAYER
 70
     4
  0
LAYER
  2
0
 70
     0
 62
     7
  6
CONTINUOUS
  0
LAYER
  2
AM_VIS
 70
     0
 62
     7
  6
CONTINUOUS
  0
LAYER
  2
AM_HID
 70
     0
 62
     7
  6
HIDDEN
  0
LAYER
  2
KEE10
 70
     0
 62
     7
  6
CONTINUOUS
  0
ENDTAB
  0
TABLE
  2
STYLE
 70
     5
  0
STYLE
  2
STANDARD
 70
     0
 40
0.0
 41
1.0
 50
0.0
 71
     0
 42
0.2
  3
txt
  4

  0
STYLE
  2

 70
     1
 40
0.0
 41
1.0
 50
0.0
 71
     0
 42
0.2
  3
ltypeshp.shx
  4

  0
STYLE
  2
ACANSTS
 70
     0
 40
1.0
 41
1.0
 50
0.0
 71
     0
 42
0.2
  3
romans.shx
  4

  0
STYLE
  2
ACANSGDT
 70
     0
 40
0.0
 41
1.0
 50
0.0
 71
     0
 42
0.2
  3
amgdtans.shx
  4

  0
STYLE
  2
ACANSTSB
 70
     0
 40
1.0
 41
1.0
 50
0.0
 71
     0
 42
0.2
  3
romans.shx
  4

  0
ENDTAB
  0
TABLE
  2
VIEW
 70
     0
  0
ENDTAB
  0
TABLE
  2
UCS
 70
     0
  0
ENDTAB
  0
TABLE
  2
APPID
 70
    13
  0
APPID
  2
ACAD
 70
     0
  0
APPID
  2
GENIUS_GENDIM_13
 70
     0
  0
APPID
  2
GENIUS_GENDTOL_13
 70
     0
  0
APPID
  2
GENIUS_GE3DTOL_13
 70
     0
  0
APPID
  2
MCAD_NO_VIS
 70
     0
  0
APPID
  2
ACAD_TEMP_GRAPHIC
 70
     0
  0
APPID
  2
AD_DRAW
 70
     0
  0
APPID
  2
ACATTRIBSERVICES
 70
     0
  0
APPID
  2
ASURF_PCURVE_APPNAME
 70
     0
  0
APPID
  2
AMG_3D2D_5_0
 70
     0
  0
APPID
  2
DESIGNERASSEMBLIES
 70
     0
  0
APPID
  2
ACADM_DIM_EDIT
 70
     0
  0
APPID
  2
AMDT_DM_ADJ
 70
     0
  0
ENDTAB
  0
TABLE
  2
DIMSTYLE
 70
     7
  0
DIMSTYLE
  2
STANDARD
 70
     0
  3

  4

  5

  6

  7

 40
1.0
 41
0.18
 42
0.0625
 43
0.38
 44
0.18
 45
0.0
 46
0.0
 47
0.0
 48
0.0
140
0.18
141
0.09
142
0.0
143
25.399999999999999
144
1.0
145
0.0
146
1.0
147
0.09
 71
     0
 72
     0
 73
     1
 74
     1
 75
     0
 76
     0
 77
     0
 78
     0
170
     0
171
     2
172
     0
173
     0
174
     0
175
     0
176
     0
177
     0
178
     0
  0
DIMSTYLE
  2
AM_ANSI
 70
     0
  3

  4
mm
  5

  6

  7

 40
1.0
 41
0.1
 42
0.05
 43
0.5
 44
0.1
 45
0.0
 46
0.0
 47
0.1
 48
0.1
140
0.12
141
0.0
142
0.0
143
25.399999999999999
144
1.0
145
0.0
146
0.71
147
0.06
 71
     0
 72
     0
 73
     1
 74
     1
 75
     0
 76
     0
 77
     0
 78
     7
170
     0
171
     2
172
     0
173
     0
174
     0
175
     0
176
   256
177
   256
178
     2
  0
DIMSTYLE
  2
AM_ANSI$3
 70
     0
  3

  4
mm
  5

  6

  7

 40
1.0
 41
0.1
 42
0.05
 43
0.5
 44
0.1
 45
0.0
 46
0.0
 47
0.1
 48
0.1
140
0.12
141
0.0
142
0.0
143
25.399999999999999
144
1.0
145
0.0
146
0.71
147
0.06
 71
     0
 72
     0
 73
     1
 74
     1
 75
     0
 76
     0
 77
     0
 78
     7
170
     0
171
     2
172
     0
173
     0
174
     0
175
     0
176
   256
177
   256
178
     2
  0
DIMSTYLE
  2
AM_ANSI$4
 70
     0
  3

  4
mm
  5

  6

  7

 40
1.0
 41
0.1
 42
0.05
 43
0.5
 44
0.1
 45
0.0
 46
0.0
 47
0.1
 48
0.1
140
0.12
141
0.0
142
0.0
143
25.399999999999999
144
1.0
145
0.0
146
0.71
147
0.06
 71
     0
 72
     0
 73
     1
 74
     1
 75
     0
 76
     0
 77
     0
 78
     7
170
     0
171
     2
172
     0
173
     0
174
     0
175
     0
176
   256
177
   256
178
     2
  0
DIMSTYLE
  2
AM_ANSI$7
 70
     0
  3

  4
mm
  5

  6

  7

 40
1.0
 41
0.1
 42
0.05
 43
0.5
 44
0.1
 45
0.0
 46
0.0
 47
0.1
 48
0.1
140
0.24
141
0.0
142
0.0
143
25.399999999999999
144
1.0
145
0.0
146
0.71
147
0.06
 71
     0
 72
     0
 73
     1
 74
     1
 75
     0
 76
     0
 77
     0
 78
     7
170
     0
171
     2
172
     0
173
     0
174
     0
175
     0
176
   256
177
   256
178
     2
  0
DIMSTYLE
  2
AM_ANSI$SF
 70
     0
  3

  4
mm
  5

  6

  7

 40
1.0
 41
0.1
 42
0.05
 43
0.5
 44
0.1
 45
0.0
 46
0.0
 47
0.1
 48
0.1
140
0.12
141
0.0
142
0.0
143
25.399999999999999
144
1.0
145
0.0
146
0.71
147
0.06
 71
     0
 72
     0
 73
     1
 74
     1
 75
     1
 76
     1
 77
     0
 78
     7
170
     0
171
     2
172
     0
173
     0
174
     0
175
     0
176
   256
177
   256
178
     2
  0
DIMSTYLE
  2
AM_ANSI$SH
 70
     0
  3

  4
mm
  5

  6
GENAXEH
  7

 40
1.0
 41
0.1
 42
0.05
 43
0.5
 44
0.1
 45
0.0
 46
0.0
 47
0.1
 48
0.1
140
0.12
141
0.0
142
0.0
143
25.399999999999999
144
1.0
145
0.0
146
0.71
147
0.06
 71
     0
 72
     0
 73
     1
 74
     1
 75
     1
 76
     1
 77
     0
 78
     7
170
     0
171
     2
172
     0
173
     1
174
     0
175
     0
176
   256
177
   256
178
     2
  0
ENDTAB
  0
ENDSEC
  0
SECTION
  2
BLOCKS
  0
BLOCK
  8
0
  2
$MODEL_SPACE
 70
     0
 10
0.0
 20
0.0
 30
0.0
  3
$MODEL_SPACE
  1

  0
ENDBLK
  5
A
  8
0
  0
BLOCK
 67
     1
  8
0
  2
$PAPER_SPACE
 70
     0
 10
0.0
 20
0.0
 30
0.0
  3
$PAPER_SPACE
  1

  0
ENDBLK
  5
F
 67
     1
  8
0
  0
BLOCK
  8
0
  2
*U0
 70
     1
 10
0.0
 20
0.0
 30
0.0
  3
*U0
  1

  0
ENDBLK
  5
139
  8
0
  0
BLOCK
  8
0
  2
GENAXEH
 70
     0
 10
0.0
 20
0.0
 30
0.0
  3
GENAXEH
  1

  0
LINE
  5
177
  8
0
 10
-1.0
 20
0.0
 30
0.0
 11
1.0
 21
0.0
 31
0.0
  0
ENDBLK
  5
179
  8
0
  0
BLOCK
  8
0
  2
_DOT
 70
     0
 10
0.0
 20
0.0
 30
0.0
  3
_DOT
  1

  0
POLYLINE
  5
183
  8
0
  6
BYBLOCK
 62
     0
 66
     1
 10
0.0
 20
0.0
 30
0.0
 70
     1
 40
0.5
 41
0.5
  0
VERTEX
  5
184
  8
0
  6
BYBLOCK
 62
     0
 10
-0.25
 20
0.0
 30
0.0
 42
1.0
  0
VERTEX
  5
185
  8
0
  6
BYBLOCK
 62
     0
 10
0.25
 20
0.0
 30
0.0
 42
1.0
  0
SEQEND
  5
186
  8
0
  6
BYBLOCK
 62
     0
  0
LINE
  5
187
  8
0
  6
BYBLOCK
 62
     0
 10
-0.5
 20
0.0
 30
0.0
 11
-1.0
 21
0.0
 31
0.0
  0
ENDBLK
  5
189
  8
0
  0
BLOCK
  8
0
  2
2D
 70
     0
 10
0.0
 20
0.0
 30
0.0
  3
2D
  1

  0
INSERT
  5
18D
  8
0
  2
*U4
 10
0.0
 20
0.0
 30
0.0
  0
INSERT
  5
18E
  8
0
  2
*U5
 10
0.0
 20
0.0
 30
0.0
  0
INSERT
  5
18F
  8
0
  2
*U6
 10
0.0
 20
0.0
 30
0.0
  0
ENDBLK
  5
191
  8
0
  0
BLOCK
  8
0
  2
*U4
 70
     1
 10
0.0
 20
0.0
 30
0.0
  3
*U4
  1

  0
TEXT
  5
1DF
  8
KEE10
 10
-0.167740653382606
 20
0.7944046258072062
 30
0.0
 40
0.140625
  1
KEE
  0
ENDBLK
  5
1E1
  8
0
  0
BLOCK
  8
0
  2
*U5
 70
     1
 10
0.0
 20
0.0
 30
0.0
  3
*U5
  1

  0
TEXT
  5
1E3
  8
KEE10
 10
-0.308365653382606
 20
0.4858688129746218
 30
0.0
 40
0.140625
  1
KLAMP
  0
ENDBLK
  5
1E5
  8
0
  0
BLOCK
  8
0
  2
*U6
 70
     1
 10
0.0
 20
0.0
 30
0.0
  3
*U6
  1

  0
TEXT
  5
1E7
  8
KEE10
 10
-0.202896903382606
 20
0.2018753139112972
 30
0.0
 40
0.140625
  1
10-8
  0
ENDBLK
  5
1E9
  8
0
  0
BLOCK
  8
0
  2
*U7
 70
     1
 10
0.0
 20
0.0
 30
0.0
  3
*U7
  1

  0
TEXT
  5
1EB
  8
KEE10
 10
15.45408579273715
 20
5.6255424912151293
 30
0.0
 40
0.1265625
  1
KEE
  0
ENDBLK
  5
1ED
  8
0
  0
BLOCK
  8
0
  2
*U8
 70
     1
 10
0.0
 20
0.0
 30
0.0
  3
*U8
  1

  0
TEXT
  5
1EF
  8
KEE10
 10
15.327523292737149
 20
5.3478602596658034
 30
0.0
 40
0.1265625
  1
KLAMP
  0
ENDBLK
  5
1F1
  8
0
  0
BLOCK
  8
0
  2
*U9
 70
     1
 10
0.0
 20
0.0
 30
0.0
  3
*U9
  1

  0
TEXT
  5
1F3
  8
0
 10
13.418466933223639
 20
5.1102705306802854
 30
0.0
 40
0.084375
  1
3-1/4"
 50
90.0
  0
ENDBLK
  5
1F5
  8
0
  0
ENDSEC
  0
SECTION
  2
ENTITIES
  0
POINT
  5
25
  8
0
 10
0.0
 20
0.0
 30
0.0
  0
CIRCLE
  5
26
  8
AM_VIS
 10
10.936695931711141
 20
5.9962080306802843
 30
0.0
 40
0.196875
  0
CIRCLE
  5
28
  8
AM_VIS
 10
8.1241959317111387
 20
5.9962080306802843
 30
0.0
 40
0.196875
  0
CIRCLE
  5
29
  8
AM_VIS
 10
9.5304459317111387
 20
3.1839335069300732
 30
0.0
 40
0.196875
  0
LINE
  5
2A
  8
AM_HID
 10
10.04154768283316
 20
3.7462080306802852
 30
0.0
 11
10.04154768283316
 21
6.6431957688051781
 31
0.0
  0
LINE
  5
2D
  8
AM_HID
 10
9.0193441805891137
 20
6.6431957688051781
 30
0.0
 11
9.0193441805891137
 21
3.7462080306802852
 31
0.0
  0
LINE
  5
2E
  8
AM_HID
 10
9.0193441805891137
 20
6.6431957688051781
 30
0.0
 11
8.4954459317111386
 21
6.6431957688051781
 31
0.0
  0
LINE
  5
2F
  8
AM_VIS
 10
8.4954459317111368
 20
6.6431957688051781
 30
0.0
 11
8.1241959317111387
 21
6.6431957688051781
 31
0.0
  0
ARC
  5
30
  8
AM_VIS
 10
8.1241959317111387
 20
5.9962080306802843
 30
0.0
 40
0.6469877381248942
 50
90.000000000000071
 51
206.5668886407008
  0
LINE
  5
31
  8
AM_VIS
 10
7.5455217859142678
 20
5.7068477599618754
 30
0.0
 11
8.4954459317111386
 21
3.807151777938965
 31
0.0
  0
LINE
  5
32
  8
AM_HID
 10
8.4954459317111386
 20
3.807151777938965
 30
0.0
 11
8.5259202484461341
 21
3.7462080306802839
 31
0.0
  0
LINE
  5
33
  8
AM_VIS
 10
8.5259202484461341
 20
3.7462080306802839
 30
0.0
 11
8.9517717859142696
 21
2.8945732362116638
 31
0.0
  0
ARC
  5
34
  8
AM_VIS
 10
9.5304459317111387
 20
3.1839335069300718
 30
0.0
 40
0.646987738124894
 50
206.56688864070071
 51
333.43311135929918
  0
LINE
  5
35
  8
AM_VIS
 10
10.109120077508001
 20
2.8945732362116638
 30
0.0
 11
10.53497161497614
 21
3.7462080306802839
 31
0.0
  0
LINE
  5
36
  8
AM_HID
 10
10.53497161497614
 20
3.7462080306802839
 30
0.0
 11
10.565445931711141
 21
3.8071517779389672
 31
0.0
  0
LINE
  5
37
  8
AM_VIS
 10
10.565445931711141
 20
3.8071517779389672
 30
0.0
 11
11.515370077508001
 21
5.7068477599618737
 31
0.0
  0
ARC
  5
38
  8
AM_VIS
 10
10.936695931711141
 20
5.9962080306802843
 30
0.0
 40
0.6469877381248943
 50
333.43311135929918
 51
90.0
  0
LINE
  5
39
  8
AM_VIS
 10
10.936695931711141
 20
6.6431957688051781
 30
0.0
 11
10.565445931711141
 21
6.6431957688051781
 31
0.0
  0
LINE
  5
3A
  8
AM_HID
 10
10.565445931711141
 20
6.6431957688051781
 30
0.0
 11
10.04154768283316
 21
6.6431957688051781
 31
0.0
  0
LINE
  5
3B
  8
AM_HID
 10
10.04154768283316
 20
6.6431957688051781
 30
0.0
 11
9.0193441805891137
 21
6.6431957688051781
 31
0.0
  0
LINE
  5
3C
  8
AM_VIS
 10
9.3946021759432146
 20
3.7462080306802839
 30
0.0
 11
8.4954459317111368
 21
3.7462080306802852
 31
0.0
  0
LINE
  5
3D
  8
AM_VIS
 10
10.565445931711141
 20
3.7462080306802852
 30
0.0
 11
9.6662896874790611
 21
3.7462080306802839
 31
0.0
  0
LINE
  5
3E
  8
AM_VIS
 10
10.565445931711141
 20
6.8962080306802838
 30
0.0
 11
9.6662896874790611
 21
6.8962080306802838
 31
0.0
  0
LINE
  5
3F
  8
AM_VIS
 10
9.3946021759432146
 20
6.8962080306802838
 30
0.0
 11
8.4954459317111368
 21
6.8962080306802838
 31
0.0
  0
LINE
  5
40
  8
AM_VIS
 10
9.5304459317111387
 20
3.74620803118375
 30
0.0
 11
9.6662896874790594
 21
3.74620803118375
 31
0.0
  0
LINE
  5
41
  8
AM_VIS
 10
9.3946021759432146
 20
3.7462080311837509
 30
0.0
 11
9.5304459317111387
 21
3.7462080311837509
 31
0.0
  0
ARC
  5
42
  8
AM_VIS
 10
9.5409343222563265
 20
4.3094194328623523
 30
0.0
 40
0.3692967596140903
 50
229.29431560951789
 51
268.37178989422023
  0
ARC
  5
43
  8
AM_VIS
 10
9.5199575411659474
 20
4.309419432862347
 30
0.0
 40
0.369296759614085
 50
271.62821010577977
 51
310.70568439048242
  0
ARC
  5
44
  8
AM_VIS
 10
9.5304459317111387
 20
4.3132080306802827
 30
0.0
 40
0.365625
 50
129.0723075591803
 51
230.9276924408195
  0
ARC
  5
45
  8
AM_VIS
 10
9.5409343222563265
 20
4.3169966284982193
 30
0.0
 40
0.3692967596140855
 50
91.628210105779729
 51
130.70568439048239
  0
CIRCLE
  5
46
  8
AM_VIS
 10
9.5304459317111352
 20
4.3132080306802827
 30
0.0
 40
0.28125
  0
ARC
  5
47
  8
AM_VIS
 10
9.5304459317111352
 20
4.3132080306802836
 30
0.0
 40
0.365625
 50
309.07230755918039
 51
50.927692440819463
  0
ARC
  5
48
  8
AM_VIS
 10
9.5199575411659474
 20
4.316996628498214
 30
0.0
 40
0.3692967596140903
 50
49.294315609517881
 51
88.371789894220143
  0
LINE
  5
49
  8
AM_VIS
 10
9.3946021759432146
 20
6.896208030176818
 30
0.0
 11
9.5304459317111387
 21
6.896208030176818
 31
0.0
  0
LINE
  5
4A
  8
AM_VIS
 10
9.5304459317111387
 20
6.896208030176818
 30
0.0
 11
9.6662896874790594
 21
6.896208030176818
 31
0.0
  0
ARC
  5
4B
  8
AM_VIS
 10
9.5409343222563301
 20
6.3329966284982193
 30
0.0
 40
0.3692967596140876
 50
91.628210105779829
 51
130.70568439048239
  0
ARC
  5
4C
  8
AM_VIS
 10
9.5199575411659438
 20
6.3329966284982104
 30
0.0
 40
0.3692967596140966
 50
49.294315609518087
 51
88.371789894219674
  0
ARC
  5
4D
  8
AM_VIS
 10
9.5304459317111387
 20
6.3292080306802854
 30
0.0
 40
0.365625
 50
129.0723075591805
 51
230.9276924408195
  0
ARC
  5
4E
  8
AM_VIS
 10
9.5409343222563301
 20
6.3254194328623523
 30
0.0
 40
0.3692967596140892
 50
229.2943156095177
 51
268.37178989422
  0
CIRCLE
  5
4F
  8
AM_VIS
 10
9.5304459317111352
 20
6.3292080306802854
 30
0.0
 40
0.28125
  0
ARC
  5
50
  8
AM_VIS
 10
9.5199575411659438
 20
6.3254194328623594
 30
0.0
 40
0.3692967596140959
 50
271.62821010578023
 51
310.70568439048179
  0
ARC
  5
51
  8
AM_VIS
 10
9.5304459317111352
 20
6.3292080306802836
 30
0.0
 40
0.365625
 50
309.07230755918062
 51
50.927692440819577
  0
LINE
  5
52
  8
AM_VIS
 10
8.4954459317111368
 20
3.7462080306802852
 30
0.0
 11
8.4954459317111368
 21
6.8962080306802847
 31
0.0
  0
LINE
  5
53
  8
AM_VIS
 10
10.565445931711141
 20
3.7462080306802852
 30
0.0
 11
10.565445931711141
 21
6.8962080306802847
 31
0.0
  0
LINE
  5
54
  8
AM_HID
 10
8.6304459317111384
 20
3.7462080306802852
 30
0.0
 11
8.6304459317111384
 21
6.8962080306802847
 31
0.0
  0
LINE
  5
55
  8
AM_HID
 10
10.430445931711141
 20
3.7462080306802852
 30
0.0
 11
10.430445931711141
 21
6.8962080306802847
 31
0.0
  0
LINE
  5
56
  8
AM_VIS
 10
16.5190208645583
 20
2.8945732362116638
 30
0.0
 11
16.5190208645583
 21
2.536945768805178
 31
0.0
  0
LINE
  5
57
  8
AM_VIS
 10
16.5190208645583
 20
2.8945732362116638
 30
0.0
 11
16.5190208645583
 21
5.7068477599618737
 31
0.0
  0
LINE
  5
58
  8
AM_VIS
 10
16.5190208645583
 20
6.6431957688051781
 30
0.0
 11
16.5190208645583
 21
5.7068477599618737
 31
0.0
  0
LINE
  5
59
  8
AM_VIS
 10
16.744020864558301
 20
6.6431957688051781
 30
0.0
 11
16.744020864558301
 21
5.7068477599618737
 31
0.0
  0
LINE
  5
5A
  8
AM_VIS
 10
16.744020864558301
 20
6.6431957688051781
 30
0.0
 11
16.5190208645583
 21
6.6431957688051781
 31
0.0
  0
LINE
  5
5B
  8
AM_VIS
 10
16.744020864558301
 20
2.8945732362116638
 30
0.0
 11
16.744020864558301
 21
5.7068477599618737
 31
0.0
  0
LINE
  5
5C
  8
AM_VIS
 10
16.744020864558301
 20
2.8945732362116638
 30
0.0
 11
16.744020864558301
 21
2.536945768805178
 31
0.0
  0
LINE
  5
5D
  8
AM_VIS
 10
16.5190208645583
 20
3.7462080306802852
 30
0.0
 11
14.592974338313571
 21
3.7462080306802839
 31
0.0
  0
LINE
  5
5E
  8
AM_VIS
 10
16.654020864558301
 20
6.8962080306802838
 30
0.0
 11
14.592974338313571
 21
6.8962080306802838
 31
0.0
  0
LINE
  5
5F
  8
AM_VIS
 10
14.58277711447017
 20
3.746208031331888
 30
0.0
 11
14.592974338313571
 21
3.746208031331888
 31
0.0
  0
ARC
  5
60
  8
AM_VIS
 10
14.359020864559
 20
3.7225830306811738
 30
0.0
 40
0.2249999999989401
 50
6.0271665609539058
 51
75.522487814185808
  0
LINE
  5
61
  8
AM_VIS
 10
14.41527086455803
 20
4.0293546460918392
 30
0.0
 11
14.41527086455803
 21
3.940438343904388
 31
0.0
  0
ARC
  5
62
  8
AM_VIS
 10
14.3590208645583
 20
4.903833030680282
 30
0.0
 40
0.2249999999999988
 50
284.47751218592981
 51
0.0000000000002398
  0
LINE
  5
63
  8
AM_VIS
 10
14.4152708645583
 20
4.5970614152687279
 30
0.0
 11
14.4152708645583
 21
4.0293546460918392
 31
0.0
  0
LINE
  5
64
  8
AM_VIS
 10
14.41527086455803
 20
4.6859777174561783
 30
0.0
 11
14.41527086455803
 21
4.597061415268727
 31
0.0
  0
ARC
  5
65
  8
AM_HID
 10
13.826942594209459
 20
4.3069693905550288
 30
0.0
 40
0.9371947784786133
 50
0.3814134309669193
 51
17.862491154126239
  0
ARC
  5
66
  8
AM_HID
 10
13.826942594209459
 20
4.3194466708055366
 30
0.0
 40
0.9371947784786137
 50
342.13750884587381
 51
359.6185865690332
  0
ARC
  5
67
  8
AM_HID
 10
13.82694259420947
 20
6.3354466708055366
 30
0.0
 40
0.9371947784786051
 50
342.1375088458737
 51
359.6185865690332
  0
ARC
  5
68
  8
AM_HID
 10
13.82694259420945
 20
6.3229693905550288
 30
0.0
 40
0.9371947784786271
 50
0.3814134309669919
 51
17.862491154126079
  0
LINE
  5
69
  8
AM_VIS
 10
14.58277711447017
 20
6.8962080300286788
 30
0.0
 11
14.592974338313571
 21
6.8962080300286788
 31
0.0
  0
ARC
  5
6A
  8
AM_VIS
 10
14.359020864558991
 20
6.9198330306793956
 30
0.0
 40
0.2249999999989429
 50
284.47751218581459
 51
353.97283343904581
  0
LINE
  5
6B
  8
AM_VIS
 10
14.41527086455803
 20
6.7019777174561792
 30
0.0
 11
14.41527086455803
 21
6.6130614152687279
 31
0.0
  0
ARC
  5
6C
  8
AM_VIS
 10
14.3590208645583
 20
5.7385830306802861
 30
0.0
 40
0.2249999999999998
 50
360.0
 51
75.522487814070317
  0
LINE
  5
6D
  8
AM_VIS
 10
14.41527086455803
 20
6.045354646091841
 30
0.0
 11
14.41527086455803
 21
5.9564383439043898
 31
0.0
  0
LINE
  5
6E
  8
AM_VIS
 10
14.4152708645583
 20
6.045354646091841
 30
0.0
 11
14.4152708645583
 21
6.6130614152687279
 31
0.0
  0
LINE
  5
6F
  8
AM_VIS
 10
16.744020864558301
 20
2.536945768805178
 30
0.0
 11
16.5190208645583
 21
2.536945768805178
 31
0.0
  0
LINE
  5
70
  8
AM_HID
 10
16.744020864558301
 20
2.9870585069300728
 30
0.0
 11
16.5190208645583
 21
2.9870585069300728
 31
0.0
  0
LINE
  5
71
  8
AM_HID
 10
16.744020864558301
 20
3.3808085069300731
 30
0.0
 11
16.5190208645583
 21
3.3808085069300731
 31
0.0
  0
LINE
  5
72
  8
AM_HID
 10
16.744020864558301
 20
5.7993330306802831
 30
0.0
 11
16.5190208645583
 21
5.7993330306802831
 31
0.0
  0
LINE
  5
73
  8
AM_HID
 10
16.744020864558301
 20
6.1930830306802829
 30
0.0
 11
16.5190208645583
 21
6.1930830306802829
 31
0.0
  0
LINE
  5
74
  8
AM_VIS
 10
14.584020864558299
 20
4.9038330306802829
 30
0.0
 11
14.584020864558299
 21
5.7385830306802852
 31
0.0
  0
LINE
  5
75
  8
AM_VIS
 10
16.654020864558301
 20
6.6431957688051781
 30
0.0
 11
16.654020864558301
 21
6.8962080306802847
 31
0.0
  0
LINE
  5
76
  8
AM_HID
 10
14.719020864558299
 20
4.0319580306802827
 30
0.0
 11
14.4152708645583
 21
4.0319580306802827
 31
0.0
  0
LINE
  5
77
  8
AM_HID
 10
14.719020864558299
 20
4.5944580306802827
 30
0.0
 11
14.4152708645583
 21
4.5944580306802827
 31
0.0
  0
LINE
  5
78
  8
AM_HID
 10
14.719020864558299
 20
3.7462080306802839
 30
0.0
 11
14.719020864558299
 21
4.0319580306802836
 31
0.0
  0
LINE
  5
79
  8
AM_HID
 10
14.719020864558299
 20
4.5944580306802827
 30
0.0
 11
14.719020864558299
 21
6.0479580306802863
 31
0.0
  0
LINE
  5
7A
  8
AM_HID
 10
14.719020864558299
 20
6.6104580306802836
 30
0.0
 11
14.719020864558299
 21
6.8962080306802838
 31
0.0
  0
LINE
  5
7B
  8
AM_HID
 10
16.5190208645583
 20
6.6431957688051781
 30
0.0
 11
16.5190208645583
 21
6.8962080306802847
 31
0.0
  0
LINE
  5
7C
  8
AM_HID
 10
14.4152708645583
 20
6.6104580306802854
 30
0.0
 11
14.719020864558299
 21
6.6104580306802854
 31
0.0
  0
LINE
  5
7D
  8
AM_HID
 10
14.4152708645583
 20
6.0479580306802854
 30
0.0
 11
14.719020864558299
 21
6.0479580306802854
 31
0.0
  0
INSERT
  5
196
  8
0
  2
*U7
 10
0.0
 20
0.0
 30
0.0
  0
INSERT
  5
197
  8
0
  2
*U8
 10
0.0
 20
0.0
 30
0.0
  0
LINE
  5
199
  8
0
 10
14.526527114470319
 20
3.7462080306842762
 30
0.0
 11
13.21427943322364
 21
3.7462080306842762
 31
0.0
  0
LINE
  5
19A
  8
0
 10
14.526527114470319
 20
6.8962080306762923
 30
0.0
 11
13.21427943322365
 21
6.8962080306762932
 31
0.0
  0
LINE
  5
19B
  8
0
 10
13.37627943322364
 20
3.858708030684276
 30
0.0
 11
13.37627943322364
 21
5.0292705306802841
 31
0.0
  0
LINE
  5
19C
  8
0
 10
13.37627943322364
 20
6.7837080306762934
 30
0.0
 11
13.37627943322364
 21
5.613145530680284
 31
0.0
  0
SOLID
  5
19D
  8
0
 10
13.35752943322364
 20
3.858708030684276
 30
0.0
 11
13.395029433223639
 21
3.858708030684276
 31
0.0
 12
13.37627943322364
 22
3.7462080306842762
 32
0.0
 13
13.37627943322364
 23
3.7462080306842762
 33
0.0
  0
SOLID
  5
19E
  8
0
 10
13.35752943322364
 20
6.7837080306762934
 30
0.0
 11
13.395029433223639
 21
6.7837080306762934
 31
0.0
 12
13.37627943322364
 22
6.8962080306762932
 32
0.0
 13
13.37627943322364
 23
6.8962080306762932
 33
0.0
  0
INSERT
  5
19F
  8
0
  2
*U9
 10
0.0
 20
0.0
 30
0.0
  0
ENDSEC
  0
EOF
