  0
SECTION
  2
HEADER
  9
$ACADVER
  1
AC1009
  9
$INSBASE
 10
0.0
 20
0.0
 30
0.0
  9
$EXTMIN
 10
6.0567161610716536
 20
-0.605751393948861
 30
0.0
  9
$EXTMAX
 10
14.92722232624042
 20
7.1026901705215781
 30
0.0
  9
$LIMMIN
 10
0.0
 20
0.0
  9
$LIMMAX
 10
12.0
 20
9.0
  9
$ORTHOMODE
 70
     1
  9
$REGENMODE
 70
     0
  9
$FILLMODE
 70
     1
  9
$QTEXTMODE
 70
     0
  9
$MIRRTEXT
 70
     0
  9
$DRAGMODE
 70
     2
  9
$LTSCALE
 40
1.0
  9
$OSMODE
 70
    55
  9
$ATTMODE
 70
     1
  9
$TEXTSIZE
 40
0.2
  9
$TRACEWID
 40
0.05
  9
$TEXTSTYLE
  7
STANDARD
  9
$CLAYER
  8
0
  9
$CELTYPE
  6
BYLAYER
  9
$CECOLOR
 62
   256
  9
$DIMSCALE
 40
1.0
  9
$DIMASZ
 40
0.125
  9
$DIMEXO
 40
0.0625
  9
$DIMDLI
 40
0.38
  9
$DIMRND
 40
0.0
  9
$DIMDLE
 40
0.0
  9
$DIMEXE
 40
0.18
  9
$DIMTP
 40
0.0
  9
$DIMTM
 40
0.0
  9
$DIMTXT
 40
0.09375
  9
$DIMCEN
 40
-0.125
  9
$DIMTSZ
 40
0.0
  9
$DIMTOL
 70
     0
  9
$DIMLIM
 70
     0
  9
$DIMTIH
 70
     0
  9
$DIMTOH
 70
     0
  9
$DIMSE1
 70
     0
  9
$DIMSE2
 70
     0
  9
$DIMTAD
 70
     0
  9
$DIMZIN
 70
     3
  9
$DIMBLK
  1

  9
$DIMASO
 70
     0
  9
$DIMSHO
 70
     1
  9
$DIMPOST
  1

  9
$DIMAPOST
  1

  9
$DIMALT
 70
     0
  9
$DIMALTD
 70
     2
  9
$DIMALTF
 40
25.399999999999999
  9
$DIMLFAC
 40
1.0
  9
$DIMTOFL
 70
     1
  9
$DIMTVP
 40
0.0
  9
$DIMTIX
 70
     0
  9
$DIMSOXD
 70
     0
  9
$DIMSAH
 70
     0
  9
$DIMBLK1
  1

  9
$DIMBLK2
  1

  9
$DIMSTYLE
  2
STANDARD
  9
$DIMCLRD
 70
     0
  9
$DIMCLRE
 70
     0
  9
$DIMCLRT
 70
     0
  9
$DIMTFAC
 40
1.0
  9
$DIMGAP
 40
0.09
  9
$LUNITS
 70
     4
  9
$LUPREC
 70
     4
  9
$SKETCHINC
 40
0.1
  9
$FILLETRAD
 40
0.025
  9
$AUNITS
 70
     0
  9
$AUPREC
 70
     4
  9
$MENU
  1
.
  9
$ELEVATION
 40
0.0
  9
$PELEVATION
 40
0.0
  9
$THICKNESS
 40
0.0
  9
$LIMCHECK
 70
     0
  9
$BLIPMODE
 70
     0
  9
$CHAMFERA
 40
0.125
  9
$CHAMFERB
 40
0.5
  9
$SKPOLY
 70
     0
  9
$TDCREATE
 40
2451086.9109346061
  9
$TDUPDATE
 40
2453913.5614625579
  9
$TDINDWG
 40
0.0519206134
  9
$TDUSRTIMER
 40
0.0519206134
  9
$USRTIMER
 70
     1
  9
$ANGBASE
 50
0.0
  9
$ANGDIR
 70
     0
  9
$PDMODE
 70
    34
  9
$PDSIZE
 40
3.0
  9
$PLINEWID
 40
0.0
  9
$COORDS
 70
     1
  9
$SPLFRAME
 70
     0
  9
$SPLINETYPE
 70
     6
  9
$SPLINESEGS
 70
     8
  9
$ATTDIA
 70
     0
  9
$ATTREQ
 70
     1
  9
$HANDLING
 70
     1
  9
$HANDSEED
  5
2CB
  9
$SURFTAB1
 70
     6
  9
$SURFTAB2
 70
     6
  9
$SURFTYPE
 70
     6
  9
$SURFU
 70
     6
  9
$SURFV
 70
     6
  9
$UCSNAME
  2

  9
$UCSORG
 10
0.0
 20
0.0
 30
0.0
  9
$UCSXDIR
 10
1.0
 20
0.0
 30
0.0
  9
$UCSYDIR
 10
0.0
 20
1.0
 30
0.0
  9
$PUCSNAME
  2

  9
$PUCSORG
 10
0.0
 20
0.0
 30
0.0
  9
$PUCSXDIR
 10
1.0
 20
0.0
 30
0.0
  9
$PUCSYDIR
 10
0.0
 20
1.0
 30
0.0
  9
$USERI1
 70
     0
  9
$USERI2
 70
     0
  9
$USERI3
 70
     0
  9
$USERI4
 70
     0
  9
$USERI5
 70
     0
  9
$USERR1
 40
0.0
  9
$USERR2
 40
0.0
  9
$USERR3
 40
0.0
  9
$USERR4
 40
0.0
  9
$USERR5
 40
0.0
  9
$WORLDVIEW
 70
     1
  9
$SHADEDGE
 70
     3
  9
$SHADEDIF
 70
    70
  9
$TILEMODE
 70
     1
  9
$MAXACTVP
 70
    48
  9
$PLIMCHECK
 70
     0
  9
$PEXTMIN
 10
6.8556992632481304
 20
-1.0317734420560929
 30
0.0
  9
$PEXTMAX
 10
15.24222232624042
 20
7.4176901705215768
 30
0.0
  9
$PLIMMIN
 10
-0.1579164520023376
 20
-0.2812499887361301
  9
$PLIMMAX
 10
10.84208330770177
 20
8.2187497709679782
  9
$UNITMODE
 70
     0
  9
$VISRETAIN
 70
     1
  9
$PLINEGEN
 70
     0
  9
$PSLTSCALE
 70
     1
  0
ENDSEC
  0
SECTION
  2
TABLES
  0
TABLE
  2
VPORT
 70
     2
  0
VPORT
  2
*ACTIVE
 70
     0
 10
0.0
 20
0.0
 11
1.0
 21
1.0
 12
1.6402489310885211
 22
0.0
 13
0.0
 23
0.0
 14
0.5
 24
0.5
 15
0.5
 25
0.5
 16
0.0
 26
0.0
 36
1.0
 17
7.4636111631202118
 27
3.5984346309777191
 37
0.0
 40
8.4083720698442903
 41
2.1654275092936799
 42
50.0
 43
0.0
 44
0.0
 50
0.0
 51
0.0
 71
     0
 72
   100
 73
     1
 74
     1
 75
     0
 76
     0
 77
     0
 78
     0
  0
ENDTAB
  0
TABLE
  2
LTYPE
 70
    18
  0
LTYPE
  2
CONTINUOUS
 70
     0
  3
Solid line
 72
    65
 73
     0
 40
0.0
  0
LTYPE
  2
HIDDEN
 70
     0
  3
__ __ __ __ __ __ __ __ __ __ __ __ __ __ __ __
 72
    65
 73
     2
 40
0.375
 49
0.25
 49
-0.125
  0
LTYPE
  2
PHANTOM2
 70
     0
  3
Phantom (.5x) ___ _ _ ___ _ _ ___ _ _ ___ _ _
 72
    65
 73
     6
 40
1.25
 49
0.625
 49
-0.125
 49
0.125
 49
-0.125
 49
0.125
 49
-0.125
  0
LTYPE
  2
CENTER
 70
     0
  3
Center ____ _ ____ _ ____ _ ____ _ ____ _ ____
 72
    65
 73
     4
 40
2.0
 49
1.25
 49
-0.25
 49
0.25
 49
-0.25
  0
LTYPE
  2
ASULTYPE
 70
     0
  3
Solid line
 72
    65
 73
     2
 40
3.0
 49
2.5
 49
0.5
  0
LTYPE
  2
ASVLTYPE
 70
     0
  3
__ __ __ __ __ __ __ __ __ __ __ __ __ __ __ __ __ __ __ __ __
 72
    65
 73
     2
 40
0.75
 49
0.5
 49
-0.25
  0
LTYPE
  2
AM_ISO02W050
 70
     0
  3
__ __ __ __ __ __ __ __ __ __ __ __ __ __ __
 72
    65
 73
     2
 40
7.5
 49
6.0
 49
-1.5
  0
LTYPE
  2
AM_ISO08W050
 70
     0
  3
____ . ____ . ____ . ____ . ____ . ____ . ____
 72
    65
 73
     4
 40
18.0
 49
12.0
 49
-1.5
 49
3.0
 49
-1.5
  0
LTYPE
  2
AM_ISO09W050
 70
     0
  3
_____ . . _____ . . _____ . . ____ .. ____
 72
    65
 73
     6
 40
22.5
 49
12.0
 49
-1.5
 49
3.0
 49
-1.5
 49
3.0
 49
-1.5
  0
LTYPE
  2
AMCONSTR
 70
     0
  3
_______________________
 72
    65
 73
     2
 40
9999.0
 49
9999.0
 49
0.0
  0
LTYPE
  2
AM_ISO08W050X2
 70
     0
  3
__ . __ . __ . __ . __ . __
 72
    65
 73
     4
 40
9.0
 49
6.0
 49
-0.75
 49
1.5
 49
-0.75
  0
LTYPE
  2
AM_ISO02W050X2
 70
     0
  3
 _ _ _ _ _ _ _ _ _ _ _ _
 72
    65
 73
     2
 40
3.75
 49
3.0
 49
-0.75
  0
LTYPE
  2
AMZIGZAG
 70
     0
  3
/\/-/\/-/\/-/\/-/\/-/\/
 72
    65
 73
     2
 40
11.0001
 49
0.0001
 49
-11.0
  0
LTYPE
  2
CENTER2
 70
     0
  3
Center (.5x) ___ _ ___ _ ___ _ ___ _ ___ _ ___
 72
    65
 73
     4
 40
1.125
 49
0.75
 49
-0.125
 49
0.125
 49
-0.125
  0
LTYPE
  2
HIDDEN2
 70
     0
  3
Hidden (.5x) _ _ _ _ _ _ _ _ _ _ _ _ _ _ _ _ _
 72
    65
 73
     2
 40
0.1875
 49
0.125
 49
-0.0625
  0
LTYPE
  2
AMZIGZAG2
 70
     0
  3
/\/-/\/-/\/-/\/-/\/-/\/
 72
    65
 73
     2
 40
0.4401
 49
0.0001
 49
-0.4400000000000001
  0
LTYPE
  2
ACANSTGB
 70
     0
  3
__ . . __ . .
 72
    65
 73
     6
 40
0.35433070866
 49
0.15748031496
 49
-0.03937007874
 49
0.03937007874
 49
-0.03937007874
 49
0.03937007874
 49
-0.03937007874
  0
LTYPE
  2
ACANSTGL
 70
     0
  3
_ _ _ _ _
 72
    65
 73
     2
 40
0.11811023622
 49
0.07874015748
 49
-0.03937007874
  0
ENDTAB
  0
TABLE
  2
LAYER
 70
     4
  0
LAYER
  2
0
 70
     0
 62
     7
  6
CONTINUOUS
  0
LAYER
  2
AM_VIS
 70
     0
 62
     7
  6
CONTINUOUS
  0
LAYER
  2
AM_HID
 70
     0
 62
     7
  6
HIDDEN
  0
LAYER
  2
KEE10
 70
     0
 62
     7
  6
CONTINUOUS
  0
ENDTAB
  0
TABLE
  2
STYLE
 70
     5
  0
STYLE
  2
STANDARD
 70
     0
 40
0.0
 41
1.0
 50
0.0
 71
     0
 42
0.2
  3
txt
  4

  0
STYLE
  2

 70
     1
 40
0.0
 41
1.0
 50
0.0
 71
     0
 42
0.2
  3
ltypeshp.shx
  4

  0
STYLE
  2
ACANSTS
 70
     0
 40
1.0
 41
1.0
 50
0.0
 71
     0
 42
0.2
  3
romans.shx
  4

  0
STYLE
  2
ACANSGDT
 70
     0
 40
0.0
 41
1.0
 50
0.0
 71
     0
 42
0.2
  3
amgdtans.shx
  4

  0
STYLE
  2
ACANSTSB
 70
     0
 40
1.0
 41
1.0
 50
0.0
 71
     0
 42
0.2
  3
romans.shx
  4

  0
ENDTAB
  0
TABLE
  2
VIEW
 70
     0
  0
ENDTAB
  0
TABLE
  2
UCS
 70
     0
  0
ENDTAB
  0
TABLE
  2
APPID
 70
    13
  0
APPID
  2
ACAD
 70
     0
  0
APPID
  2
GENIUS_GENDIM_13
 70
     0
  0
APPID
  2
GENIUS_GENDTOL_13
 70
     0
  0
APPID
  2
GENIUS_GE3DTOL_13
 70
     0
  0
APPID
  2
MCAD_NO_VIS
 70
     0
  0
APPID
  2
ACAD_TEMP_GRAPHIC
 70
     0
  0
APPID
  2
AD_DRAW
 70
     0
  0
APPID
  2
ACATTRIBSERVICES
 70
     0
  0
APPID
  2
ASURF_PCURVE_APPNAME
 70
     0
  0
APPID
  2
AMG_3D2D_5_0
 70
     0
  0
APPID
  2
DESIGNERASSEMBLIES
 70
     0
  0
APPID
  2
ACADM_DIM_EDIT
 70
     0
  0
APPID
  2
AMDT_DM_ADJ
 70
     0
  0
ENDTAB
  0
TABLE
  2
DIMSTYLE
 70
     7
  0
DIMSTYLE
  2
STANDARD
 70
     0
  3

  4

  5

  6

  7

 40
1.0
 41
0.18
 42
0.0625
 43
0.38
 44
0.18
 45
0.0
 46
0.0
 47
0.0
 48
0.0
140
0.18
141
0.09
142
0.0
143
25.399999999999999
144
1.0
145
0.0
146
1.0
147
0.09
 71
     0
 72
     0
 73
     1
 74
     1
 75
     0
 76
     0
 77
     0
 78
     0
170
     0
171
     2
172
     0
173
     0
174
     0
175
     0
176
     0
177
     0
178
     0
  0
DIMSTYLE
  2
AM_ANSI
 70
     0
  3

  4
mm
  5

  6

  7

 40
1.0
 41
0.1
 42
0.05
 43
0.5
 44
0.1
 45
0.0
 46
0.0
 47
0.1
 48
0.1
140
0.12
141
0.0
142
0.0
143
25.399999999999999
144
1.0
145
0.0
146
0.71
147
0.06
 71
     0
 72
     0
 73
     1
 74
     1
 75
     0
 76
     0
 77
     0
 78
     7
170
     0
171
     2
172
     0
173
     0
174
     0
175
     0
176
   256
177
   256
178
     2
  0
DIMSTYLE
  2
AM_ANSI$3
 70
     0
  3

  4
mm
  5

  6

  7

 40
1.0
 41
0.1
 42
0.05
 43
0.5
 44
0.1
 45
0.0
 46
0.0
 47
0.1
 48
0.1
140
0.12
141
0.0
142
0.0
143
25.399999999999999
144
1.0
145
0.0
146
0.71
147
0.06
 71
     0
 72
     0
 73
     1
 74
     1
 75
     0
 76
     0
 77
     0
 78
     7
170
     0
171
     2
172
     0
173
     0
174
     0
175
     0
176
   256
177
   256
178
     2
  0
DIMSTYLE
  2
AM_ANSI$4
 70
     0
  3

  4
mm
  5

  6

  7

 40
1.0
 41
0.1
 42
0.05
 43
0.5
 44
0.1
 45
0.0
 46
0.0
 47
0.1
 48
0.1
140
0.12
141
0.0
142
0.0
143
25.399999999999999
144
1.0
145
0.0
146
0.71
147
0.06
 71
     0
 72
     0
 73
     1
 74
     1
 75
     0
 76
     0
 77
     0
 78
     7
170
     0
171
     2
172
     0
173
     0
174
     0
175
     0
176
   256
177
   256
178
     2
  0
DIMSTYLE
  2
AM_ANSI$7
 70
     0
  3

  4
mm
  5

  6

  7

 40
1.0
 41
0.1
 42
0.05
 43
0.5
 44
0.1
 45
0.0
 46
0.0
 47
0.1
 48
0.1
140
0.24
141
0.0
142
0.0
143
25.399999999999999
144
1.0
145
0.0
146
0.71
147
0.06
 71
     0
 72
     0
 73
     1
 74
     1
 75
     0
 76
     0
 77
     0
 78
     7
170
     0
171
     2
172
     0
173
     0
174
     0
175
     0
176
   256
177
   256
178
     2
  0
DIMSTYLE
  2
AM_ANSI$SF
 70
     0
  3

  4
mm
  5

  6

  7

 40
1.0
 41
0.1
 42
0.05
 43
0.5
 44
0.1
 45
0.0
 46
0.0
 47
0.1
 48
0.1
140
0.12
141
0.0
142
0.0
143
25.399999999999999
144
1.0
145
0.0
146
0.71
147
0.06
 71
     0
 72
     0
 73
     1
 74
     1
 75
     1
 76
     1
 77
     0
 78
     7
170
     0
171
     2
172
     0
173
     0
174
     0
175
     0
176
   256
177
   256
178
     2
  0
DIMSTYLE
  2
AM_ANSI$SH
 70
     0
  3

  4
mm
  5

  6
GENAXEH
  7

 40
1.0
 41
0.1
 42
0.05
 43
0.5
 44
0.1
 45
0.0
 46
0.0
 47
0.1
 48
0.1
140
0.12
141
0.0
142
0.0
143
25.399999999999999
144
1.0
145
0.0
146
0.71
147
0.06
 71
     0
 72
     0
 73
     1
 74
     1
 75
     1
 76
     1
 77
     0
 78
     7
170
     0
171
     2
172
     0
173
     1
174
     0
175
     0
176
   256
177
   256
178
     2
  0
ENDTAB
  0
ENDSEC
  0
SECTION
  2
BLOCKS
  0
BLOCK
  8
0
  2
$MODEL_SPACE
 70
     0
 10
0.0
 20
0.0
 30
0.0
  3
$MODEL_SPACE
  1

  0
ENDBLK
  5
A
  8
0
  0
BLOCK
 67
     1
  8
0
  2
$PAPER_SPACE
 70
     0
 10
0.0
 20
0.0
 30
0.0
  3
$PAPER_SPACE
  1

  0
ENDBLK
  5
F
 67
     1
  8
0
  0
BLOCK
  8
0
  2
*U0
 70
     1
 10
0.0
 20
0.0
 30
0.0
  3
*U0
  1

  0
ENDBLK
  5
12B
  8
0
  0
BLOCK
  8
0
  2
GENAXEH
 70
     0
 10
0.0
 20
0.0
 30
0.0
  3
GENAXEH
  1

  0
LINE
  5
169
  8
0
 10
-1.0
 20
0.0
 30
0.0
 11
1.0
 21
0.0
 31
0.0
  0
ENDBLK
  5
16B
  8
0
  0
BLOCK
  8
0
  2
_DOT
 70
     0
 10
0.0
 20
0.0
 30
0.0
  3
_DOT
  1

  0
POLYLINE
  5
172
  8
0
  6
BYBLOCK
 62
     0
 66
     1
 10
0.0
 20
0.0
 30
0.0
 70
     1
 40
0.5
 41
0.5
  0
VERTEX
  5
173
  8
0
  6
BYBLOCK
 62
     0
 10
-0.25
 20
0.0
 30
0.0
 42
1.0
  0
VERTEX
  5
174
  8
0
  6
BYBLOCK
 62
     0
 10
0.25
 20
0.0
 30
0.0
 42
1.0
  0
SEQEND
  5
175
  8
0
  6
BYBLOCK
 62
     0
  0
LINE
  5
176
  8
0
  6
BYBLOCK
 62
     0
 10
-0.5
 20
0.0
 30
0.0
 11
-1.0
 21
0.0
 31
0.0
  0
ENDBLK
  5
178
  8
0
  0
BLOCK
  8
0
  2
2D
 70
     0
 10
0.0
 20
0.0
 30
0.0
  3
2D
  1

  0
INSERT
  5
17C
  8
0
  2
*U4
 10
0.0
 20
0.0
 30
0.0
  0
INSERT
  5
17D
  8
0
  2
*U5
 10
0.0
 20
0.0
 30
0.0
  0
INSERT
  5
17E
  8
0
  2
*U6
 10
0.0
 20
0.0
 30
0.0
  0
ENDBLK
  5
180
  8
0
  0
BLOCK
  8
0
  2
*U4
 70
     1
 10
0.0
 20
0.0
 30
0.0
  3
*U4
  1

  0
TEXT
  5
1B0
  8
KEE10
 10
-0.167740653382606
 20
0.7944046258072062
 30
0.0
 40
0.140625
  1
KEE
  0
ENDBLK
  5
1B2
  8
0
  0
BLOCK
  8
0
  2
*U5
 70
     1
 10
0.0
 20
0.0
 30
0.0
  3
*U5
  1

  0
TEXT
  5
1B4
  8
KEE10
 10
-0.308365653382606
 20
0.4858688129746218
 30
0.0
 40
0.140625
  1
KLAMP
  0
ENDBLK
  5
1B6
  8
0
  0
BLOCK
  8
0
  2
*U6
 70
     1
 10
0.0
 20
0.0
 30
0.0
  3
*U6
  1

  0
TEXT
  5
1B8
  8
KEE10
 10
-0.202896903382606
 20
0.2018753139112972
 30
0.0
 40
0.140625
  1
10-8
  0
ENDBLK
  5
1BA
  8
0
  0
BLOCK
  8
0
  2
*U7
 70
     1
 10
0.0
 20
0.0
 30
0.0
  3
*U7
  1

  0
TEXT
  5
1BC
  8
KEE10
 10
8.08234163994452
 20
1.909619097984451
 30
0.0
 40
0.140625
  1
KEE
  0
ENDBLK
  5
1BE
  8
0
  0
BLOCK
  8
0
  2
*U8
 70
     1
 10
0.0
 20
0.0
 30
0.0
  3
*U8
  1

  0
TEXT
  5
1C0
  8
KEE10
 10
7.94171663994452
 20
1.601083285151867
 30
0.0
 40
0.140625
  1
KLAMP
  0
ENDBLK
  5
1C2
  8
0
  0
BLOCK
  8
0
  2
*U9
 70
     1
 10
0.0
 20
0.0
 30
0.0
  3
*U9
  1

  0
TEXT
  5
1C4
  8
0
 10
6.2835911610716542
 20
1.1598736060511401
 30
0.0
 40
0.09375
  1
4-1/8"
 50
90.0
  0
ENDBLK
  5
1C6
  8
0
  0
ENDSEC
  0
SECTION
  2
ENTITIES
  0
POINT
  5
25
  8
0
 10
0.0
 20
0.0
 30
0.0
  0
POINT
  5
26
  8
0
 10
0.0
 20
0.0
 30
0.0
  0
LINE
  5
27
  8
AM_VIS
 10
7.1821279026060738
 20
3.3942486060511379
 30
0.0
 11
9.4721795984335451
 21
3.3942486060511392
 31
0.0
  0
LINE
  5
29
  8
AM_VIS
 10
9.4721795984335451
 20
3.394248605327133
 30
0.0
 11
9.4835098471484383
 21
3.394248605327133
 31
0.0
  0
ARC
  5
2A
  8
AM_VIS
 10
9.7321279026052991
 20
3.4204986060501521
 30
0.0
 40
0.2499999999988253
 50
186.0271665609543
 51
255.52248781418541
  0
LINE
  5
2B
  8
AM_VIS
 10
9.6696279026063721
 20
3.1784371469132449
 30
0.0
 11
9.6696279026063721
 21
3.079641255593855
 31
0.0
  0
ARC
  5
2C
  8
AM_VIS
 10
9.7321279026060754
 20
2.1079986060511389
 30
0.0
 40
0.2500000000000007
 50
104.4775121859299
 51
179.9999999999998
  0
LINE
  5
2D
  8
AM_VIS
 10
9.6696279026060754
 20
2.4488559565084231
 30
0.0
 11
9.6696279026060754
 21
3.079641255593855
 31
0.0
  0
LINE
  5
2E
  8
AM_VIS
 10
9.6696279026063721
 20
2.448855956508424
 30
0.0
 11
9.6696279026063721
 21
2.3500600651890342
 31
0.0
  0
ARC
  5
2F
  8
AM_HID
 10
10.323325980771459
 20
2.7711804284125359
 30
0.0
 40
1.041327531642918
 50
180.381413430967
 51
197.86249115412619
  0
ARC
  5
32
  8
AM_HID
 10
10.32332598077145
 20
2.757316783689745
 30
0.0
 40
1.0413275316429089
 50
162.13750884587381
 51
179.618586569033
  0
LINE
  5
33
  8
AM_VIS
 10
7.1821279026060738
 20
-0.6057513939488607
 30
0.0
 11
9.4721795984335451
 21
-0.605751393948861
 31
0.0
  0
LINE
  5
34
  8
AM_VIS
 10
9.4721795984335451
 20
-0.6057513932248555
 30
0.0
 11
9.4835098471484383
 21
-0.6057513932248555
 31
0.0
  0
ARC
  5
35
  8
AM_VIS
 10
9.7321279026052991
 20
-0.6320013939478746
 30
0.0
 40
0.2499999999988257
 50
104.4775121858146
 51
173.9728334390457
  0
LINE
  5
36
  8
AM_VIS
 10
9.6696279026063721
 20
-0.2911440434915771
 30
0.0
 11
9.6696279026063721
 21
-0.3899399348109669
 31
0.0
  0
ARC
  5
37
  8
AM_HID
 10
10.323325980771459
 20
0.0173167836897426
 30
0.0
 40
1.041327531642918
 50
162.1375088458739
 51
179.618586569033
  0
ARC
  5
38
  8
AM_HID
 10
10.32332598077145
 20
0.0311804284125337
 30
0.0
 40
1.041327531642908
 50
180.38141343096689
 51
197.86249115412619
  0
ARC
  5
39
  8
AM_VIS
 10
9.7321279026060754
 20
0.680498606051139
 30
0.0
 40
0.2500000000000011
 50
180.0000000000002
 51
255.52248781406999
  0
LINE
  5
3A
  8
AM_VIS
 10
9.6696279026063721
 20
0.4384371469132438
 30
0.0
 11
9.6696279026063721
 21
0.3396412555938542
 31
0.0
  0
LINE
  5
3B
  8
AM_VIS
 10
9.6696279026060754
 20
0.3396412555938548
 30
0.0
 11
9.6696279026060754
 21
-0.2911440434915771
 31
0.0
  0
LINE
  5
3C
  8
AM_HID
 10
9.3321279026060751
 20
3.0767486060511389
 30
0.0
 11
9.6696279026060754
 21
3.0767486060511389
 31
0.0
  0
LINE
  5
3D
  8
AM_HID
 10
9.3321279026060751
 20
2.4517486060511389
 30
0.0
 11
9.6696279026060754
 21
2.4517486060511389
 31
0.0
  0
LINE
  5
3E
  8
AM_VIS
 10
9.4821279026060754
 20
2.1079986060511402
 30
0.0
 11
9.4821279026060754
 21
0.6804986060511381
 31
0.0
  0
LINE
  5
3F
  8
AM_VIS
 10
7.1821279026060738
 20
3.3942486060511379
 30
0.0
 11
7.1821279026060738
 21
-0.6057513939488608
 31
0.0
  0
LINE
  5
40
  8
AM_HID
 10
9.3321279026060751
 20
3.3942486060511392
 30
0.0
 11
9.3321279026060751
 21
3.076748606051138
 31
0.0
  0
LINE
  5
41
  8
AM_HID
 10
9.3321279026060751
 20
2.4517486060511389
 30
0.0
 11
9.3321279026060751
 21
0.3367486060511378
 31
0.0
  0
LINE
  5
42
  8
AM_HID
 10
9.3321279026060751
 20
-0.2882513939488609
 30
0.0
 11
9.3321279026060751
 21
-0.605751393948861
 31
0.0
  0
LINE
  5
43
  8
AM_HID
 10
7.3321279026060751
 20
3.3942486060511379
 30
0.0
 11
7.3321279026060751
 21
-0.6057513939488608
 31
0.0
  0
LINE
  5
44
  8
AM_HID
 10
9.6696279026060754
 20
-0.2882513939488618
 30
0.0
 11
9.3321279026060751
 21
-0.2882513939488618
 31
0.0
  0
LINE
  5
45
  8
AM_HID
 10
9.6696279026060754
 20
0.3367486060511382
 30
0.0
 11
9.3321279026060751
 21
0.3367486060511382
 31
0.0
  0
ARC
  5
46
  8
AM_VIS
 10
8.3321279026060751
 20
5.9526901705215769
 30
0.0
 40
1.149999999999999
 50
7.5418313198843281
 51
352.4581686801157
  0
POLYLINE
  8
AM_VIS
  5
1C7
  66
     1
 10
0.000000
 20
0.000000
 30
0.000000
  70
     8
  0
VERTEX
  8
AM_VIS
  5
1C8
 10
9.48351
 20
5.95269
 30
0.000000
  70
    32
  0
VERTEX
  8
AM_VIS
  5
1C9
 10
9.48351
 20
5.95142
 30
0.000000
  70
    32
  0
VERTEX
  8
AM_VIS
  5
1CA
 10
9.48351
 20
5.95015
 30
0.000000
  70
    32
  0
VERTEX
  8
AM_VIS
  5
1CB
 10
9.48350
 20
5.94888
 30
0.000000
  70
    32
  0
VERTEX
  8
AM_VIS
  5
1CC
 10
9.48350
 20
5.94761
 30
0.000000
  70
    32
  0
VERTEX
  8
AM_VIS
  5
1CD
 10
9.48349
 20
5.94634
 30
0.000000
  70
    32
  0
VERTEX
  8
AM_VIS
  5
1CE
 10
9.48348
 20
5.94508
 30
0.000000
  70
    32
  0
VERTEX
  8
AM_VIS
  5
1CF
 10
9.48347
 20
5.94382
 30
0.000000
  70
    32
  0
VERTEX
  8
AM_VIS
  5
1D0
 10
9.48345
 20
5.94256
 30
0.000000
  70
    32
  0
VERTEX
  8
AM_VIS
  5
1D1
 10
9.48344
 20
5.94131
 30
0.000000
  70
    32
  0
VERTEX
  8
AM_VIS
  5
1D2
 10
9.48342
 20
5.94005
 30
0.000000
  70
    32
  0
VERTEX
  8
AM_VIS
  5
1D3
 10
9.48340
 20
5.93880
 30
0.000000
  70
    32
  0
VERTEX
  8
AM_VIS
  5
1D4
 10
9.48338
 20
5.93755
 30
0.000000
  70
    32
  0
VERTEX
  8
AM_VIS
  5
1D5
 10
9.48336
 20
5.93630
 30
0.000000
  70
    32
  0
VERTEX
  8
AM_VIS
  5
1D6
 10
9.48334
 20
5.93505
 30
0.000000
  70
    32
  0
VERTEX
  8
AM_VIS
  5
1D7
 10
9.48331
 20
5.93380
 30
0.000000
  70
    32
  0
VERTEX
  8
AM_VIS
  5
1D8
 10
9.48328
 20
5.93256
 30
0.000000
  70
    32
  0
VERTEX
  8
AM_VIS
  5
1D9
 10
9.48326
 20
5.93132
 30
0.000000
  70
    32
  0
VERTEX
  8
AM_VIS
  5
1DA
 10
9.48323
 20
5.93008
 30
0.000000
  70
    32
  0
VERTEX
  8
AM_VIS
  5
1DB
 10
9.48319
 20
5.92884
 30
0.000000
  70
    32
  0
VERTEX
  8
AM_VIS
  5
1DC
 10
9.48316
 20
5.92760
 30
0.000000
  70
    32
  0
VERTEX
  8
AM_VIS
  5
1DD
 10
9.48312
 20
5.92637
 30
0.000000
  70
    32
  0
VERTEX
  8
AM_VIS
  5
1DE
 10
9.48309
 20
5.92514
 30
0.000000
  70
    32
  0
VERTEX
  8
AM_VIS
  5
1DF
 10
9.48305
 20
5.92390
 30
0.000000
  70
    32
  0
VERTEX
  8
AM_VIS
  5
1E0
 10
9.48301
 20
5.92267
 30
0.000000
  70
    32
  0
VERTEX
  8
AM_VIS
  5
1E1
 10
9.48297
 20
5.92145
 30
0.000000
  70
    32
  0
VERTEX
  8
AM_VIS
  5
1E2
 10
9.48292
 20
5.92022
 30
0.000000
  70
    32
  0
VERTEX
  8
AM_VIS
  5
1E3
 10
9.48288
 20
5.91900
 30
0.000000
  70
    32
  0
VERTEX
  8
AM_VIS
  5
1E4
 10
9.48283
 20
5.91777
 30
0.000000
  70
    32
  0
VERTEX
  8
AM_VIS
  5
1E5
 10
9.48279
 20
5.91655
 30
0.000000
  70
    32
  0
VERTEX
  8
AM_VIS
  5
1E6
 10
9.48274
 20
5.91533
 30
0.000000
  70
    32
  0
VERTEX
  8
AM_VIS
  5
1E7
 10
9.48269
 20
5.91411
 30
0.000000
  70
    32
  0
VERTEX
  8
AM_VIS
  5
1E8
 10
9.48263
 20
5.91290
 30
0.000000
  70
    32
  0
VERTEX
  8
AM_VIS
  5
1E9
 10
9.48258
 20
5.91168
 30
0.000000
  70
    32
  0
VERTEX
  8
AM_VIS
  5
1EA
 10
9.48252
 20
5.91047
 30
0.000000
  70
    32
  0
VERTEX
  8
AM_VIS
  5
1EB
 10
9.48247
 20
5.90926
 30
0.000000
  70
    32
  0
VERTEX
  8
AM_VIS
  5
1EC
 10
9.48241
 20
5.90805
 30
0.000000
  70
    32
  0
VERTEX
  8
AM_VIS
  5
1ED
 10
9.48235
 20
5.90684
 30
0.000000
  70
    32
  0
VERTEX
  8
AM_VIS
  5
1EE
 10
9.48229
 20
5.90563
 30
0.000000
  70
    32
  0
VERTEX
  8
AM_VIS
  5
1EF
 10
9.48223
 20
5.90442
 30
0.000000
  70
    32
  0
VERTEX
  8
AM_VIS
  5
1F0
 10
9.48216
 20
5.90322
 30
0.000000
  70
    32
  0
VERTEX
  8
AM_VIS
  5
1F1
 10
9.48210
 20
5.90202
 30
0.000000
  70
    32
  0
VERTEX
  8
AM_VIS
  5
1F2
 10
9.48203
 20
5.90081
 30
0.000000
  70
    32
  0
VERTEX
  8
AM_VIS
  5
1F3
 10
9.48196
 20
5.89961
 30
0.000000
  70
    32
  0
VERTEX
  8
AM_VIS
  5
1F4
 10
9.48189
 20
5.89841
 30
0.000000
  70
    32
  0
VERTEX
  8
AM_VIS
  5
1F5
 10
9.48182
 20
5.89721
 30
0.000000
  70
    32
  0
VERTEX
  8
AM_VIS
  5
1F6
 10
9.48175
 20
5.89602
 30
0.000000
  70
    32
  0
VERTEX
  8
AM_VIS
  5
1F7
 10
9.48167
 20
5.89482
 30
0.000000
  70
    32
  0
VERTEX
  8
AM_VIS
  5
1F8
 10
9.48160
 20
5.89363
 30
0.000000
  70
    32
  0
VERTEX
  8
AM_VIS
  5
1F9
 10
9.48152
 20
5.89244
 30
0.000000
  70
    32
  0
VERTEX
  8
AM_VIS
  5
1FA
 10
9.48144
 20
5.89124
 30
0.000000
  70
    32
  0
VERTEX
  8
AM_VIS
  5
1FB
 10
9.48136
 20
5.89005
 30
0.000000
  70
    32
  0
VERTEX
  8
AM_VIS
  5
1FC
 10
9.48128
 20
5.88886
 30
0.000000
  70
    32
  0
VERTEX
  8
AM_VIS
  5
1FD
 10
9.48120
 20
5.88768
 30
0.000000
  70
    32
  0
VERTEX
  8
AM_VIS
  5
1FE
 10
9.48112
 20
5.88649
 30
0.000000
  70
    32
  0
VERTEX
  8
AM_VIS
  5
1FF
 10
9.48103
 20
5.88530
 30
0.000000
  70
    32
  0
VERTEX
  8
AM_VIS
  5
200
 10
9.48095
 20
5.88412
 30
0.000000
  70
    32
  0
VERTEX
  8
AM_VIS
  5
201
 10
9.48086
 20
5.88294
 30
0.000000
  70
    32
  0
VERTEX
  8
AM_VIS
  5
202
 10
9.48077
 20
5.88175
 30
0.000000
  70
    32
  0
VERTEX
  8
AM_VIS
  5
203
 10
9.48068
 20
5.88057
 30
0.000000
  70
    32
  0
VERTEX
  8
AM_VIS
  5
204
 10
9.48059
 20
5.87939
 30
0.000000
  70
    32
  0
VERTEX
  8
AM_VIS
  5
205
 10
9.48050
 20
5.87821
 30
0.000000
  70
    32
  0
VERTEX
  8
AM_VIS
  5
206
 10
9.48041
 20
5.87703
 30
0.000000
  70
    32
  0
VERTEX
  8
AM_VIS
  5
207
 10
9.48031
 20
5.87586
 30
0.000000
  70
    32
  0
VERTEX
  8
AM_VIS
  5
208
 10
9.48022
 20
5.87468
 30
0.000000
  70
    32
  0
VERTEX
  8
AM_VIS
  5
209
 10
9.48012
 20
5.87350
 30
0.000000
  70
    32
  0
VERTEX
  8
AM_VIS
  5
20A
 10
9.48002
 20
5.87233
 30
0.000000
  70
    32
  0
VERTEX
  8
AM_VIS
  5
20B
 10
9.47992
 20
5.87116
 30
0.000000
  70
    32
  0
VERTEX
  8
AM_VIS
  5
20C
 10
9.47982
 20
5.86998
 30
0.000000
  70
    32
  0
VERTEX
  8
AM_VIS
  5
20D
 10
9.47972
 20
5.86881
 30
0.000000
  70
    32
  0
VERTEX
  8
AM_VIS
  5
20E
 10
9.47962
 20
5.86764
 30
0.000000
  70
    32
  0
VERTEX
  8
AM_VIS
  5
20F
 10
9.47951
 20
5.86647
 30
0.000000
  70
    32
  0
VERTEX
  8
AM_VIS
  5
210
 10
9.47941
 20
5.86530
 30
0.000000
  70
    32
  0
VERTEX
  8
AM_VIS
  5
211
 10
9.47930
 20
5.86413
 30
0.000000
  70
    32
  0
VERTEX
  8
AM_VIS
  5
212
 10
9.47919
 20
5.86297
 30
0.000000
  70
    32
  0
VERTEX
  8
AM_VIS
  5
213
 10
9.47909
 20
5.86180
 30
0.000000
  70
    32
  0
VERTEX
  8
AM_VIS
  5
214
 10
9.47898
 20
5.86063
 30
0.000000
  70
    32
  0
VERTEX
  8
AM_VIS
  5
215
 10
9.47887
 20
5.85947
 30
0.000000
  70
    32
  0
VERTEX
  8
AM_VIS
  5
216
 10
9.47876
 20
5.85830
 30
0.000000
  70
    32
  0
VERTEX
  8
AM_VIS
  5
217
 10
9.47864
 20
5.85714
 30
0.000000
  70
    32
  0
VERTEX
  8
AM_VIS
  5
218
 10
9.47853
 20
5.85598
 30
0.000000
  70
    32
  0
VERTEX
  8
AM_VIS
  5
219
 10
9.47841
 20
5.85481
 30
0.000000
  70
    32
  0
VERTEX
  8
AM_VIS
  5
21A
 10
9.47830
 20
5.85365
 30
0.000000
  70
    32
  0
VERTEX
  8
AM_VIS
  5
21B
 10
9.47818
 20
5.85249
 30
0.000000
  70
    32
  0
VERTEX
  8
AM_VIS
  5
21C
 10
9.47806
 20
5.85133
 30
0.000000
  70
    32
  0
VERTEX
  8
AM_VIS
  5
21D
 10
9.47795
 20
5.85017
 30
0.000000
  70
    32
  0
VERTEX
  8
AM_VIS
  5
21E
 10
9.47783
 20
5.84901
 30
0.000000
  70
    32
  0
VERTEX
  8
AM_VIS
  5
21F
 10
9.47770
 20
5.84785
 30
0.000000
  70
    32
  0
VERTEX
  8
AM_VIS
  5
220
 10
9.47758
 20
5.84669
 30
0.000000
  70
    32
  0
VERTEX
  8
AM_VIS
  5
221
 10
9.47746
 20
5.84554
 30
0.000000
  70
    32
  0
VERTEX
  8
AM_VIS
  5
222
 10
9.47734
 20
5.84438
 30
0.000000
  70
    32
  0
VERTEX
  8
AM_VIS
  5
223
 10
9.47721
 20
5.84322
 30
0.000000
  70
    32
  0
VERTEX
  8
AM_VIS
  5
224
 10
9.47709
 20
5.84207
 30
0.000000
  70
    32
  0
VERTEX
  8
AM_VIS
  5
225
 10
9.47696
 20
5.84091
 30
0.000000
  70
    32
  0
VERTEX
  8
AM_VIS
  5
226
 10
9.47683
 20
5.83975
 30
0.000000
  70
    32
  0
VERTEX
  8
AM_VIS
  5
227
 10
9.47670
 20
5.83860
 30
0.000000
  70
    32
  0
VERTEX
  8
AM_VIS
  5
228
 10
9.47658
 20
5.83744
 30
0.000000
  70
    32
  0
VERTEX
  8
AM_VIS
  5
229
 10
9.47644
 20
5.83629
 30
0.000000
  70
    32
  0
VERTEX
  8
AM_VIS
  5
22A
 10
9.47631
 20
5.83514
 30
0.000000
  70
    32
  0
VERTEX
  8
AM_VIS
  5
22B
 10
9.47618
 20
5.83398
 30
0.000000
  70
    32
  0
VERTEX
  8
AM_VIS
  5
22C
 10
9.47605
 20
5.83283
 30
0.000000
  70
    32
  0
VERTEX
  8
AM_VIS
  5
22D
 10
9.47592
 20
5.83168
 30
0.000000
  70
    32
  0
VERTEX
  8
AM_VIS
  5
22E
 10
9.47578
 20
5.83052
 30
0.000000
  70
    32
  0
VERTEX
  8
AM_VIS
  5
22F
 10
9.47565
 20
5.82937
 30
0.000000
  70
    32
  0
VERTEX
  8
AM_VIS
  5
230
 10
9.47551
 20
5.82822
 30
0.000000
  70
    32
  0
VERTEX
  8
AM_VIS
  5
231
 10
9.47537
 20
5.82707
 30
0.000000
  70
    32
  0
VERTEX
  8
AM_VIS
  5
232
 10
9.47524
 20
5.82592
 30
0.000000
  70
    32
  0
VERTEX
  8
AM_VIS
  5
233
 10
9.47510
 20
5.82477
 30
0.000000
  70
    32
  0
VERTEX
  8
AM_VIS
  5
234
 10
9.47496
 20
5.82361
 30
0.000000
  70
    32
  0
VERTEX
  8
AM_VIS
  5
235
 10
9.47482
 20
5.82246
 30
0.000000
  70
    32
  0
VERTEX
  8
AM_VIS
  5
236
 10
9.47468
 20
5.82131
 30
0.000000
  70
    32
  0
VERTEX
  8
AM_VIS
  5
237
 10
9.47454
 20
5.82016
 30
0.000000
  70
    32
  0
VERTEX
  8
AM_VIS
  5
238
 10
9.47439
 20
5.81901
 30
0.000000
  70
    32
  0
VERTEX
  8
AM_VIS
  5
239
 10
9.47425
 20
5.81786
 30
0.000000
  70
    32
  0
VERTEX
  8
AM_VIS
  5
23A
 10
9.47411
 20
5.81671
 30
0.000000
  70
    32
  0
VERTEX
  8
AM_VIS
  5
23B
 10
9.47396
 20
5.81556
 30
0.000000
  70
    32
  0
VERTEX
  8
AM_VIS
  5
23C
 10
9.47382
 20
5.81441
 30
0.000000
  70
    32
  0
VERTEX
  8
AM_VIS
  5
23D
 10
9.47367
 20
5.81326
 30
0.000000
  70
    32
  0
VERTEX
  8
AM_VIS
  5
23E
 10
9.47353
 20
5.81211
 30
0.000000
  70
    32
  0
VERTEX
  8
AM_VIS
  5
23F
 10
9.47338
 20
5.81096
 30
0.000000
  70
    32
  0
VERTEX
  8
AM_VIS
  5
240
 10
9.47323
 20
5.80981
 30
0.000000
  70
    32
  0
VERTEX
  8
AM_VIS
  5
241
 10
9.47308
 20
5.80866
 30
0.000000
  70
    32
  0
VERTEX
  8
AM_VIS
  5
242
 10
9.47293
 20
5.80751
 30
0.000000
  70
    32
  0
VERTEX
  8
AM_VIS
  5
243
 10
9.47278
 20
5.80636
 30
0.000000
  70
    32
  0
VERTEX
  8
AM_VIS
  5
244
 10
9.47263
 20
5.80521
 30
0.000000
  70
    32
  0
VERTEX
  8
AM_VIS
  5
245
 10
9.47248
 20
5.80405
 30
0.000000
  70
    32
  0
VERTEX
  8
AM_VIS
  5
246
 10
9.47233
 20
5.80290
 30
0.000000
  70
    32
  0
VERTEX
  8
AM_VIS
  5
247
 10
9.47218
 20
5.80175
 30
0.000000
  70
    32
  0
SEQEND
  8
AM_VIS
  5
248
  0
POLYLINE
  8
AM_VIS
  5
249
  66
     1
 10
0.000000
 20
0.000000
 30
0.000000
  70
     8
  0
VERTEX
  8
AM_VIS
  5
24A
 10
9.47218
 20
6.10363
 30
0.000000
  70
    32
  0
VERTEX
  8
AM_VIS
  5
24B
 10
9.47233
 20
6.10248
 30
0.000000
  70
    32
  0
VERTEX
  8
AM_VIS
  5
24C
 10
9.47248
 20
6.10133
 30
0.000000
  70
    32
  0
VERTEX
  8
AM_VIS
  5
24D
 10
9.47263
 20
6.10017
 30
0.000000
  70
    32
  0
VERTEX
  8
AM_VIS
  5
24E
 10
9.47278
 20
6.09902
 30
0.000000
  70
    32
  0
VERTEX
  8
AM_VIS
  5
24F
 10
9.47293
 20
6.09787
 30
0.000000
  70
    32
  0
VERTEX
  8
AM_VIS
  5
250
 10
9.47308
 20
6.09672
 30
0.000000
  70
    32
  0
VERTEX
  8
AM_VIS
  5
251
 10
9.47323
 20
6.09557
 30
0.000000
  70
    32
  0
VERTEX
  8
AM_VIS
  5
252
 10
9.47338
 20
6.09442
 30
0.000000
  70
    32
  0
VERTEX
  8
AM_VIS
  5
253
 10
9.47353
 20
6.09327
 30
0.000000
  70
    32
  0
VERTEX
  8
AM_VIS
  5
254
 10
9.47367
 20
6.09212
 30
0.000000
  70
    32
  0
VERTEX
  8
AM_VIS
  5
255
 10
9.47382
 20
6.09097
 30
0.000000
  70
    32
  0
VERTEX
  8
AM_VIS
  5
256
 10
9.47396
 20
6.08982
 30
0.000000
  70
    32
  0
VERTEX
  8
AM_VIS
  5
257
 10
9.47411
 20
6.08867
 30
0.000000
  70
    32
  0
VERTEX
  8
AM_VIS
  5
258
 10
9.47425
 20
6.08752
 30
0.000000
  70
    32
  0
VERTEX
  8
AM_VIS
  5
259
 10
9.47439
 20
6.08637
 30
0.000000
  70
    32
  0
VERTEX
  8
AM_VIS
  5
25A
 10
9.47454
 20
6.08522
 30
0.000000
  70
    32
  0
VERTEX
  8
AM_VIS
  5
25B
 10
9.47468
 20
6.08407
 30
0.000000
  70
    32
  0
VERTEX
  8
AM_VIS
  5
25C
 10
9.47482
 20
6.08292
 30
0.000000
  70
    32
  0
VERTEX
  8
AM_VIS
  5
25D
 10
9.47496
 20
6.08177
 30
0.000000
  70
    32
  0
VERTEX
  8
AM_VIS
  5
25E
 10
9.47510
 20
6.08061
 30
0.000000
  70
    32
  0
VERTEX
  8
AM_VIS
  5
25F
 10
9.47524
 20
6.07946
 30
0.000000
  70
    32
  0
VERTEX
  8
AM_VIS
  5
260
 10
9.47537
 20
6.07831
 30
0.000000
  70
    32
  0
VERTEX
  8
AM_VIS
  5
261
 10
9.47551
 20
6.07716
 30
0.000000
  70
    32
  0
VERTEX
  8
AM_VIS
  5
262
 10
9.47565
 20
6.07601
 30
0.000000
  70
    32
  0
VERTEX
  8
AM_VIS
  5
263
 10
9.47578
 20
6.07486
 30
0.000000
  70
    32
  0
VERTEX
  8
AM_VIS
  5
264
 10
9.47592
 20
6.07370
 30
0.000000
  70
    32
  0
VERTEX
  8
AM_VIS
  5
265
 10
9.47605
 20
6.07255
 30
0.000000
  70
    32
  0
VERTEX
  8
AM_VIS
  5
266
 10
9.47618
 20
6.07140
 30
0.000000
  70
    32
  0
VERTEX
  8
AM_VIS
  5
267
 10
9.47631
 20
6.07024
 30
0.000000
  70
    32
  0
VERTEX
  8
AM_VIS
  5
268
 10
9.47644
 20
6.06909
 30
0.000000
  70
    32
  0
VERTEX
  8
AM_VIS
  5
269
 10
9.47658
 20
6.06794
 30
0.000000
  70
    32
  0
VERTEX
  8
AM_VIS
  5
26A
 10
9.47670
 20
6.06678
 30
0.000000
  70
    32
  0
VERTEX
  8
AM_VIS
  5
26B
 10
9.47683
 20
6.06563
 30
0.000000
  70
    32
  0
VERTEX
  8
AM_VIS
  5
26C
 10
9.47696
 20
6.06447
 30
0.000000
  70
    32
  0
VERTEX
  8
AM_VIS
  5
26D
 10
9.47709
 20
6.06331
 30
0.000000
  70
    32
  0
VERTEX
  8
AM_VIS
  5
26E
 10
9.47721
 20
6.06216
 30
0.000000
  70
    32
  0
VERTEX
  8
AM_VIS
  5
26F
 10
9.47734
 20
6.06100
 30
0.000000
  70
    32
  0
VERTEX
  8
AM_VIS
  5
270
 10
9.47746
 20
6.05984
 30
0.000000
  70
    32
  0
VERTEX
  8
AM_VIS
  5
271
 10
9.47758
 20
6.05869
 30
0.000000
  70
    32
  0
VERTEX
  8
AM_VIS
  5
272
 10
9.47770
 20
6.05753
 30
0.000000
  70
    32
  0
VERTEX
  8
AM_VIS
  5
273
 10
9.47783
 20
6.05637
 30
0.000000
  70
    32
  0
VERTEX
  8
AM_VIS
  5
274
 10
9.47795
 20
6.05521
 30
0.000000
  70
    32
  0
VERTEX
  8
AM_VIS
  5
275
 10
9.47806
 20
6.05405
 30
0.000000
  70
    32
  0
VERTEX
  8
AM_VIS
  5
276
 10
9.47818
 20
6.05289
 30
0.000000
  70
    32
  0
VERTEX
  8
AM_VIS
  5
277
 10
9.47830
 20
6.05173
 30
0.000000
  70
    32
  0
VERTEX
  8
AM_VIS
  5
278
 10
9.47841
 20
6.05057
 30
0.000000
  70
    32
  0
VERTEX
  8
AM_VIS
  5
279
 10
9.47853
 20
6.04940
 30
0.000000
  70
    32
  0
VERTEX
  8
AM_VIS
  5
27A
 10
9.47864
 20
6.04824
 30
0.000000
  70
    32
  0
VERTEX
  8
AM_VIS
  5
27B
 10
9.47876
 20
6.04708
 30
0.000000
  70
    32
  0
VERTEX
  8
AM_VIS
  5
27C
 10
9.47887
 20
6.04591
 30
0.000000
  70
    32
  0
VERTEX
  8
AM_VIS
  5
27D
 10
9.47898
 20
6.04475
 30
0.000000
  70
    32
  0
VERTEX
  8
AM_VIS
  5
27E
 10
9.47909
 20
6.04358
 30
0.000000
  70
    32
  0
VERTEX
  8
AM_VIS
  5
27F
 10
9.47919
 20
6.04241
 30
0.000000
  70
    32
  0
VERTEX
  8
AM_VIS
  5
280
 10
9.47930
 20
6.04125
 30
0.000000
  70
    32
  0
VERTEX
  8
AM_VIS
  5
281
 10
9.47941
 20
6.04008
 30
0.000000
  70
    32
  0
VERTEX
  8
AM_VIS
  5
282
 10
9.47951
 20
6.03891
 30
0.000000
  70
    32
  0
VERTEX
  8
AM_VIS
  5
283
 10
9.47962
 20
6.03774
 30
0.000000
  70
    32
  0
VERTEX
  8
AM_VIS
  5
284
 10
9.47972
 20
6.03657
 30
0.000000
  70
    32
  0
VERTEX
  8
AM_VIS
  5
285
 10
9.47982
 20
6.03540
 30
0.000000
  70
    32
  0
VERTEX
  8
AM_VIS
  5
286
 10
9.47992
 20
6.03422
 30
0.000000
  70
    32
  0
VERTEX
  8
AM_VIS
  5
287
 10
9.48002
 20
6.03305
 30
0.000000
  70
    32
  0
VERTEX
  8
AM_VIS
  5
288
 10
9.48012
 20
6.03188
 30
0.000000
  70
    32
  0
VERTEX
  8
AM_VIS
  5
289
 10
9.48022
 20
6.03070
 30
0.000000
  70
    32
  0
VERTEX
  8
AM_VIS
  5
28A
 10
9.48031
 20
6.02952
 30
0.000000
  70
    32
  0
VERTEX
  8
AM_VIS
  5
28B
 10
9.48041
 20
6.02835
 30
0.000000
  70
    32
  0
VERTEX
  8
AM_VIS
  5
28C
 10
9.48050
 20
6.02717
 30
0.000000
  70
    32
  0
VERTEX
  8
AM_VIS
  5
28D
 10
9.48059
 20
6.02599
 30
0.000000
  70
    32
  0
VERTEX
  8
AM_VIS
  5
28E
 10
9.48068
 20
6.02481
 30
0.000000
  70
    32
  0
VERTEX
  8
AM_VIS
  5
28F
 10
9.48077
 20
6.02363
 30
0.000000
  70
    32
  0
VERTEX
  8
AM_VIS
  5
290
 10
9.48086
 20
6.02245
 30
0.000000
  70
    32
  0
VERTEX
  8
AM_VIS
  5
291
 10
9.48095
 20
6.02126
 30
0.000000
  70
    32
  0
VERTEX
  8
AM_VIS
  5
292
 10
9.48103
 20
6.02008
 30
0.000000
  70
    32
  0
VERTEX
  8
AM_VIS
  5
293
 10
9.48112
 20
6.01889
 30
0.000000
  70
    32
  0
VERTEX
  8
AM_VIS
  5
294
 10
9.48120
 20
6.01770
 30
0.000000
  70
    32
  0
VERTEX
  8
AM_VIS
  5
295
 10
9.48128
 20
6.01652
 30
0.000000
  70
    32
  0
VERTEX
  8
AM_VIS
  5
296
 10
9.48136
 20
6.01533
 30
0.000000
  70
    32
  0
VERTEX
  8
AM_VIS
  5
297
 10
9.48144
 20
6.01414
 30
0.000000
  70
    32
  0
VERTEX
  8
AM_VIS
  5
298
 10
9.48152
 20
6.01294
 30
0.000000
  70
    32
  0
VERTEX
  8
AM_VIS
  5
299
 10
9.48160
 20
6.01175
 30
0.000000
  70
    32
  0
VERTEX
  8
AM_VIS
  5
29A
 10
9.48167
 20
6.01056
 30
0.000000
  70
    32
  0
VERTEX
  8
AM_VIS
  5
29B
 10
9.48175
 20
6.00936
 30
0.000000
  70
    32
  0
VERTEX
  8
AM_VIS
  5
29C
 10
9.48182
 20
6.00817
 30
0.000000
  70
    32
  0
VERTEX
  8
AM_VIS
  5
29D
 10
9.48189
 20
6.00697
 30
0.000000
  70
    32
  0
VERTEX
  8
AM_VIS
  5
29E
 10
9.48196
 20
6.00577
 30
0.000000
  70
    32
  0
VERTEX
  8
AM_VIS
  5
29F
 10
9.48203
 20
6.00457
 30
0.000000
  70
    32
  0
VERTEX
  8
AM_VIS
  5
2A0
 10
9.48210
 20
6.00337
 30
0.000000
  70
    32
  0
VERTEX
  8
AM_VIS
  5
2A1
 10
9.48216
 20
6.00216
 30
0.000000
  70
    32
  0
VERTEX
  8
AM_VIS
  5
2A2
 10
9.48223
 20
6.00096
 30
0.000000
  70
    32
  0
VERTEX
  8
AM_VIS
  5
2A3
 10
9.48229
 20
5.99975
 30
0.000000
  70
    32
  0
VERTEX
  8
AM_VIS
  5
2A4
 10
9.48235
 20
5.99854
 30
0.000000
  70
    32
  0
VERTEX
  8
AM_VIS
  5
2A5
 10
9.48241
 20
5.99733
 30
0.000000
  70
    32
  0
VERTEX
  8
AM_VIS
  5
2A6
 10
9.48247
 20
5.99612
 30
0.000000
  70
    32
  0
VERTEX
  8
AM_VIS
  5
2A7
 10
9.48252
 20
5.99491
 30
0.000000
  70
    32
  0
VERTEX
  8
AM_VIS
  5
2A8
 10
9.48258
 20
5.99370
 30
0.000000
  70
    32
  0
VERTEX
  8
AM_VIS
  5
2A9
 10
9.48263
 20
5.99248
 30
0.000000
  70
    32
  0
VERTEX
  8
AM_VIS
  5
2AA
 10
9.48269
 20
5.99127
 30
0.000000
  70
    32
  0
VERTEX
  8
AM_VIS
  5
2AB
 10
9.48274
 20
5.99005
 30
0.000000
  70
    32
  0
VERTEX
  8
AM_VIS
  5
2AC
 10
9.48279
 20
5.98883
 30
0.000000
  70
    32
  0
VERTEX
  8
AM_VIS
  5
2AD
 10
9.48283
 20
5.98761
 30
0.000000
  70
    32
  0
VERTEX
  8
AM_VIS
  5
2AE
 10
9.48288
 20
5.98638
 30
0.000000
  70
    32
  0
VERTEX
  8
AM_VIS
  5
2AF
 10
9.48292
 20
5.98516
 30
0.000000
  70
    32
  0
VERTEX
  8
AM_VIS
  5
2B0
 10
9.48297
 20
5.98393
 30
0.000000
  70
    32
  0
VERTEX
  8
AM_VIS
  5
2B1
 10
9.48301
 20
5.98271
 30
0.000000
  70
    32
  0
VERTEX
  8
AM_VIS
  5
2B2
 10
9.48305
 20
5.98148
 30
0.000000
  70
    32
  0
VERTEX
  8
AM_VIS
  5
2B3
 10
9.48309
 20
5.98024
 30
0.000000
  70
    32
  0
VERTEX
  8
AM_VIS
  5
2B4
 10
9.48312
 20
5.97901
 30
0.000000
  70
    32
  0
VERTEX
  8
AM_VIS
  5
2B5
 10
9.48316
 20
5.97778
 30
0.000000
  70
    32
  0
VERTEX
  8
AM_VIS
  5
2B6
 10
9.48319
 20
5.97654
 30
0.000000
  70
    32
  0
VERTEX
  8
AM_VIS
  5
2B7
 10
9.48323
 20
5.97530
 30
0.000000
  70
    32
  0
VERTEX
  8
AM_VIS
  5
2B8
 10
9.48326
 20
5.97406
 30
0.000000
  70
    32
  0
VERTEX
  8
AM_VIS
  5
2B9
 10
9.48328
 20
5.97282
 30
0.000000
  70
    32
  0
VERTEX
  8
AM_VIS
  5
2BA
 10
9.48331
 20
5.97158
 30
0.000000
  70
    32
  0
VERTEX
  8
AM_VIS
  5
2BB
 10
9.48334
 20
5.97033
 30
0.000000
  70
    32
  0
VERTEX
  8
AM_VIS
  5
2BC
 10
9.48336
 20
5.96908
 30
0.000000
  70
    32
  0
VERTEX
  8
AM_VIS
  5
2BD
 10
9.48338
 20
5.96783
 30
0.000000
  70
    32
  0
VERTEX
  8
AM_VIS
  5
2BE
 10
9.48340
 20
5.96658
 30
0.000000
  70
    32
  0
VERTEX
  8
AM_VIS
  5
2BF
 10
9.48342
 20
5.96533
 30
0.000000
  70
    32
  0
VERTEX
  8
AM_VIS
  5
2C0
 10
9.48344
 20
5.96408
 30
0.000000
  70
    32
  0
VERTEX
  8
AM_VIS
  5
2C1
 10
9.48345
 20
5.96282
 30
0.000000
  70
    32
  0
VERTEX
  8
AM_VIS
  5
2C2
 10
9.48347
 20
5.96156
 30
0.000000
  70
    32
  0
VERTEX
  8
AM_VIS
  5
2C3
 10
9.48348
 20
5.96030
 30
0.000000
  70
    32
  0
VERTEX
  8
AM_VIS
  5
2C4
 10
9.48349
 20
5.95904
 30
0.000000
  70
    32
  0
VERTEX
  8
AM_VIS
  5
2C5
 10
9.48350
 20
5.95777
 30
0.000000
  70
    32
  0
VERTEX
  8
AM_VIS
  5
2C6
 10
9.48350
 20
5.95650
 30
0.000000
  70
    32
  0
VERTEX
  8
AM_VIS
  5
2C7
 10
9.48351
 20
5.95523
 30
0.000000
  70
    32
  0
VERTEX
  8
AM_VIS
  5
2C8
 10
9.48351
 20
5.95396
 30
0.000000
  70
    32
  0
VERTEX
  8
AM_VIS
  5
2C9
 10
9.48351
 20
5.95269
 30
0.000000
  70
    32
  0
SEQEND
  8
AM_VIS
  5
2CA
  0
CIRCLE
  5
49
  8
AM_VIS
 10
8.3321279026060751
 20
5.9526901705215769
 30
0.0
 40
1.0
  0
LINE
  5
4A
  8
AM_VIS
 10
9.6696279026063721
 20
6.2087498102823648
 30
0.0
 11
9.6696279026063721
 21
5.9526901705206061
 31
0.0
  0
ARC
  5
4B
  8
AM_VIS
 10
9.5687911298025519
 20
6.608940170521576
 30
0.0
 40
0.2500000000000009
 50
207.95318688338119
 51
269.99999999999977
  0
ARC
  5
4C
  8
AM_VIS
 10
9.5687911298025501
 20
5.2964401705215813
 30
0.0
 40
0.2499999999999987
 50
90.0
 51
152.04681311661909
  0
LINE
  5
4D
  8
AM_VIS
 10
9.6696279026063721
 20
5.9526901705225486
 30
0.0
 11
9.6696279026063721
 21
5.696630530760789
 31
0.0
  0
LINE
  5
4E
  8
AM_VIS
 10
9.6696279026060754
 20
6.2087498102823648
 30
0.0
 11
9.6696279026060754
 21
6.358940170521576
 31
0.0
  0
ARC
  5
4F
  8
AM_HID
 10
8.3321279026061923
 20
5.952690170521584
 30
0.0
 40
1.149999999999882
 50
359.9999999999996
 51
7.5418313198847979
  0
LINE
  5
50
  8
AM_VIS
 10
9.6696279026060754
 20
5.5464401705215796
 30
0.0
 11
9.6696279026060754
 21
5.6966305307607898
 31
0.0
  0
ARC
  5
51
  8
AM_HID
 10
8.3321279026061958
 20
5.9526901705215698
 30
0.0
 40
1.1499999999998789
 50
352.45816868011519
 51
0.0000000000003997
  0
LINE
  5
52
  8
AM_VIS
 10
9.5687911298025501
 20
6.358940170521576
 30
0.0
 11
9.6696279026060754
 21
6.358940170521576
 31
0.0
  0
LINE
  5
53
  8
AM_VIS
 10
9.6696279026060754
 20
5.5464401705215796
 30
0.0
 11
9.5687911298025501
 21
5.5464401705215796
 31
0.0
  0
LINE
  5
54
  8
AM_HID
 10
9.2820456622042418
 20
6.265190170521576
 30
0.0
 11
9.6696279026060754
 21
6.2651901705215751
 31
0.0
  0
LINE
  5
55
  8
AM_HID
 10
9.2820456622042418
 20
5.640190170521576
 30
0.0
 11
9.6696279026060754
 21
5.6401901705215751
 31
0.0
  0
LINE
  5
56
  8
AM_VIS
 10
12.62722232624043
 20
3.3942486060511379
 30
0.0
 11
13.62628481983162
 21
3.3942486060511392
 31
0.0
  0
LINE
  5
57
  8
AM_VIS
 10
13.92815983264923
 20
3.3942486060511392
 30
0.0
 11
14.92722232624042
 21
3.3942486060511379
 31
0.0
  0
LINE
  5
58
  8
AM_VIS
 10
13.62628481983162
 20
3.3942486054917311
 30
0.0
 11
13.77722232624043
 21
3.3942486054917311
 31
0.0
  0
LINE
  5
59
  8
AM_VIS
 10
13.77722232624043
 20
3.3942486054917311
 30
0.0
 11
13.92815983264923
 21
3.3942486054917311
 31
0.0
  0
ARC
  5
5A
  8
AM_VIS
 10
13.76556855896799
 20
2.7684581591821709
 30
0.0
 40
0.4103297329045481
 50
49.29431560951793
 51
88.371789894219916
  0
ARC
  5
5B
  8
AM_VIS
 10
13.78887609351286
 20
2.7684581591821682
 30
0.0
 40
0.4103297329045507
 50
91.628210105780184
 51
130.70568439048191
  0
ARC
  5
5C
  8
AM_VIS
 10
13.77722232624042
 20
2.7642486060511389
 30
0.0
 40
0.40625
 50
309.07230755918039
 51
50.927692440819548
  0
ARC
  5
5D
  8
AM_VIS
 10
13.76556855896799
 20
2.7600390529201051
 30
0.0
 40
0.4103297329045456
 50
271.62821010577989
 51
310.70568439048219
  0
CIRCLE
  5
5E
  8
AM_VIS
 10
13.77722232624043
 20
2.7642486060511389
 30
0.0
 40
0.3125
  0
ARC
  5
5F
  8
AM_VIS
 10
13.77722232624043
 20
2.764248606051138
 30
0.0
 40
0.40625
 50
129.07230755918039
 51
230.92769244081941
  0
ARC
  5
60
  8
AM_VIS
 10
13.78887609351286
 20
2.7600390529201051
 30
0.0
 40
0.4103297329045458
 50
229.29431560951781
 51
268.37178989422
  0
LINE
  5
61
  8
AM_VIS
 10
12.62722232624043
 20
-0.6057513939488608
 30
0.0
 11
13.62628481983162
 21
-0.605751393948861
 31
0.0
  0
LINE
  5
62
  8
AM_VIS
 10
13.92815983264923
 20
-0.605751393948861
 30
0.0
 11
14.92722232624042
 21
-0.6057513939488608
 31
0.0
  0
LINE
  5
63
  8
AM_VIS
 10
13.77722232624043
 20
-0.6057513933894532
 30
0.0
 11
13.92815983264923
 21
-0.6057513933894532
 31
0.0
  0
LINE
  5
64
  8
AM_VIS
 10
13.62628481983162
 20
-0.6057513933894532
 30
0.0
 11
13.77722232624043
 21
-0.6057513933894532
 31
0.0
  0
ARC
  5
65
  8
AM_VIS
 10
13.76556855896799
 20
0.020039052920104
 30
0.0
 40
0.4103297329045449
 50
271.62821010577989
 51
310.70568439048219
  0
ARC
  5
66
  8
AM_VIS
 10
13.78887609351286
 20
0.0200390529201042
 30
0.0
 40
0.410329732904545
 50
229.29431560951781
 51
268.37178989422011
  0
ARC
  5
67
  8
AM_VIS
 10
13.77722232624042
 20
0.0242486060511382
 30
0.0
 40
0.40625
 50
309.0723075591805
 51
50.927692440819548
  0
ARC
  5
68
  8
AM_VIS
 10
13.76556855896799
 20
0.0284581591821738
 30
0.0
 40
0.4103297329045442
 50
49.29431560951776
 51
88.3717898942201
  0
CIRCLE
  5
69
  8
AM_VIS
 10
13.77722232624043
 20
0.0242486060511382
 30
0.0
 40
0.3125
  0
ARC
  5
6A
  8
AM_VIS
 10
13.78887609351286
 20
0.0284581591821713
 30
0.0
 40
0.4103297329045465
 50
91.628210105779985
 51
130.70568439048211
  0
ARC
  5
6B
  8
AM_VIS
 10
13.77722232624043
 20
0.0242486060511391
 30
0.0
 40
0.40625
 50
129.0723075591805
 51
230.9276924408195
  0
LINE
  5
6C
  8
AM_VIS
 10
14.92722232624042
 20
3.3942486060511379
 30
0.0
 11
14.92722232624042
 21
-0.6057513939488608
 31
0.0
  0
LINE
  5
6D
  8
AM_VIS
 10
12.62722232624043
 20
3.3942486060511379
 30
0.0
 11
12.62722232624043
 21
-0.6057513939488608
 31
0.0
  0
LINE
  5
6E
  8
AM_HID
 10
14.77722232624042
 20
3.3942486060511379
 30
0.0
 11
14.77722232624042
 21
-0.6057513939488608
 31
0.0
  0
LINE
  5
6F
  8
AM_HID
 10
12.77722232624042
 20
3.3942486060511379
 30
0.0
 11
12.77722232624042
 21
-0.6057513939488608
 31
0.0
  0
INSERT
  5
188
  8
0
  2
*U7
 10
0.0
 20
0.0
 30
0.0
  0
INSERT
  5
189
  8
0
  2
*U8
 10
0.0
 20
0.0
 30
0.0
  0
LINE
  5
18B
  8
0
 10
7.1196279026060738
 20
-0.6057513939488608
 30
0.0
 11
6.0567161610716536
 21
-0.6057513939488605
 31
0.0
  0
LINE
  5
18C
  8
0
 10
7.1196279026060738
 20
3.3942486060511379
 30
0.0
 11
6.0567161610716553
 21
3.3942486060511379
 31
0.0
  0
LINE
  5
18D
  8
0
 10
6.2367161610716542
 20
-0.4807513939488606
 30
0.0
 11
6.2367161610716542
 21
1.0698736060511389
 31
0.0
  0
LINE
  5
18E
  8
0
 10
6.2367161610716551
 20
3.2692486060511379
 30
0.0
 11
6.2367161610716542
 21
1.7186236060511391
 31
0.0
  0
SOLID
  5
18F
  8
0
 10
6.2158828277383211
 20
-0.4807513939488606
 30
0.0
 11
6.2575494944049872
 21
-0.4807513939488606
 31
0.0
 12
6.2367161610716542
 22
-0.6057513939488605
 32
0.0
 13
6.2367161610716542
 23
-0.6057513939488605
 33
0.0
  0
SOLID
  5
190
  8
0
 10
6.215882827738322
 20
3.2692486060511379
 30
0.0
 11
6.2575494944049881
 21
3.2692486060511379
 31
0.0
 12
6.2367161610716551
 22
3.3942486060511379
 32
0.0
 13
6.2367161610716551
 23
3.3942486060511379
 33
0.0
  0
INSERT
  5
191
  8
0
  2
*U9
 10
0.0
 20
0.0
 30
0.0
  0
ENDSEC
  0
EOF
