  0
SECTION
  2
HEADER
  9
$ACADVER
  1
AC1009
  9
$INSBASE
 10
0.0
 20
0.0
 30
0.0
  9
$EXTMIN
 10
7.3394541564300608
 20
0.6399641281420392
 30
0.0
  9
$EXTMAX
 10
13.726218595351581
 20
6.1900420545607551
 30
0.0
  9
$LIMMIN
 10
0.0
 20
0.0
  9
$LIMMAX
 10
12.0
 20
9.0
  9
$ORTHOMODE
 70
     1
  9
$REGENMODE
 70
     0
  9
$FILLMODE
 70
     1
  9
$QTEXTMODE
 70
     0
  9
$MIRRTEXT
 70
     0
  9
$DRAGMODE
 70
     2
  9
$LTSCALE
 40
1.0
  9
$OSMODE
 70
    55
  9
$ATTMODE
 70
     1
  9
$TEXTSIZE
 40
0.2
  9
$TRACEWID
 40
0.05
  9
$TEXTSTYLE
  7
STANDARD
  9
$CLAYER
  8
0
  9
$CELTYPE
  6
BYLAYER
  9
$CECOLOR
 62
   256
  9
$DIMSCALE
 40
1.0
  9
$DIMASZ
 40
0.125
  9
$DIMEXO
 40
0.0625
  9
$DIMDLI
 40
0.38
  9
$DIMRND
 40
0.0
  9
$DIMDLE
 40
0.0
  9
$DIMEXE
 40
0.18
  9
$DIMTP
 40
0.0
  9
$DIMTM
 40
0.0
  9
$DIMTXT
 40
0.09375
  9
$DIMCEN
 40
-0.125
  9
$DIMTSZ
 40
0.0
  9
$DIMTOL
 70
     0
  9
$DIMLIM
 70
     0
  9
$DIMTIH
 70
     0
  9
$DIMTOH
 70
     0
  9
$DIMSE1
 70
     0
  9
$DIMSE2
 70
     0
  9
$DIMTAD
 70
     0
  9
$DIMZIN
 70
     3
  9
$DIMBLK
  1

  9
$DIMASO
 70
     0
  9
$DIMSHO
 70
     1
  9
$DIMPOST
  1

  9
$DIMAPOST
  1

  9
$DIMALT
 70
     0
  9
$DIMALTD
 70
     2
  9
$DIMALTF
 40
25.399999999999999
  9
$DIMLFAC
 40
1.0
  9
$DIMTOFL
 70
     1
  9
$DIMTVP
 40
0.0
  9
$DIMTIX
 70
     0
  9
$DIMSOXD
 70
     0
  9
$DIMSAH
 70
     0
  9
$DIMBLK1
  1

  9
$DIMBLK2
  1

  9
$DIMSTYLE
  2
STANDARD
  9
$DIMCLRD
 70
     0
  9
$DIMCLRE
 70
     0
  9
$DIMCLRT
 70
     0
  9
$DIMTFAC
 40
1.0
  9
$DIMGAP
 40
0.09
  9
$LUNITS
 70
     4
  9
$LUPREC
 70
     4
  9
$SKETCHINC
 40
0.1
  9
$FILLETRAD
 40
0.025
  9
$AUNITS
 70
     0
  9
$AUPREC
 70
     4
  9
$MENU
  1
.
  9
$ELEVATION
 40
0.0
  9
$PELEVATION
 40
0.0
  9
$THICKNESS
 40
0.0
  9
$LIMCHECK
 70
     0
  9
$BLIPMODE
 70
     0
  9
$CHAMFERA
 40
0.125
  9
$CHAMFERB
 40
0.5
  9
$SKPOLY
 70
     0
  9
$TDCREATE
 40
2451086.9109346061
  9
$TDUPDATE
 40
2453913.5603354862
  9
$TDINDWG
 40
0.0531208218
  9
$TDUSRTIMER
 40
0.0531208218
  9
$USRTIMER
 70
     1
  9
$ANGBASE
 50
0.0
  9
$ANGDIR
 70
     0
  9
$PDMODE
 70
    34
  9
$PDSIZE
 40
3.0
  9
$PLINEWID
 40
0.0
  9
$COORDS
 70
     1
  9
$SPLFRAME
 70
     0
  9
$SPLINETYPE
 70
     6
  9
$SPLINESEGS
 70
     8
  9
$ATTDIA
 70
     0
  9
$ATTREQ
 70
     1
  9
$HANDLING
 70
     1
  9
$HANDSEED
  5
30E
  9
$SURFTAB1
 70
     6
  9
$SURFTAB2
 70
     6
  9
$SURFTYPE
 70
     6
  9
$SURFU
 70
     6
  9
$SURFV
 70
     6
  9
$UCSNAME
  2

  9
$UCSORG
 10
0.0
 20
0.0
 30
0.0
  9
$UCSXDIR
 10
1.0
 20
0.0
 30
0.0
  9
$UCSYDIR
 10
0.0
 20
1.0
 30
0.0
  9
$PUCSNAME
  2

  9
$PUCSORG
 10
0.0
 20
0.0
 30
0.0
  9
$PUCSXDIR
 10
1.0
 20
0.0
 30
0.0
  9
$PUCSYDIR
 10
0.0
 20
1.0
 30
0.0
  9
$USERI1
 70
     0
  9
$USERI2
 70
     0
  9
$USERI3
 70
     0
  9
$USERI4
 70
     0
  9
$USERI5
 70
     0
  9
$USERR1
 40
0.0
  9
$USERR2
 40
0.0
  9
$USERR3
 40
0.0
  9
$USERR4
 40
0.0
  9
$USERR5
 40
0.0
  9
$WORLDVIEW
 70
     1
  9
$SHADEDGE
 70
     3
  9
$SHADEDIF
 70
    70
  9
$TILEMODE
 70
     1
  9
$MAXACTVP
 70
    48
  9
$PLIMCHECK
 70
     0
  9
$PEXTMIN
 10
6.8556992632481304
 20
-1.0317734420560929
 30
0.0
  9
$PEXTMAX
 10
15.24222232624042
 20
7.4176901705215768
 30
0.0
  9
$PLIMMIN
 10
-0.1579164520023376
 20
-0.2812499887361301
  9
$PLIMMAX
 10
10.84208330770177
 20
8.2187497709679782
  9
$UNITMODE
 70
     0
  9
$VISRETAIN
 70
     1
  9
$PLINEGEN
 70
     0
  9
$PSLTSCALE
 70
     1
  0
ENDSEC
  0
SECTION
  2
TABLES
  0
TABLE
  2
VPORT
 70
     2
  0
VPORT
  2
*ACTIVE
 70
     0
 10
0.0
 20
0.0
 11
1.0
 21
1.0
 12
1.943875231315324
 22
0.5986896720478514
 13
0.0
 23
0.0
 14
0.5
 24
0.5
 15
0.5
 25
0.5
 16
0.0
 26
0.0
 36
1.0
 17
7.4636111631202118
 27
3.5984346309777191
 37
0.0
 40
9.9648449040030282
 41
2.1654275092936799
 42
50.0
 43
0.0
 44
0.0
 50
0.0
 51
0.0
 71
     0
 72
   100
 73
     1
 74
     1
 75
     0
 76
     0
 77
     0
 78
     0
  0
ENDTAB
  0
TABLE
  2
LTYPE
 70
    18
  0
LTYPE
  2
CONTINUOUS
 70
     0
  3
Solid line
 72
    65
 73
     0
 40
0.0
  0
LTYPE
  2
HIDDEN
 70
     0
  3
__ __ __ __ __ __ __ __ __ __ __ __ __ __ __ __
 72
    65
 73
     2
 40
0.375
 49
0.25
 49
-0.125
  0
LTYPE
  2
PHANTOM2
 70
     0
  3
Phantom (.5x) ___ _ _ ___ _ _ ___ _ _ ___ _ _
 72
    65
 73
     6
 40
1.25
 49
0.625
 49
-0.125
 49
0.125
 49
-0.125
 49
0.125
 49
-0.125
  0
LTYPE
  2
CENTER
 70
     0
  3
Center ____ _ ____ _ ____ _ ____ _ ____ _ ____
 72
    65
 73
     4
 40
2.0
 49
1.25
 49
-0.25
 49
0.25
 49
-0.25
  0
LTYPE
  2
ASULTYPE
 70
     0
  3
Solid line
 72
    65
 73
     2
 40
3.0
 49
2.5
 49
0.5
  0
LTYPE
  2
ASVLTYPE
 70
     0
  3
__ __ __ __ __ __ __ __ __ __ __ __ __ __ __ __ __ __ __ __ __
 72
    65
 73
     2
 40
0.75
 49
0.5
 49
-0.25
  0
LTYPE
  2
AM_ISO02W050
 70
     0
  3
__ __ __ __ __ __ __ __ __ __ __ __ __ __ __
 72
    65
 73
     2
 40
7.5
 49
6.0
 49
-1.5
  0
LTYPE
  2
AM_ISO08W050
 70
     0
  3
____ . ____ . ____ . ____ . ____ . ____ . ____
 72
    65
 73
     4
 40
18.0
 49
12.0
 49
-1.5
 49
3.0
 49
-1.5
  0
LTYPE
  2
AM_ISO09W050
 70
     0
  3
_____ . . _____ . . _____ . . ____ .. ____
 72
    65
 73
     6
 40
22.5
 49
12.0
 49
-1.5
 49
3.0
 49
-1.5
 49
3.0
 49
-1.5
  0
LTYPE
  2
AMCONSTR
 70
     0
  3
_______________________
 72
    65
 73
     2
 40
9999.0
 49
9999.0
 49
0.0
  0
LTYPE
  2
AM_ISO08W050X2
 70
     0
  3
__ . __ . __ . __ . __ . __
 72
    65
 73
     4
 40
9.0
 49
6.0
 49
-0.75
 49
1.5
 49
-0.75
  0
LTYPE
  2
AM_ISO02W050X2
 70
     0
  3
 _ _ _ _ _ _ _ _ _ _ _ _
 72
    65
 73
     2
 40
3.75
 49
3.0
 49
-0.75
  0
LTYPE
  2
AMZIGZAG
 70
     0
  3
/\/-/\/-/\/-/\/-/\/-/\/
 72
    65
 73
     2
 40
11.0001
 49
0.0001
 49
-11.0
  0
LTYPE
  2
CENTER2
 70
     0
  3
Center (.5x) ___ _ ___ _ ___ _ ___ _ ___ _ ___
 72
    65
 73
     4
 40
1.125
 49
0.75
 49
-0.125
 49
0.125
 49
-0.125
  0
LTYPE
  2
HIDDEN2
 70
     0
  3
Hidden (.5x) _ _ _ _ _ _ _ _ _ _ _ _ _ _ _ _ _
 72
    65
 73
     2
 40
0.1875
 49
0.125
 49
-0.0625
  0
LTYPE
  2
AMZIGZAG2
 70
     0
  3
/\/-/\/-/\/-/\/-/\/-/\/
 72
    65
 73
     2
 40
0.4401
 49
0.0001
 49
-0.4400000000000001
  0
LTYPE
  2
ACANSTGB
 70
     0
  3
__ . . __ . .
 72
    65
 73
     6
 40
0.35433070866
 49
0.15748031496
 49
-0.03937007874
 49
0.03937007874
 49
-0.03937007874
 49
0.03937007874
 49
-0.03937007874
  0
LTYPE
  2
ACANSTGL
 70
     0
  3
_ _ _ _ _
 72
    65
 73
     2
 40
0.11811023622
 49
0.07874015748
 49
-0.03937007874
  0
ENDTAB
  0
TABLE
  2
LAYER
 70
     4
  0
LAYER
  2
0
 70
     0
 62
     7
  6
CONTINUOUS
  0
LAYER
  2
AM_VIS
 70
     0
 62
     7
  6
CONTINUOUS
  0
LAYER
  2
AM_HID
 70
     0
 62
     7
  6
HIDDEN
  0
LAYER
  2
KEE10
 70
     0
 62
     7
  6
CONTINUOUS
  0
ENDTAB
  0
TABLE
  2
STYLE
 70
     5
  0
STYLE
  2
STANDARD
 70
     0
 40
0.0
 41
1.0
 50
0.0
 71
     0
 42
0.2
  3
txt
  4

  0
STYLE
  2

 70
     1
 40
0.0
 41
1.0
 50
0.0
 71
     0
 42
0.2
  3
ltypeshp.shx
  4

  0
STYLE
  2
ACANSTS
 70
     0
 40
1.0
 41
1.0
 50
0.0
 71
     0
 42
0.2
  3
romans.shx
  4

  0
STYLE
  2
ACANSGDT
 70
     0
 40
0.0
 41
1.0
 50
0.0
 71
     0
 42
0.2
  3
amgdtans.shx
  4

  0
STYLE
  2
ACANSTSB
 70
     0
 40
1.0
 41
1.0
 50
0.0
 71
     0
 42
0.2
  3
romans.shx
  4

  0
ENDTAB
  0
TABLE
  2
VIEW
 70
     0
  0
ENDTAB
  0
TABLE
  2
UCS
 70
     0
  0
ENDTAB
  0
TABLE
  2
APPID
 70
    13
  0
APPID
  2
ACAD
 70
     0
  0
APPID
  2
GENIUS_GENDIM_13
 70
     0
  0
APPID
  2
GENIUS_GENDTOL_13
 70
     0
  0
APPID
  2
GENIUS_GE3DTOL_13
 70
     0
  0
APPID
  2
MCAD_NO_VIS
 70
     0
  0
APPID
  2
ACAD_TEMP_GRAPHIC
 70
     0
  0
APPID
  2
AD_DRAW
 70
     0
  0
APPID
  2
ACATTRIBSERVICES
 70
     0
  0
APPID
  2
ASURF_PCURVE_APPNAME
 70
     0
  0
APPID
  2
AMG_3D2D_5_0
 70
     0
  0
APPID
  2
DESIGNERASSEMBLIES
 70
     0
  0
APPID
  2
ACADM_DIM_EDIT
 70
     0
  0
APPID
  2
AMDT_DM_ADJ
 70
     0
  0
ENDTAB
  0
TABLE
  2
DIMSTYLE
 70
     7
  0
DIMSTYLE
  2
STANDARD
 70
     0
  3

  4

  5

  6

  7

 40
1.0
 41
0.18
 42
0.0625
 43
0.38
 44
0.18
 45
0.0
 46
0.0
 47
0.0
 48
0.0
140
0.18
141
0.09
142
0.0
143
25.399999999999999
144
1.0
145
0.0
146
1.0
147
0.09
 71
     0
 72
     0
 73
     1
 74
     1
 75
     0
 76
     0
 77
     0
 78
     0
170
     0
171
     2
172
     0
173
     0
174
     0
175
     0
176
     0
177
     0
178
     0
  0
DIMSTYLE
  2
AM_ANSI
 70
     0
  3

  4
mm
  5

  6

  7

 40
1.0
 41
0.1
 42
0.05
 43
0.5
 44
0.1
 45
0.0
 46
0.0
 47
0.1
 48
0.1
140
0.12
141
0.0
142
0.0
143
25.399999999999999
144
1.0
145
0.0
146
0.71
147
0.06
 71
     0
 72
     0
 73
     1
 74
     1
 75
     0
 76
     0
 77
     0
 78
     7
170
     0
171
     2
172
     0
173
     0
174
     0
175
     0
176
   256
177
   256
178
     2
  0
DIMSTYLE
  2
AM_ANSI$3
 70
     0
  3

  4
mm
  5

  6

  7

 40
1.0
 41
0.1
 42
0.05
 43
0.5
 44
0.1
 45
0.0
 46
0.0
 47
0.1
 48
0.1
140
0.12
141
0.0
142
0.0
143
25.399999999999999
144
1.0
145
0.0
146
0.71
147
0.06
 71
     0
 72
     0
 73
     1
 74
     1
 75
     0
 76
     0
 77
     0
 78
     7
170
     0
171
     2
172
     0
173
     0
174
     0
175
     0
176
   256
177
   256
178
     2
  0
DIMSTYLE
  2
AM_ANSI$4
 70
     0
  3

  4
mm
  5

  6

  7

 40
1.0
 41
0.1
 42
0.05
 43
0.5
 44
0.1
 45
0.0
 46
0.0
 47
0.1
 48
0.1
140
0.12
141
0.0
142
0.0
143
25.399999999999999
144
1.0
145
0.0
146
0.71
147
0.06
 71
     0
 72
     0
 73
     1
 74
     1
 75
     0
 76
     0
 77
     0
 78
     7
170
     0
171
     2
172
     0
173
     0
174
     0
175
     0
176
   256
177
   256
178
     2
  0
DIMSTYLE
  2
AM_ANSI$7
 70
     0
  3

  4
mm
  5

  6

  7

 40
1.0
 41
0.1
 42
0.05
 43
0.5
 44
0.1
 45
0.0
 46
0.0
 47
0.1
 48
0.1
140
0.24
141
0.0
142
0.0
143
25.399999999999999
144
1.0
145
0.0
146
0.71
147
0.06
 71
     0
 72
     0
 73
     1
 74
     1
 75
     0
 76
     0
 77
     0
 78
     7
170
     0
171
     2
172
     0
173
     0
174
     0
175
     0
176
   256
177
   256
178
     2
  0
DIMSTYLE
  2
AM_ANSI$SF
 70
     0
  3

  4
mm
  5

  6

  7

 40
1.0
 41
0.1
 42
0.05
 43
0.5
 44
0.1
 45
0.0
 46
0.0
 47
0.1
 48
0.1
140
0.12
141
0.0
142
0.0
143
25.399999999999999
144
1.0
145
0.0
146
0.71
147
0.06
 71
     0
 72
     0
 73
     1
 74
     1
 75
     1
 76
     1
 77
     0
 78
     7
170
     0
171
     2
172
     0
173
     0
174
     0
175
     0
176
   256
177
   256
178
     2
  0
DIMSTYLE
  2
AM_ANSI$SH
 70
     0
  3

  4
mm
  5

  6
GENAXEH
  7

 40
1.0
 41
0.1
 42
0.05
 43
0.5
 44
0.1
 45
0.0
 46
0.0
 47
0.1
 48
0.1
140
0.12
141
0.0
142
0.0
143
25.399999999999999
144
1.0
145
0.0
146
0.71
147
0.06
 71
     0
 72
     0
 73
     1
 74
     1
 75
     1
 76
     1
 77
     0
 78
     7
170
     0
171
     2
172
     0
173
     1
174
     0
175
     0
176
   256
177
   256
178
     2
  0
ENDTAB
  0
ENDSEC
  0
SECTION
  2
BLOCKS
  0
BLOCK
  8
0
  2
$MODEL_SPACE
 70
     0
 10
0.0
 20
0.0
 30
0.0
  3
$MODEL_SPACE
  1

  0
ENDBLK
  5
A
  8
0
  0
BLOCK
 67
     1
  8
0
  2
$PAPER_SPACE
 70
     0
 10
0.0
 20
0.0
 30
0.0
  3
$PAPER_SPACE
  1

  0
ENDBLK
  5
F
 67
     1
  8
0
  0
BLOCK
  8
0
  2
*U0
 70
     1
 10
0.0
 20
0.0
 30
0.0
  3
*U0
  1

  0
ENDBLK
  5
12B
  8
0
  0
BLOCK
  8
0
  2
GENAXEH
 70
     0
 10
0.0
 20
0.0
 30
0.0
  3
GENAXEH
  1

  0
LINE
  5
169
  8
0
 10
-1.0
 20
0.0
 30
0.0
 11
1.0
 21
0.0
 31
0.0
  0
ENDBLK
  5
16B
  8
0
  0
BLOCK
  8
0
  2
_DOT
 70
     0
 10
0.0
 20
0.0
 30
0.0
  3
_DOT
  1

  0
POLYLINE
  5
172
  8
0
  6
BYBLOCK
 62
     0
 66
     1
 10
0.0
 20
0.0
 30
0.0
 70
     1
 40
0.5
 41
0.5
  0
VERTEX
  5
173
  8
0
  6
BYBLOCK
 62
     0
 10
-0.25
 20
0.0
 30
0.0
 42
1.0
  0
VERTEX
  5
174
  8
0
  6
BYBLOCK
 62
     0
 10
0.25
 20
0.0
 30
0.0
 42
1.0
  0
SEQEND
  5
175
  8
0
  6
BYBLOCK
 62
     0
  0
LINE
  5
176
  8
0
  6
BYBLOCK
 62
     0
 10
-0.5
 20
0.0
 30
0.0
 11
-1.0
 21
0.0
 31
0.0
  0
ENDBLK
  5
178
  8
0
  0
BLOCK
  8
0
  2
2D
 70
     0
 10
0.0
 20
0.0
 30
0.0
  3
2D
  1

  0
INSERT
  5
17C
  8
0
  2
*U4
 10
0.0
 20
0.0
 30
0.0
  0
INSERT
  5
17D
  8
0
  2
*U5
 10
0.0
 20
0.0
 30
0.0
  0
INSERT
  5
17E
  8
0
  2
*U6
 10
0.0
 20
0.0
 30
0.0
  0
ENDBLK
  5
180
  8
0
  0
BLOCK
  8
0
  2
*U4
 70
     1
 10
0.0
 20
0.0
 30
0.0
  3
*U4
  1

  0
TEXT
  5
1F3
  8
KEE10
 10
-0.167740653382606
 20
0.7944046258072062
 30
0.0
 40
0.140625
  1
KEE
  0
ENDBLK
  5
1F5
  8
0
  0
BLOCK
  8
0
  2
*U5
 70
     1
 10
0.0
 20
0.0
 30
0.0
  3
*U5
  1

  0
TEXT
  5
1F7
  8
KEE10
 10
-0.308365653382606
 20
0.4858688129746218
 30
0.0
 40
0.140625
  1
KLAMP
  0
ENDBLK
  5
1F9
  8
0
  0
BLOCK
  8
0
  2
*U6
 70
     1
 10
0.0
 20
0.0
 30
0.0
  3
*U6
  1

  0
TEXT
  5
1FB
  8
KEE10
 10
-0.202896903382606
 20
0.2018753139112972
 30
0.0
 40
0.140625
  1
10-8
  0
ENDBLK
  5
1FD
  8
0
  0
BLOCK
  8
0
  2
*U7
 70
     1
 10
0.0
 20
0.0
 30
0.0
  3
*U7
  1

  0
TEXT
  5
1FF
  8
KEE10
 10
8.7979045012185271
 20
2.4510308823340239
 30
0.0
 40
0.10125
  1
KEE
  0
ENDBLK
  5
201
  8
0
  0
BLOCK
  8
0
  2
*U8
 70
     1
 10
0.0
 20
0.0
 30
0.0
  3
*U8
  1

  0
TEXT
  5
203
  8
KEE10
 10
8.6966545012185268
 20
2.2288850970945631
 30
0.0
 40
0.10125
  1
KLAMP
  0
ENDBLK
  5
205
  8
0
  0
BLOCK
  8
0
  2
*U9
 70
     1
 10
0.0
 20
0.0
 30
0.0
  3
*U9
  1

  0
TEXT
  5
207
  8
0
 10
7.5028041564300629
 20
1.9112141281420401
 30
0.0
 40
0.0675
  1
3-1/2"
 50
90.0
  0
ENDBLK
  5
209
  8
0
  0
ENDSEC
  0
SECTION
  2
ENTITIES
  0
POINT
  5
25
  8
0
 10
0.0
 20
0.0
 30
0.0
  0
POINT
  5
26
  8
0
 10
0.0
 20
0.0
 30
0.0
  0
LINE
  5
27
  8
AM_VIS
 10
8.1497506103348432
 20
3.5199641281420391
 30
0.0
 11
9.7985878313306252
 21
3.5199641281420391
 31
0.0
  0
LINE
  5
29
  8
AM_VIS
 10
9.7985878313306252
 20
3.5199641276207561
 30
0.0
 11
9.8067456104053452
 21
3.5199641276207561
 31
0.0
  0
ARC
  5
2A
  8
AM_VIS
 10
9.9857506103342892
 20
3.5388641281413289
 30
0.0
 40
0.1799999999991542
 50
186.0271665609543
 51
255.52248781418541
  0
LINE
  5
2B
  8
AM_VIS
 10
9.9407506103350602
 20
3.3645798775627558
 30
0.0
 11
9.9407506103350602
 21
3.2934468358127948
 31
0.0
  0
ARC
  5
2C
  8
AM_VIS
 10
9.9857506103348452
 20
2.59386412814204
 30
0.0
 40
0.1800000000000005
 50
104.4775121859299
 51
179.9999999999998
  0
LINE
  5
2D
  8
AM_VIS
 10
9.9407506103348453
 20
2.8392814204712842
 30
0.0
 11
9.9407506103348453
 21
3.2934468358127948
 31
0.0
  0
LINE
  5
2E
  8
AM_VIS
 10
9.9407506103350602
 20
2.8392814204712851
 30
0.0
 11
9.9407506103350602
 21
2.7681483787213241
 31
0.0
  0
ARC
  5
2F
  8
AM_HID
 10
10.411413226613931
 20
3.071355040242246
 30
0.0
 40
0.749755822782901
 50
180.381413430967
 51
197.86249115412619
  0
ARC
  5
32
  8
AM_HID
 10
10.41141322661392
 20
3.0613732160418361
 30
0.0
 40
0.749755822782895
 50
162.13750884587381
 51
179.618586569033
  0
LINE
  5
33
  8
AM_VIS
 10
8.1497506103348432
 20
0.6399641281420401
 30
0.0
 11
9.7985878313306252
 21
0.6399641281420392
 31
0.0
  0
LINE
  5
34
  8
AM_VIS
 10
9.7985878313306252
 20
0.639964128663324
 30
0.0
 11
9.8067456104053452
 21
0.639964128663324
 31
0.0
  0
ARC
  5
35
  8
AM_VIS
 10
9.9857506103342892
 20
0.6210641281427498
 30
0.0
 40
0.1799999999991545
 50
104.4775121858146
 51
173.9728334390457
  0
LINE
  5
36
  8
AM_VIS
 10
9.9407506103350602
 20
0.8664814204712839
 30
0.0
 11
9.9407506103350602
 21
0.7953483787213234
 31
0.0
  0
ARC
  5
37
  8
AM_HID
 10
10.411413226613931
 20
1.0885732160418331
 30
0.0
 40
0.7497558227829013
 50
162.1375088458739
 51
179.618586569033
  0
ARC
  5
38
  8
AM_HID
 10
10.41141322661392
 20
1.098555040242243
 30
0.0
 40
0.7497558227828947
 50
180.38141343096689
 51
197.86249115412619
  0
ARC
  5
39
  8
AM_VIS
 10
9.9857506103348452
 20
1.5660641281420391
 30
0.0
 40
0.1800000000000008
 50
180.0000000000002
 51
255.52248781406999
  0
LINE
  5
3A
  8
AM_VIS
 10
9.9407506103350602
 20
1.391779877562755
 30
0.0
 11
9.9407506103350602
 21
1.3206468358127941
 31
0.0
  0
LINE
  5
3B
  8
AM_VIS
 10
9.9407506103348453
 20
1.3206468358127941
 30
0.0
 11
9.9407506103348453
 21
0.8664814204712839
 31
0.0
  0
LINE
  5
3C
  8
AM_HID
 10
9.6977506103348468
 20
3.2913641281420398
 30
0.0
 11
9.9407506103348453
 21
3.2913641281420398
 31
0.0
  0
LINE
  5
3D
  8
AM_HID
 10
9.6977506103348468
 20
2.8413641281420401
 30
0.0
 11
9.9407506103348453
 21
2.8413641281420401
 31
0.0
  0
LINE
  5
3E
  8
AM_VIS
 10
9.8057506103348455
 20
2.59386412814204
 30
0.0
 11
9.8057506103348455
 21
1.5660641281420391
 31
0.0
  0
LINE
  5
3F
  8
AM_VIS
 10
8.1497506103348432
 20
3.5199641281420391
 30
0.0
 11
8.1497506103348432
 21
0.6399641281420401
 31
0.0
  0
LINE
  5
40
  8
AM_HID
 10
9.6977506103348468
 20
3.5199641281420391
 30
0.0
 11
9.6977506103348468
 21
3.2913641281420389
 31
0.0
  0
LINE
  5
41
  8
AM_HID
 10
9.6977506103348468
 20
2.8413641281420401
 30
0.0
 11
9.6977506103348468
 21
1.3185641281420379
 31
0.0
  0
LINE
  5
42
  8
AM_HID
 10
9.6977506103348468
 20
0.8685641281420393
 30
0.0
 11
9.6977506103348468
 21
0.6399641281420392
 31
0.0
  0
LINE
  5
43
  8
AM_HID
 10
8.2577506103348455
 20
3.5199641281420391
 30
0.0
 11
8.2577506103348455
 21
0.6399641281420401
 31
0.0
  0
LINE
  5
44
  8
AM_HID
 10
9.9407506103348453
 20
0.8685641281420393
 30
0.0
 11
9.6977506103348468
 21
0.8685641281420393
 31
0.0
  0
LINE
  5
45
  8
AM_HID
 10
9.9407506103348453
 20
1.318564128142039
 30
0.0
 11
9.6977506103348468
 21
1.318564128142039
 31
0.0
  0
ARC
  5
46
  8
AM_VIS
 10
8.9777506103348461
 20
5.3620420545607548
 30
0.0
 40
0.8279999999999999
 50
7.5418313198843281
 51
352.4581686801157
  0
POLYLINE
  8
AM_VIS
  5
20A
  66
     1
 10
0.000000
 20
0.000000
 30
0.000000
  70
     8
  0
VERTEX
  8
AM_VIS
  5
20B
 10
9.80675
 20
5.36204
 30
0.000000
  70
    32
  0
VERTEX
  8
AM_VIS
  5
20C
 10
9.80674
 20
5.36113
 30
0.000000
  70
    32
  0
VERTEX
  8
AM_VIS
  5
20D
 10
9.80674
 20
5.36021
 30
0.000000
  70
    32
  0
VERTEX
  8
AM_VIS
  5
20E
 10
9.80674
 20
5.35930
 30
0.000000
  70
    32
  0
VERTEX
  8
AM_VIS
  5
20F
 10
9.80674
 20
5.35838
 30
0.000000
  70
    32
  0
VERTEX
  8
AM_VIS
  5
210
 10
9.80673
 20
5.35747
 30
0.000000
  70
    32
  0
VERTEX
  8
AM_VIS
  5
211
 10
9.80672
 20
5.35656
 30
0.000000
  70
    32
  0
VERTEX
  8
AM_VIS
  5
212
 10
9.80671
 20
5.35566
 30
0.000000
  70
    32
  0
VERTEX
  8
AM_VIS
  5
213
 10
9.80670
 20
5.35475
 30
0.000000
  70
    32
  0
VERTEX
  8
AM_VIS
  5
214
 10
9.80669
 20
5.35384
 30
0.000000
  70
    32
  0
VERTEX
  8
AM_VIS
  5
215
 10
9.80668
 20
5.35294
 30
0.000000
  70
    32
  0
VERTEX
  8
AM_VIS
  5
216
 10
9.80667
 20
5.35204
 30
0.000000
  70
    32
  0
VERTEX
  8
AM_VIS
  5
217
 10
9.80665
 20
5.35114
 30
0.000000
  70
    32
  0
VERTEX
  8
AM_VIS
  5
218
 10
9.80664
 20
5.35024
 30
0.000000
  70
    32
  0
VERTEX
  8
AM_VIS
  5
219
 10
9.80662
 20
5.34934
 30
0.000000
  70
    32
  0
VERTEX
  8
AM_VIS
  5
21A
 10
9.80660
 20
5.34844
 30
0.000000
  70
    32
  0
VERTEX
  8
AM_VIS
  5
21B
 10
9.80658
 20
5.34755
 30
0.000000
  70
    32
  0
VERTEX
  8
AM_VIS
  5
21C
 10
9.80656
 20
5.34665
 30
0.000000
  70
    32
  0
VERTEX
  8
AM_VIS
  5
21D
 10
9.80654
 20
5.34576
 30
0.000000
  70
    32
  0
VERTEX
  8
AM_VIS
  5
21E
 10
9.80652
 20
5.34487
 30
0.000000
  70
    32
  0
VERTEX
  8
AM_VIS
  5
21F
 10
9.80649
 20
5.34398
 30
0.000000
  70
    32
  0
VERTEX
  8
AM_VIS
  5
220
 10
9.80647
 20
5.34309
 30
0.000000
  70
    32
  0
VERTEX
  8
AM_VIS
  5
221
 10
9.80644
 20
5.34220
 30
0.000000
  70
    32
  0
VERTEX
  8
AM_VIS
  5
222
 10
9.80641
 20
5.34132
 30
0.000000
  70
    32
  0
VERTEX
  8
AM_VIS
  5
223
 10
9.80639
 20
5.34043
 30
0.000000
  70
    32
  0
VERTEX
  8
AM_VIS
  5
224
 10
9.80636
 20
5.33955
 30
0.000000
  70
    32
  0
VERTEX
  8
AM_VIS
  5
225
 10
9.80632
 20
5.33866
 30
0.000000
  70
    32
  0
VERTEX
  8
AM_VIS
  5
226
 10
9.80629
 20
5.33778
 30
0.000000
  70
    32
  0
VERTEX
  8
AM_VIS
  5
227
 10
9.80626
 20
5.33690
 30
0.000000
  70
    32
  0
VERTEX
  8
AM_VIS
  5
228
 10
9.80622
 20
5.33602
 30
0.000000
  70
    32
  0
VERTEX
  8
AM_VIS
  5
229
 10
9.80619
 20
5.33514
 30
0.000000
  70
    32
  0
VERTEX
  8
AM_VIS
  5
22A
 10
9.80615
 20
5.33427
 30
0.000000
  70
    32
  0
VERTEX
  8
AM_VIS
  5
22B
 10
9.80611
 20
5.33339
 30
0.000000
  70
    32
  0
VERTEX
  8
AM_VIS
  5
22C
 10
9.80608
 20
5.33252
 30
0.000000
  70
    32
  0
VERTEX
  8
AM_VIS
  5
22D
 10
9.80604
 20
5.33164
 30
0.000000
  70
    32
  0
VERTEX
  8
AM_VIS
  5
22E
 10
9.80600
 20
5.33077
 30
0.000000
  70
    32
  0
VERTEX
  8
AM_VIS
  5
22F
 10
9.80595
 20
5.32990
 30
0.000000
  70
    32
  0
VERTEX
  8
AM_VIS
  5
230
 10
9.80591
 20
5.32903
 30
0.000000
  70
    32
  0
VERTEX
  8
AM_VIS
  5
231
 10
9.80587
 20
5.32816
 30
0.000000
  70
    32
  0
VERTEX
  8
AM_VIS
  5
232
 10
9.80582
 20
5.32729
 30
0.000000
  70
    32
  0
VERTEX
  8
AM_VIS
  5
233
 10
9.80577
 20
5.32642
 30
0.000000
  70
    32
  0
VERTEX
  8
AM_VIS
  5
234
 10
9.80573
 20
5.32556
 30
0.000000
  70
    32
  0
VERTEX
  8
AM_VIS
  5
235
 10
9.80568
 20
5.32469
 30
0.000000
  70
    32
  0
VERTEX
  8
AM_VIS
  5
236
 10
9.80563
 20
5.32383
 30
0.000000
  70
    32
  0
VERTEX
  8
AM_VIS
  5
237
 10
9.80558
 20
5.32296
 30
0.000000
  70
    32
  0
VERTEX
  8
AM_VIS
  5
238
 10
9.80553
 20
5.32210
 30
0.000000
  70
    32
  0
VERTEX
  8
AM_VIS
  5
239
 10
9.80548
 20
5.32124
 30
0.000000
  70
    32
  0
VERTEX
  8
AM_VIS
  5
23A
 10
9.80542
 20
5.32038
 30
0.000000
  70
    32
  0
VERTEX
  8
AM_VIS
  5
23B
 10
9.80537
 20
5.31952
 30
0.000000
  70
    32
  0
VERTEX
  8
AM_VIS
  5
23C
 10
9.80531
 20
5.31866
 30
0.000000
  70
    32
  0
VERTEX
  8
AM_VIS
  5
23D
 10
9.80526
 20
5.31780
 30
0.000000
  70
    32
  0
VERTEX
  8
AM_VIS
  5
23E
 10
9.80520
 20
5.31694
 30
0.000000
  70
    32
  0
VERTEX
  8
AM_VIS
  5
23F
 10
9.80514
 20
5.31609
 30
0.000000
  70
    32
  0
VERTEX
  8
AM_VIS
  5
240
 10
9.80508
 20
5.31523
 30
0.000000
  70
    32
  0
VERTEX
  8
AM_VIS
  5
241
 10
9.80502
 20
5.31438
 30
0.000000
  70
    32
  0
VERTEX
  8
AM_VIS
  5
242
 10
9.80496
 20
5.31352
 30
0.000000
  70
    32
  0
VERTEX
  8
AM_VIS
  5
243
 10
9.80490
 20
5.31267
 30
0.000000
  70
    32
  0
VERTEX
  8
AM_VIS
  5
244
 10
9.80484
 20
5.31182
 30
0.000000
  70
    32
  0
VERTEX
  8
AM_VIS
  5
245
 10
9.80477
 20
5.31097
 30
0.000000
  70
    32
  0
VERTEX
  8
AM_VIS
  5
246
 10
9.80471
 20
5.31012
 30
0.000000
  70
    32
  0
VERTEX
  8
AM_VIS
  5
247
 10
9.80464
 20
5.30927
 30
0.000000
  70
    32
  0
VERTEX
  8
AM_VIS
  5
248
 10
9.80458
 20
5.30842
 30
0.000000
  70
    32
  0
VERTEX
  8
AM_VIS
  5
249
 10
9.80451
 20
5.30757
 30
0.000000
  70
    32
  0
VERTEX
  8
AM_VIS
  5
24A
 10
9.80444
 20
5.30672
 30
0.000000
  70
    32
  0
VERTEX
  8
AM_VIS
  5
24B
 10
9.80437
 20
5.30587
 30
0.000000
  70
    32
  0
VERTEX
  8
AM_VIS
  5
24C
 10
9.80430
 20
5.30503
 30
0.000000
  70
    32
  0
VERTEX
  8
AM_VIS
  5
24D
 10
9.80423
 20
5.30418
 30
0.000000
  70
    32
  0
VERTEX
  8
AM_VIS
  5
24E
 10
9.80416
 20
5.30334
 30
0.000000
  70
    32
  0
VERTEX
  8
AM_VIS
  5
24F
 10
9.80409
 20
5.30249
 30
0.000000
  70
    32
  0
VERTEX
  8
AM_VIS
  5
250
 10
9.80402
 20
5.30165
 30
0.000000
  70
    32
  0
VERTEX
  8
AM_VIS
  5
251
 10
9.80394
 20
5.30081
 30
0.000000
  70
    32
  0
VERTEX
  8
AM_VIS
  5
252
 10
9.80387
 20
5.29996
 30
0.000000
  70
    32
  0
VERTEX
  8
AM_VIS
  5
253
 10
9.80379
 20
5.29912
 30
0.000000
  70
    32
  0
VERTEX
  8
AM_VIS
  5
254
 10
9.80372
 20
5.29828
 30
0.000000
  70
    32
  0
VERTEX
  8
AM_VIS
  5
255
 10
9.80364
 20
5.29744
 30
0.000000
  70
    32
  0
VERTEX
  8
AM_VIS
  5
256
 10
9.80356
 20
5.29660
 30
0.000000
  70
    32
  0
VERTEX
  8
AM_VIS
  5
257
 10
9.80348
 20
5.29576
 30
0.000000
  70
    32
  0
VERTEX
  8
AM_VIS
  5
258
 10
9.80340
 20
5.29492
 30
0.000000
  70
    32
  0
VERTEX
  8
AM_VIS
  5
259
 10
9.80332
 20
5.29408
 30
0.000000
  70
    32
  0
VERTEX
  8
AM_VIS
  5
25A
 10
9.80324
 20
5.29325
 30
0.000000
  70
    32
  0
VERTEX
  8
AM_VIS
  5
25B
 10
9.80316
 20
5.29241
 30
0.000000
  70
    32
  0
VERTEX
  8
AM_VIS
  5
25C
 10
9.80308
 20
5.29157
 30
0.000000
  70
    32
  0
VERTEX
  8
AM_VIS
  5
25D
 10
9.80299
 20
5.29073
 30
0.000000
  70
    32
  0
VERTEX
  8
AM_VIS
  5
25E
 10
9.80291
 20
5.28990
 30
0.000000
  70
    32
  0
VERTEX
  8
AM_VIS
  5
25F
 10
9.80282
 20
5.28906
 30
0.000000
  70
    32
  0
VERTEX
  8
AM_VIS
  5
260
 10
9.80274
 20
5.28823
 30
0.000000
  70
    32
  0
VERTEX
  8
AM_VIS
  5
261
 10
9.80265
 20
5.28739
 30
0.000000
  70
    32
  0
VERTEX
  8
AM_VIS
  5
262
 10
9.80257
 20
5.28656
 30
0.000000
  70
    32
  0
VERTEX
  8
AM_VIS
  5
263
 10
9.80248
 20
5.28572
 30
0.000000
  70
    32
  0
VERTEX
  8
AM_VIS
  5
264
 10
9.80239
 20
5.28489
 30
0.000000
  70
    32
  0
VERTEX
  8
AM_VIS
  5
265
 10
9.80230
 20
5.28406
 30
0.000000
  70
    32
  0
VERTEX
  8
AM_VIS
  5
266
 10
9.80221
 20
5.28322
 30
0.000000
  70
    32
  0
VERTEX
  8
AM_VIS
  5
267
 10
9.80212
 20
5.28239
 30
0.000000
  70
    32
  0
VERTEX
  8
AM_VIS
  5
268
 10
9.80203
 20
5.28156
 30
0.000000
  70
    32
  0
VERTEX
  8
AM_VIS
  5
269
 10
9.80194
 20
5.28073
 30
0.000000
  70
    32
  0
VERTEX
  8
AM_VIS
  5
26A
 10
9.80185
 20
5.27990
 30
0.000000
  70
    32
  0
VERTEX
  8
AM_VIS
  5
26B
 10
9.80175
 20
5.27907
 30
0.000000
  70
    32
  0
VERTEX
  8
AM_VIS
  5
26C
 10
9.80166
 20
5.27823
 30
0.000000
  70
    32
  0
VERTEX
  8
AM_VIS
  5
26D
 10
9.80156
 20
5.27740
 30
0.000000
  70
    32
  0
VERTEX
  8
AM_VIS
  5
26E
 10
9.80147
 20
5.27657
 30
0.000000
  70
    32
  0
VERTEX
  8
AM_VIS
  5
26F
 10
9.80137
 20
5.27574
 30
0.000000
  70
    32
  0
VERTEX
  8
AM_VIS
  5
270
 10
9.80128
 20
5.27491
 30
0.000000
  70
    32
  0
VERTEX
  8
AM_VIS
  5
271
 10
9.80118
 20
5.27408
 30
0.000000
  70
    32
  0
VERTEX
  8
AM_VIS
  5
272
 10
9.80108
 20
5.27325
 30
0.000000
  70
    32
  0
VERTEX
  8
AM_VIS
  5
273
 10
9.80099
 20
5.27242
 30
0.000000
  70
    32
  0
VERTEX
  8
AM_VIS
  5
274
 10
9.80089
 20
5.27159
 30
0.000000
  70
    32
  0
VERTEX
  8
AM_VIS
  5
275
 10
9.80079
 20
5.27077
 30
0.000000
  70
    32
  0
VERTEX
  8
AM_VIS
  5
276
 10
9.80069
 20
5.26994
 30
0.000000
  70
    32
  0
VERTEX
  8
AM_VIS
  5
277
 10
9.80059
 20
5.26911
 30
0.000000
  70
    32
  0
VERTEX
  8
AM_VIS
  5
278
 10
9.80049
 20
5.26828
 30
0.000000
  70
    32
  0
VERTEX
  8
AM_VIS
  5
279
 10
9.80039
 20
5.26745
 30
0.000000
  70
    32
  0
VERTEX
  8
AM_VIS
  5
27A
 10
9.80028
 20
5.26662
 30
0.000000
  70
    32
  0
VERTEX
  8
AM_VIS
  5
27B
 10
9.80018
 20
5.26579
 30
0.000000
  70
    32
  0
VERTEX
  8
AM_VIS
  5
27C
 10
9.80008
 20
5.26496
 30
0.000000
  70
    32
  0
VERTEX
  8
AM_VIS
  5
27D
 10
9.79998
 20
5.26414
 30
0.000000
  70
    32
  0
VERTEX
  8
AM_VIS
  5
27E
 10
9.79987
 20
5.26331
 30
0.000000
  70
    32
  0
VERTEX
  8
AM_VIS
  5
27F
 10
9.79977
 20
5.26248
 30
0.000000
  70
    32
  0
VERTEX
  8
AM_VIS
  5
280
 10
9.79966
 20
5.26165
 30
0.000000
  70
    32
  0
VERTEX
  8
AM_VIS
  5
281
 10
9.79956
 20
5.26082
 30
0.000000
  70
    32
  0
VERTEX
  8
AM_VIS
  5
282
 10
9.79945
 20
5.26000
 30
0.000000
  70
    32
  0
VERTEX
  8
AM_VIS
  5
283
 10
9.79935
 20
5.25917
 30
0.000000
  70
    32
  0
VERTEX
  8
AM_VIS
  5
284
 10
9.79924
 20
5.25834
 30
0.000000
  70
    32
  0
VERTEX
  8
AM_VIS
  5
285
 10
9.79913
 20
5.25751
 30
0.000000
  70
    32
  0
VERTEX
  8
AM_VIS
  5
286
 10
9.79902
 20
5.25668
 30
0.000000
  70
    32
  0
VERTEX
  8
AM_VIS
  5
287
 10
9.79892
 20
5.25585
 30
0.000000
  70
    32
  0
VERTEX
  8
AM_VIS
  5
288
 10
9.79881
 20
5.25502
 30
0.000000
  70
    32
  0
VERTEX
  8
AM_VIS
  5
289
 10
9.79870
 20
5.25420
 30
0.000000
  70
    32
  0
VERTEX
  8
AM_VIS
  5
28A
 10
9.79859
 20
5.25337
 30
0.000000
  70
    32
  0
SEQEND
  8
AM_VIS
  5
28B
  0
POLYLINE
  8
AM_VIS
  5
28C
  66
     1
 10
0.000000
 20
0.000000
 30
0.000000
  70
     8
  0
VERTEX
  8
AM_VIS
  5
28D
 10
9.79859
 20
5.47072
 30
0.000000
  70
    32
  0
VERTEX
  8
AM_VIS
  5
28E
 10
9.79870
 20
5.46989
 30
0.000000
  70
    32
  0
VERTEX
  8
AM_VIS
  5
28F
 10
9.79881
 20
5.46906
 30
0.000000
  70
    32
  0
VERTEX
  8
AM_VIS
  5
290
 10
9.79892
 20
5.46823
 30
0.000000
  70
    32
  0
VERTEX
  8
AM_VIS
  5
291
 10
9.79902
 20
5.46740
 30
0.000000
  70
    32
  0
VERTEX
  8
AM_VIS
  5
292
 10
9.79913
 20
5.46657
 30
0.000000
  70
    32
  0
VERTEX
  8
AM_VIS
  5
293
 10
9.79924
 20
5.46575
 30
0.000000
  70
    32
  0
VERTEX
  8
AM_VIS
  5
294
 10
9.79935
 20
5.46492
 30
0.000000
  70
    32
  0
VERTEX
  8
AM_VIS
  5
295
 10
9.79945
 20
5.46409
 30
0.000000
  70
    32
  0
VERTEX
  8
AM_VIS
  5
296
 10
9.79956
 20
5.46326
 30
0.000000
  70
    32
  0
VERTEX
  8
AM_VIS
  5
297
 10
9.79966
 20
5.46243
 30
0.000000
  70
    32
  0
VERTEX
  8
AM_VIS
  5
298
 10
9.79977
 20
5.46160
 30
0.000000
  70
    32
  0
VERTEX
  8
AM_VIS
  5
299
 10
9.79987
 20
5.46078
 30
0.000000
  70
    32
  0
VERTEX
  8
AM_VIS
  5
29A
 10
9.79998
 20
5.45995
 30
0.000000
  70
    32
  0
VERTEX
  8
AM_VIS
  5
29B
 10
9.80008
 20
5.45912
 30
0.000000
  70
    32
  0
VERTEX
  8
AM_VIS
  5
29C
 10
9.80018
 20
5.45829
 30
0.000000
  70
    32
  0
VERTEX
  8
AM_VIS
  5
29D
 10
9.80028
 20
5.45746
 30
0.000000
  70
    32
  0
VERTEX
  8
AM_VIS
  5
29E
 10
9.80039
 20
5.45663
 30
0.000000
  70
    32
  0
VERTEX
  8
AM_VIS
  5
29F
 10
9.80049
 20
5.45581
 30
0.000000
  70
    32
  0
VERTEX
  8
AM_VIS
  5
2A0
 10
9.80059
 20
5.45498
 30
0.000000
  70
    32
  0
VERTEX
  8
AM_VIS
  5
2A1
 10
9.80069
 20
5.45415
 30
0.000000
  70
    32
  0
VERTEX
  8
AM_VIS
  5
2A2
 10
9.80079
 20
5.45332
 30
0.000000
  70
    32
  0
VERTEX
  8
AM_VIS
  5
2A3
 10
9.80089
 20
5.45249
 30
0.000000
  70
    32
  0
VERTEX
  8
AM_VIS
  5
2A4
 10
9.80099
 20
5.45166
 30
0.000000
  70
    32
  0
VERTEX
  8
AM_VIS
  5
2A5
 10
9.80108
 20
5.45083
 30
0.000000
  70
    32
  0
VERTEX
  8
AM_VIS
  5
2A6
 10
9.80118
 20
5.45000
 30
0.000000
  70
    32
  0
VERTEX
  8
AM_VIS
  5
2A7
 10
9.80128
 20
5.44917
 30
0.000000
  70
    32
  0
VERTEX
  8
AM_VIS
  5
2A8
 10
9.80137
 20
5.44834
 30
0.000000
  70
    32
  0
VERTEX
  8
AM_VIS
  5
2A9
 10
9.80147
 20
5.44751
 30
0.000000
  70
    32
  0
VERTEX
  8
AM_VIS
  5
2AA
 10
9.80156
 20
5.44668
 30
0.000000
  70
    32
  0
VERTEX
  8
AM_VIS
  5
2AB
 10
9.80166
 20
5.44585
 30
0.000000
  70
    32
  0
VERTEX
  8
AM_VIS
  5
2AC
 10
9.80175
 20
5.44502
 30
0.000000
  70
    32
  0
VERTEX
  8
AM_VIS
  5
2AD
 10
9.80185
 20
5.44419
 30
0.000000
  70
    32
  0
VERTEX
  8
AM_VIS
  5
2AE
 10
9.80194
 20
5.44336
 30
0.000000
  70
    32
  0
VERTEX
  8
AM_VIS
  5
2AF
 10
9.80203
 20
5.44252
 30
0.000000
  70
    32
  0
VERTEX
  8
AM_VIS
  5
2B0
 10
9.80212
 20
5.44169
 30
0.000000
  70
    32
  0
VERTEX
  8
AM_VIS
  5
2B1
 10
9.80221
 20
5.44086
 30
0.000000
  70
    32
  0
VERTEX
  8
AM_VIS
  5
2B2
 10
9.80230
 20
5.44003
 30
0.000000
  70
    32
  0
VERTEX
  8
AM_VIS
  5
2B3
 10
9.80239
 20
5.43919
 30
0.000000
  70
    32
  0
VERTEX
  8
AM_VIS
  5
2B4
 10
9.80248
 20
5.43836
 30
0.000000
  70
    32
  0
VERTEX
  8
AM_VIS
  5
2B5
 10
9.80257
 20
5.43753
 30
0.000000
  70
    32
  0
VERTEX
  8
AM_VIS
  5
2B6
 10
9.80265
 20
5.43669
 30
0.000000
  70
    32
  0
VERTEX
  8
AM_VIS
  5
2B7
 10
9.80274
 20
5.43586
 30
0.000000
  70
    32
  0
VERTEX
  8
AM_VIS
  5
2B8
 10
9.80282
 20
5.43502
 30
0.000000
  70
    32
  0
VERTEX
  8
AM_VIS
  5
2B9
 10
9.80291
 20
5.43419
 30
0.000000
  70
    32
  0
VERTEX
  8
AM_VIS
  5
2BA
 10
9.80299
 20
5.43335
 30
0.000000
  70
    32
  0
VERTEX
  8
AM_VIS
  5
2BB
 10
9.80308
 20
5.43251
 30
0.000000
  70
    32
  0
VERTEX
  8
AM_VIS
  5
2BC
 10
9.80316
 20
5.43168
 30
0.000000
  70
    32
  0
VERTEX
  8
AM_VIS
  5
2BD
 10
9.80324
 20
5.43084
 30
0.000000
  70
    32
  0
VERTEX
  8
AM_VIS
  5
2BE
 10
9.80332
 20
5.43000
 30
0.000000
  70
    32
  0
VERTEX
  8
AM_VIS
  5
2BF
 10
9.80340
 20
5.42916
 30
0.000000
  70
    32
  0
VERTEX
  8
AM_VIS
  5
2C0
 10
9.80348
 20
5.42832
 30
0.000000
  70
    32
  0
VERTEX
  8
AM_VIS
  5
2C1
 10
9.80356
 20
5.42748
 30
0.000000
  70
    32
  0
VERTEX
  8
AM_VIS
  5
2C2
 10
9.80364
 20
5.42664
 30
0.000000
  70
    32
  0
VERTEX
  8
AM_VIS
  5
2C3
 10
9.80372
 20
5.42580
 30
0.000000
  70
    32
  0
VERTEX
  8
AM_VIS
  5
2C4
 10
9.80379
 20
5.42496
 30
0.000000
  70
    32
  0
VERTEX
  8
AM_VIS
  5
2C5
 10
9.80387
 20
5.42412
 30
0.000000
  70
    32
  0
VERTEX
  8
AM_VIS
  5
2C6
 10
9.80394
 20
5.42328
 30
0.000000
  70
    32
  0
VERTEX
  8
AM_VIS
  5
2C7
 10
9.80402
 20
5.42243
 30
0.000000
  70
    32
  0
VERTEX
  8
AM_VIS
  5
2C8
 10
9.80409
 20
5.42159
 30
0.000000
  70
    32
  0
VERTEX
  8
AM_VIS
  5
2C9
 10
9.80416
 20
5.42075
 30
0.000000
  70
    32
  0
VERTEX
  8
AM_VIS
  5
2CA
 10
9.80423
 20
5.41990
 30
0.000000
  70
    32
  0
VERTEX
  8
AM_VIS
  5
2CB
 10
9.80430
 20
5.41906
 30
0.000000
  70
    32
  0
VERTEX
  8
AM_VIS
  5
2CC
 10
9.80437
 20
5.41821
 30
0.000000
  70
    32
  0
VERTEX
  8
AM_VIS
  5
2CD
 10
9.80444
 20
5.41736
 30
0.000000
  70
    32
  0
VERTEX
  8
AM_VIS
  5
2CE
 10
9.80451
 20
5.41652
 30
0.000000
  70
    32
  0
VERTEX
  8
AM_VIS
  5
2CF
 10
9.80458
 20
5.41567
 30
0.000000
  70
    32
  0
VERTEX
  8
AM_VIS
  5
2D0
 10
9.80464
 20
5.41482
 30
0.000000
  70
    32
  0
VERTEX
  8
AM_VIS
  5
2D1
 10
9.80471
 20
5.41397
 30
0.000000
  70
    32
  0
VERTEX
  8
AM_VIS
  5
2D2
 10
9.80477
 20
5.41312
 30
0.000000
  70
    32
  0
VERTEX
  8
AM_VIS
  5
2D3
 10
9.80484
 20
5.41227
 30
0.000000
  70
    32
  0
VERTEX
  8
AM_VIS
  5
2D4
 10
9.80490
 20
5.41141
 30
0.000000
  70
    32
  0
VERTEX
  8
AM_VIS
  5
2D5
 10
9.80496
 20
5.41056
 30
0.000000
  70
    32
  0
VERTEX
  8
AM_VIS
  5
2D6
 10
9.80502
 20
5.40971
 30
0.000000
  70
    32
  0
VERTEX
  8
AM_VIS
  5
2D7
 10
9.80508
 20
5.40885
 30
0.000000
  70
    32
  0
VERTEX
  8
AM_VIS
  5
2D8
 10
9.80514
 20
5.40800
 30
0.000000
  70
    32
  0
VERTEX
  8
AM_VIS
  5
2D9
 10
9.80520
 20
5.40714
 30
0.000000
  70
    32
  0
VERTEX
  8
AM_VIS
  5
2DA
 10
9.80526
 20
5.40628
 30
0.000000
  70
    32
  0
VERTEX
  8
AM_VIS
  5
2DB
 10
9.80531
 20
5.40543
 30
0.000000
  70
    32
  0
VERTEX
  8
AM_VIS
  5
2DC
 10
9.80537
 20
5.40457
 30
0.000000
  70
    32
  0
VERTEX
  8
AM_VIS
  5
2DD
 10
9.80542
 20
5.40371
 30
0.000000
  70
    32
  0
VERTEX
  8
AM_VIS
  5
2DE
 10
9.80548
 20
5.40285
 30
0.000000
  70
    32
  0
VERTEX
  8
AM_VIS
  5
2DF
 10
9.80553
 20
5.40198
 30
0.000000
  70
    32
  0
VERTEX
  8
AM_VIS
  5
2E0
 10
9.80558
 20
5.40112
 30
0.000000
  70
    32
  0
VERTEX
  8
AM_VIS
  5
2E1
 10
9.80563
 20
5.40026
 30
0.000000
  70
    32
  0
VERTEX
  8
AM_VIS
  5
2E2
 10
9.80568
 20
5.39939
 30
0.000000
  70
    32
  0
VERTEX
  8
AM_VIS
  5
2E3
 10
9.80573
 20
5.39853
 30
0.000000
  70
    32
  0
VERTEX
  8
AM_VIS
  5
2E4
 10
9.80577
 20
5.39766
 30
0.000000
  70
    32
  0
VERTEX
  8
AM_VIS
  5
2E5
 10
9.80582
 20
5.39679
 30
0.000000
  70
    32
  0
VERTEX
  8
AM_VIS
  5
2E6
 10
9.80587
 20
5.39593
 30
0.000000
  70
    32
  0
VERTEX
  8
AM_VIS
  5
2E7
 10
9.80591
 20
5.39506
 30
0.000000
  70
    32
  0
VERTEX
  8
AM_VIS
  5
2E8
 10
9.80595
 20
5.39419
 30
0.000000
  70
    32
  0
VERTEX
  8
AM_VIS
  5
2E9
 10
9.80600
 20
5.39331
 30
0.000000
  70
    32
  0
VERTEX
  8
AM_VIS
  5
2EA
 10
9.80604
 20
5.39244
 30
0.000000
  70
    32
  0
VERTEX
  8
AM_VIS
  5
2EB
 10
9.80608
 20
5.39157
 30
0.000000
  70
    32
  0
VERTEX
  8
AM_VIS
  5
2EC
 10
9.80611
 20
5.39069
 30
0.000000
  70
    32
  0
VERTEX
  8
AM_VIS
  5
2ED
 10
9.80615
 20
5.38982
 30
0.000000
  70
    32
  0
VERTEX
  8
AM_VIS
  5
2EE
 10
9.80619
 20
5.38894
 30
0.000000
  70
    32
  0
VERTEX
  8
AM_VIS
  5
2EF
 10
9.80622
 20
5.38806
 30
0.000000
  70
    32
  0
VERTEX
  8
AM_VIS
  5
2F0
 10
9.80626
 20
5.38718
 30
0.000000
  70
    32
  0
VERTEX
  8
AM_VIS
  5
2F1
 10
9.80629
 20
5.38630
 30
0.000000
  70
    32
  0
VERTEX
  8
AM_VIS
  5
2F2
 10
9.80632
 20
5.38542
 30
0.000000
  70
    32
  0
VERTEX
  8
AM_VIS
  5
2F3
 10
9.80636
 20
5.38454
 30
0.000000
  70
    32
  0
VERTEX
  8
AM_VIS
  5
2F4
 10
9.80639
 20
5.38365
 30
0.000000
  70
    32
  0
VERTEX
  8
AM_VIS
  5
2F5
 10
9.80641
 20
5.38277
 30
0.000000
  70
    32
  0
VERTEX
  8
AM_VIS
  5
2F6
 10
9.80644
 20
5.38188
 30
0.000000
  70
    32
  0
VERTEX
  8
AM_VIS
  5
2F7
 10
9.80647
 20
5.38099
 30
0.000000
  70
    32
  0
VERTEX
  8
AM_VIS
  5
2F8
 10
9.80649
 20
5.38010
 30
0.000000
  70
    32
  0
VERTEX
  8
AM_VIS
  5
2F9
 10
9.80652
 20
5.37921
 30
0.000000
  70
    32
  0
VERTEX
  8
AM_VIS
  5
2FA
 10
9.80654
 20
5.37832
 30
0.000000
  70
    32
  0
VERTEX
  8
AM_VIS
  5
2FB
 10
9.80656
 20
5.37743
 30
0.000000
  70
    32
  0
VERTEX
  8
AM_VIS
  5
2FC
 10
9.80658
 20
5.37654
 30
0.000000
  70
    32
  0
VERTEX
  8
AM_VIS
  5
2FD
 10
9.80660
 20
5.37564
 30
0.000000
  70
    32
  0
VERTEX
  8
AM_VIS
  5
2FE
 10
9.80662
 20
5.37474
 30
0.000000
  70
    32
  0
VERTEX
  8
AM_VIS
  5
2FF
 10
9.80664
 20
5.37385
 30
0.000000
  70
    32
  0
VERTEX
  8
AM_VIS
  5
300
 10
9.80665
 20
5.37295
 30
0.000000
  70
    32
  0
VERTEX
  8
AM_VIS
  5
301
 10
9.80667
 20
5.37205
 30
0.000000
  70
    32
  0
VERTEX
  8
AM_VIS
  5
302
 10
9.80668
 20
5.37114
 30
0.000000
  70
    32
  0
VERTEX
  8
AM_VIS
  5
303
 10
9.80669
 20
5.37024
 30
0.000000
  70
    32
  0
VERTEX
  8
AM_VIS
  5
304
 10
9.80670
 20
5.36933
 30
0.000000
  70
    32
  0
VERTEX
  8
AM_VIS
  5
305
 10
9.80671
 20
5.36843
 30
0.000000
  70
    32
  0
VERTEX
  8
AM_VIS
  5
306
 10
9.80672
 20
5.36752
 30
0.000000
  70
    32
  0
VERTEX
  8
AM_VIS
  5
307
 10
9.80673
 20
5.36661
 30
0.000000
  70
    32
  0
VERTEX
  8
AM_VIS
  5
308
 10
9.80674
 20
5.36570
 30
0.000000
  70
    32
  0
VERTEX
  8
AM_VIS
  5
309
 10
9.80674
 20
5.36479
 30
0.000000
  70
    32
  0
VERTEX
  8
AM_VIS
  5
30A
 10
9.80674
 20
5.36387
 30
0.000000
  70
    32
  0
VERTEX
  8
AM_VIS
  5
30B
 10
9.80674
 20
5.36296
 30
0.000000
  70
    32
  0
VERTEX
  8
AM_VIS
  5
30C
 10
9.80675
 20
5.36204
 30
0.000000
  70
    32
  0
SEQEND
  8
AM_VIS
  5
30D
  0
CIRCLE
  5
49
  8
AM_VIS
 10
8.9777506103348461
 20
5.3620420545607548
 30
0.0
 40
0.7200000000000001
  0
LINE
  5
4A
  8
AM_VIS
 10
9.9407506103350602
 20
5.5464049951885217
 30
0.0
 11
9.9407506103350602
 21
5.3620420545600558
 31
0.0
  0
ARC
  5
4B
  8
AM_VIS
 10
9.8681481339163089
 20
5.834542054560754
 30
0.0
 40
0.1800000000000006
 50
207.95318688338119
 51
269.99999999999977
  0
ARC
  5
4C
  8
AM_VIS
 10
9.8681481339163071
 20
4.8895420545607582
 30
0.0
 40
0.179999999999999
 50
90.0
 51
152.04681311661909
  0
LINE
  5
4D
  8
AM_VIS
 10
9.9407506103350602
 20
5.3620420545614547
 30
0.0
 11
9.9407506103350602
 21
5.1776791139329879
 31
0.0
  0
LINE
  5
4E
  8
AM_VIS
 10
9.9407506103348453
 20
5.5464049951885217
 30
0.0
 11
9.9407506103348453
 21
5.6545420545607552
 31
0.0
  0
ARC
  5
4F
  8
AM_HID
 10
8.9777506103349296
 20
5.362042054560761
 30
0.0
 40
0.8279999999999153
 50
359.9999999999996
 51
7.5418313198847979
  0
LINE
  5
50
  8
AM_VIS
 10
9.9407506103348453
 20
5.069542054560757
 30
0.0
 11
9.9407506103348453
 21
5.1776791139329879
 31
0.0
  0
ARC
  5
51
  8
AM_HID
 10
8.9777506103349332
 20
5.3620420545607512
 30
0.0
 40
0.8279999999999134
 50
352.45816868011519
 51
0.0000000000003997
  0
LINE
  5
52
  8
AM_VIS
 10
9.8681481339163071
 20
5.6545420545607552
 30
0.0
 11
9.9407506103348453
 21
5.6545420545607552
 31
0.0
  0
LINE
  5
53
  8
AM_VIS
 10
9.9407506103348453
 20
5.069542054560757
 30
0.0
 11
9.8681481339163071
 21
5.069542054560757
 31
0.0
  0
LINE
  5
54
  8
AM_HID
 10
9.6616913972455247
 20
5.5870420545607544
 30
0.0
 11
9.9407506103348453
 21
5.5870420545607544
 31
0.0
  0
LINE
  5
55
  8
AM_HID
 10
9.6616913972455247
 20
5.1370420545607542
 30
0.0
 11
9.9407506103348453
 21
5.1370420545607542
 31
0.0
  0
LINE
  5
56
  8
AM_VIS
 10
12.07021859535158
 20
3.5199641281420391
 30
0.0
 11
12.789543590737241
 21
3.5199641281420391
 31
0.0
  0
LINE
  5
57
  8
AM_VIS
 10
13.00689359996592
 20
3.5199641281420391
 30
0.0
 11
13.726218595351581
 21
3.5199641281420391
 31
0.0
  0
LINE
  5
58
  8
AM_VIS
 10
12.789543590737241
 20
3.5199641277392661
 30
0.0
 11
12.89821859535158
 21
3.5199641277392661
 31
0.0
  0
LINE
  5
59
  8
AM_VIS
 10
12.89821859535158
 20
3.5199641277392661
 30
0.0
 11
13.00689359996592
 21
3.5199641277392661
 31
0.0
  0
ARC
  5
5A
  8
AM_VIS
 10
12.889827882915419
 20
3.0693950063963831
 30
0.0
 40
0.2954374076912746
 50
49.29431560951793
 51
88.371789894219916
  0
ARC
  5
5B
  8
AM_VIS
 10
12.906609307787731
 20
3.0693950063963809
 30
0.0
 40
0.2954374076912765
 50
91.628210105780184
 51
130.70568439048191
  0
ARC
  5
5C
  8
AM_VIS
 10
12.89821859535158
 20
3.0663641281420402
 30
0.0
 40
0.2925
 50
309.07230755918039
 51
50.927692440819548
  0
ARC
  5
5D
  8
AM_VIS
 10
12.88982788291543
 20
3.0633332498876951
 30
0.0
 40
0.2954374076912729
 50
271.62821010577989
 51
310.70568439048219
  0
CIRCLE
  5
5E
  8
AM_VIS
 10
12.89821859535158
 20
3.0663641281420402
 30
0.0
 40
0.225
  0
ARC
  5
5F
  8
AM_VIS
 10
12.89821859535158
 20
3.0663641281420388
 30
0.0
 40
0.2925
 50
129.07230755918039
 51
230.92769244081941
  0
ARC
  5
60
  8
AM_VIS
 10
12.906609307787731
 20
3.0633332498876951
 30
0.0
 40
0.295437407691273
 50
229.29431560951781
 51
268.37178989422
  0
LINE
  5
61
  8
AM_VIS
 10
12.07021859535158
 20
0.6399641281420401
 30
0.0
 11
12.789543590737241
 21
0.6399641281420392
 31
0.0
  0
LINE
  5
62
  8
AM_VIS
 10
13.00689359996592
 20
0.6399641281420392
 30
0.0
 11
13.726218595351581
 21
0.6399641281420401
 31
0.0
  0
LINE
  5
63
  8
AM_VIS
 10
12.89821859535158
 20
0.6399641285448126
 30
0.0
 11
13.00689359996592
 21
0.6399641285448126
 31
0.0
  0
LINE
  5
64
  8
AM_VIS
 10
12.789543590737241
 20
0.6399641285448126
 30
0.0
 11
12.89821859535158
 21
0.6399641285448126
 31
0.0
  0
ARC
  5
65
  8
AM_VIS
 10
12.88982788291543
 20
1.0905332498876941
 30
0.0
 40
0.2954374076912722
 50
271.62821010577989
 51
310.70568439048219
  0
ARC
  5
66
  8
AM_VIS
 10
12.906609307787731
 20
1.0905332498876941
 30
0.0
 40
0.2954374076912724
 50
229.29431560951781
 51
268.37178989422011
  0
ARC
  5
67
  8
AM_VIS
 10
12.89821859535158
 20
1.0935641281420381
 30
0.0
 40
0.2925
 50
309.0723075591805
 51
50.927692440819548
  0
ARC
  5
68
  8
AM_VIS
 10
12.88982788291543
 20
1.0965950063963841
 30
0.0
 40
0.2954374076912718
 50
49.29431560951776
 51
88.3717898942201
  0
CIRCLE
  5
69
  8
AM_VIS
 10
12.89821859535158
 20
1.0935641281420381
 30
0.0
 40
0.225
  0
ARC
  5
6A
  8
AM_VIS
 10
12.906609307787731
 20
1.096595006396383
 30
0.0
 40
0.2954374076912735
 50
91.628210105779985
 51
130.70568439048211
  0
ARC
  5
6B
  8
AM_VIS
 10
12.89821859535158
 20
1.093564128142039
 30
0.0
 40
0.2925
 50
129.0723075591805
 51
230.9276924408195
  0
LINE
  5
6C
  8
AM_VIS
 10
13.726218595351581
 20
3.5199641281420391
 30
0.0
 11
13.726218595351581
 21
0.6399641281420401
 31
0.0
  0
LINE
  5
6D
  8
AM_VIS
 10
12.07021859535158
 20
3.5199641281420391
 30
0.0
 11
12.07021859535158
 21
0.6399641281420401
 31
0.0
  0
LINE
  5
6E
  8
AM_HID
 10
13.61821859535158
 20
3.5199641281420391
 30
0.0
 11
13.61821859535158
 21
0.6399641281420401
 31
0.0
  0
LINE
  5
6F
  8
AM_HID
 10
12.178218595351581
 20
3.5199641281420391
 30
0.0
 11
12.178218595351581
 21
0.6399641281420401
 31
0.0
  0
INSERT
  5
188
  8
0
  2
*U7
 10
0.0
 20
0.0
 30
0.0
  0
INSERT
  5
189
  8
0
  2
*U8
 10
0.0
 20
0.0
 30
0.0
  0
LINE
  5
18B
  8
0
 10
8.104750610334845
 20
0.6399641281420401
 30
0.0
 11
7.3394541564300608
 21
0.6399641281420401
 31
0.0
  0
LINE
  5
18C
  8
0
 10
8.104750610334845
 20
3.5199641281420391
 30
0.0
 11
7.3394541564300626
 21
3.5199641281420391
 31
0.0
  0
LINE
  5
18D
  8
0
 10
7.4690541564300634
 20
0.7299641281420404
 30
0.0
 11
7.4690541564300634
 21
1.846414128142039
 31
0.0
  0
LINE
  5
18E
  8
0
 10
7.4690541564300634
 20
3.4299641281420392
 30
0.0
 11
7.4690541564300634
 21
2.3135141281420388
 31
0.0
  0
SOLID
  5
18F
  8
0
 10
7.454054156430062
 20
0.7299641281420404
 30
0.0
 11
7.4840541564300622
 21
0.7299641281420404
 31
0.0
 12
7.4690541564300634
 22
0.6399641281420401
 32
0.0
 13
7.4690541564300634
 23
0.6399641281420401
 33
0.0
  0
SOLID
  5
190
  8
0
 10
7.4540541564300629
 20
3.4299641281420392
 30
0.0
 11
7.4840541564300622
 21
3.4299641281420392
 31
0.0
 12
7.4690541564300634
 22
3.5199641281420391
 32
0.0
 13
7.4690541564300634
 23
3.5199641281420391
 33
0.0
  0
INSERT
  5
191
  8
0
  2
*U9
 10
0.0
 20
0.0
 30
0.0
  0
ENDSEC
  0
EOF
