  0
SECTION
  2
HEADER
  9
$ACADVER
  1
AC1009
  9
$INSBASE
 10
0.0
 20
0.0
 30
0.0
  9
$EXTMIN
 10
3.952610466338756
 20
3.4054406494412728
 30
0.0
  9
$EXTMAX
 10
8.9930196458388512
 20
5.4054406494412737
 30
0.0
  9
$LIMMIN
 10
0.0
 20
0.0
  9
$LIMMAX
 10
12.0
 20
9.0
  9
$ORTHOMODE
 70
     1
  9
$REGENMODE
 70
     0
  9
$FILLMODE
 70
     1
  9
$QTEXTMODE
 70
     0
  9
$MIRRTEXT
 70
     0
  9
$DRAGMODE
 70
     2
  9
$LTSCALE
 40
1.0
  9
$OSMODE
 70
    55
  9
$ATTMODE
 70
     1
  9
$TEXTSIZE
 40
0.12
  9
$TRACEWID
 40
0.05
  9
$TEXTSTYLE
  7
ADESK1
  9
$CLAYER
  8
0
  9
$CELTYPE
  6
BYLAYER
  9
$CECOLOR
 62
   256
  9
$DIMSCALE
 40
1.0
  9
$DIMASZ
 40
0.125
  9
$DIMEXO
 40
0.0625
  9
$DIMDLI
 40
0.38
  9
$DIMRND
 40
0.0
  9
$DIMDLE
 40
0.0
  9
$DIMEXE
 40
0.18
  9
$DIMTP
 40
0.0
  9
$DIMTM
 40
0.0
  9
$DIMTXT
 40
0.09375
  9
$DIMCEN
 40
-0.125
  9
$DIMTSZ
 40
0.0
  9
$DIMTOL
 70
     0
  9
$DIMLIM
 70
     0
  9
$DIMTIH
 70
     0
  9
$DIMTOH
 70
     0
  9
$DIMSE1
 70
     0
  9
$DIMSE2
 70
     0
  9
$DIMTAD
 70
     0
  9
$DIMZIN
 70
     3
  9
$DIMBLK
  1

  9
$DIMASO
 70
     0
  9
$DIMSHO
 70
     1
  9
$DIMPOST
  1

  9
$DIMAPOST
  1

  9
$DIMALT
 70
     0
  9
$DIMALTD
 70
     2
  9
$DIMALTF
 40
25.399999999999999
  9
$DIMLFAC
 40
1.0
  9
$DIMTOFL
 70
     1
  9
$DIMTVP
 40
0.0
  9
$DIMTIX
 70
     0
  9
$DIMSOXD
 70
     0
  9
$DIMSAH
 70
     0
  9
$DIMBLK1
  1

  9
$DIMBLK2
  1

  9
$DIMSTYLE
  2
STANDARD
  9
$DIMCLRD
 70
     0
  9
$DIMCLRE
 70
     0
  9
$DIMCLRT
 70
     0
  9
$DIMTFAC
 40
1.0
  9
$DIMGAP
 40
0.09
  9
$LUNITS
 70
     4
  9
$LUPREC
 70
     4
  9
$SKETCHINC
 40
0.1
  9
$FILLETRAD
 40
0.0
  9
$AUNITS
 70
     0
  9
$AUPREC
 70
     4
  9
$MENU
  1
.
  9
$ELEVATION
 40
0.0
  9
$PELEVATION
 40
0.0
  9
$THICKNESS
 40
0.0
  9
$LIMCHECK
 70
     0
  9
$BLIPMODE
 70
     0
  9
$CHAMFERA
 40
0.5
  9
$CHAMFERB
 40
0.5
  9
$SKPOLY
 70
     0
  9
$TDCREATE
 40
2451065.3838062501
  9
$TDUPDATE
 40
2453913.5760006602
  9
$TDINDWG
 40
0.0274730093
  9
$TDUSRTIMER
 40
0.0274730093
  9
$USRTIMER
 70
     1
  9
$ANGBASE
 50
0.0
  9
$ANGDIR
 70
     0
  9
$PDMODE
 70
    34
  9
$PDSIZE
 40
3.0
  9
$PLINEWID
 40
0.0
  9
$COORDS
 70
     1
  9
$SPLFRAME
 70
     0
  9
$SPLINETYPE
 70
     6
  9
$SPLINESEGS
 70
     8
  9
$ATTDIA
 70
     0
  9
$ATTREQ
 70
     1
  9
$HANDLING
 70
     1
  9
$HANDSEED
  5
5A8
  9
$SURFTAB1
 70
     6
  9
$SURFTAB2
 70
     6
  9
$SURFTYPE
 70
     6
  9
$SURFU
 70
     6
  9
$SURFV
 70
     6
  9
$UCSNAME
  2

  9
$UCSORG
 10
0.0
 20
0.0
 30
0.0
  9
$UCSXDIR
 10
1.0
 20
0.0
 30
0.0
  9
$UCSYDIR
 10
0.0
 20
1.0
 30
0.0
  9
$PUCSNAME
  2

  9
$PUCSORG
 10
0.0
 20
0.0
 30
0.0
  9
$PUCSXDIR
 10
1.0
 20
0.0
 30
0.0
  9
$PUCSYDIR
 10
0.0
 20
1.0
 30
0.0
  9
$USERI1
 70
     0
  9
$USERI2
 70
     0
  9
$USERI3
 70
     0
  9
$USERI4
 70
     0
  9
$USERI5
 70
     0
  9
$USERR1
 40
0.0
  9
$USERR2
 40
0.0
  9
$USERR3
 40
0.0
  9
$USERR4
 40
0.0
  9
$USERR5
 40
0.0
  9
$WORLDVIEW
 70
     1
  9
$SHADEDGE
 70
     3
  9
$SHADEDIF
 70
    70
  9
$TILEMODE
 70
     1
  9
$MAXACTVP
 70
    48
  9
$PLIMCHECK
 70
     0
  9
$PEXTMIN
 10
3.5513604663387559
 20
3.105440649441273
 30
0.0
  9
$PEXTMAX
 10
8.3788604663387574
 20
5.7054406494412753
 30
0.0
  9
$PLIMMIN
 10
-0.1579164520023376
 20
-0.2812499887361301
  9
$PLIMMAX
 10
10.84208330770177
 20
8.2187497709679782
  9
$UNITMODE
 70
     0
  9
$VISRETAIN
 70
     1
  9
$PLINEGEN
 70
     0
  9
$PSLTSCALE
 70
     1
  0
ENDSEC
  0
SECTION
  2
TABLES
  0
TABLE
  2
VPORT
 70
     2
  0
VPORT
  2
*ACTIVE
 70
     0
 10
0.0
 20
0.0
 11
1.0
 21
1.0
 12
1.9483550601569599
 22
-0.2833823502834427
 13
0.0
 23
0.0
 14
0.5
 24
0.5
 15
0.5
 25
0.5
 16
0.0
 26
0.0
 36
1.0
 17
5.9651104613387558
 27
4.5390640699792479
 37
0.0
 40
4.8842071444100839
 41
2.38716814159292
 42
50.0
 43
0.0
 44
0.0
 50
0.0
 51
0.0
 71
     0
 72
   100
 73
     1
 74
     1
 75
     0
 76
     0
 77
     0
 78
     0
  0
ENDTAB
  0
TABLE
  2
LTYPE
 70
    18
  0
LTYPE
  2
CONTINUOUS
 70
     0
  3
Solid line
 72
    65
 73
     0
 40
0.0
  0
LTYPE
  2
HIDDEN
 70
     0
  3
__ __ __ __ __ __ __ __ __ __ __ __ __ __ __ __
 72
    65
 73
     2
 40
0.375
 49
0.25
 49
-0.125
  0
LTYPE
  2
PHANTOM2
 70
     0
  3
Phantom (.5x) ___ _ _ ___ _ _ ___ _ _ ___ _ _
 72
    65
 73
     6
 40
1.25
 49
0.625
 49
-0.125
 49
0.125
 49
-0.125
 49
0.125
 49
-0.125
  0
LTYPE
  2
CENTER
 70
     0
  3
Center ____ _ ____ _ ____ _ ____ _ ____ _ ____
 72
    65
 73
     4
 40
2.0
 49
1.25
 49
-0.25
 49
0.25
 49
-0.25
  0
LTYPE
  2
ASULTYPE
 70
     0
  3
Solid line
 72
    65
 73
     2
 40
3.0
 49
2.5
 49
0.5
  0
LTYPE
  2
ASVLTYPE
 70
     0
  3
__ __ __ __ __ __ __ __ __ __ __ __ __ __ __ __ __ __ __ __ __
 72
    65
 73
     2
 40
0.75
 49
0.5
 49
-0.25
  0
LTYPE
  2
AM_ISO02W050
 70
     0
  3
__ __ __ __ __ __ __ __ __ __ __ __ __ __ __
 72
    65
 73
     2
 40
7.5
 49
6.0
 49
-1.5
  0
LTYPE
  2
AM_ISO08W050
 70
     0
  3
____ . ____ . ____ . ____ . ____ . ____ . ____
 72
    65
 73
     4
 40
18.0
 49
12.0
 49
-1.5
 49
3.0
 49
-1.5
  0
LTYPE
  2
AM_ISO09W050
 70
     0
  3
_____ . . _____ . . _____ . . ____ .. ____
 72
    65
 73
     6
 40
22.5
 49
12.0
 49
-1.5
 49
3.0
 49
-1.5
 49
3.0
 49
-1.5
  0
LTYPE
  2
AMCONSTR
 70
     0
  3
_______________________
 72
    65
 73
     2
 40
9999.0
 49
9999.0
 49
0.0
  0
LTYPE
  2
AM_ISO08W050X2
 70
     0
  3
__ . __ . __ . __ . __ . __
 72
    65
 73
     4
 40
9.0
 49
6.0
 49
-0.75
 49
1.5
 49
-0.75
  0
LTYPE
  2
AM_ISO02W050X2
 70
     0
  3
 _ _ _ _ _ _ _ _ _ _ _ _
 72
    65
 73
     2
 40
3.75
 49
3.0
 49
-0.75
  0
LTYPE
  2
AMZIGZAG
 70
     0
  3
/\/-/\/-/\/-/\/-/\/-/\/
 72
    65
 73
     2
 40
11.0001
 49
0.0001
 49
-11.0
  0
LTYPE
  2
CENTER2
 70
     0
  3
Center (.5x) ___ _ ___ _ ___ _ ___ _ ___ _ ___
 72
    65
 73
     4
 40
1.125
 49
0.75
 49
-0.125
 49
0.125
 49
-0.125
  0
LTYPE
  2
HIDDEN2
 70
     0
  3
Hidden (.5x) _ _ _ _ _ _ _ _ _ _ _ _ _ _ _ _ _
 72
    65
 73
     2
 40
0.1875
 49
0.125
 49
-0.0625
  0
LTYPE
  2
AMZIGZAG2
 70
     0
  3
/\/-/\/-/\/-/\/-/\/-/\/
 72
    65
 73
     2
 40
0.4401
 49
0.0001
 49
-0.4400000000000001
  0
LTYPE
  2
ACANSTGB
 70
     0
  3
__ . . __ . .
 72
    65
 73
     6
 40
0.35433070866
 49
0.15748031496
 49
-0.03937007874
 49
0.03937007874
 49
-0.03937007874
 49
0.03937007874
 49
-0.03937007874
  0
LTYPE
  2
ACANSTGL
 70
     0
  3
_ _ _ _ _
 72
    65
 73
     2
 40
0.11811023622
 49
0.07874015748
 49
-0.03937007874
  0
ENDTAB
  0
TABLE
  2
LAYER
 70
     3
  0
LAYER
  2
0
 70
     0
 62
     7
  6
CONTINUOUS
  0
LAYER
  2
AM_VIS
 70
     0
 62
     7
  6
CONTINUOUS
  0
LAYER
  2
AM_HID
 70
     0
 62
     7
  6
HIDDEN
  0
ENDTAB
  0
TABLE
  2
STYLE
 70
     5
  0
STYLE
  2
STANDARD
 70
     0
 40
0.0
 41
1.0
 50
0.0
 71
     0
 42
0.2
  3
txt
  4

  0
STYLE
  2
ADESK1
 70
     0
 40
0.0
 41
1.0
 50
0.0
 71
     0
 42
0.12
  3
romans.shx
  4

  0
STYLE
  2

 70
     1
 40
0.0
 41
1.0
 50
0.0
 71
     0
 42
0.12
  3
ltypeshp.shx
  4

  0
STYLE
  2
ACANSTS
 70
     0
 40
1.0
 41
1.0
 50
0.0
 71
     0
 42
0.12
  3
romans.shx
  4

  0
STYLE
  2
ACANSGDT
 70
     0
 40
0.0
 41
1.0
 50
0.0
 71
     0
 42
0.12
  3
amgdtans.shx
  4

  0
ENDTAB
  0
TABLE
  2
VIEW
 70
     0
  0
ENDTAB
  0
TABLE
  2
UCS
 70
     0
  0
ENDTAB
  0
TABLE
  2
APPID
 70
    13
  0
APPID
  2
ACAD
 70
     0
  0
APPID
  2
GENIUS_GENDIM_13
 70
     0
  0
APPID
  2
GENIUS_GENDTOL_13
 70
     0
  0
APPID
  2
GENIUS_GE3DTOL_13
 70
     0
  0
APPID
  2
MCAD_NO_VIS
 70
     0
  0
APPID
  2
ACAD_TEMP_GRAPHIC
 70
     0
  0
APPID
  2
AD_DRAW
 70
     0
  0
APPID
  2
ACATTRIBSERVICES
 70
     0
  0
APPID
  2
ASURF_PCURVE_APPNAME
 70
     0
  0
APPID
  2
AMG_3D2D_5_0
 70
     0
  0
APPID
  2
DESIGNERASSEMBLIES
 70
     0
  0
APPID
  2
ACADM_DIM_EDIT
 70
     0
  0
APPID
  2
AMDT_DM_ADJ
 70
     0
  0
ENDTAB
  0
TABLE
  2
DIMSTYLE
 70
     7
  0
DIMSTYLE
  2
STANDARD
 70
     0
  3

  4

  5

  6

  7

 40
1.0
 41
0.18
 42
0.0625
 43
0.38
 44
0.18
 45
0.0
 46
0.0
 47
0.0
 48
0.0
140
0.18
141
0.09
142
0.0
143
25.399999999999999
144
1.0
145
0.0
146
1.0
147
0.09
 71
     0
 72
     0
 73
     1
 74
     1
 75
     0
 76
     0
 77
     0
 78
     0
170
     0
171
     2
172
     0
173
     0
174
     0
175
     0
176
     0
177
     0
178
     0
  0
DIMSTYLE
  2
AM_ANSI
 70
     0
  3

  4
mm
  5

  6

  7

 40
1.0
 41
0.1
 42
0.05
 43
0.5
 44
0.1
 45
0.0
 46
0.0
 47
0.1
 48
0.1
140
0.12
141
0.0
142
0.0
143
25.399999999999999
144
1.0
145
0.0
146
0.71
147
0.06
 71
     0
 72
     0
 73
     1
 74
     1
 75
     0
 76
     0
 77
     0
 78
     7
170
     0
171
     2
172
     0
173
     0
174
     0
175
     0
176
   256
177
   256
178
     2
  0
DIMSTYLE
  2
AM_ANSI$3
 70
     0
  3

  4
mm
  5

  6

  7

 40
1.0
 41
0.1
 42
0.05
 43
0.5
 44
0.1
 45
0.0
 46
0.0
 47
0.1
 48
0.1
140
0.12
141
0.0
142
0.0
143
25.399999999999999
144
1.0
145
0.0
146
0.71
147
0.06
 71
     0
 72
     0
 73
     1
 74
     1
 75
     0
 76
     0
 77
     0
 78
     7
170
     0
171
     2
172
     0
173
     0
174
     0
175
     0
176
   256
177
   256
178
     2
  0
DIMSTYLE
  2
AM_ANSI$4
 70
     0
  3

  4
mm
  5

  6

  7

 40
1.0
 41
0.1
 42
0.05
 43
0.5
 44
0.1
 45
0.0
 46
0.0
 47
0.1
 48
0.1
140
0.12
141
0.0
142
0.0
143
25.399999999999999
144
1.0
145
0.0
146
0.71
147
0.06
 71
     0
 72
     0
 73
     1
 74
     1
 75
     0
 76
     0
 77
     0
 78
     7
170
     0
171
     2
172
     0
173
     0
174
     0
175
     0
176
   256
177
   256
178
     2
  0
DIMSTYLE
  2
AM_ANSI$7
 70
     0
  3

  4
mm
  5

  6

  7

 40
1.0
 41
0.1
 42
0.05
 43
0.5
 44
0.1
 45
0.0
 46
0.0
 47
0.1
 48
0.1
140
0.24
141
0.0
142
0.0
143
25.399999999999999
144
1.0
145
0.0
146
0.71
147
0.06
 71
     0
 72
     0
 73
     1
 74
     1
 75
     0
 76
     0
 77
     0
 78
     7
170
     0
171
     2
172
     0
173
     0
174
     0
175
     0
176
   256
177
   256
178
     2
  0
DIMSTYLE
  2
AM_ANSI$SF
 70
     0
  3

  4
mm
  5

  6

  7

 40
1.0
 41
0.1
 42
0.05
 43
0.5
 44
0.1
 45
0.0
 46
0.0
 47
0.1
 48
0.1
140
0.12
141
0.0
142
0.0
143
25.399999999999999
144
1.0
145
0.0
146
0.71
147
0.06
 71
     0
 72
     0
 73
     1
 74
     1
 75
     1
 76
     1
 77
     0
 78
     7
170
     0
171
     2
172
     0
173
     0
174
     0
175
     0
176
   256
177
   256
178
     2
  0
DIMSTYLE
  2
AM_ANSI$SH
 70
     0
  3

  4
mm
  5

  6
GENAXEH
  7

 40
1.0
 41
0.1
 42
0.05
 43
0.5
 44
0.1
 45
0.0
 46
0.0
 47
0.1
 48
0.1
140
0.12
141
0.0
142
0.0
143
25.399999999999999
144
1.0
145
0.0
146
0.71
147
0.06
 71
     0
 72
     0
 73
     1
 74
     1
 75
     1
 76
     1
 77
     0
 78
     7
170
     0
171
     2
172
     0
173
     1
174
     0
175
     0
176
   256
177
   256
178
     2
  0
ENDTAB
  0
ENDSEC
  0
SECTION
  2
BLOCKS
  0
BLOCK
  8
0
  2
$MODEL_SPACE
 70
     0
 10
0.0
 20
0.0
 30
0.0
  3
$MODEL_SPACE
  1

  0
ENDBLK
  5
A
  8
0
  0
BLOCK
 67
     1
  8
0
  2
$PAPER_SPACE
 70
     0
 10
0.0
 20
0.0
 30
0.0
  3
$PAPER_SPACE
  1

  0
ENDBLK
  5
F
 67
     1
  8
0
  0
BLOCK
  8
0
  2
*U0
 70
     1
 10
0.0
 20
0.0
 30
0.0
  3
*U0
  1

  0
ENDBLK
  5
F9
  8
0
  0
BLOCK
  8
0
  2
GENAXEH
 70
     0
 10
0.0
 20
0.0
 30
0.0
  3
GENAXEH
  1

  0
LINE
  5
136
  8
0
 10
-1.0
 20
0.0
 30
0.0
 11
1.0
 21
0.0
 31
0.0
  0
ENDBLK
  5
138
  8
0
  0
BLOCK
  8
0
  2
*U2
 70
     1
 10
0.0
 20
0.0
 30
0.0
  3
*U2
  1

  0
TEXT
  5
163
  8
0
 10
8.8442696458388514
 20
4.1241906494412746
 30
0.0
 40
0.09375
  1
1-7/8"
 50
90.0
  7
ADESK1
  0
ENDBLK
  5
165
  8
0
  0
ENDSEC
  0
SECTION
  2
ENTITIES
  0
LINE
  5
26
  8
AM_VIS
 10
7.9776104663387573
 20
5.4054406494412737
 30
0.0
 11
5.68442412982139
 21
5.4054406494412737
 31
0.0
  0
LINE
  5
28
  8
AM_VIS
 10
5.6844241298213891
 20
3.4054406494412741
 30
0.0
 11
5.6844241298213891
 21
5.4054406494412737
 31
0.0
  0
LINE
  5
29
  8
AM_VIS
 10
5.6844241298213891
 20
3.4054406494412741
 30
0.0
 11
7.9776104663387564
 21
3.4054406494412741
 31
0.0
  0
POLYLINE
  8
AM_VIS
  5
166
  66
     1
 10
0.000000
 20
0.000000
 30
0.000000
  70
     8
  0
VERTEX
  8
AM_VIS
  5
167
 10
7.18924
 20
4.40544
 30
0.000000
  70
    32
  0
VERTEX
  8
AM_VIS
  5
168
 10
7.18923
 20
4.40742
 30
0.000000
  70
    32
  0
VERTEX
  8
AM_VIS
  5
169
 10
7.18921
 20
4.40940
 30
0.000000
  70
    32
  0
VERTEX
  8
AM_VIS
  5
16A
 10
7.18918
 20
4.41138
 30
0.000000
  70
    32
  0
VERTEX
  8
AM_VIS
  5
16B
 10
7.18913
 20
4.41337
 30
0.000000
  70
    32
  0
VERTEX
  8
AM_VIS
  5
16C
 10
7.18908
 20
4.41536
 30
0.000000
  70
    32
  0
VERTEX
  8
AM_VIS
  5
16D
 10
7.18901
 20
4.41735
 30
0.000000
  70
    32
  0
VERTEX
  8
AM_VIS
  5
16E
 10
7.18893
 20
4.41935
 30
0.000000
  70
    32
  0
VERTEX
  8
AM_VIS
  5
16F
 10
7.18883
 20
4.42135
 30
0.000000
  70
    32
  0
VERTEX
  8
AM_VIS
  5
170
 10
7.18873
 20
4.42334
 30
0.000000
  70
    32
  0
VERTEX
  8
AM_VIS
  5
171
 10
7.18861
 20
4.42535
 30
0.000000
  70
    32
  0
VERTEX
  8
AM_VIS
  5
172
 10
7.18848
 20
4.42735
 30
0.000000
  70
    32
  0
VERTEX
  8
AM_VIS
  5
173
 10
7.18833
 20
4.42935
 30
0.000000
  70
    32
  0
VERTEX
  8
AM_VIS
  5
174
 10
7.18817
 20
4.43136
 30
0.000000
  70
    32
  0
VERTEX
  8
AM_VIS
  5
175
 10
7.18801
 20
4.43337
 30
0.000000
  70
    32
  0
VERTEX
  8
AM_VIS
  5
176
 10
7.18782
 20
4.43538
 30
0.000000
  70
    32
  0
VERTEX
  8
AM_VIS
  5
177
 10
7.18763
 20
4.43739
 30
0.000000
  70
    32
  0
VERTEX
  8
AM_VIS
  5
178
 10
7.18742
 20
4.43940
 30
0.000000
  70
    32
  0
VERTEX
  8
AM_VIS
  5
179
 10
7.18720
 20
4.44141
 30
0.000000
  70
    32
  0
VERTEX
  8
AM_VIS
  5
17A
 10
7.18697
 20
4.44342
 30
0.000000
  70
    32
  0
VERTEX
  8
AM_VIS
  5
17B
 10
7.18673
 20
4.44544
 30
0.000000
  70
    32
  0
VERTEX
  8
AM_VIS
  5
17C
 10
7.18647
 20
4.44745
 30
0.000000
  70
    32
  0
VERTEX
  8
AM_VIS
  5
17D
 10
7.18620
 20
4.44947
 30
0.000000
  70
    32
  0
VERTEX
  8
AM_VIS
  5
17E
 10
7.18592
 20
4.45148
 30
0.000000
  70
    32
  0
VERTEX
  8
AM_VIS
  5
17F
 10
7.18563
 20
4.45350
 30
0.000000
  70
    32
  0
VERTEX
  8
AM_VIS
  5
180
 10
7.18532
 20
4.45551
 30
0.000000
  70
    32
  0
VERTEX
  8
AM_VIS
  5
181
 10
7.18500
 20
4.45753
 30
0.000000
  70
    32
  0
VERTEX
  8
AM_VIS
  5
182
 10
7.18467
 20
4.45955
 30
0.000000
  70
    32
  0
VERTEX
  8
AM_VIS
  5
183
 10
7.18433
 20
4.46156
 30
0.000000
  70
    32
  0
VERTEX
  8
AM_VIS
  5
184
 10
7.18397
 20
4.46358
 30
0.000000
  70
    32
  0
VERTEX
  8
AM_VIS
  5
185
 10
7.18360
 20
4.46559
 30
0.000000
  70
    32
  0
VERTEX
  8
AM_VIS
  5
186
 10
7.18322
 20
4.46760
 30
0.000000
  70
    32
  0
VERTEX
  8
AM_VIS
  5
187
 10
7.18283
 20
4.46962
 30
0.000000
  70
    32
  0
VERTEX
  8
AM_VIS
  5
188
 10
7.18242
 20
4.47163
 30
0.000000
  70
    32
  0
VERTEX
  8
AM_VIS
  5
189
 10
7.18200
 20
4.47364
 30
0.000000
  70
    32
  0
VERTEX
  8
AM_VIS
  5
18A
 10
7.18157
 20
4.47565
 30
0.000000
  70
    32
  0
VERTEX
  8
AM_VIS
  5
18B
 10
7.18113
 20
4.47766
 30
0.000000
  70
    32
  0
VERTEX
  8
AM_VIS
  5
18C
 10
7.18067
 20
4.47966
 30
0.000000
  70
    32
  0
VERTEX
  8
AM_VIS
  5
18D
 10
7.18021
 20
4.48167
 30
0.000000
  70
    32
  0
VERTEX
  8
AM_VIS
  5
18E
 10
7.17973
 20
4.48367
 30
0.000000
  70
    32
  0
VERTEX
  8
AM_VIS
  5
18F
 10
7.17923
 20
4.48567
 30
0.000000
  70
    32
  0
VERTEX
  8
AM_VIS
  5
190
 10
7.17873
 20
4.48767
 30
0.000000
  70
    32
  0
VERTEX
  8
AM_VIS
  5
191
 10
7.17821
 20
4.48967
 30
0.000000
  70
    32
  0
VERTEX
  8
AM_VIS
  5
192
 10
7.17768
 20
4.49166
 30
0.000000
  70
    32
  0
VERTEX
  8
AM_VIS
  5
193
 10
7.17714
 20
4.49366
 30
0.000000
  70
    32
  0
VERTEX
  8
AM_VIS
  5
194
 10
7.17659
 20
4.49565
 30
0.000000
  70
    32
  0
VERTEX
  8
AM_VIS
  5
195
 10
7.17602
 20
4.49764
 30
0.000000
  70
    32
  0
VERTEX
  8
AM_VIS
  5
196
 10
7.17544
 20
4.49962
 30
0.000000
  70
    32
  0
VERTEX
  8
AM_VIS
  5
197
 10
7.17485
 20
4.50160
 30
0.000000
  70
    32
  0
VERTEX
  8
AM_VIS
  5
198
 10
7.17425
 20
4.50358
 30
0.000000
  70
    32
  0
VERTEX
  8
AM_VIS
  5
199
 10
7.17363
 20
4.50556
 30
0.000000
  70
    32
  0
VERTEX
  8
AM_VIS
  5
19A
 10
7.17300
 20
4.50753
 30
0.000000
  70
    32
  0
VERTEX
  8
AM_VIS
  5
19B
 10
7.17236
 20
4.50950
 30
0.000000
  70
    32
  0
VERTEX
  8
AM_VIS
  5
19C
 10
7.17171
 20
4.51146
 30
0.000000
  70
    32
  0
VERTEX
  8
AM_VIS
  5
19D
 10
7.17105
 20
4.51343
 30
0.000000
  70
    32
  0
VERTEX
  8
AM_VIS
  5
19E
 10
7.17037
 20
4.51539
 30
0.000000
  70
    32
  0
VERTEX
  8
AM_VIS
  5
19F
 10
7.16968
 20
4.51734
 30
0.000000
  70
    32
  0
VERTEX
  8
AM_VIS
  5
1A0
 10
7.16898
 20
4.51929
 30
0.000000
  70
    32
  0
VERTEX
  8
AM_VIS
  5
1A1
 10
7.16827
 20
4.52124
 30
0.000000
  70
    32
  0
VERTEX
  8
AM_VIS
  5
1A2
 10
7.16754
 20
4.52318
 30
0.000000
  70
    32
  0
VERTEX
  8
AM_VIS
  5
1A3
 10
7.16680
 20
4.52512
 30
0.000000
  70
    32
  0
VERTEX
  8
AM_VIS
  5
1A4
 10
7.16605
 20
4.52705
 30
0.000000
  70
    32
  0
VERTEX
  8
AM_VIS
  5
1A5
 10
7.16529
 20
4.52898
 30
0.000000
  70
    32
  0
VERTEX
  8
AM_VIS
  5
1A6
 10
7.16451
 20
4.53090
 30
0.000000
  70
    32
  0
VERTEX
  8
AM_VIS
  5
1A7
 10
7.16373
 20
4.53282
 30
0.000000
  70
    32
  0
VERTEX
  8
AM_VIS
  5
1A8
 10
7.16293
 20
4.53473
 30
0.000000
  70
    32
  0
VERTEX
  8
AM_VIS
  5
1A9
 10
7.16212
 20
4.53664
 30
0.000000
  70
    32
  0
VERTEX
  8
AM_VIS
  5
1AA
 10
7.16129
 20
4.53854
 30
0.000000
  70
    32
  0
VERTEX
  8
AM_VIS
  5
1AB
 10
7.16046
 20
4.54044
 30
0.000000
  70
    32
  0
VERTEX
  8
AM_VIS
  5
1AC
 10
7.15961
 20
4.54233
 30
0.000000
  70
    32
  0
VERTEX
  8
AM_VIS
  5
1AD
 10
7.15875
 20
4.54422
 30
0.000000
  70
    32
  0
VERTEX
  8
AM_VIS
  5
1AE
 10
7.15788
 20
4.54610
 30
0.000000
  70
    32
  0
VERTEX
  8
AM_VIS
  5
1AF
 10
7.15699
 20
4.54797
 30
0.000000
  70
    32
  0
VERTEX
  8
AM_VIS
  5
1B0
 10
7.15610
 20
4.54984
 30
0.000000
  70
    32
  0
VERTEX
  8
AM_VIS
  5
1B1
 10
7.15519
 20
4.55171
 30
0.000000
  70
    32
  0
VERTEX
  8
AM_VIS
  5
1B2
 10
7.15427
 20
4.55356
 30
0.000000
  70
    32
  0
VERTEX
  8
AM_VIS
  5
1B3
 10
7.15334
 20
4.55542
 30
0.000000
  70
    32
  0
VERTEX
  8
AM_VIS
  5
1B4
 10
7.15240
 20
4.55726
 30
0.000000
  70
    32
  0
VERTEX
  8
AM_VIS
  5
1B5
 10
7.15145
 20
4.55910
 30
0.000000
  70
    32
  0
VERTEX
  8
AM_VIS
  5
1B6
 10
7.15048
 20
4.56093
 30
0.000000
  70
    32
  0
VERTEX
  8
AM_VIS
  5
1B7
 10
7.14951
 20
4.56276
 30
0.000000
  70
    32
  0
VERTEX
  8
AM_VIS
  5
1B8
 10
7.14852
 20
4.56458
 30
0.000000
  70
    32
  0
VERTEX
  8
AM_VIS
  5
1B9
 10
7.14753
 20
4.56639
 30
0.000000
  70
    32
  0
VERTEX
  8
AM_VIS
  5
1BA
 10
7.14652
 20
4.56820
 30
0.000000
  70
    32
  0
VERTEX
  8
AM_VIS
  5
1BB
 10
7.14550
 20
4.56999
 30
0.000000
  70
    32
  0
VERTEX
  8
AM_VIS
  5
1BC
 10
7.14447
 20
4.57179
 30
0.000000
  70
    32
  0
VERTEX
  8
AM_VIS
  5
1BD
 10
7.14343
 20
4.57357
 30
0.000000
  70
    32
  0
VERTEX
  8
AM_VIS
  5
1BE
 10
7.14239
 20
4.57535
 30
0.000000
  70
    32
  0
VERTEX
  8
AM_VIS
  5
1BF
 10
7.14133
 20
4.57712
 30
0.000000
  70
    32
  0
VERTEX
  8
AM_VIS
  5
1C0
 10
7.14026
 20
4.57889
 30
0.000000
  70
    32
  0
VERTEX
  8
AM_VIS
  5
1C1
 10
7.13918
 20
4.58065
 30
0.000000
  70
    32
  0
VERTEX
  8
AM_VIS
  5
1C2
 10
7.13809
 20
4.58240
 30
0.000000
  70
    32
  0
VERTEX
  8
AM_VIS
  5
1C3
 10
7.13699
 20
4.58414
 30
0.000000
  70
    32
  0
VERTEX
  8
AM_VIS
  5
1C4
 10
7.13588
 20
4.58588
 30
0.000000
  70
    32
  0
VERTEX
  8
AM_VIS
  5
1C5
 10
7.13477
 20
4.58760
 30
0.000000
  70
    32
  0
VERTEX
  8
AM_VIS
  5
1C6
 10
7.13364
 20
4.58932
 30
0.000000
  70
    32
  0
VERTEX
  8
AM_VIS
  5
1C7
 10
7.13250
 20
4.59104
 30
0.000000
  70
    32
  0
VERTEX
  8
AM_VIS
  5
1C8
 10
7.13136
 20
4.59274
 30
0.000000
  70
    32
  0
VERTEX
  8
AM_VIS
  5
1C9
 10
7.13020
 20
4.59444
 30
0.000000
  70
    32
  0
VERTEX
  8
AM_VIS
  5
1CA
 10
7.12904
 20
4.59613
 30
0.000000
  70
    32
  0
VERTEX
  8
AM_VIS
  5
1CB
 10
7.12787
 20
4.59781
 30
0.000000
  70
    32
  0
VERTEX
  8
AM_VIS
  5
1CC
 10
7.12668
 20
4.59948
 30
0.000000
  70
    32
  0
VERTEX
  8
AM_VIS
  5
1CD
 10
7.12549
 20
4.60115
 30
0.000000
  70
    32
  0
VERTEX
  8
AM_VIS
  5
1CE
 10
7.12430
 20
4.60281
 30
0.000000
  70
    32
  0
VERTEX
  8
AM_VIS
  5
1CF
 10
7.12309
 20
4.60445
 30
0.000000
  70
    32
  0
VERTEX
  8
AM_VIS
  5
1D0
 10
7.12187
 20
4.60609
 30
0.000000
  70
    32
  0
VERTEX
  8
AM_VIS
  5
1D1
 10
7.12065
 20
4.60773
 30
0.000000
  70
    32
  0
VERTEX
  8
AM_VIS
  5
1D2
 10
7.11942
 20
4.60935
 30
0.000000
  70
    32
  0
VERTEX
  8
AM_VIS
  5
1D3
 10
7.11818
 20
4.61097
 30
0.000000
  70
    32
  0
VERTEX
  8
AM_VIS
  5
1D4
 10
7.11693
 20
4.61257
 30
0.000000
  70
    32
  0
VERTEX
  8
AM_VIS
  5
1D5
 10
7.11567
 20
4.61417
 30
0.000000
  70
    32
  0
VERTEX
  8
AM_VIS
  5
1D6
 10
7.11441
 20
4.61576
 30
0.000000
  70
    32
  0
VERTEX
  8
AM_VIS
  5
1D7
 10
7.11314
 20
4.61734
 30
0.000000
  70
    32
  0
VERTEX
  8
AM_VIS
  5
1D8
 10
7.11186
 20
4.61891
 30
0.000000
  70
    32
  0
VERTEX
  8
AM_VIS
  5
1D9
 10
7.11058
 20
4.62047
 30
0.000000
  70
    32
  0
VERTEX
  8
AM_VIS
  5
1DA
 10
7.10928
 20
4.62202
 30
0.000000
  70
    32
  0
VERTEX
  8
AM_VIS
  5
1DB
 10
7.10798
 20
4.62356
 30
0.000000
  70
    32
  0
VERTEX
  8
AM_VIS
  5
1DC
 10
7.10668
 20
4.62510
 30
0.000000
  70
    32
  0
VERTEX
  8
AM_VIS
  5
1DD
 10
7.10536
 20
4.62662
 30
0.000000
  70
    32
  0
VERTEX
  8
AM_VIS
  5
1DE
 10
7.10404
 20
4.62814
 30
0.000000
  70
    32
  0
VERTEX
  8
AM_VIS
  5
1DF
 10
7.10271
 20
4.62964
 30
0.000000
  70
    32
  0
VERTEX
  8
AM_VIS
  5
1E0
 10
7.10138
 20
4.63114
 30
0.000000
  70
    32
  0
VERTEX
  8
AM_VIS
  5
1E1
 10
7.10004
 20
4.63263
 30
0.000000
  70
    32
  0
VERTEX
  8
AM_VIS
  5
1E2
 10
7.09869
 20
4.63410
 30
0.000000
  70
    32
  0
VERTEX
  8
AM_VIS
  5
1E3
 10
7.09734
 20
4.63557
 30
0.000000
  70
    32
  0
VERTEX
  8
AM_VIS
  5
1E4
 10
7.09597
 20
4.63702
 30
0.000000
  70
    32
  0
VERTEX
  8
AM_VIS
  5
1E5
 10
7.09461
 20
4.63847
 30
0.000000
  70
    32
  0
VERTEX
  8
AM_VIS
  5
1E6
 10
7.09324
 20
4.63991
 30
0.000000
  70
    32
  0
VERTEX
  8
AM_VIS
  5
1E7
 10
7.09186
 20
4.64133
 30
0.000000
  70
    32
  0
VERTEX
  8
AM_VIS
  5
1E8
 10
7.09047
 20
4.64275
 30
0.000000
  70
    32
  0
VERTEX
  8
AM_VIS
  5
1E9
 10
7.08908
 20
4.64416
 30
0.000000
  70
    32
  0
VERTEX
  8
AM_VIS
  5
1EA
 10
7.08769
 20
4.64555
 30
0.000000
  70
    32
  0
VERTEX
  8
AM_VIS
  5
1EB
 10
7.08629
 20
4.64694
 30
0.000000
  70
    32
  0
VERTEX
  8
AM_VIS
  5
1EC
 10
7.08488
 20
4.64831
 30
0.000000
  70
    32
  0
VERTEX
  8
AM_VIS
  5
1ED
 10
7.08347
 20
4.64967
 30
0.000000
  70
    32
  0
VERTEX
  8
AM_VIS
  5
1EE
 10
7.08205
 20
4.65103
 30
0.000000
  70
    32
  0
VERTEX
  8
AM_VIS
  5
1EF
 10
7.08063
 20
4.65237
 30
0.000000
  70
    32
  0
VERTEX
  8
AM_VIS
  5
1F0
 10
7.07921
 20
4.65370
 30
0.000000
  70
    32
  0
VERTEX
  8
AM_VIS
  5
1F1
 10
7.07777
 20
4.65502
 30
0.000000
  70
    32
  0
VERTEX
  8
AM_VIS
  5
1F2
 10
7.07632
 20
4.65634
 30
0.000000
  70
    32
  0
VERTEX
  8
AM_VIS
  5
1F3
 10
7.07487
 20
4.65766
 30
0.000000
  70
    32
  0
VERTEX
  8
AM_VIS
  5
1F4
 10
7.07340
 20
4.65897
 30
0.000000
  70
    32
  0
VERTEX
  8
AM_VIS
  5
1F5
 10
7.07192
 20
4.66027
 30
0.000000
  70
    32
  0
VERTEX
  8
AM_VIS
  5
1F6
 10
7.07043
 20
4.66156
 30
0.000000
  70
    32
  0
VERTEX
  8
AM_VIS
  5
1F7
 10
7.06893
 20
4.66285
 30
0.000000
  70
    32
  0
VERTEX
  8
AM_VIS
  5
1F8
 10
7.06742
 20
4.66414
 30
0.000000
  70
    32
  0
VERTEX
  8
AM_VIS
  5
1F9
 10
7.06591
 20
4.66541
 30
0.000000
  70
    32
  0
VERTEX
  8
AM_VIS
  5
1FA
 10
7.06438
 20
4.66668
 30
0.000000
  70
    32
  0
VERTEX
  8
AM_VIS
  5
1FB
 10
7.06284
 20
4.66795
 30
0.000000
  70
    32
  0
VERTEX
  8
AM_VIS
  5
1FC
 10
7.06129
 20
4.66921
 30
0.000000
  70
    32
  0
VERTEX
  8
AM_VIS
  5
1FD
 10
7.05974
 20
4.67046
 30
0.000000
  70
    32
  0
VERTEX
  8
AM_VIS
  5
1FE
 10
7.05817
 20
4.67170
 30
0.000000
  70
    32
  0
VERTEX
  8
AM_VIS
  5
1FF
 10
7.05659
 20
4.67294
 30
0.000000
  70
    32
  0
VERTEX
  8
AM_VIS
  5
200
 10
7.05501
 20
4.67417
 30
0.000000
  70
    32
  0
VERTEX
  8
AM_VIS
  5
201
 10
7.05341
 20
4.67540
 30
0.000000
  70
    32
  0
VERTEX
  8
AM_VIS
  5
202
 10
7.05181
 20
4.67662
 30
0.000000
  70
    32
  0
VERTEX
  8
AM_VIS
  5
203
 10
7.05020
 20
4.67783
 30
0.000000
  70
    32
  0
VERTEX
  8
AM_VIS
  5
204
 10
7.04858
 20
4.67903
 30
0.000000
  70
    32
  0
VERTEX
  8
AM_VIS
  5
205
 10
7.04695
 20
4.68022
 30
0.000000
  70
    32
  0
VERTEX
  8
AM_VIS
  5
206
 10
7.04531
 20
4.68141
 30
0.000000
  70
    32
  0
VERTEX
  8
AM_VIS
  5
207
 10
7.04366
 20
4.68259
 30
0.000000
  70
    32
  0
VERTEX
  8
AM_VIS
  5
208
 10
7.04200
 20
4.68377
 30
0.000000
  70
    32
  0
VERTEX
  8
AM_VIS
  5
209
 10
7.04034
 20
4.68493
 30
0.000000
  70
    32
  0
VERTEX
  8
AM_VIS
  5
20A
 10
7.03866
 20
4.68609
 30
0.000000
  70
    32
  0
VERTEX
  8
AM_VIS
  5
20B
 10
7.03698
 20
4.68724
 30
0.000000
  70
    32
  0
VERTEX
  8
AM_VIS
  5
20C
 10
7.03529
 20
4.68838
 30
0.000000
  70
    32
  0
VERTEX
  8
AM_VIS
  5
20D
 10
7.03359
 20
4.68952
 30
0.000000
  70
    32
  0
VERTEX
  8
AM_VIS
  5
20E
 10
7.03189
 20
4.69064
 30
0.000000
  70
    32
  0
VERTEX
  8
AM_VIS
  5
20F
 10
7.03017
 20
4.69176
 30
0.000000
  70
    32
  0
VERTEX
  8
AM_VIS
  5
210
 10
7.02845
 20
4.69287
 30
0.000000
  70
    32
  0
VERTEX
  8
AM_VIS
  5
211
 10
7.02672
 20
4.69397
 30
0.000000
  70
    32
  0
VERTEX
  8
AM_VIS
  5
212
 10
7.02498
 20
4.69507
 30
0.000000
  70
    32
  0
VERTEX
  8
AM_VIS
  5
213
 10
7.02323
 20
4.69615
 30
0.000000
  70
    32
  0
VERTEX
  8
AM_VIS
  5
214
 10
7.02148
 20
4.69723
 30
0.000000
  70
    32
  0
VERTEX
  8
AM_VIS
  5
215
 10
7.01972
 20
4.69829
 30
0.000000
  70
    32
  0
VERTEX
  8
AM_VIS
  5
216
 10
7.01795
 20
4.69935
 30
0.000000
  70
    32
  0
VERTEX
  8
AM_VIS
  5
217
 10
7.01618
 20
4.70040
 30
0.000000
  70
    32
  0
VERTEX
  8
AM_VIS
  5
218
 10
7.01439
 20
4.70144
 30
0.000000
  70
    32
  0
VERTEX
  8
AM_VIS
  5
219
 10
7.01260
 20
4.70247
 30
0.000000
  70
    32
  0
VERTEX
  8
AM_VIS
  5
21A
 10
7.01081
 20
4.70350
 30
0.000000
  70
    32
  0
VERTEX
  8
AM_VIS
  5
21B
 10
7.00900
 20
4.70451
 30
0.000000
  70
    32
  0
VERTEX
  8
AM_VIS
  5
21C
 10
7.00719
 20
4.70551
 30
0.000000
  70
    32
  0
VERTEX
  8
AM_VIS
  5
21D
 10
7.00538
 20
4.70651
 30
0.000000
  70
    32
  0
VERTEX
  8
AM_VIS
  5
21E
 10
7.00355
 20
4.70749
 30
0.000000
  70
    32
  0
VERTEX
  8
AM_VIS
  5
21F
 10
7.00172
 20
4.70847
 30
0.000000
  70
    32
  0
VERTEX
  8
AM_VIS
  5
220
 10
6.99988
 20
4.70944
 30
0.000000
  70
    32
  0
VERTEX
  8
AM_VIS
  5
221
 10
6.99804
 20
4.71039
 30
0.000000
  70
    32
  0
VERTEX
  8
AM_VIS
  5
222
 10
6.99619
 20
4.71134
 30
0.000000
  70
    32
  0
VERTEX
  8
AM_VIS
  5
223
 10
6.99433
 20
4.71227
 30
0.000000
  70
    32
  0
VERTEX
  8
AM_VIS
  5
224
 10
6.99247
 20
4.71320
 30
0.000000
  70
    32
  0
VERTEX
  8
AM_VIS
  5
225
 10
6.99060
 20
4.71412
 30
0.000000
  70
    32
  0
VERTEX
  8
AM_VIS
  5
226
 10
6.98873
 20
4.71502
 30
0.000000
  70
    32
  0
VERTEX
  8
AM_VIS
  5
227
 10
6.98685
 20
4.71592
 30
0.000000
  70
    32
  0
VERTEX
  8
AM_VIS
  5
228
 10
6.98496
 20
4.71681
 30
0.000000
  70
    32
  0
VERTEX
  8
AM_VIS
  5
229
 10
6.98307
 20
4.71768
 30
0.000000
  70
    32
  0
VERTEX
  8
AM_VIS
  5
22A
 10
6.98117
 20
4.71854
 30
0.000000
  70
    32
  0
VERTEX
  8
AM_VIS
  5
22B
 10
6.97927
 20
4.71940
 30
0.000000
  70
    32
  0
VERTEX
  8
AM_VIS
  5
22C
 10
6.97736
 20
4.72024
 30
0.000000
  70
    32
  0
VERTEX
  8
AM_VIS
  5
22D
 10
6.97545
 20
4.72107
 30
0.000000
  70
    32
  0
VERTEX
  8
AM_VIS
  5
22E
 10
6.97353
 20
4.72190
 30
0.000000
  70
    32
  0
VERTEX
  8
AM_VIS
  5
22F
 10
6.97160
 20
4.72271
 30
0.000000
  70
    32
  0
VERTEX
  8
AM_VIS
  5
230
 10
6.96968
 20
4.72351
 30
0.000000
  70
    32
  0
VERTEX
  8
AM_VIS
  5
231
 10
6.96774
 20
4.72430
 30
0.000000
  70
    32
  0
VERTEX
  8
AM_VIS
  5
232
 10
6.96580
 20
4.72507
 30
0.000000
  70
    32
  0
VERTEX
  8
AM_VIS
  5
233
 10
6.96386
 20
4.72584
 30
0.000000
  70
    32
  0
VERTEX
  8
AM_VIS
  5
234
 10
6.96191
 20
4.72659
 30
0.000000
  70
    32
  0
VERTEX
  8
AM_VIS
  5
235
 10
6.95995
 20
4.72734
 30
0.000000
  70
    32
  0
VERTEX
  8
AM_VIS
  5
236
 10
6.95800
 20
4.72807
 30
0.000000
  70
    32
  0
VERTEX
  8
AM_VIS
  5
237
 10
6.95603
 20
4.72879
 30
0.000000
  70
    32
  0
VERTEX
  8
AM_VIS
  5
238
 10
6.95407
 20
4.72950
 30
0.000000
  70
    32
  0
VERTEX
  8
AM_VIS
  5
239
 10
6.95209
 20
4.73020
 30
0.000000
  70
    32
  0
VERTEX
  8
AM_VIS
  5
23A
 10
6.95012
 20
4.73088
 30
0.000000
  70
    32
  0
VERTEX
  8
AM_VIS
  5
23B
 10
6.94814
 20
4.73156
 30
0.000000
  70
    32
  0
VERTEX
  8
AM_VIS
  5
23C
 10
6.94616
 20
4.73222
 30
0.000000
  70
    32
  0
VERTEX
  8
AM_VIS
  5
23D
 10
6.94417
 20
4.73287
 30
0.000000
  70
    32
  0
VERTEX
  8
AM_VIS
  5
23E
 10
6.94218
 20
4.73351
 30
0.000000
  70
    32
  0
VERTEX
  8
AM_VIS
  5
23F
 10
6.94019
 20
4.73414
 30
0.000000
  70
    32
  0
VERTEX
  8
AM_VIS
  5
240
 10
6.93819
 20
4.73476
 30
0.000000
  70
    32
  0
VERTEX
  8
AM_VIS
  5
241
 10
6.93619
 20
4.73537
 30
0.000000
  70
    32
  0
VERTEX
  8
AM_VIS
  5
242
 10
6.93419
 20
4.73596
 30
0.000000
  70
    32
  0
VERTEX
  8
AM_VIS
  5
243
 10
6.93218
 20
4.73655
 30
0.000000
  70
    32
  0
VERTEX
  8
AM_VIS
  5
244
 10
6.93017
 20
4.73712
 30
0.000000
  70
    32
  0
VERTEX
  8
AM_VIS
  5
245
 10
6.92816
 20
4.73768
 30
0.000000
  70
    32
  0
VERTEX
  8
AM_VIS
  5
246
 10
6.92615
 20
4.73823
 30
0.000000
  70
    32
  0
VERTEX
  8
AM_VIS
  5
247
 10
6.92413
 20
4.73877
 30
0.000000
  70
    32
  0
VERTEX
  8
AM_VIS
  5
248
 10
6.92211
 20
4.73929
 30
0.000000
  70
    32
  0
VERTEX
  8
AM_VIS
  5
249
 10
6.92009
 20
4.73981
 30
0.000000
  70
    32
  0
VERTEX
  8
AM_VIS
  5
24A
 10
6.91807
 20
4.74032
 30
0.000000
  70
    32
  0
VERTEX
  8
AM_VIS
  5
24B
 10
6.91605
 20
4.74081
 30
0.000000
  70
    32
  0
VERTEX
  8
AM_VIS
  5
24C
 10
6.91402
 20
4.74129
 30
0.000000
  70
    32
  0
VERTEX
  8
AM_VIS
  5
24D
 10
6.91199
 20
4.74176
 30
0.000000
  70
    32
  0
VERTEX
  8
AM_VIS
  5
24E
 10
6.90997
 20
4.74222
 30
0.000000
  70
    32
  0
VERTEX
  8
AM_VIS
  5
24F
 10
6.90794
 20
4.74267
 30
0.000000
  70
    32
  0
VERTEX
  8
AM_VIS
  5
250
 10
6.90590
 20
4.74311
 30
0.000000
  70
    32
  0
VERTEX
  8
AM_VIS
  5
251
 10
6.90387
 20
4.74353
 30
0.000000
  70
    32
  0
VERTEX
  8
AM_VIS
  5
252
 10
6.90184
 20
4.74395
 30
0.000000
  70
    32
  0
VERTEX
  8
AM_VIS
  5
253
 10
6.89980
 20
4.74435
 30
0.000000
  70
    32
  0
VERTEX
  8
AM_VIS
  5
254
 10
6.89777
 20
4.74474
 30
0.000000
  70
    32
  0
VERTEX
  8
AM_VIS
  5
255
 10
6.89573
 20
4.74512
 30
0.000000
  70
    32
  0
VERTEX
  8
AM_VIS
  5
256
 10
6.89370
 20
4.74549
 30
0.000000
  70
    32
  0
VERTEX
  8
AM_VIS
  5
257
 10
6.89166
 20
4.74585
 30
0.000000
  70
    32
  0
VERTEX
  8
AM_VIS
  5
258
 10
6.88963
 20
4.74620
 30
0.000000
  70
    32
  0
VERTEX
  8
AM_VIS
  5
259
 10
6.88759
 20
4.74653
 30
0.000000
  70
    32
  0
VERTEX
  8
AM_VIS
  5
25A
 10
6.88555
 20
4.74686
 30
0.000000
  70
    32
  0
VERTEX
  8
AM_VIS
  5
25B
 10
6.88352
 20
4.74717
 30
0.000000
  70
    32
  0
VERTEX
  8
AM_VIS
  5
25C
 10
6.88148
 20
4.74747
 30
0.000000
  70
    32
  0
VERTEX
  8
AM_VIS
  5
25D
 10
6.87945
 20
4.74777
 30
0.000000
  70
    32
  0
VERTEX
  8
AM_VIS
  5
25E
 10
6.87741
 20
4.74805
 30
0.000000
  70
    32
  0
VERTEX
  8
AM_VIS
  5
25F
 10
6.87538
 20
4.74831
 30
0.000000
  70
    32
  0
VERTEX
  8
AM_VIS
  5
260
 10
6.87334
 20
4.74857
 30
0.000000
  70
    32
  0
VERTEX
  8
AM_VIS
  5
261
 10
6.87131
 20
4.74882
 30
0.000000
  70
    32
  0
VERTEX
  8
AM_VIS
  5
262
 10
6.86928
 20
4.74905
 30
0.000000
  70
    32
  0
VERTEX
  8
AM_VIS
  5
263
 10
6.86725
 20
4.74928
 30
0.000000
  70
    32
  0
VERTEX
  8
AM_VIS
  5
264
 10
6.86522
 20
4.74949
 30
0.000000
  70
    32
  0
VERTEX
  8
AM_VIS
  5
265
 10
6.86320
 20
4.74969
 30
0.000000
  70
    32
  0
VERTEX
  8
AM_VIS
  5
266
 10
6.86117
 20
4.74988
 30
0.000000
  70
    32
  0
VERTEX
  8
AM_VIS
  5
267
 10
6.85915
 20
4.75006
 30
0.000000
  70
    32
  0
VERTEX
  8
AM_VIS
  5
268
 10
6.85713
 20
4.75023
 30
0.000000
  70
    32
  0
VERTEX
  8
AM_VIS
  5
269
 10
6.85511
 20
4.75039
 30
0.000000
  70
    32
  0
VERTEX
  8
AM_VIS
  5
26A
 10
6.85309
 20
4.75054
 30
0.000000
  70
    32
  0
VERTEX
  8
AM_VIS
  5
26B
 10
6.85107
 20
4.75067
 30
0.000000
  70
    32
  0
VERTEX
  8
AM_VIS
  5
26C
 10
6.84906
 20
4.75080
 30
0.000000
  70
    32
  0
VERTEX
  8
AM_VIS
  5
26D
 10
6.84705
 20
4.75091
 30
0.000000
  70
    32
  0
VERTEX
  8
AM_VIS
  5
26E
 10
6.84504
 20
4.75101
 30
0.000000
  70
    32
  0
VERTEX
  8
AM_VIS
  5
26F
 10
6.84304
 20
4.75110
 30
0.000000
  70
    32
  0
VERTEX
  8
AM_VIS
  5
270
 10
6.84104
 20
4.75118
 30
0.000000
  70
    32
  0
VERTEX
  8
AM_VIS
  5
271
 10
6.83904
 20
4.75125
 30
0.000000
  70
    32
  0
VERTEX
  8
AM_VIS
  5
272
 10
6.83704
 20
4.75131
 30
0.000000
  70
    32
  0
VERTEX
  8
AM_VIS
  5
273
 10
6.83505
 20
4.75136
 30
0.000000
  70
    32
  0
VERTEX
  8
AM_VIS
  5
274
 10
6.83306
 20
4.75139
 30
0.000000
  70
    32
  0
VERTEX
  8
AM_VIS
  5
275
 10
6.83108
 20
4.75142
 30
0.000000
  70
    32
  0
VERTEX
  8
AM_VIS
  5
276
 10
6.82909
 20
4.75143
 30
0.000000
  70
    32
  0
VERTEX
  8
AM_VIS
  5
277
 10
6.82712
 20
4.75143
 30
0.000000
  70
    32
  0
VERTEX
  8
AM_VIS
  5
278
 10
6.82514
 20
4.75143
 30
0.000000
  70
    32
  0
VERTEX
  8
AM_VIS
  5
279
 10
6.82315
 20
4.75141
 30
0.000000
  70
    32
  0
VERTEX
  8
AM_VIS
  5
27A
 10
6.82117
 20
4.75138
 30
0.000000
  70
    32
  0
VERTEX
  8
AM_VIS
  5
27B
 10
6.81918
 20
4.75133
 30
0.000000
  70
    32
  0
VERTEX
  8
AM_VIS
  5
27C
 10
6.81718
 20
4.75128
 30
0.000000
  70
    32
  0
VERTEX
  8
AM_VIS
  5
27D
 10
6.81518
 20
4.75122
 30
0.000000
  70
    32
  0
VERTEX
  8
AM_VIS
  5
27E
 10
6.81318
 20
4.75114
 30
0.000000
  70
    32
  0
VERTEX
  8
AM_VIS
  5
27F
 10
6.81118
 20
4.75106
 30
0.000000
  70
    32
  0
VERTEX
  8
AM_VIS
  5
280
 10
6.80917
 20
4.75096
 30
0.000000
  70
    32
  0
VERTEX
  8
AM_VIS
  5
281
 10
6.80717
 20
4.75085
 30
0.000000
  70
    32
  0
VERTEX
  8
AM_VIS
  5
282
 10
6.80515
 20
4.75074
 30
0.000000
  70
    32
  0
VERTEX
  8
AM_VIS
  5
283
 10
6.80314
 20
4.75061
 30
0.000000
  70
    32
  0
VERTEX
  8
AM_VIS
  5
284
 10
6.80112
 20
4.75047
 30
0.000000
  70
    32
  0
VERTEX
  8
AM_VIS
  5
285
 10
6.79911
 20
4.75031
 30
0.000000
  70
    32
  0
VERTEX
  8
AM_VIS
  5
286
 10
6.79708
 20
4.75015
 30
0.000000
  70
    32
  0
VERTEX
  8
AM_VIS
  5
287
 10
6.79506
 20
4.74998
 30
0.000000
  70
    32
  0
VERTEX
  8
AM_VIS
  5
288
 10
6.79304
 20
4.74979
 30
0.000000
  70
    32
  0
VERTEX
  8
AM_VIS
  5
289
 10
6.79101
 20
4.74959
 30
0.000000
  70
    32
  0
VERTEX
  8
AM_VIS
  5
28A
 10
6.78898
 20
4.74939
 30
0.000000
  70
    32
  0
VERTEX
  8
AM_VIS
  5
28B
 10
6.78696
 20
4.74917
 30
0.000000
  70
    32
  0
VERTEX
  8
AM_VIS
  5
28C
 10
6.78492
 20
4.74894
 30
0.000000
  70
    32
  0
VERTEX
  8
AM_VIS
  5
28D
 10
6.78289
 20
4.74870
 30
0.000000
  70
    32
  0
VERTEX
  8
AM_VIS
  5
28E
 10
6.78086
 20
4.74844
 30
0.000000
  70
    32
  0
VERTEX
  8
AM_VIS
  5
28F
 10
6.77883
 20
4.74818
 30
0.000000
  70
    32
  0
VERTEX
  8
AM_VIS
  5
290
 10
6.77679
 20
4.74791
 30
0.000000
  70
    32
  0
VERTEX
  8
AM_VIS
  5
291
 10
6.77476
 20
4.74762
 30
0.000000
  70
    32
  0
VERTEX
  8
AM_VIS
  5
292
 10
6.77272
 20
4.74732
 30
0.000000
  70
    32
  0
VERTEX
  8
AM_VIS
  5
293
 10
6.77069
 20
4.74702
 30
0.000000
  70
    32
  0
VERTEX
  8
AM_VIS
  5
294
 10
6.76865
 20
4.74670
 30
0.000000
  70
    32
  0
VERTEX
  8
AM_VIS
  5
295
 10
6.76661
 20
4.74637
 30
0.000000
  70
    32
  0
VERTEX
  8
AM_VIS
  5
296
 10
6.76458
 20
4.74603
 30
0.000000
  70
    32
  0
VERTEX
  8
AM_VIS
  5
297
 10
6.76254
 20
4.74567
 30
0.000000
  70
    32
  0
VERTEX
  8
AM_VIS
  5
298
 10
6.76051
 20
4.74531
 30
0.000000
  70
    32
  0
VERTEX
  8
AM_VIS
  5
299
 10
6.75847
 20
4.74493
 30
0.000000
  70
    32
  0
VERTEX
  8
AM_VIS
  5
29A
 10
6.75643
 20
4.74455
 30
0.000000
  70
    32
  0
VERTEX
  8
AM_VIS
  5
29B
 10
6.75440
 20
4.74415
 30
0.000000
  70
    32
  0
VERTEX
  8
AM_VIS
  5
29C
 10
6.75237
 20
4.74374
 30
0.000000
  70
    32
  0
VERTEX
  8
AM_VIS
  5
29D
 10
6.75033
 20
4.74332
 30
0.000000
  70
    32
  0
VERTEX
  8
AM_VIS
  5
29E
 10
6.74830
 20
4.74289
 30
0.000000
  70
    32
  0
VERTEX
  8
AM_VIS
  5
29F
 10
6.74627
 20
4.74245
 30
0.000000
  70
    32
  0
VERTEX
  8
AM_VIS
  5
2A0
 10
6.74424
 20
4.74199
 30
0.000000
  70
    32
  0
VERTEX
  8
AM_VIS
  5
2A1
 10
6.74221
 20
4.74153
 30
0.000000
  70
    32
  0
VERTEX
  8
AM_VIS
  5
2A2
 10
6.74019
 20
4.74105
 30
0.000000
  70
    32
  0
VERTEX
  8
AM_VIS
  5
2A3
 10
6.73816
 20
4.74056
 30
0.000000
  70
    32
  0
VERTEX
  8
AM_VIS
  5
2A4
 10
6.73614
 20
4.74006
 30
0.000000
  70
    32
  0
VERTEX
  8
AM_VIS
  5
2A5
 10
6.73412
 20
4.73955
 30
0.000000
  70
    32
  0
VERTEX
  8
AM_VIS
  5
2A6
 10
6.73210
 20
4.73903
 30
0.000000
  70
    32
  0
VERTEX
  8
AM_VIS
  5
2A7
 10
6.73008
 20
4.73850
 30
0.000000
  70
    32
  0
VERTEX
  8
AM_VIS
  5
2A8
 10
6.72807
 20
4.73796
 30
0.000000
  70
    32
  0
VERTEX
  8
AM_VIS
  5
2A9
 10
6.72605
 20
4.73740
 30
0.000000
  70
    32
  0
VERTEX
  8
AM_VIS
  5
2AA
 10
6.72404
 20
4.73683
 30
0.000000
  70
    32
  0
VERTEX
  8
AM_VIS
  5
2AB
 10
6.72204
 20
4.73625
 30
0.000000
  70
    32
  0
VERTEX
  8
AM_VIS
  5
2AC
 10
6.72003
 20
4.73567
 30
0.000000
  70
    32
  0
VERTEX
  8
AM_VIS
  5
2AD
 10
6.71803
 20
4.73506
 30
0.000000
  70
    32
  0
VERTEX
  8
AM_VIS
  5
2AE
 10
6.71603
 20
4.73445
 30
0.000000
  70
    32
  0
VERTEX
  8
AM_VIS
  5
2AF
 10
6.71404
 20
4.73383
 30
0.000000
  70
    32
  0
VERTEX
  8
AM_VIS
  5
2B0
 10
6.71205
 20
4.73319
 30
0.000000
  70
    32
  0
VERTEX
  8
AM_VIS
  5
2B1
 10
6.71006
 20
4.73255
 30
0.000000
  70
    32
  0
VERTEX
  8
AM_VIS
  5
2B2
 10
6.70807
 20
4.73189
 30
0.000000
  70
    32
  0
VERTEX
  8
AM_VIS
  5
2B3
 10
6.70609
 20
4.73122
 30
0.000000
  70
    32
  0
VERTEX
  8
AM_VIS
  5
2B4
 10
6.70411
 20
4.73054
 30
0.000000
  70
    32
  0
VERTEX
  8
AM_VIS
  5
2B5
 10
6.70214
 20
4.72985
 30
0.000000
  70
    32
  0
VERTEX
  8
AM_VIS
  5
2B6
 10
6.70017
 20
4.72914
 30
0.000000
  70
    32
  0
VERTEX
  8
AM_VIS
  5
2B7
 10
6.69821
 20
4.72843
 30
0.000000
  70
    32
  0
VERTEX
  8
AM_VIS
  5
2B8
 10
6.69625
 20
4.72770
 30
0.000000
  70
    32
  0
VERTEX
  8
AM_VIS
  5
2B9
 10
6.69429
 20
4.72697
 30
0.000000
  70
    32
  0
VERTEX
  8
AM_VIS
  5
2BA
 10
6.69234
 20
4.72622
 30
0.000000
  70
    32
  0
VERTEX
  8
AM_VIS
  5
2BB
 10
6.69039
 20
4.72546
 30
0.000000
  70
    32
  0
VERTEX
  8
AM_VIS
  5
2BC
 10
6.68845
 20
4.72469
 30
0.000000
  70
    32
  0
VERTEX
  8
AM_VIS
  5
2BD
 10
6.68651
 20
4.72390
 30
0.000000
  70
    32
  0
VERTEX
  8
AM_VIS
  5
2BE
 10
6.68458
 20
4.72311
 30
0.000000
  70
    32
  0
VERTEX
  8
AM_VIS
  5
2BF
 10
6.68265
 20
4.72230
 30
0.000000
  70
    32
  0
VERTEX
  8
AM_VIS
  5
2C0
 10
6.68073
 20
4.72149
 30
0.000000
  70
    32
  0
VERTEX
  8
AM_VIS
  5
2C1
 10
6.67882
 20
4.72066
 30
0.000000
  70
    32
  0
VERTEX
  8
AM_VIS
  5
2C2
 10
6.67690
 20
4.71982
 30
0.000000
  70
    32
  0
VERTEX
  8
AM_VIS
  5
2C3
 10
6.67500
 20
4.71897
 30
0.000000
  70
    32
  0
VERTEX
  8
AM_VIS
  5
2C4
 10
6.67310
 20
4.71811
 30
0.000000
  70
    32
  0
VERTEX
  8
AM_VIS
  5
2C5
 10
6.67120
 20
4.71724
 30
0.000000
  70
    32
  0
VERTEX
  8
AM_VIS
  5
2C6
 10
6.66931
 20
4.71636
 30
0.000000
  70
    32
  0
VERTEX
  8
AM_VIS
  5
2C7
 10
6.66743
 20
4.71547
 30
0.000000
  70
    32
  0
VERTEX
  8
AM_VIS
  5
2C8
 10
6.66555
 20
4.71457
 30
0.000000
  70
    32
  0
VERTEX
  8
AM_VIS
  5
2C9
 10
6.66368
 20
4.71366
 30
0.000000
  70
    32
  0
VERTEX
  8
AM_VIS
  5
2CA
 10
6.66182
 20
4.71274
 30
0.000000
  70
    32
  0
VERTEX
  8
AM_VIS
  5
2CB
 10
6.65996
 20
4.71181
 30
0.000000
  70
    32
  0
VERTEX
  8
AM_VIS
  5
2CC
 10
6.65810
 20
4.71087
 30
0.000000
  70
    32
  0
VERTEX
  8
AM_VIS
  5
2CD
 10
6.65626
 20
4.70991
 30
0.000000
  70
    32
  0
VERTEX
  8
AM_VIS
  5
2CE
 10
6.65442
 20
4.70895
 30
0.000000
  70
    32
  0
VERTEX
  8
AM_VIS
  5
2CF
 10
6.65258
 20
4.70798
 30
0.000000
  70
    32
  0
VERTEX
  8
AM_VIS
  5
2D0
 10
6.65076
 20
4.70700
 30
0.000000
  70
    32
  0
VERTEX
  8
AM_VIS
  5
2D1
 10
6.64893
 20
4.70601
 30
0.000000
  70
    32
  0
VERTEX
  8
AM_VIS
  5
2D2
 10
6.64712
 20
4.70501
 30
0.000000
  70
    32
  0
VERTEX
  8
AM_VIS
  5
2D3
 10
6.64531
 20
4.70400
 30
0.000000
  70
    32
  0
VERTEX
  8
AM_VIS
  5
2D4
 10
6.64351
 20
4.70299
 30
0.000000
  70
    32
  0
VERTEX
  8
AM_VIS
  5
2D5
 10
6.64172
 20
4.70196
 30
0.000000
  70
    32
  0
VERTEX
  8
AM_VIS
  5
2D6
 10
6.63993
 20
4.70092
 30
0.000000
  70
    32
  0
VERTEX
  8
AM_VIS
  5
2D7
 10
6.63816
 20
4.69988
 30
0.000000
  70
    32
  0
VERTEX
  8
AM_VIS
  5
2D8
 10
6.63638
 20
4.69882
 30
0.000000
  70
    32
  0
VERTEX
  8
AM_VIS
  5
2D9
 10
6.63462
 20
4.69776
 30
0.000000
  70
    32
  0
VERTEX
  8
AM_VIS
  5
2DA
 10
6.63286
 20
4.69669
 30
0.000000
  70
    32
  0
VERTEX
  8
AM_VIS
  5
2DB
 10
6.63111
 20
4.69561
 30
0.000000
  70
    32
  0
VERTEX
  8
AM_VIS
  5
2DC
 10
6.62937
 20
4.69452
 30
0.000000
  70
    32
  0
VERTEX
  8
AM_VIS
  5
2DD
 10
6.62764
 20
4.69342
 30
0.000000
  70
    32
  0
VERTEX
  8
AM_VIS
  5
2DE
 10
6.62591
 20
4.69232
 30
0.000000
  70
    32
  0
VERTEX
  8
AM_VIS
  5
2DF
 10
6.62419
 20
4.69120
 30
0.000000
  70
    32
  0
VERTEX
  8
AM_VIS
  5
2E0
 10
6.62248
 20
4.69008
 30
0.000000
  70
    32
  0
VERTEX
  8
AM_VIS
  5
2E1
 10
6.62078
 20
4.68895
 30
0.000000
  70
    32
  0
VERTEX
  8
AM_VIS
  5
2E2
 10
6.61908
 20
4.68781
 30
0.000000
  70
    32
  0
VERTEX
  8
AM_VIS
  5
2E3
 10
6.61740
 20
4.68667
 30
0.000000
  70
    32
  0
VERTEX
  8
AM_VIS
  5
2E4
 10
6.61572
 20
4.68551
 30
0.000000
  70
    32
  0
VERTEX
  8
AM_VIS
  5
2E5
 10
6.61405
 20
4.68435
 30
0.000000
  70
    32
  0
VERTEX
  8
AM_VIS
  5
2E6
 10
6.61239
 20
4.68318
 30
0.000000
  70
    32
  0
VERTEX
  8
AM_VIS
  5
2E7
 10
6.61074
 20
4.68200
 30
0.000000
  70
    32
  0
VERTEX
  8
AM_VIS
  5
2E8
 10
6.60909
 20
4.68082
 30
0.000000
  70
    32
  0
VERTEX
  8
AM_VIS
  5
2E9
 10
6.60746
 20
4.67963
 30
0.000000
  70
    32
  0
VERTEX
  8
AM_VIS
  5
2EA
 10
6.60583
 20
4.67843
 30
0.000000
  70
    32
  0
VERTEX
  8
AM_VIS
  5
2EB
 10
6.60422
 20
4.67722
 30
0.000000
  70
    32
  0
VERTEX
  8
AM_VIS
  5
2EC
 10
6.60261
 20
4.67601
 30
0.000000
  70
    32
  0
VERTEX
  8
AM_VIS
  5
2ED
 10
6.60101
 20
4.67479
 30
0.000000
  70
    32
  0
VERTEX
  8
AM_VIS
  5
2EE
 10
6.59942
 20
4.67356
 30
0.000000
  70
    32
  0
VERTEX
  8
AM_VIS
  5
2EF
 10
6.59784
 20
4.67232
 30
0.000000
  70
    32
  0
VERTEX
  8
AM_VIS
  5
2F0
 10
6.59627
 20
4.67108
 30
0.000000
  70
    32
  0
VERTEX
  8
AM_VIS
  5
2F1
 10
6.59471
 20
4.66983
 30
0.000000
  70
    32
  0
VERTEX
  8
AM_VIS
  5
2F2
 10
6.59315
 20
4.66858
 30
0.000000
  70
    32
  0
VERTEX
  8
AM_VIS
  5
2F3
 10
6.59161
 20
4.66732
 30
0.000000
  70
    32
  0
VERTEX
  8
AM_VIS
  5
2F4
 10
6.59008
 20
4.66605
 30
0.000000
  70
    32
  0
VERTEX
  8
AM_VIS
  5
2F5
 10
6.58855
 20
4.66478
 30
0.000000
  70
    32
  0
VERTEX
  8
AM_VIS
  5
2F6
 10
6.58704
 20
4.66350
 30
0.000000
  70
    32
  0
VERTEX
  8
AM_VIS
  5
2F7
 10
6.58554
 20
4.66221
 30
0.000000
  70
    32
  0
VERTEX
  8
AM_VIS
  5
2F8
 10
6.58404
 20
4.66092
 30
0.000000
  70
    32
  0
VERTEX
  8
AM_VIS
  5
2F9
 10
6.58256
 20
4.65962
 30
0.000000
  70
    32
  0
VERTEX
  8
AM_VIS
  5
2FA
 10
6.58109
 20
4.65831
 30
0.000000
  70
    32
  0
VERTEX
  8
AM_VIS
  5
2FB
 10
6.57963
 20
4.65700
 30
0.000000
  70
    32
  0
VERTEX
  8
AM_VIS
  5
2FC
 10
6.57817
 20
4.65569
 30
0.000000
  70
    32
  0
VERTEX
  8
AM_VIS
  5
2FD
 10
6.57673
 20
4.65436
 30
0.000000
  70
    32
  0
VERTEX
  8
AM_VIS
  5
2FE
 10
6.57530
 20
4.65304
 30
0.000000
  70
    32
  0
VERTEX
  8
AM_VIS
  5
2FF
 10
6.57388
 20
4.65170
 30
0.000000
  70
    32
  0
VERTEX
  8
AM_VIS
  5
300
 10
6.57246
 20
4.65035
 30
0.000000
  70
    32
  0
VERTEX
  8
AM_VIS
  5
301
 10
6.57104
 20
4.64899
 30
0.000000
  70
    32
  0
VERTEX
  8
AM_VIS
  5
302
 10
6.56963
 20
4.64762
 30
0.000000
  70
    32
  0
VERTEX
  8
AM_VIS
  5
303
 10
6.56823
 20
4.64624
 30
0.000000
  70
    32
  0
VERTEX
  8
AM_VIS
  5
304
 10
6.56683
 20
4.64485
 30
0.000000
  70
    32
  0
VERTEX
  8
AM_VIS
  5
305
 10
6.56544
 20
4.64345
 30
0.000000
  70
    32
  0
VERTEX
  8
AM_VIS
  5
306
 10
6.56405
 20
4.64204
 30
0.000000
  70
    32
  0
VERTEX
  8
AM_VIS
  5
307
 10
6.56267
 20
4.64062
 30
0.000000
  70
    32
  0
VERTEX
  8
AM_VIS
  5
308
 10
6.56130
 20
4.63919
 30
0.000000
  70
    32
  0
VERTEX
  8
AM_VIS
  5
309
 10
6.55993
 20
4.63775
 30
0.000000
  70
    32
  0
VERTEX
  8
AM_VIS
  5
30A
 10
6.55857
 20
4.63630
 30
0.000000
  70
    32
  0
VERTEX
  8
AM_VIS
  5
30B
 10
6.55721
 20
4.63484
 30
0.000000
  70
    32
  0
VERTEX
  8
AM_VIS
  5
30C
 10
6.55586
 20
4.63336
 30
0.000000
  70
    32
  0
VERTEX
  8
AM_VIS
  5
30D
 10
6.55451
 20
4.63188
 30
0.000000
  70
    32
  0
VERTEX
  8
AM_VIS
  5
30E
 10
6.55318
 20
4.63039
 30
0.000000
  70
    32
  0
VERTEX
  8
AM_VIS
  5
30F
 10
6.55184
 20
4.62889
 30
0.000000
  70
    32
  0
VERTEX
  8
AM_VIS
  5
310
 10
6.55052
 20
4.62738
 30
0.000000
  70
    32
  0
VERTEX
  8
AM_VIS
  5
311
 10
6.54920
 20
4.62586
 30
0.000000
  70
    32
  0
VERTEX
  8
AM_VIS
  5
312
 10
6.54789
 20
4.62433
 30
0.000000
  70
    32
  0
VERTEX
  8
AM_VIS
  5
313
 10
6.54659
 20
4.62279
 30
0.000000
  70
    32
  0
VERTEX
  8
AM_VIS
  5
314
 10
6.54529
 20
4.62125
 30
0.000000
  70
    32
  0
VERTEX
  8
AM_VIS
  5
315
 10
6.54400
 20
4.61969
 30
0.000000
  70
    32
  0
VERTEX
  8
AM_VIS
  5
316
 10
6.54272
 20
4.61812
 30
0.000000
  70
    32
  0
VERTEX
  8
AM_VIS
  5
317
 10
6.54144
 20
4.61655
 30
0.000000
  70
    32
  0
VERTEX
  8
AM_VIS
  5
318
 10
6.54018
 20
4.61496
 30
0.000000
  70
    32
  0
VERTEX
  8
AM_VIS
  5
319
 10
6.53892
 20
4.61337
 30
0.000000
  70
    32
  0
VERTEX
  8
AM_VIS
  5
31A
 10
6.53767
 20
4.61177
 30
0.000000
  70
    32
  0
VERTEX
  8
AM_VIS
  5
31B
 10
6.53642
 20
4.61016
 30
0.000000
  70
    32
  0
VERTEX
  8
AM_VIS
  5
31C
 10
6.53519
 20
4.60854
 30
0.000000
  70
    32
  0
VERTEX
  8
AM_VIS
  5
31D
 10
6.53396
 20
4.60691
 30
0.000000
  70
    32
  0
VERTEX
  8
AM_VIS
  5
31E
 10
6.53274
 20
4.60528
 30
0.000000
  70
    32
  0
VERTEX
  8
AM_VIS
  5
31F
 10
6.53153
 20
4.60363
 30
0.000000
  70
    32
  0
VERTEX
  8
AM_VIS
  5
320
 10
6.53033
 20
4.60198
 30
0.000000
  70
    32
  0
VERTEX
  8
AM_VIS
  5
321
 10
6.52913
 20
4.60032
 30
0.000000
  70
    32
  0
VERTEX
  8
AM_VIS
  5
322
 10
6.52795
 20
4.59865
 30
0.000000
  70
    32
  0
VERTEX
  8
AM_VIS
  5
323
 10
6.52677
 20
4.59697
 30
0.000000
  70
    32
  0
VERTEX
  8
AM_VIS
  5
324
 10
6.52560
 20
4.59529
 30
0.000000
  70
    32
  0
VERTEX
  8
AM_VIS
  5
325
 10
6.52444
 20
4.59359
 30
0.000000
  70
    32
  0
VERTEX
  8
AM_VIS
  5
326
 10
6.52329
 20
4.59189
 30
0.000000
  70
    32
  0
VERTEX
  8
AM_VIS
  5
327
 10
6.52215
 20
4.59018
 30
0.000000
  70
    32
  0
VERTEX
  8
AM_VIS
  5
328
 10
6.52102
 20
4.58846
 30
0.000000
  70
    32
  0
VERTEX
  8
AM_VIS
  5
329
 10
6.51990
 20
4.58674
 30
0.000000
  70
    32
  0
VERTEX
  8
AM_VIS
  5
32A
 10
6.51878
 20
4.58501
 30
0.000000
  70
    32
  0
VERTEX
  8
AM_VIS
  5
32B
 10
6.51768
 20
4.58327
 30
0.000000
  70
    32
  0
VERTEX
  8
AM_VIS
  5
32C
 10
6.51659
 20
4.58152
 30
0.000000
  70
    32
  0
VERTEX
  8
AM_VIS
  5
32D
 10
6.51550
 20
4.57977
 30
0.000000
  70
    32
  0
VERTEX
  8
AM_VIS
  5
32E
 10
6.51443
 20
4.57801
 30
0.000000
  70
    32
  0
VERTEX
  8
AM_VIS
  5
32F
 10
6.51336
 20
4.57624
 30
0.000000
  70
    32
  0
VERTEX
  8
AM_VIS
  5
330
 10
6.51231
 20
4.57446
 30
0.000000
  70
    32
  0
VERTEX
  8
AM_VIS
  5
331
 10
6.51127
 20
4.57268
 30
0.000000
  70
    32
  0
VERTEX
  8
AM_VIS
  5
332
 10
6.51023
 20
4.57089
 30
0.000000
  70
    32
  0
VERTEX
  8
AM_VIS
  5
333
 10
6.50921
 20
4.56910
 30
0.000000
  70
    32
  0
VERTEX
  8
AM_VIS
  5
334
 10
6.50820
 20
4.56729
 30
0.000000
  70
    32
  0
VERTEX
  8
AM_VIS
  5
335
 10
6.50719
 20
4.56548
 30
0.000000
  70
    32
  0
VERTEX
  8
AM_VIS
  5
336
 10
6.50620
 20
4.56367
 30
0.000000
  70
    32
  0
VERTEX
  8
AM_VIS
  5
337
 10
6.50522
 20
4.56184
 30
0.000000
  70
    32
  0
VERTEX
  8
AM_VIS
  5
338
 10
6.50425
 20
4.56002
 30
0.000000
  70
    32
  0
VERTEX
  8
AM_VIS
  5
339
 10
6.50330
 20
4.55818
 30
0.000000
  70
    32
  0
VERTEX
  8
AM_VIS
  5
33A
 10
6.50235
 20
4.55634
 30
0.000000
  70
    32
  0
VERTEX
  8
AM_VIS
  5
33B
 10
6.50141
 20
4.55449
 30
0.000000
  70
    32
  0
VERTEX
  8
AM_VIS
  5
33C
 10
6.50049
 20
4.55264
 30
0.000000
  70
    32
  0
VERTEX
  8
AM_VIS
  5
33D
 10
6.49958
 20
4.55078
 30
0.000000
  70
    32
  0
VERTEX
  8
AM_VIS
  5
33E
 10
6.49867
 20
4.54891
 30
0.000000
  70
    32
  0
VERTEX
  8
AM_VIS
  5
33F
 10
6.49778
 20
4.54704
 30
0.000000
  70
    32
  0
VERTEX
  8
AM_VIS
  5
340
 10
6.49691
 20
4.54516
 30
0.000000
  70
    32
  0
VERTEX
  8
AM_VIS
  5
341
 10
6.49604
 20
4.54328
 30
0.000000
  70
    32
  0
VERTEX
  8
AM_VIS
  5
342
 10
6.49519
 20
4.54139
 30
0.000000
  70
    32
  0
VERTEX
  8
AM_VIS
  5
343
 10
6.49434
 20
4.53949
 30
0.000000
  70
    32
  0
VERTEX
  8
AM_VIS
  5
344
 10
6.49351
 20
4.53759
 30
0.000000
  70
    32
  0
VERTEX
  8
AM_VIS
  5
345
 10
6.49270
 20
4.53569
 30
0.000000
  70
    32
  0
VERTEX
  8
AM_VIS
  5
346
 10
6.49189
 20
4.53378
 30
0.000000
  70
    32
  0
VERTEX
  8
AM_VIS
  5
347
 10
6.49110
 20
4.53186
 30
0.000000
  70
    32
  0
VERTEX
  8
AM_VIS
  5
348
 10
6.49032
 20
4.52994
 30
0.000000
  70
    32
  0
VERTEX
  8
AM_VIS
  5
349
 10
6.48955
 20
4.52801
 30
0.000000
  70
    32
  0
VERTEX
  8
AM_VIS
  5
34A
 10
6.48879
 20
4.52608
 30
0.000000
  70
    32
  0
VERTEX
  8
AM_VIS
  5
34B
 10
6.48805
 20
4.52415
 30
0.000000
  70
    32
  0
VERTEX
  8
AM_VIS
  5
34C
 10
6.48732
 20
4.52221
 30
0.000000
  70
    32
  0
VERTEX
  8
AM_VIS
  5
34D
 10
6.48660
 20
4.52026
 30
0.000000
  70
    32
  0
VERTEX
  8
AM_VIS
  5
34E
 10
6.48589
 20
4.51832
 30
0.000000
  70
    32
  0
VERTEX
  8
AM_VIS
  5
34F
 10
6.48519
 20
4.51636
 30
0.000000
  70
    32
  0
VERTEX
  8
AM_VIS
  5
350
 10
6.48451
 20
4.51441
 30
0.000000
  70
    32
  0
VERTEX
  8
AM_VIS
  5
351
 10
6.48384
 20
4.51245
 30
0.000000
  70
    32
  0
VERTEX
  8
AM_VIS
  5
352
 10
6.48318
 20
4.51048
 30
0.000000
  70
    32
  0
VERTEX
  8
AM_VIS
  5
353
 10
6.48254
 20
4.50851
 30
0.000000
  70
    32
  0
VERTEX
  8
AM_VIS
  5
354
 10
6.48190
 20
4.50654
 30
0.000000
  70
    32
  0
VERTEX
  8
AM_VIS
  5
355
 10
6.48128
 20
4.50457
 30
0.000000
  70
    32
  0
VERTEX
  8
AM_VIS
  5
356
 10
6.48067
 20
4.50259
 30
0.000000
  70
    32
  0
VERTEX
  8
AM_VIS
  5
357
 10
6.48007
 20
4.50061
 30
0.000000
  70
    32
  0
VERTEX
  8
AM_VIS
  5
358
 10
6.47949
 20
4.49863
 30
0.000000
  70
    32
  0
VERTEX
  8
AM_VIS
  5
359
 10
6.47892
 20
4.49664
 30
0.000000
  70
    32
  0
VERTEX
  8
AM_VIS
  5
35A
 10
6.47836
 20
4.49465
 30
0.000000
  70
    32
  0
VERTEX
  8
AM_VIS
  5
35B
 10
6.47781
 20
4.49266
 30
0.000000
  70
    32
  0
VERTEX
  8
AM_VIS
  5
35C
 10
6.47727
 20
4.49067
 30
0.000000
  70
    32
  0
VERTEX
  8
AM_VIS
  5
35D
 10
6.47675
 20
4.48867
 30
0.000000
  70
    32
  0
VERTEX
  8
AM_VIS
  5
35E
 10
6.47624
 20
4.48667
 30
0.000000
  70
    32
  0
VERTEX
  8
AM_VIS
  5
35F
 10
6.47574
 20
4.48467
 30
0.000000
  70
    32
  0
VERTEX
  8
AM_VIS
  5
360
 10
6.47525
 20
4.48267
 30
0.000000
  70
    32
  0
VERTEX
  8
AM_VIS
  5
361
 10
6.47478
 20
4.48067
 30
0.000000
  70
    32
  0
VERTEX
  8
AM_VIS
  5
362
 10
6.47432
 20
4.47866
 30
0.000000
  70
    32
  0
VERTEX
  8
AM_VIS
  5
363
 10
6.47387
 20
4.47665
 30
0.000000
  70
    32
  0
VERTEX
  8
AM_VIS
  5
364
 10
6.47343
 20
4.47464
 30
0.000000
  70
    32
  0
VERTEX
  8
AM_VIS
  5
365
 10
6.47301
 20
4.47263
 30
0.000000
  70
    32
  0
VERTEX
  8
AM_VIS
  5
366
 10
6.47260
 20
4.47062
 30
0.000000
  70
    32
  0
VERTEX
  8
AM_VIS
  5
367
 10
6.47220
 20
4.46861
 30
0.000000
  70
    32
  0
VERTEX
  8
AM_VIS
  5
368
 10
6.47181
 20
4.46660
 30
0.000000
  70
    32
  0
VERTEX
  8
AM_VIS
  5
369
 10
6.47143
 20
4.46458
 30
0.000000
  70
    32
  0
VERTEX
  8
AM_VIS
  5
36A
 10
6.47107
 20
4.46257
 30
0.000000
  70
    32
  0
VERTEX
  8
AM_VIS
  5
36B
 10
6.47072
 20
4.46055
 30
0.000000
  70
    32
  0
VERTEX
  8
AM_VIS
  5
36C
 10
6.47038
 20
4.45854
 30
0.000000
  70
    32
  0
VERTEX
  8
AM_VIS
  5
36D
 10
6.47006
 20
4.45652
 30
0.000000
  70
    32
  0
VERTEX
  8
AM_VIS
  5
36E
 10
6.46975
 20
4.45451
 30
0.000000
  70
    32
  0
VERTEX
  8
AM_VIS
  5
36F
 10
6.46945
 20
4.45249
 30
0.000000
  70
    32
  0
VERTEX
  8
AM_VIS
  5
370
 10
6.46916
 20
4.45048
 30
0.000000
  70
    32
  0
VERTEX
  8
AM_VIS
  5
371
 10
6.46888
 20
4.44846
 30
0.000000
  70
    32
  0
VERTEX
  8
AM_VIS
  5
372
 10
6.46862
 20
4.44645
 30
0.000000
  70
    32
  0
VERTEX
  8
AM_VIS
  5
373
 10
6.46837
 20
4.44443
 30
0.000000
  70
    32
  0
VERTEX
  8
AM_VIS
  5
374
 10
6.46813
 20
4.44242
 30
0.000000
  70
    32
  0
VERTEX
  8
AM_VIS
  5
375
 10
6.46791
 20
4.44040
 30
0.000000
  70
    32
  0
VERTEX
  8
AM_VIS
  5
376
 10
6.46769
 20
4.43839
 30
0.000000
  70
    32
  0
VERTEX
  8
AM_VIS
  5
377
 10
6.46749
 20
4.43638
 30
0.000000
  70
    32
  0
VERTEX
  8
AM_VIS
  5
378
 10
6.46730
 20
4.43437
 30
0.000000
  70
    32
  0
VERTEX
  8
AM_VIS
  5
379
 10
6.46713
 20
4.43236
 30
0.000000
  70
    32
  0
VERTEX
  8
AM_VIS
  5
37A
 10
6.46697
 20
4.43036
 30
0.000000
  70
    32
  0
VERTEX
  8
AM_VIS
  5
37B
 10
6.46682
 20
4.42835
 30
0.000000
  70
    32
  0
VERTEX
  8
AM_VIS
  5
37C
 10
6.46668
 20
4.42635
 30
0.000000
  70
    32
  0
VERTEX
  8
AM_VIS
  5
37D
 10
6.46655
 20
4.42434
 30
0.000000
  70
    32
  0
VERTEX
  8
AM_VIS
  5
37E
 10
6.46644
 20
4.42234
 30
0.000000
  70
    32
  0
VERTEX
  8
AM_VIS
  5
37F
 10
6.46634
 20
4.42035
 30
0.000000
  70
    32
  0
VERTEX
  8
AM_VIS
  5
380
 10
6.46625
 20
4.41835
 30
0.000000
  70
    32
  0
VERTEX
  8
AM_VIS
  5
381
 10
6.46618
 20
4.41636
 30
0.000000
  70
    32
  0
VERTEX
  8
AM_VIS
  5
382
 10
6.46611
 20
4.41437
 30
0.000000
  70
    32
  0
VERTEX
  8
AM_VIS
  5
383
 10
6.46606
 20
4.41238
 30
0.000000
  70
    32
  0
VERTEX
  8
AM_VIS
  5
384
 10
6.46602
 20
4.41039
 30
0.000000
  70
    32
  0
VERTEX
  8
AM_VIS
  5
385
 10
6.46600
 20
4.40841
 30
0.000000
  70
    32
  0
VERTEX
  8
AM_VIS
  5
386
 10
6.46599
 20
4.40643
 30
0.000000
  70
    32
  0
VERTEX
  8
AM_VIS
  5
387
 10
6.46599
 20
4.40445
 30
0.000000
  70
    32
  0
VERTEX
  8
AM_VIS
  5
388
 10
6.46600
 20
4.40247
 30
0.000000
  70
    32
  0
VERTEX
  8
AM_VIS
  5
389
 10
6.46602
 20
4.40049
 30
0.000000
  70
    32
  0
VERTEX
  8
AM_VIS
  5
38A
 10
6.46606
 20
4.39850
 30
0.000000
  70
    32
  0
VERTEX
  8
AM_VIS
  5
38B
 10
6.46611
 20
4.39651
 30
0.000000
  70
    32
  0
VERTEX
  8
AM_VIS
  5
38C
 10
6.46618
 20
4.39452
 30
0.000000
  70
    32
  0
VERTEX
  8
AM_VIS
  5
38D
 10
6.46625
 20
4.39253
 30
0.000000
  70
    32
  0
VERTEX
  8
AM_VIS
  5
38E
 10
6.46634
 20
4.39053
 30
0.000000
  70
    32
  0
VERTEX
  8
AM_VIS
  5
38F
 10
6.46644
 20
4.38854
 30
0.000000
  70
    32
  0
VERTEX
  8
AM_VIS
  5
390
 10
6.46655
 20
4.38654
 30
0.000000
  70
    32
  0
VERTEX
  8
AM_VIS
  5
391
 10
6.46668
 20
4.38453
 30
0.000000
  70
    32
  0
VERTEX
  8
AM_VIS
  5
392
 10
6.46682
 20
4.38253
 30
0.000000
  70
    32
  0
VERTEX
  8
AM_VIS
  5
393
 10
6.46697
 20
4.38053
 30
0.000000
  70
    32
  0
VERTEX
  8
AM_VIS
  5
394
 10
6.46713
 20
4.37852
 30
0.000000
  70
    32
  0
VERTEX
  8
AM_VIS
  5
395
 10
6.46730
 20
4.37651
 30
0.000000
  70
    32
  0
VERTEX
  8
AM_VIS
  5
396
 10
6.46749
 20
4.37450
 30
0.000000
  70
    32
  0
VERTEX
  8
AM_VIS
  5
397
 10
6.46769
 20
4.37249
 30
0.000000
  70
    32
  0
VERTEX
  8
AM_VIS
  5
398
 10
6.46791
 20
4.37048
 30
0.000000
  70
    32
  0
VERTEX
  8
AM_VIS
  5
399
 10
6.46813
 20
4.36846
 30
0.000000
  70
    32
  0
VERTEX
  8
AM_VIS
  5
39A
 10
6.46837
 20
4.36645
 30
0.000000
  70
    32
  0
VERTEX
  8
AM_VIS
  5
39B
 10
6.46862
 20
4.36444
 30
0.000000
  70
    32
  0
VERTEX
  8
AM_VIS
  5
39C
 10
6.46888
 20
4.36242
 30
0.000000
  70
    32
  0
VERTEX
  8
AM_VIS
  5
39D
 10
6.46916
 20
4.36041
 30
0.000000
  70
    32
  0
VERTEX
  8
AM_VIS
  5
39E
 10
6.46945
 20
4.35839
 30
0.000000
  70
    32
  0
VERTEX
  8
AM_VIS
  5
39F
 10
6.46975
 20
4.35637
 30
0.000000
  70
    32
  0
VERTEX
  8
AM_VIS
  5
3A0
 10
6.47006
 20
4.35436
 30
0.000000
  70
    32
  0
VERTEX
  8
AM_VIS
  5
3A1
 10
6.47038
 20
4.35234
 30
0.000000
  70
    32
  0
VERTEX
  8
AM_VIS
  5
3A2
 10
6.47072
 20
4.35033
 30
0.000000
  70
    32
  0
VERTEX
  8
AM_VIS
  5
3A3
 10
6.47107
 20
4.34831
 30
0.000000
  70
    32
  0
VERTEX
  8
AM_VIS
  5
3A4
 10
6.47143
 20
4.34630
 30
0.000000
  70
    32
  0
VERTEX
  8
AM_VIS
  5
3A5
 10
6.47181
 20
4.34428
 30
0.000000
  70
    32
  0
VERTEX
  8
AM_VIS
  5
3A6
 10
6.47220
 20
4.34227
 30
0.000000
  70
    32
  0
VERTEX
  8
AM_VIS
  5
3A7
 10
6.47260
 20
4.34026
 30
0.000000
  70
    32
  0
VERTEX
  8
AM_VIS
  5
3A8
 10
6.47301
 20
4.33825
 30
0.000000
  70
    32
  0
VERTEX
  8
AM_VIS
  5
3A9
 10
6.47343
 20
4.33624
 30
0.000000
  70
    32
  0
VERTEX
  8
AM_VIS
  5
3AA
 10
6.47387
 20
4.33423
 30
0.000000
  70
    32
  0
VERTEX
  8
AM_VIS
  5
3AB
 10
6.47432
 20
4.33222
 30
0.000000
  70
    32
  0
VERTEX
  8
AM_VIS
  5
3AC
 10
6.47478
 20
4.33022
 30
0.000000
  70
    32
  0
VERTEX
  8
AM_VIS
  5
3AD
 10
6.47525
 20
4.32821
 30
0.000000
  70
    32
  0
VERTEX
  8
AM_VIS
  5
3AE
 10
6.47574
 20
4.32621
 30
0.000000
  70
    32
  0
VERTEX
  8
AM_VIS
  5
3AF
 10
6.47624
 20
4.32421
 30
0.000000
  70
    32
  0
VERTEX
  8
AM_VIS
  5
3B0
 10
6.47675
 20
4.32221
 30
0.000000
  70
    32
  0
VERTEX
  8
AM_VIS
  5
3B1
 10
6.47727
 20
4.32021
 30
0.000000
  70
    32
  0
VERTEX
  8
AM_VIS
  5
3B2
 10
6.47781
 20
4.31822
 30
0.000000
  70
    32
  0
VERTEX
  8
AM_VIS
  5
3B3
 10
6.47836
 20
4.31623
 30
0.000000
  70
    32
  0
VERTEX
  8
AM_VIS
  5
3B4
 10
6.47892
 20
4.31424
 30
0.000000
  70
    32
  0
VERTEX
  8
AM_VIS
  5
3B5
 10
6.47949
 20
4.31225
 30
0.000000
  70
    32
  0
VERTEX
  8
AM_VIS
  5
3B6
 10
6.48007
 20
4.31027
 30
0.000000
  70
    32
  0
VERTEX
  8
AM_VIS
  5
3B7
 10
6.48067
 20
4.30829
 30
0.000000
  70
    32
  0
VERTEX
  8
AM_VIS
  5
3B8
 10
6.48128
 20
4.30631
 30
0.000000
  70
    32
  0
VERTEX
  8
AM_VIS
  5
3B9
 10
6.48190
 20
4.30434
 30
0.000000
  70
    32
  0
VERTEX
  8
AM_VIS
  5
3BA
 10
6.48254
 20
4.30237
 30
0.000000
  70
    32
  0
VERTEX
  8
AM_VIS
  5
3BB
 10
6.48318
 20
4.30040
 30
0.000000
  70
    32
  0
VERTEX
  8
AM_VIS
  5
3BC
 10
6.48384
 20
4.29844
 30
0.000000
  70
    32
  0
VERTEX
  8
AM_VIS
  5
3BD
 10
6.48451
 20
4.29647
 30
0.000000
  70
    32
  0
VERTEX
  8
AM_VIS
  5
3BE
 10
6.48519
 20
4.29452
 30
0.000000
  70
    32
  0
VERTEX
  8
AM_VIS
  5
3BF
 10
6.48589
 20
4.29257
 30
0.000000
  70
    32
  0
VERTEX
  8
AM_VIS
  5
3C0
 10
6.48660
 20
4.29062
 30
0.000000
  70
    32
  0
VERTEX
  8
AM_VIS
  5
3C1
 10
6.48732
 20
4.28867
 30
0.000000
  70
    32
  0
VERTEX
  8
AM_VIS
  5
3C2
 10
6.48805
 20
4.28673
 30
0.000000
  70
    32
  0
VERTEX
  8
AM_VIS
  5
3C3
 10
6.48879
 20
4.28480
 30
0.000000
  70
    32
  0
VERTEX
  8
AM_VIS
  5
3C4
 10
6.48955
 20
4.28287
 30
0.000000
  70
    32
  0
VERTEX
  8
AM_VIS
  5
3C5
 10
6.49032
 20
4.28094
 30
0.000000
  70
    32
  0
VERTEX
  8
AM_VIS
  5
3C6
 10
6.49110
 20
4.27902
 30
0.000000
  70
    32
  0
VERTEX
  8
AM_VIS
  5
3C7
 10
6.49189
 20
4.27711
 30
0.000000
  70
    32
  0
VERTEX
  8
AM_VIS
  5
3C8
 10
6.49270
 20
4.27519
 30
0.000000
  70
    32
  0
VERTEX
  8
AM_VIS
  5
3C9
 10
6.49351
 20
4.27329
 30
0.000000
  70
    32
  0
VERTEX
  8
AM_VIS
  5
3CA
 10
6.49434
 20
4.27139
 30
0.000000
  70
    32
  0
VERTEX
  8
AM_VIS
  5
3CB
 10
6.49519
 20
4.26949
 30
0.000000
  70
    32
  0
VERTEX
  8
AM_VIS
  5
3CC
 10
6.49604
 20
4.26760
 30
0.000000
  70
    32
  0
VERTEX
  8
AM_VIS
  5
3CD
 10
6.49691
 20
4.26572
 30
0.000000
  70
    32
  0
VERTEX
  8
AM_VIS
  5
3CE
 10
6.49778
 20
4.26384
 30
0.000000
  70
    32
  0
VERTEX
  8
AM_VIS
  5
3CF
 10
6.49867
 20
4.26197
 30
0.000000
  70
    32
  0
VERTEX
  8
AM_VIS
  5
3D0
 10
6.49958
 20
4.26011
 30
0.000000
  70
    32
  0
VERTEX
  8
AM_VIS
  5
3D1
 10
6.50049
 20
4.25824
 30
0.000000
  70
    32
  0
VERTEX
  8
AM_VIS
  5
3D2
 10
6.50141
 20
4.25639
 30
0.000000
  70
    32
  0
VERTEX
  8
AM_VIS
  5
3D3
 10
6.50235
 20
4.25454
 30
0.000000
  70
    32
  0
VERTEX
  8
AM_VIS
  5
3D4
 10
6.50330
 20
4.25270
 30
0.000000
  70
    32
  0
VERTEX
  8
AM_VIS
  5
3D5
 10
6.50425
 20
4.25087
 30
0.000000
  70
    32
  0
VERTEX
  8
AM_VIS
  5
3D6
 10
6.50522
 20
4.24904
 30
0.000000
  70
    32
  0
VERTEX
  8
AM_VIS
  5
3D7
 10
6.50620
 20
4.24721
 30
0.000000
  70
    32
  0
VERTEX
  8
AM_VIS
  5
3D8
 10
6.50719
 20
4.24540
 30
0.000000
  70
    32
  0
VERTEX
  8
AM_VIS
  5
3D9
 10
6.50820
 20
4.24359
 30
0.000000
  70
    32
  0
VERTEX
  8
AM_VIS
  5
3DA
 10
6.50921
 20
4.24179
 30
0.000000
  70
    32
  0
VERTEX
  8
AM_VIS
  5
3DB
 10
6.51023
 20
4.23999
 30
0.000000
  70
    32
  0
VERTEX
  8
AM_VIS
  5
3DC
 10
6.51127
 20
4.23820
 30
0.000000
  70
    32
  0
VERTEX
  8
AM_VIS
  5
3DD
 10
6.51231
 20
4.23642
 30
0.000000
  70
    32
  0
VERTEX
  8
AM_VIS
  5
3DE
 10
6.51336
 20
4.23464
 30
0.000000
  70
    32
  0
VERTEX
  8
AM_VIS
  5
3DF
 10
6.51443
 20
4.23287
 30
0.000000
  70
    32
  0
VERTEX
  8
AM_VIS
  5
3E0
 10
6.51550
 20
4.23111
 30
0.000000
  70
    32
  0
VERTEX
  8
AM_VIS
  5
3E1
 10
6.51659
 20
4.22936
 30
0.000000
  70
    32
  0
VERTEX
  8
AM_VIS
  5
3E2
 10
6.51768
 20
4.22761
 30
0.000000
  70
    32
  0
VERTEX
  8
AM_VIS
  5
3E3
 10
6.51878
 20
4.22587
 30
0.000000
  70
    32
  0
VERTEX
  8
AM_VIS
  5
3E4
 10
6.51990
 20
4.22414
 30
0.000000
  70
    32
  0
VERTEX
  8
AM_VIS
  5
3E5
 10
6.52102
 20
4.22242
 30
0.000000
  70
    32
  0
VERTEX
  8
AM_VIS
  5
3E6
 10
6.52215
 20
4.22070
 30
0.000000
  70
    32
  0
VERTEX
  8
AM_VIS
  5
3E7
 10
6.52329
 20
4.21899
 30
0.000000
  70
    32
  0
VERTEX
  8
AM_VIS
  5
3E8
 10
6.52444
 20
4.21729
 30
0.000000
  70
    32
  0
VERTEX
  8
AM_VIS
  5
3E9
 10
6.52560
 20
4.21560
 30
0.000000
  70
    32
  0
VERTEX
  8
AM_VIS
  5
3EA
 10
6.52677
 20
4.21391
 30
0.000000
  70
    32
  0
VERTEX
  8
AM_VIS
  5
3EB
 10
6.52795
 20
4.21223
 30
0.000000
  70
    32
  0
VERTEX
  8
AM_VIS
  5
3EC
 10
6.52913
 20
4.21056
 30
0.000000
  70
    32
  0
VERTEX
  8
AM_VIS
  5
3ED
 10
6.53033
 20
4.20890
 30
0.000000
  70
    32
  0
VERTEX
  8
AM_VIS
  5
3EE
 10
6.53153
 20
4.20725
 30
0.000000
  70
    32
  0
VERTEX
  8
AM_VIS
  5
3EF
 10
6.53274
 20
4.20561
 30
0.000000
  70
    32
  0
VERTEX
  8
AM_VIS
  5
3F0
 10
6.53396
 20
4.20397
 30
0.000000
  70
    32
  0
VERTEX
  8
AM_VIS
  5
3F1
 10
6.53519
 20
4.20234
 30
0.000000
  70
    32
  0
VERTEX
  8
AM_VIS
  5
3F2
 10
6.53642
 20
4.20072
 30
0.000000
  70
    32
  0
VERTEX
  8
AM_VIS
  5
3F3
 10
6.53767
 20
4.19911
 30
0.000000
  70
    32
  0
VERTEX
  8
AM_VIS
  5
3F4
 10
6.53892
 20
4.19751
 30
0.000000
  70
    32
  0
VERTEX
  8
AM_VIS
  5
3F5
 10
6.54018
 20
4.19592
 30
0.000000
  70
    32
  0
VERTEX
  8
AM_VIS
  5
3F6
 10
6.54144
 20
4.19433
 30
0.000000
  70
    32
  0
VERTEX
  8
AM_VIS
  5
3F7
 10
6.54272
 20
4.19276
 30
0.000000
  70
    32
  0
VERTEX
  8
AM_VIS
  5
3F8
 10
6.54400
 20
4.19119
 30
0.000000
  70
    32
  0
VERTEX
  8
AM_VIS
  5
3F9
 10
6.54529
 20
4.18963
 30
0.000000
  70
    32
  0
VERTEX
  8
AM_VIS
  5
3FA
 10
6.54659
 20
4.18809
 30
0.000000
  70
    32
  0
VERTEX
  8
AM_VIS
  5
3FB
 10
6.54789
 20
4.18655
 30
0.000000
  70
    32
  0
VERTEX
  8
AM_VIS
  5
3FC
 10
6.54920
 20
4.18502
 30
0.000000
  70
    32
  0
VERTEX
  8
AM_VIS
  5
3FD
 10
6.55052
 20
4.18350
 30
0.000000
  70
    32
  0
VERTEX
  8
AM_VIS
  5
3FE
 10
6.55184
 20
4.18199
 30
0.000000
  70
    32
  0
VERTEX
  8
AM_VIS
  5
3FF
 10
6.55318
 20
4.18049
 30
0.000000
  70
    32
  0
VERTEX
  8
AM_VIS
  5
400
 10
6.55451
 20
4.17900
 30
0.000000
  70
    32
  0
VERTEX
  8
AM_VIS
  5
401
 10
6.55586
 20
4.17752
 30
0.000000
  70
    32
  0
VERTEX
  8
AM_VIS
  5
402
 10
6.55721
 20
4.17605
 30
0.000000
  70
    32
  0
VERTEX
  8
AM_VIS
  5
403
 10
6.55857
 20
4.17458
 30
0.000000
  70
    32
  0
VERTEX
  8
AM_VIS
  5
404
 10
6.55993
 20
4.17313
 30
0.000000
  70
    32
  0
VERTEX
  8
AM_VIS
  5
405
 10
6.56130
 20
4.17169
 30
0.000000
  70
    32
  0
VERTEX
  8
AM_VIS
  5
406
 10
6.56267
 20
4.17026
 30
0.000000
  70
    32
  0
VERTEX
  8
AM_VIS
  5
407
 10
6.56405
 20
4.16884
 30
0.000000
  70
    32
  0
VERTEX
  8
AM_VIS
  5
408
 10
6.56544
 20
4.16743
 30
0.000000
  70
    32
  0
VERTEX
  8
AM_VIS
  5
409
 10
6.56683
 20
4.16603
 30
0.000000
  70
    32
  0
VERTEX
  8
AM_VIS
  5
40A
 10
6.56823
 20
4.16464
 30
0.000000
  70
    32
  0
VERTEX
  8
AM_VIS
  5
40B
 10
6.56963
 20
4.16326
 30
0.000000
  70
    32
  0
VERTEX
  8
AM_VIS
  5
40C
 10
6.57104
 20
4.16189
 30
0.000000
  70
    32
  0
VERTEX
  8
AM_VIS
  5
40D
 10
6.57246
 20
4.16053
 30
0.000000
  70
    32
  0
VERTEX
  8
AM_VIS
  5
40E
 10
6.57388
 20
4.15918
 30
0.000000
  70
    32
  0
VERTEX
  8
AM_VIS
  5
40F
 10
6.57530
 20
4.15785
 30
0.000000
  70
    32
  0
VERTEX
  8
AM_VIS
  5
410
 10
6.57673
 20
4.15652
 30
0.000000
  70
    32
  0
VERTEX
  8
AM_VIS
  5
411
 10
6.57817
 20
4.15520
 30
0.000000
  70
    32
  0
VERTEX
  8
AM_VIS
  5
412
 10
6.57963
 20
4.15388
 30
0.000000
  70
    32
  0
VERTEX
  8
AM_VIS
  5
413
 10
6.58109
 20
4.15257
 30
0.000000
  70
    32
  0
VERTEX
  8
AM_VIS
  5
414
 10
6.58256
 20
4.15126
 30
0.000000
  70
    32
  0
VERTEX
  8
AM_VIS
  5
415
 10
6.58404
 20
4.14997
 30
0.000000
  70
    32
  0
VERTEX
  8
AM_VIS
  5
416
 10
6.58554
 20
4.14867
 30
0.000000
  70
    32
  0
VERTEX
  8
AM_VIS
  5
417
 10
6.58704
 20
4.14739
 30
0.000000
  70
    32
  0
VERTEX
  8
AM_VIS
  5
418
 10
6.58855
 20
4.14611
 30
0.000000
  70
    32
  0
VERTEX
  8
AM_VIS
  5
419
 10
6.59008
 20
4.14483
 30
0.000000
  70
    32
  0
VERTEX
  8
AM_VIS
  5
41A
 10
6.59161
 20
4.14356
 30
0.000000
  70
    32
  0
VERTEX
  8
AM_VIS
  5
41B
 10
6.59315
 20
4.14230
 30
0.000000
  70
    32
  0
VERTEX
  8
AM_VIS
  5
41C
 10
6.59471
 20
4.14105
 30
0.000000
  70
    32
  0
VERTEX
  8
AM_VIS
  5
41D
 10
6.59627
 20
4.13980
 30
0.000000
  70
    32
  0
VERTEX
  8
AM_VIS
  5
41E
 10
6.59784
 20
4.13856
 30
0.000000
  70
    32
  0
VERTEX
  8
AM_VIS
  5
41F
 10
6.59942
 20
4.13732
 30
0.000000
  70
    32
  0
VERTEX
  8
AM_VIS
  5
420
 10
6.60101
 20
4.13609
 30
0.000000
  70
    32
  0
VERTEX
  8
AM_VIS
  5
421
 10
6.60261
 20
4.13487
 30
0.000000
  70
    32
  0
VERTEX
  8
AM_VIS
  5
422
 10
6.60422
 20
4.13366
 30
0.000000
  70
    32
  0
VERTEX
  8
AM_VIS
  5
423
 10
6.60583
 20
4.13245
 30
0.000000
  70
    32
  0
VERTEX
  8
AM_VIS
  5
424
 10
6.60746
 20
4.13125
 30
0.000000
  70
    32
  0
VERTEX
  8
AM_VIS
  5
425
 10
6.60909
 20
4.13006
 30
0.000000
  70
    32
  0
VERTEX
  8
AM_VIS
  5
426
 10
6.61074
 20
4.12888
 30
0.000000
  70
    32
  0
VERTEX
  8
AM_VIS
  5
427
 10
6.61239
 20
4.12770
 30
0.000000
  70
    32
  0
VERTEX
  8
AM_VIS
  5
428
 10
6.61405
 20
4.12653
 30
0.000000
  70
    32
  0
VERTEX
  8
AM_VIS
  5
429
 10
6.61572
 20
4.12537
 30
0.000000
  70
    32
  0
VERTEX
  8
AM_VIS
  5
42A
 10
6.61740
 20
4.12421
 30
0.000000
  70
    32
  0
VERTEX
  8
AM_VIS
  5
42B
 10
6.61908
 20
4.12307
 30
0.000000
  70
    32
  0
VERTEX
  8
AM_VIS
  5
42C
 10
6.62078
 20
4.12193
 30
0.000000
  70
    32
  0
VERTEX
  8
AM_VIS
  5
42D
 10
6.62248
 20
4.12080
 30
0.000000
  70
    32
  0
VERTEX
  8
AM_VIS
  5
42E
 10
6.62419
 20
4.11968
 30
0.000000
  70
    32
  0
VERTEX
  8
AM_VIS
  5
42F
 10
6.62591
 20
4.11856
 30
0.000000
  70
    32
  0
VERTEX
  8
AM_VIS
  5
430
 10
6.62764
 20
4.11746
 30
0.000000
  70
    32
  0
VERTEX
  8
AM_VIS
  5
431
 10
6.62937
 20
4.11636
 30
0.000000
  70
    32
  0
VERTEX
  8
AM_VIS
  5
432
 10
6.63111
 20
4.11527
 30
0.000000
  70
    32
  0
VERTEX
  8
AM_VIS
  5
433
 10
6.63286
 20
4.11419
 30
0.000000
  70
    32
  0
VERTEX
  8
AM_VIS
  5
434
 10
6.63462
 20
4.11312
 30
0.000000
  70
    32
  0
VERTEX
  8
AM_VIS
  5
435
 10
6.63638
 20
4.11206
 30
0.000000
  70
    32
  0
VERTEX
  8
AM_VIS
  5
436
 10
6.63816
 20
4.11100
 30
0.000000
  70
    32
  0
VERTEX
  8
AM_VIS
  5
437
 10
6.63993
 20
4.10996
 30
0.000000
  70
    32
  0
VERTEX
  8
AM_VIS
  5
438
 10
6.64172
 20
4.10892
 30
0.000000
  70
    32
  0
VERTEX
  8
AM_VIS
  5
439
 10
6.64351
 20
4.10789
 30
0.000000
  70
    32
  0
VERTEX
  8
AM_VIS
  5
43A
 10
6.64531
 20
4.10688
 30
0.000000
  70
    32
  0
VERTEX
  8
AM_VIS
  5
43B
 10
6.64712
 20
4.10587
 30
0.000000
  70
    32
  0
VERTEX
  8
AM_VIS
  5
43C
 10
6.64893
 20
4.10487
 30
0.000000
  70
    32
  0
VERTEX
  8
AM_VIS
  5
43D
 10
6.65076
 20
4.10388
 30
0.000000
  70
    32
  0
VERTEX
  8
AM_VIS
  5
43E
 10
6.65258
 20
4.10290
 30
0.000000
  70
    32
  0
VERTEX
  8
AM_VIS
  5
43F
 10
6.65442
 20
4.10193
 30
0.000000
  70
    32
  0
VERTEX
  8
AM_VIS
  5
440
 10
6.65626
 20
4.10097
 30
0.000000
  70
    32
  0
VERTEX
  8
AM_VIS
  5
441
 10
6.65810
 20
4.10002
 30
0.000000
  70
    32
  0
VERTEX
  8
AM_VIS
  5
442
 10
6.65996
 20
4.09907
 30
0.000000
  70
    32
  0
VERTEX
  8
AM_VIS
  5
443
 10
6.66182
 20
4.09814
 30
0.000000
  70
    32
  0
VERTEX
  8
AM_VIS
  5
444
 10
6.66368
 20
4.09722
 30
0.000000
  70
    32
  0
VERTEX
  8
AM_VIS
  5
445
 10
6.66555
 20
4.09631
 30
0.000000
  70
    32
  0
VERTEX
  8
AM_VIS
  5
446
 10
6.66743
 20
4.09541
 30
0.000000
  70
    32
  0
VERTEX
  8
AM_VIS
  5
447
 10
6.66931
 20
4.09452
 30
0.000000
  70
    32
  0
VERTEX
  8
AM_VIS
  5
448
 10
6.67120
 20
4.09364
 30
0.000000
  70
    32
  0
VERTEX
  8
AM_VIS
  5
449
 10
6.67310
 20
4.09277
 30
0.000000
  70
    32
  0
VERTEX
  8
AM_VIS
  5
44A
 10
6.67500
 20
4.09191
 30
0.000000
  70
    32
  0
VERTEX
  8
AM_VIS
  5
44B
 10
6.67690
 20
4.09106
 30
0.000000
  70
    32
  0
VERTEX
  8
AM_VIS
  5
44C
 10
6.67882
 20
4.09022
 30
0.000000
  70
    32
  0
VERTEX
  8
AM_VIS
  5
44D
 10
6.68073
 20
4.08939
 30
0.000000
  70
    32
  0
VERTEX
  8
AM_VIS
  5
44E
 10
6.68265
 20
4.08858
 30
0.000000
  70
    32
  0
VERTEX
  8
AM_VIS
  5
44F
 10
6.68458
 20
4.08777
 30
0.000000
  70
    32
  0
VERTEX
  8
AM_VIS
  5
450
 10
6.68651
 20
4.08698
 30
0.000000
  70
    32
  0
VERTEX
  8
AM_VIS
  5
451
 10
6.68845
 20
4.08620
 30
0.000000
  70
    32
  0
VERTEX
  8
AM_VIS
  5
452
 10
6.69039
 20
4.08542
 30
0.000000
  70
    32
  0
VERTEX
  8
AM_VIS
  5
453
 10
6.69234
 20
4.08466
 30
0.000000
  70
    32
  0
VERTEX
  8
AM_VIS
  5
454
 10
6.69429
 20
4.08391
 30
0.000000
  70
    32
  0
VERTEX
  8
AM_VIS
  5
455
 10
6.69625
 20
4.08318
 30
0.000000
  70
    32
  0
VERTEX
  8
AM_VIS
  5
456
 10
6.69821
 20
4.08245
 30
0.000000
  70
    32
  0
VERTEX
  8
AM_VIS
  5
457
 10
6.70017
 20
4.08174
 30
0.000000
  70
    32
  0
VERTEX
  8
AM_VIS
  5
458
 10
6.70214
 20
4.08103
 30
0.000000
  70
    32
  0
VERTEX
  8
AM_VIS
  5
459
 10
6.70411
 20
4.08034
 30
0.000000
  70
    32
  0
VERTEX
  8
AM_VIS
  5
45A
 10
6.70609
 20
4.07966
 30
0.000000
  70
    32
  0
VERTEX
  8
AM_VIS
  5
45B
 10
6.70807
 20
4.07899
 30
0.000000
  70
    32
  0
VERTEX
  8
AM_VIS
  5
45C
 10
6.71006
 20
4.07833
 30
0.000000
  70
    32
  0
VERTEX
  8
AM_VIS
  5
45D
 10
6.71205
 20
4.07769
 30
0.000000
  70
    32
  0
VERTEX
  8
AM_VIS
  5
45E
 10
6.71404
 20
4.07705
 30
0.000000
  70
    32
  0
VERTEX
  8
AM_VIS
  5
45F
 10
6.71603
 20
4.07643
 30
0.000000
  70
    32
  0
VERTEX
  8
AM_VIS
  5
460
 10
6.71803
 20
4.07582
 30
0.000000
  70
    32
  0
VERTEX
  8
AM_VIS
  5
461
 10
6.72003
 20
4.07522
 30
0.000000
  70
    32
  0
VERTEX
  8
AM_VIS
  5
462
 10
6.72204
 20
4.07463
 30
0.000000
  70
    32
  0
VERTEX
  8
AM_VIS
  5
463
 10
6.72404
 20
4.07405
 30
0.000000
  70
    32
  0
VERTEX
  8
AM_VIS
  5
464
 10
6.72605
 20
4.07348
 30
0.000000
  70
    32
  0
VERTEX
  8
AM_VIS
  5
465
 10
6.72807
 20
4.07293
 30
0.000000
  70
    32
  0
VERTEX
  8
AM_VIS
  5
466
 10
6.73008
 20
4.07238
 30
0.000000
  70
    32
  0
VERTEX
  8
AM_VIS
  5
467
 10
6.73210
 20
4.07185
 30
0.000000
  70
    32
  0
VERTEX
  8
AM_VIS
  5
468
 10
6.73412
 20
4.07133
 30
0.000000
  70
    32
  0
VERTEX
  8
AM_VIS
  5
469
 10
6.73614
 20
4.07082
 30
0.000000
  70
    32
  0
VERTEX
  8
AM_VIS
  5
46A
 10
6.73816
 20
4.07032
 30
0.000000
  70
    32
  0
VERTEX
  8
AM_VIS
  5
46B
 10
6.74019
 20
4.06983
 30
0.000000
  70
    32
  0
VERTEX
  8
AM_VIS
  5
46C
 10
6.74221
 20
4.06935
 30
0.000000
  70
    32
  0
VERTEX
  8
AM_VIS
  5
46D
 10
6.74424
 20
4.06889
 30
0.000000
  70
    32
  0
VERTEX
  8
AM_VIS
  5
46E
 10
6.74627
 20
4.06843
 30
0.000000
  70
    32
  0
VERTEX
  8
AM_VIS
  5
46F
 10
6.74830
 20
4.06799
 30
0.000000
  70
    32
  0
VERTEX
  8
AM_VIS
  5
470
 10
6.75033
 20
4.06756
 30
0.000000
  70
    32
  0
VERTEX
  8
AM_VIS
  5
471
 10
6.75237
 20
4.06714
 30
0.000000
  70
    32
  0
VERTEX
  8
AM_VIS
  5
472
 10
6.75440
 20
4.06673
 30
0.000000
  70
    32
  0
VERTEX
  8
AM_VIS
  5
473
 10
6.75643
 20
4.06633
 30
0.000000
  70
    32
  0
VERTEX
  8
AM_VIS
  5
474
 10
6.75847
 20
4.06595
 30
0.000000
  70
    32
  0
VERTEX
  8
AM_VIS
  5
475
 10
6.76051
 20
4.06557
 30
0.000000
  70
    32
  0
VERTEX
  8
AM_VIS
  5
476
 10
6.76254
 20
4.06521
 30
0.000000
  70
    32
  0
VERTEX
  8
AM_VIS
  5
477
 10
6.76458
 20
4.06486
 30
0.000000
  70
    32
  0
VERTEX
  8
AM_VIS
  5
478
 10
6.76661
 20
4.06451
 30
0.000000
  70
    32
  0
VERTEX
  8
AM_VIS
  5
479
 10
6.76865
 20
4.06418
 30
0.000000
  70
    32
  0
VERTEX
  8
AM_VIS
  5
47A
 10
6.77069
 20
4.06386
 30
0.000000
  70
    32
  0
VERTEX
  8
AM_VIS
  5
47B
 10
6.77272
 20
4.06356
 30
0.000000
  70
    32
  0
VERTEX
  8
AM_VIS
  5
47C
 10
6.77476
 20
4.06326
 30
0.000000
  70
    32
  0
VERTEX
  8
AM_VIS
  5
47D
 10
6.77679
 20
4.06297
 30
0.000000
  70
    32
  0
VERTEX
  8
AM_VIS
  5
47E
 10
6.77883
 20
4.06270
 30
0.000000
  70
    32
  0
VERTEX
  8
AM_VIS
  5
47F
 10
6.78086
 20
4.06244
 30
0.000000
  70
    32
  0
VERTEX
  8
AM_VIS
  5
480
 10
6.78289
 20
4.06218
 30
0.000000
  70
    32
  0
VERTEX
  8
AM_VIS
  5
481
 10
6.78492
 20
4.06194
 30
0.000000
  70
    32
  0
VERTEX
  8
AM_VIS
  5
482
 10
6.78696
 20
4.06171
 30
0.000000
  70
    32
  0
VERTEX
  8
AM_VIS
  5
483
 10
6.78898
 20
4.06149
 30
0.000000
  70
    32
  0
VERTEX
  8
AM_VIS
  5
484
 10
6.79101
 20
4.06129
 30
0.000000
  70
    32
  0
VERTEX
  8
AM_VIS
  5
485
 10
6.79304
 20
4.06109
 30
0.000000
  70
    32
  0
VERTEX
  8
AM_VIS
  5
486
 10
6.79506
 20
4.06091
 30
0.000000
  70
    32
  0
VERTEX
  8
AM_VIS
  5
487
 10
6.79708
 20
4.06073
 30
0.000000
  70
    32
  0
VERTEX
  8
AM_VIS
  5
488
 10
6.79911
 20
4.06057
 30
0.000000
  70
    32
  0
VERTEX
  8
AM_VIS
  5
489
 10
6.80112
 20
4.06042
 30
0.000000
  70
    32
  0
VERTEX
  8
AM_VIS
  5
48A
 10
6.80314
 20
4.06028
 30
0.000000
  70
    32
  0
VERTEX
  8
AM_VIS
  5
48B
 10
6.80515
 20
4.06015
 30
0.000000
  70
    32
  0
VERTEX
  8
AM_VIS
  5
48C
 10
6.80717
 20
4.06003
 30
0.000000
  70
    32
  0
VERTEX
  8
AM_VIS
  5
48D
 10
6.80917
 20
4.05992
 30
0.000000
  70
    32
  0
VERTEX
  8
AM_VIS
  5
48E
 10
6.81118
 20
4.05982
 30
0.000000
  70
    32
  0
VERTEX
  8
AM_VIS
  5
48F
 10
6.81318
 20
4.05974
 30
0.000000
  70
    32
  0
VERTEX
  8
AM_VIS
  5
490
 10
6.81518
 20
4.05966
 30
0.000000
  70
    32
  0
VERTEX
  8
AM_VIS
  5
491
 10
6.81718
 20
4.05960
 30
0.000000
  70
    32
  0
VERTEX
  8
AM_VIS
  5
492
 10
6.81918
 20
4.05955
 30
0.000000
  70
    32
  0
VERTEX
  8
AM_VIS
  5
493
 10
6.82117
 20
4.05951
 30
0.000000
  70
    32
  0
VERTEX
  8
AM_VIS
  5
494
 10
6.82315
 20
4.05947
 30
0.000000
  70
    32
  0
VERTEX
  8
AM_VIS
  5
495
 10
6.82514
 20
4.05946
 30
0.000000
  70
    32
  0
VERTEX
  8
AM_VIS
  5
496
 10
6.82712
 20
4.05945
 30
0.000000
  70
    32
  0
VERTEX
  8
AM_VIS
  5
497
 10
6.82909
 20
4.05945
 30
0.000000
  70
    32
  0
VERTEX
  8
AM_VIS
  5
498
 10
6.83108
 20
4.05946
 30
0.000000
  70
    32
  0
VERTEX
  8
AM_VIS
  5
499
 10
6.83306
 20
4.05949
 30
0.000000
  70
    32
  0
VERTEX
  8
AM_VIS
  5
49A
 10
6.83505
 20
4.05952
 30
0.000000
  70
    32
  0
VERTEX
  8
AM_VIS
  5
49B
 10
6.83704
 20
4.05957
 30
0.000000
  70
    32
  0
VERTEX
  8
AM_VIS
  5
49C
 10
6.83904
 20
4.05963
 30
0.000000
  70
    32
  0
VERTEX
  8
AM_VIS
  5
49D
 10
6.84104
 20
4.05970
 30
0.000000
  70
    32
  0
VERTEX
  8
AM_VIS
  5
49E
 10
6.84304
 20
4.05978
 30
0.000000
  70
    32
  0
VERTEX
  8
AM_VIS
  5
49F
 10
6.84504
 20
4.05987
 30
0.000000
  70
    32
  0
VERTEX
  8
AM_VIS
  5
4A0
 10
6.84705
 20
4.05997
 30
0.000000
  70
    32
  0
VERTEX
  8
AM_VIS
  5
4A1
 10
6.84906
 20
4.06008
 30
0.000000
  70
    32
  0
VERTEX
  8
AM_VIS
  5
4A2
 10
6.85107
 20
4.06021
 30
0.000000
  70
    32
  0
VERTEX
  8
AM_VIS
  5
4A3
 10
6.85309
 20
4.06034
 30
0.000000
  70
    32
  0
VERTEX
  8
AM_VIS
  5
4A4
 10
6.85511
 20
4.06049
 30
0.000000
  70
    32
  0
VERTEX
  8
AM_VIS
  5
4A5
 10
6.85713
 20
4.06065
 30
0.000000
  70
    32
  0
VERTEX
  8
AM_VIS
  5
4A6
 10
6.85915
 20
4.06082
 30
0.000000
  70
    32
  0
VERTEX
  8
AM_VIS
  5
4A7
 10
6.86117
 20
4.06100
 30
0.000000
  70
    32
  0
VERTEX
  8
AM_VIS
  5
4A8
 10
6.86320
 20
4.06119
 30
0.000000
  70
    32
  0
VERTEX
  8
AM_VIS
  5
4A9
 10
6.86522
 20
4.06139
 30
0.000000
  70
    32
  0
VERTEX
  8
AM_VIS
  5
4AA
 10
6.86725
 20
4.06160
 30
0.000000
  70
    32
  0
VERTEX
  8
AM_VIS
  5
4AB
 10
6.86928
 20
4.06183
 30
0.000000
  70
    32
  0
VERTEX
  8
AM_VIS
  5
4AC
 10
6.87131
 20
4.06206
 30
0.000000
  70
    32
  0
VERTEX
  8
AM_VIS
  5
4AD
 10
6.87334
 20
4.06231
 30
0.000000
  70
    32
  0
VERTEX
  8
AM_VIS
  5
4AE
 10
6.87538
 20
4.06257
 30
0.000000
  70
    32
  0
VERTEX
  8
AM_VIS
  5
4AF
 10
6.87741
 20
4.06284
 30
0.000000
  70
    32
  0
VERTEX
  8
AM_VIS
  5
4B0
 10
6.87945
 20
4.06312
 30
0.000000
  70
    32
  0
VERTEX
  8
AM_VIS
  5
4B1
 10
6.88148
 20
4.06341
 30
0.000000
  70
    32
  0
VERTEX
  8
AM_VIS
  5
4B2
 10
6.88352
 20
4.06371
 30
0.000000
  70
    32
  0
VERTEX
  8
AM_VIS
  5
4B3
 10
6.88555
 20
4.06402
 30
0.000000
  70
    32
  0
VERTEX
  8
AM_VIS
  5
4B4
 10
6.88759
 20
4.06435
 30
0.000000
  70
    32
  0
VERTEX
  8
AM_VIS
  5
4B5
 10
6.88963
 20
4.06468
 30
0.000000
  70
    32
  0
VERTEX
  8
AM_VIS
  5
4B6
 10
6.89166
 20
4.06503
 30
0.000000
  70
    32
  0
VERTEX
  8
AM_VIS
  5
4B7
 10
6.89370
 20
4.06539
 30
0.000000
  70
    32
  0
VERTEX
  8
AM_VIS
  5
4B8
 10
6.89573
 20
4.06576
 30
0.000000
  70
    32
  0
VERTEX
  8
AM_VIS
  5
4B9
 10
6.89777
 20
4.06614
 30
0.000000
  70
    32
  0
VERTEX
  8
AM_VIS
  5
4BA
 10
6.89980
 20
4.06653
 30
0.000000
  70
    32
  0
VERTEX
  8
AM_VIS
  5
4BB
 10
6.90184
 20
4.06693
 30
0.000000
  70
    32
  0
VERTEX
  8
AM_VIS
  5
4BC
 10
6.90387
 20
4.06735
 30
0.000000
  70
    32
  0
VERTEX
  8
AM_VIS
  5
4BD
 10
6.90590
 20
4.06777
 30
0.000000
  70
    32
  0
VERTEX
  8
AM_VIS
  5
4BE
 10
6.90794
 20
4.06821
 30
0.000000
  70
    32
  0
VERTEX
  8
AM_VIS
  5
4BF
 10
6.90997
 20
4.06866
 30
0.000000
  70
    32
  0
VERTEX
  8
AM_VIS
  5
4C0
 10
6.91199
 20
4.06912
 30
0.000000
  70
    32
  0
VERTEX
  8
AM_VIS
  5
4C1
 10
6.91402
 20
4.06959
 30
0.000000
  70
    32
  0
VERTEX
  8
AM_VIS
  5
4C2
 10
6.91605
 20
4.07007
 30
0.000000
  70
    32
  0
VERTEX
  8
AM_VIS
  5
4C3
 10
6.91807
 20
4.07057
 30
0.000000
  70
    32
  0
VERTEX
  8
AM_VIS
  5
4C4
 10
6.92009
 20
4.07107
 30
0.000000
  70
    32
  0
VERTEX
  8
AM_VIS
  5
4C5
 10
6.92211
 20
4.07159
 30
0.000000
  70
    32
  0
VERTEX
  8
AM_VIS
  5
4C6
 10
6.92413
 20
4.07211
 30
0.000000
  70
    32
  0
VERTEX
  8
AM_VIS
  5
4C7
 10
6.92615
 20
4.07265
 30
0.000000
  70
    32
  0
VERTEX
  8
AM_VIS
  5
4C8
 10
6.92816
 20
4.07320
 30
0.000000
  70
    32
  0
VERTEX
  8
AM_VIS
  5
4C9
 10
6.93017
 20
4.07376
 30
0.000000
  70
    32
  0
VERTEX
  8
AM_VIS
  5
4CA
 10
6.93218
 20
4.07434
 30
0.000000
  70
    32
  0
VERTEX
  8
AM_VIS
  5
4CB
 10
6.93419
 20
4.07492
 30
0.000000
  70
    32
  0
VERTEX
  8
AM_VIS
  5
4CC
 10
6.93619
 20
4.07552
 30
0.000000
  70
    32
  0
VERTEX
  8
AM_VIS
  5
4CD
 10
6.93819
 20
4.07612
 30
0.000000
  70
    32
  0
VERTEX
  8
AM_VIS
  5
4CE
 10
6.94019
 20
4.07674
 30
0.000000
  70
    32
  0
VERTEX
  8
AM_VIS
  5
4CF
 10
6.94218
 20
4.07737
 30
0.000000
  70
    32
  0
VERTEX
  8
AM_VIS
  5
4D0
 10
6.94417
 20
4.07801
 30
0.000000
  70
    32
  0
VERTEX
  8
AM_VIS
  5
4D1
 10
6.94616
 20
4.07866
 30
0.000000
  70
    32
  0
VERTEX
  8
AM_VIS
  5
4D2
 10
6.94814
 20
4.07932
 30
0.000000
  70
    32
  0
VERTEX
  8
AM_VIS
  5
4D3
 10
6.95012
 20
4.08000
 30
0.000000
  70
    32
  0
VERTEX
  8
AM_VIS
  5
4D4
 10
6.95209
 20
4.08069
 30
0.000000
  70
    32
  0
VERTEX
  8
AM_VIS
  5
4D5
 10
6.95407
 20
4.08138
 30
0.000000
  70
    32
  0
VERTEX
  8
AM_VIS
  5
4D6
 10
6.95603
 20
4.08209
 30
0.000000
  70
    32
  0
VERTEX
  8
AM_VIS
  5
4D7
 10
6.95800
 20
4.08281
 30
0.000000
  70
    32
  0
VERTEX
  8
AM_VIS
  5
4D8
 10
6.95995
 20
4.08354
 30
0.000000
  70
    32
  0
VERTEX
  8
AM_VIS
  5
4D9
 10
6.96191
 20
4.08429
 30
0.000000
  70
    32
  0
VERTEX
  8
AM_VIS
  5
4DA
 10
6.96386
 20
4.08504
 30
0.000000
  70
    32
  0
VERTEX
  8
AM_VIS
  5
4DB
 10
6.96580
 20
4.08581
 30
0.000000
  70
    32
  0
VERTEX
  8
AM_VIS
  5
4DC
 10
6.96774
 20
4.08659
 30
0.000000
  70
    32
  0
VERTEX
  8
AM_VIS
  5
4DD
 10
6.96968
 20
4.08737
 30
0.000000
  70
    32
  0
VERTEX
  8
AM_VIS
  5
4DE
 10
6.97160
 20
4.08817
 30
0.000000
  70
    32
  0
VERTEX
  8
AM_VIS
  5
4DF
 10
6.97353
 20
4.08898
 30
0.000000
  70
    32
  0
VERTEX
  8
AM_VIS
  5
4E0
 10
6.97545
 20
4.08981
 30
0.000000
  70
    32
  0
VERTEX
  8
AM_VIS
  5
4E1
 10
6.97736
 20
4.09064
 30
0.000000
  70
    32
  0
VERTEX
  8
AM_VIS
  5
4E2
 10
6.97927
 20
4.09148
 30
0.000000
  70
    32
  0
VERTEX
  8
AM_VIS
  5
4E3
 10
6.98117
 20
4.09234
 30
0.000000
  70
    32
  0
VERTEX
  8
AM_VIS
  5
4E4
 10
6.98307
 20
4.09320
 30
0.000000
  70
    32
  0
VERTEX
  8
AM_VIS
  5
4E5
 10
6.98496
 20
4.09408
 30
0.000000
  70
    32
  0
VERTEX
  8
AM_VIS
  5
4E6
 10
6.98685
 20
4.09496
 30
0.000000
  70
    32
  0
VERTEX
  8
AM_VIS
  5
4E7
 10
6.98873
 20
4.09586
 30
0.000000
  70
    32
  0
VERTEX
  8
AM_VIS
  5
4E8
 10
6.99060
 20
4.09676
 30
0.000000
  70
    32
  0
VERTEX
  8
AM_VIS
  5
4E9
 10
6.99247
 20
4.09768
 30
0.000000
  70
    32
  0
VERTEX
  8
AM_VIS
  5
4EA
 10
6.99433
 20
4.09861
 30
0.000000
  70
    32
  0
VERTEX
  8
AM_VIS
  5
4EB
 10
6.99619
 20
4.09954
 30
0.000000
  70
    32
  0
VERTEX
  8
AM_VIS
  5
4EC
 10
6.99804
 20
4.10049
 30
0.000000
  70
    32
  0
VERTEX
  8
AM_VIS
  5
4ED
 10
6.99988
 20
4.10145
 30
0.000000
  70
    32
  0
VERTEX
  8
AM_VIS
  5
4EE
 10
7.00172
 20
4.10241
 30
0.000000
  70
    32
  0
VERTEX
  8
AM_VIS
  5
4EF
 10
7.00355
 20
4.10339
 30
0.000000
  70
    32
  0
VERTEX
  8
AM_VIS
  5
4F0
 10
7.00538
 20
4.10437
 30
0.000000
  70
    32
  0
VERTEX
  8
AM_VIS
  5
4F1
 10
7.00719
 20
4.10537
 30
0.000000
  70
    32
  0
VERTEX
  8
AM_VIS
  5
4F2
 10
7.00900
 20
4.10637
 30
0.000000
  70
    32
  0
VERTEX
  8
AM_VIS
  5
4F3
 10
7.01081
 20
4.10738
 30
0.000000
  70
    32
  0
VERTEX
  8
AM_VIS
  5
4F4
 10
7.01260
 20
4.10841
 30
0.000000
  70
    32
  0
VERTEX
  8
AM_VIS
  5
4F5
 10
7.01439
 20
4.10944
 30
0.000000
  70
    32
  0
VERTEX
  8
AM_VIS
  5
4F6
 10
7.01618
 20
4.11048
 30
0.000000
  70
    32
  0
VERTEX
  8
AM_VIS
  5
4F7
 10
7.01795
 20
4.11153
 30
0.000000
  70
    32
  0
VERTEX
  8
AM_VIS
  5
4F8
 10
7.01972
 20
4.11259
 30
0.000000
  70
    32
  0
VERTEX
  8
AM_VIS
  5
4F9
 10
7.02148
 20
4.11365
 30
0.000000
  70
    32
  0
VERTEX
  8
AM_VIS
  5
4FA
 10
7.02323
 20
4.11473
 30
0.000000
  70
    32
  0
VERTEX
  8
AM_VIS
  5
4FB
 10
7.02498
 20
4.11582
 30
0.000000
  70
    32
  0
VERTEX
  8
AM_VIS
  5
4FC
 10
7.02672
 20
4.11691
 30
0.000000
  70
    32
  0
VERTEX
  8
AM_VIS
  5
4FD
 10
7.02845
 20
4.11801
 30
0.000000
  70
    32
  0
VERTEX
  8
AM_VIS
  5
4FE
 10
7.03017
 20
4.11912
 30
0.000000
  70
    32
  0
VERTEX
  8
AM_VIS
  5
4FF
 10
7.03189
 20
4.12024
 30
0.000000
  70
    32
  0
VERTEX
  8
AM_VIS
  5
500
 10
7.03359
 20
4.12136
 30
0.000000
  70
    32
  0
VERTEX
  8
AM_VIS
  5
501
 10
7.03529
 20
4.12250
 30
0.000000
  70
    32
  0
VERTEX
  8
AM_VIS
  5
502
 10
7.03698
 20
4.12364
 30
0.000000
  70
    32
  0
VERTEX
  8
AM_VIS
  5
503
 10
7.03866
 20
4.12479
 30
0.000000
  70
    32
  0
VERTEX
  8
AM_VIS
  5
504
 10
7.04034
 20
4.12595
 30
0.000000
  70
    32
  0
VERTEX
  8
AM_VIS
  5
505
 10
7.04200
 20
4.12711
 30
0.000000
  70
    32
  0
VERTEX
  8
AM_VIS
  5
506
 10
7.04366
 20
4.12829
 30
0.000000
  70
    32
  0
VERTEX
  8
AM_VIS
  5
507
 10
7.04531
 20
4.12947
 30
0.000000
  70
    32
  0
VERTEX
  8
AM_VIS
  5
508
 10
7.04695
 20
4.13066
 30
0.000000
  70
    32
  0
VERTEX
  8
AM_VIS
  5
509
 10
7.04858
 20
4.13185
 30
0.000000
  70
    32
  0
VERTEX
  8
AM_VIS
  5
50A
 10
7.05020
 20
4.13306
 30
0.000000
  70
    32
  0
VERTEX
  8
AM_VIS
  5
50B
 10
7.05181
 20
4.13427
 30
0.000000
  70
    32
  0
VERTEX
  8
AM_VIS
  5
50C
 10
7.05341
 20
4.13548
 30
0.000000
  70
    32
  0
VERTEX
  8
AM_VIS
  5
50D
 10
7.05501
 20
4.13671
 30
0.000000
  70
    32
  0
VERTEX
  8
AM_VIS
  5
50E
 10
7.05659
 20
4.13794
 30
0.000000
  70
    32
  0
VERTEX
  8
AM_VIS
  5
50F
 10
7.05817
 20
4.13918
 30
0.000000
  70
    32
  0
VERTEX
  8
AM_VIS
  5
510
 10
7.05974
 20
4.14042
 30
0.000000
  70
    32
  0
VERTEX
  8
AM_VIS
  5
511
 10
7.06129
 20
4.14167
 30
0.000000
  70
    32
  0
VERTEX
  8
AM_VIS
  5
512
 10
7.06284
 20
4.14293
 30
0.000000
  70
    32
  0
VERTEX
  8
AM_VIS
  5
513
 10
7.06438
 20
4.14420
 30
0.000000
  70
    32
  0
VERTEX
  8
AM_VIS
  5
514
 10
7.06591
 20
4.14547
 30
0.000000
  70
    32
  0
VERTEX
  8
AM_VIS
  5
515
 10
7.06742
 20
4.14674
 30
0.000000
  70
    32
  0
VERTEX
  8
AM_VIS
  5
516
 10
7.06893
 20
4.14803
 30
0.000000
  70
    32
  0
VERTEX
  8
AM_VIS
  5
517
 10
7.07043
 20
4.14932
 30
0.000000
  70
    32
  0
VERTEX
  8
AM_VIS
  5
518
 10
7.07192
 20
4.15061
 30
0.000000
  70
    32
  0
VERTEX
  8
AM_VIS
  5
519
 10
7.07340
 20
4.15192
 30
0.000000
  70
    32
  0
VERTEX
  8
AM_VIS
  5
51A
 10
7.07487
 20
4.15322
 30
0.000000
  70
    32
  0
VERTEX
  8
AM_VIS
  5
51B
 10
7.07632
 20
4.15454
 30
0.000000
  70
    32
  0
VERTEX
  8
AM_VIS
  5
51C
 10
7.07777
 20
4.15586
 30
0.000000
  70
    32
  0
VERTEX
  8
AM_VIS
  5
51D
 10
7.07921
 20
4.15718
 30
0.000000
  70
    32
  0
VERTEX
  8
AM_VIS
  5
51E
 10
7.08063
 20
4.15851
 30
0.000000
  70
    32
  0
VERTEX
  8
AM_VIS
  5
51F
 10
7.08205
 20
4.15985
 30
0.000000
  70
    32
  0
VERTEX
  8
AM_VIS
  5
520
 10
7.08347
 20
4.16121
 30
0.000000
  70
    32
  0
VERTEX
  8
AM_VIS
  5
521
 10
7.08488
 20
4.16257
 30
0.000000
  70
    32
  0
VERTEX
  8
AM_VIS
  5
522
 10
7.08629
 20
4.16395
 30
0.000000
  70
    32
  0
VERTEX
  8
AM_VIS
  5
523
 10
7.08769
 20
4.16533
 30
0.000000
  70
    32
  0
VERTEX
  8
AM_VIS
  5
524
 10
7.08908
 20
4.16673
 30
0.000000
  70
    32
  0
VERTEX
  8
AM_VIS
  5
525
 10
7.09047
 20
4.16813
 30
0.000000
  70
    32
  0
VERTEX
  8
AM_VIS
  5
526
 10
7.09186
 20
4.16955
 30
0.000000
  70
    32
  0
VERTEX
  8
AM_VIS
  5
527
 10
7.09324
 20
4.17097
 30
0.000000
  70
    32
  0
VERTEX
  8
AM_VIS
  5
528
 10
7.09461
 20
4.17241
 30
0.000000
  70
    32
  0
VERTEX
  8
AM_VIS
  5
529
 10
7.09597
 20
4.17386
 30
0.000000
  70
    32
  0
VERTEX
  8
AM_VIS
  5
52A
 10
7.09734
 20
4.17531
 30
0.000000
  70
    32
  0
VERTEX
  8
AM_VIS
  5
52B
 10
7.09869
 20
4.17678
 30
0.000000
  70
    32
  0
VERTEX
  8
AM_VIS
  5
52C
 10
7.10004
 20
4.17826
 30
0.000000
  70
    32
  0
VERTEX
  8
AM_VIS
  5
52D
 10
7.10138
 20
4.17974
 30
0.000000
  70
    32
  0
VERTEX
  8
AM_VIS
  5
52E
 10
7.10271
 20
4.18124
 30
0.000000
  70
    32
  0
VERTEX
  8
AM_VIS
  5
52F
 10
7.10404
 20
4.18274
 30
0.000000
  70
    32
  0
VERTEX
  8
AM_VIS
  5
530
 10
7.10536
 20
4.18426
 30
0.000000
  70
    32
  0
VERTEX
  8
AM_VIS
  5
531
 10
7.10668
 20
4.18578
 30
0.000000
  70
    32
  0
VERTEX
  8
AM_VIS
  5
532
 10
7.10798
 20
4.18732
 30
0.000000
  70
    32
  0
VERTEX
  8
AM_VIS
  5
533
 10
7.10928
 20
4.18886
 30
0.000000
  70
    32
  0
VERTEX
  8
AM_VIS
  5
534
 10
7.11058
 20
4.19041
 30
0.000000
  70
    32
  0
VERTEX
  8
AM_VIS
  5
535
 10
7.11186
 20
4.19197
 30
0.000000
  70
    32
  0
VERTEX
  8
AM_VIS
  5
536
 10
7.11314
 20
4.19354
 30
0.000000
  70
    32
  0
VERTEX
  8
AM_VIS
  5
537
 10
7.11441
 20
4.19512
 30
0.000000
  70
    32
  0
VERTEX
  8
AM_VIS
  5
538
 10
7.11567
 20
4.19671
 30
0.000000
  70
    32
  0
VERTEX
  8
AM_VIS
  5
539
 10
7.11693
 20
4.19831
 30
0.000000
  70
    32
  0
VERTEX
  8
AM_VIS
  5
53A
 10
7.11818
 20
4.19992
 30
0.000000
  70
    32
  0
VERTEX
  8
AM_VIS
  5
53B
 10
7.11942
 20
4.20153
 30
0.000000
  70
    32
  0
VERTEX
  8
AM_VIS
  5
53C
 10
7.12065
 20
4.20315
 30
0.000000
  70
    32
  0
VERTEX
  8
AM_VIS
  5
53D
 10
7.12187
 20
4.20479
 30
0.000000
  70
    32
  0
VERTEX
  8
AM_VIS
  5
53E
 10
7.12309
 20
4.20643
 30
0.000000
  70
    32
  0
VERTEX
  8
AM_VIS
  5
53F
 10
7.12430
 20
4.20808
 30
0.000000
  70
    32
  0
VERTEX
  8
AM_VIS
  5
540
 10
7.12549
 20
4.20973
 30
0.000000
  70
    32
  0
VERTEX
  8
AM_VIS
  5
541
 10
7.12668
 20
4.21140
 30
0.000000
  70
    32
  0
VERTEX
  8
AM_VIS
  5
542
 10
7.12787
 20
4.21307
 30
0.000000
  70
    32
  0
VERTEX
  8
AM_VIS
  5
543
 10
7.12904
 20
4.21475
 30
0.000000
  70
    32
  0
VERTEX
  8
AM_VIS
  5
544
 10
7.13020
 20
4.21644
 30
0.000000
  70
    32
  0
VERTEX
  8
AM_VIS
  5
545
 10
7.13136
 20
4.21814
 30
0.000000
  70
    32
  0
VERTEX
  8
AM_VIS
  5
546
 10
7.13250
 20
4.21984
 30
0.000000
  70
    32
  0
VERTEX
  8
AM_VIS
  5
547
 10
7.13364
 20
4.22156
 30
0.000000
  70
    32
  0
VERTEX
  8
AM_VIS
  5
548
 10
7.13477
 20
4.22328
 30
0.000000
  70
    32
  0
VERTEX
  8
AM_VIS
  5
549
 10
7.13588
 20
4.22501
 30
0.000000
  70
    32
  0
VERTEX
  8
AM_VIS
  5
54A
 10
7.13699
 20
4.22674
 30
0.000000
  70
    32
  0
VERTEX
  8
AM_VIS
  5
54B
 10
7.13809
 20
4.22848
 30
0.000000
  70
    32
  0
VERTEX
  8
AM_VIS
  5
54C
 10
7.13918
 20
4.23023
 30
0.000000
  70
    32
  0
VERTEX
  8
AM_VIS
  5
54D
 10
7.14026
 20
4.23199
 30
0.000000
  70
    32
  0
VERTEX
  8
AM_VIS
  5
54E
 10
7.14133
 20
4.23376
 30
0.000000
  70
    32
  0
VERTEX
  8
AM_VIS
  5
54F
 10
7.14239
 20
4.23553
 30
0.000000
  70
    32
  0
VERTEX
  8
AM_VIS
  5
550
 10
7.14343
 20
4.23731
 30
0.000000
  70
    32
  0
VERTEX
  8
AM_VIS
  5
551
 10
7.14447
 20
4.23909
 30
0.000000
  70
    32
  0
VERTEX
  8
AM_VIS
  5
552
 10
7.14550
 20
4.24089
 30
0.000000
  70
    32
  0
VERTEX
  8
AM_VIS
  5
553
 10
7.14652
 20
4.24269
 30
0.000000
  70
    32
  0
VERTEX
  8
AM_VIS
  5
554
 10
7.14753
 20
4.24449
 30
0.000000
  70
    32
  0
VERTEX
  8
AM_VIS
  5
555
 10
7.14852
 20
4.24630
 30
0.000000
  70
    32
  0
VERTEX
  8
AM_VIS
  5
556
 10
7.14951
 20
4.24812
 30
0.000000
  70
    32
  0
VERTEX
  8
AM_VIS
  5
557
 10
7.15048
 20
4.24995
 30
0.000000
  70
    32
  0
VERTEX
  8
AM_VIS
  5
558
 10
7.15145
 20
4.25178
 30
0.000000
  70
    32
  0
VERTEX
  8
AM_VIS
  5
559
 10
7.15240
 20
4.25362
 30
0.000000
  70
    32
  0
VERTEX
  8
AM_VIS
  5
55A
 10
7.15334
 20
4.25547
 30
0.000000
  70
    32
  0
VERTEX
  8
AM_VIS
  5
55B
 10
7.15427
 20
4.25732
 30
0.000000
  70
    32
  0
VERTEX
  8
AM_VIS
  5
55C
 10
7.15519
 20
4.25917
 30
0.000000
  70
    32
  0
VERTEX
  8
AM_VIS
  5
55D
 10
7.15610
 20
4.26104
 30
0.000000
  70
    32
  0
VERTEX
  8
AM_VIS
  5
55E
 10
7.15699
 20
4.26291
 30
0.000000
  70
    32
  0
VERTEX
  8
AM_VIS
  5
55F
 10
7.15788
 20
4.26478
 30
0.000000
  70
    32
  0
VERTEX
  8
AM_VIS
  5
560
 10
7.15875
 20
4.26666
 30
0.000000
  70
    32
  0
VERTEX
  8
AM_VIS
  5
561
 10
7.15961
 20
4.26855
 30
0.000000
  70
    32
  0
VERTEX
  8
AM_VIS
  5
562
 10
7.16046
 20
4.27044
 30
0.000000
  70
    32
  0
VERTEX
  8
AM_VIS
  5
563
 10
7.16129
 20
4.27234
 30
0.000000
  70
    32
  0
VERTEX
  8
AM_VIS
  5
564
 10
7.16212
 20
4.27424
 30
0.000000
  70
    32
  0
VERTEX
  8
AM_VIS
  5
565
 10
7.16293
 20
4.27615
 30
0.000000
  70
    32
  0
VERTEX
  8
AM_VIS
  5
566
 10
7.16373
 20
4.27806
 30
0.000000
  70
    32
  0
VERTEX
  8
AM_VIS
  5
567
 10
7.16451
 20
4.27998
 30
0.000000
  70
    32
  0
VERTEX
  8
AM_VIS
  5
568
 10
7.16529
 20
4.28190
 30
0.000000
  70
    32
  0
VERTEX
  8
AM_VIS
  5
569
 10
7.16605
 20
4.28383
 30
0.000000
  70
    32
  0
VERTEX
  8
AM_VIS
  5
56A
 10
7.16680
 20
4.28577
 30
0.000000
  70
    32
  0
VERTEX
  8
AM_VIS
  5
56B
 10
7.16754
 20
4.28770
 30
0.000000
  70
    32
  0
VERTEX
  8
AM_VIS
  5
56C
 10
7.16827
 20
4.28965
 30
0.000000
  70
    32
  0
VERTEX
  8
AM_VIS
  5
56D
 10
7.16898
 20
4.29159
 30
0.000000
  70
    32
  0
VERTEX
  8
AM_VIS
  5
56E
 10
7.16968
 20
4.29354
 30
0.000000
  70
    32
  0
VERTEX
  8
AM_VIS
  5
56F
 10
7.17037
 20
4.29550
 30
0.000000
  70
    32
  0
VERTEX
  8
AM_VIS
  5
570
 10
7.17105
 20
4.29745
 30
0.000000
  70
    32
  0
VERTEX
  8
AM_VIS
  5
571
 10
7.17171
 20
4.29942
 30
0.000000
  70
    32
  0
VERTEX
  8
AM_VIS
  5
572
 10
7.17236
 20
4.30138
 30
0.000000
  70
    32
  0
VERTEX
  8
AM_VIS
  5
573
 10
7.17300
 20
4.30335
 30
0.000000
  70
    32
  0
VERTEX
  8
AM_VIS
  5
574
 10
7.17363
 20
4.30532
 30
0.000000
  70
    32
  0
VERTEX
  8
AM_VIS
  5
575
 10
7.17425
 20
4.30730
 30
0.000000
  70
    32
  0
VERTEX
  8
AM_VIS
  5
576
 10
7.17485
 20
4.30928
 30
0.000000
  70
    32
  0
VERTEX
  8
AM_VIS
  5
577
 10
7.17544
 20
4.31126
 30
0.000000
  70
    32
  0
VERTEX
  8
AM_VIS
  5
578
 10
7.17602
 20
4.31325
 30
0.000000
  70
    32
  0
VERTEX
  8
AM_VIS
  5
579
 10
7.17659
 20
4.31523
 30
0.000000
  70
    32
  0
VERTEX
  8
AM_VIS
  5
57A
 10
7.17714
 20
4.31722
 30
0.000000
  70
    32
  0
VERTEX
  8
AM_VIS
  5
57B
 10
7.17768
 20
4.31922
 30
0.000000
  70
    32
  0
VERTEX
  8
AM_VIS
  5
57C
 10
7.17821
 20
4.32121
 30
0.000000
  70
    32
  0
VERTEX
  8
AM_VIS
  5
57D
 10
7.17873
 20
4.32321
 30
0.000000
  70
    32
  0
VERTEX
  8
AM_VIS
  5
57E
 10
7.17923
 20
4.32521
 30
0.000000
  70
    32
  0
VERTEX
  8
AM_VIS
  5
57F
 10
7.17973
 20
4.32721
 30
0.000000
  70
    32
  0
VERTEX
  8
AM_VIS
  5
580
 10
7.18021
 20
4.32921
 30
0.000000
  70
    32
  0
VERTEX
  8
AM_VIS
  5
581
 10
7.18067
 20
4.33122
 30
0.000000
  70
    32
  0
VERTEX
  8
AM_VIS
  5
582
 10
7.18113
 20
4.33323
 30
0.000000
  70
    32
  0
VERTEX
  8
AM_VIS
  5
583
 10
7.18157
 20
4.33523
 30
0.000000
  70
    32
  0
VERTEX
  8
AM_VIS
  5
584
 10
7.18200
 20
4.33724
 30
0.000000
  70
    32
  0
VERTEX
  8
AM_VIS
  5
585
 10
7.18242
 20
4.33925
 30
0.000000
  70
    32
  0
VERTEX
  8
AM_VIS
  5
586
 10
7.18283
 20
4.34127
 30
0.000000
  70
    32
  0
VERTEX
  8
AM_VIS
  5
587
 10
7.18322
 20
4.34328
 30
0.000000
  70
    32
  0
VERTEX
  8
AM_VIS
  5
588
 10
7.18360
 20
4.34529
 30
0.000000
  70
    32
  0
VERTEX
  8
AM_VIS
  5
589
 10
7.18397
 20
4.34731
 30
0.000000
  70
    32
  0
VERTEX
  8
AM_VIS
  5
58A
 10
7.18433
 20
4.34932
 30
0.000000
  70
    32
  0
VERTEX
  8
AM_VIS
  5
58B
 10
7.18467
 20
4.35134
 30
0.000000
  70
    32
  0
VERTEX
  8
AM_VIS
  5
58C
 10
7.18500
 20
4.35335
 30
0.000000
  70
    32
  0
VERTEX
  8
AM_VIS
  5
58D
 10
7.18532
 20
4.35537
 30
0.000000
  70
    32
  0
VERTEX
  8
AM_VIS
  5
58E
 10
7.18563
 20
4.35738
 30
0.000000
  70
    32
  0
VERTEX
  8
AM_VIS
  5
58F
 10
7.18592
 20
4.35940
 30
0.000000
  70
    32
  0
VERTEX
  8
AM_VIS
  5
590
 10
7.18620
 20
4.36141
 30
0.000000
  70
    32
  0
VERTEX
  8
AM_VIS
  5
591
 10
7.18647
 20
4.36343
 30
0.000000
  70
    32
  0
VERTEX
  8
AM_VIS
  5
592
 10
7.18673
 20
4.36544
 30
0.000000
  70
    32
  0
VERTEX
  8
AM_VIS
  5
593
 10
7.18697
 20
4.36746
 30
0.000000
  70
    32
  0
VERTEX
  8
AM_VIS
  5
594
 10
7.18720
 20
4.36947
 30
0.000000
  70
    32
  0
VERTEX
  8
AM_VIS
  5
595
 10
7.18742
 20
4.37148
 30
0.000000
  70
    32
  0
VERTEX
  8
AM_VIS
  5
596
 10
7.18763
 20
4.37349
 30
0.000000
  70
    32
  0
VERTEX
  8
AM_VIS
  5
597
 10
7.18782
 20
4.37550
 30
0.000000
  70
    32
  0
VERTEX
  8
AM_VIS
  5
598
 10
7.18801
 20
4.37751
 30
0.000000
  70
    32
  0
VERTEX
  8
AM_VIS
  5
599
 10
7.18817
 20
4.37952
 30
0.000000
  70
    32
  0
VERTEX
  8
AM_VIS
  5
59A
 10
7.18833
 20
4.38153
 30
0.000000
  70
    32
  0
VERTEX
  8
AM_VIS
  5
59B
 10
7.18848
 20
4.38353
 30
0.000000
  70
    32
  0
VERTEX
  8
AM_VIS
  5
59C
 10
7.18861
 20
4.38554
 30
0.000000
  70
    32
  0
VERTEX
  8
AM_VIS
  5
59D
 10
7.18873
 20
4.38754
 30
0.000000
  70
    32
  0
VERTEX
  8
AM_VIS
  5
59E
 10
7.18883
 20
4.38954
 30
0.000000
  70
    32
  0
VERTEX
  8
AM_VIS
  5
59F
 10
7.18893
 20
4.39153
 30
0.000000
  70
    32
  0
VERTEX
  8
AM_VIS
  5
5A0
 10
7.18901
 20
4.39353
 30
0.000000
  70
    32
  0
VERTEX
  8
AM_VIS
  5
5A1
 10
7.18908
 20
4.39552
 30
0.000000
  70
    32
  0
VERTEX
  8
AM_VIS
  5
5A2
 10
7.18913
 20
4.39751
 30
0.000000
  70
    32
  0
VERTEX
  8
AM_VIS
  5
5A3
 10
7.18918
 20
4.39950
 30
0.000000
  70
    32
  0
VERTEX
  8
AM_VIS
  5
5A4
 10
7.18921
 20
4.40148
 30
0.000000
  70
    32
  0
VERTEX
  8
AM_VIS
  5
5A5
 10
7.18923
 20
4.40346
 30
0.000000
  70
    32
  0
VERTEX
  8
AM_VIS
  5
5A6
 10
7.18924
 20
4.40544
 30
0.000000
  70
    32
  0
SEQEND
  8
AM_VIS
  5
5A7
  0
LINE
  5
2B
  8
AM_VIS
 10
6.9883517831731394
 20
4.4982446919855006
 30
0.0
 11
6.9883517831731394
 21
4.3126366068970494
 31
0.0
  0
LINE
  5
2C
  8
AM_VIS
 10
6.827610466338756
 20
4.5910487345297266
 30
0.0
 11
6.9883517831731394
 21
4.4982446919855006
 31
0.0
  0
LINE
  5
2D
  8
AM_VIS
 10
6.6668691495043717
 20
4.4982446919855006
 30
0.0
 11
6.827610466338756
 21
4.5910487345297266
 31
0.0
  0
LINE
  5
2E
  8
AM_VIS
 10
6.6668691495043717
 20
4.3126366068970494
 30
0.0
 11
6.6668691495043717
 21
4.4982446919855006
 31
0.0
  0
LINE
  5
2F
  8
AM_VIS
 10
6.827610466338756
 20
4.2198325643528216
 30
0.0
 11
6.6668691495043717
 21
4.3126366068970494
 31
0.0
  0
LINE
  5
30
  8
AM_VIS
 10
6.9883517831731394
 20
4.3126366068970476
 30
0.0
 11
6.827610466338756
 21
4.2198325643528216
 31
0.0
  0
CIRCLE
  5
31
  8
AM_VIS
 10
6.827610466338756
 20
4.4054406494412737
 30
0.0
 40
0.3125
  0
LINE
  5
32
  8
AM_VIS
 10
5.6844241298213891
 20
3.4054406494412728
 30
0.0
 11
5.6776104663387548
 21
3.4054406494412728
 31
0.0
  0
LINE
  5
33
  8
AM_VIS
 10
5.6844241298213891
 20
5.4054406494412737
 30
0.0
 11
5.6776104663387557
 21
5.4054406494412737
 31
0.0
  0
LINE
  5
34
  8
AM_VIS
 10
4.8252118107608561
 20
5.2290662391415994
 30
0.0
 11
5.6776104663387574
 21
5.4054406494412737
 31
0.0
  0
ARC
  5
35
  8
AM_VIS
 10
4.7776104663387571
 20
4.4054406494412737
 30
0.0
 40
0.825
 50
86.692276736306894
 51
273.30772326369299
  0
LINE
  5
36
  8
AM_VIS
 10
5.6776104663387548
 20
3.4054406494412741
 30
0.0
 11
4.8252118107608526
 21
3.5818150597409479
 31
0.0
  0
CIRCLE
  5
37
  8
AM_VIS
 10
4.702610466338756
 20
4.4054406494412737
 30
0.0
 40
0.1875
  0
LINE
  5
38
  8
AM_VIS
 10
7.9776104663387573
 20
5.4054406494412737
 30
0.0
 11
7.9776104663387573
 21
3.4054406494412741
 31
0.0
  0
LINE
  5
39
  8
AM_HID
 10
7.7776104663387571
 20
5.4054406494412737
 30
0.0
 11
7.7776104663387571
 21
3.4054406494412741
 31
0.0
  0
LINE
  5
3C
  8
AM_HID
 10
5.8776104663387558
 20
5.4054406494412737
 30
0.0
 11
5.8776104663387558
 21
3.4054406494412741
 31
0.0
  0
LINE
  5
13F
  8
0
 10
8.0401104663387581
 20
5.4054406494412737
 30
0.0
 11
8.9930196458388512
 21
5.4054406494412737
 31
0.0
  0
LINE
  5
140
  8
0
 10
8.0401104663387564
 20
3.4054406494412741
 30
0.0
 11
8.9930196458388512
 21
3.4054406494412741
 31
0.0
  0
LINE
  5
141
  8
0
 10
8.8130196458388532
 20
5.2804406494412737
 30
0.0
 11
8.8130196458388532
 21
4.74990493515556
 31
0.0
  0
LINE
  5
142
  8
0
 10
8.8130196458388514
 20
3.5304406494412741
 30
0.0
 11
8.8130196458388532
 21
4.0609763637269891
 31
0.0
  0
SOLID
  5
143
  8
0
 10
8.7921863125055193
 20
5.2804406494412737
 30
0.0
 11
8.8338529791721871
 21
5.2804406494412737
 31
0.0
 12
8.8130196458388532
 22
5.4054406494412737
 32
0.0
 13
8.8130196458388532
 23
5.4054406494412737
 33
0.0
  0
SOLID
  5
144
  8
0
 10
8.7921863125055175
 20
3.5304406494412741
 30
0.0
 11
8.8338529791721854
 21
3.5304406494412741
 31
0.0
 12
8.8130196458388514
 22
3.4054406494412741
 32
0.0
 13
8.8130196458388514
 23
3.4054406494412741
 33
0.0
  0
INSERT
  5
145
  8
0
  2
*U2
 10
0.0
 20
0.0
 30
0.0
  0
ENDSEC
  0
EOF
