  0
SECTION
  2
HEADER
  9
$ACADVER
  1
AC1009
  9
$INSBASE
 10
0.0
 20
0.0
 30
0.0
  9
$EXTMIN
 10
-0.3098244862986617
 20
1.334852073648287
 30
0.0
  9
$EXTMAX
 10
7.3279537070461496
 20
6.4417005446945854
 30
0.0
  9
$LIMMIN
 10
0.0
 20
0.0
  9
$LIMMAX
 10
12.0
 20
9.0
  9
$ORTHOMODE
 70
     1
  9
$REGENMODE
 70
     0
  9
$FILLMODE
 70
     1
  9
$QTEXTMODE
 70
     0
  9
$MIRRTEXT
 70
     0
  9
$DRAGMODE
 70
     2
  9
$LTSCALE
 40
1.0
  9
$OSMODE
 70
    55
  9
$ATTMODE
 70
     1
  9
$TEXTSIZE
 40
0.12
  9
$TRACEWID
 40
0.05
  9
$TEXTSTYLE
  7
ADESK1
  9
$CLAYER
  8
0
  9
$CELTYPE
  6
BYLAYER
  9
$CECOLOR
 62
   256
  9
$DIMSCALE
 40
1.0
  9
$DIMASZ
 40
0.125
  9
$DIMEXO
 40
0.0625
  9
$DIMDLI
 40
0.38
  9
$DIMRND
 40
0.0
  9
$DIMDLE
 40
0.0
  9
$DIMEXE
 40
0.18
  9
$DIMTP
 40
0.0
  9
$DIMTM
 40
0.0
  9
$DIMTXT
 40
0.09375
  9
$DIMCEN
 40
-0.125
  9
$DIMTSZ
 40
0.0
  9
$DIMTOL
 70
     0
  9
$DIMLIM
 70
     0
  9
$DIMTIH
 70
     0
  9
$DIMTOH
 70
     0
  9
$DIMSE1
 70
     0
  9
$DIMSE2
 70
     0
  9
$DIMTAD
 70
     0
  9
$DIMZIN
 70
     3
  9
$DIMBLK
  1

  9
$DIMASO
 70
     0
  9
$DIMSHO
 70
     1
  9
$DIMPOST
  1

  9
$DIMAPOST
  1

  9
$DIMALT
 70
     0
  9
$DIMALTD
 70
     2
  9
$DIMALTF
 40
25.399999999999999
  9
$DIMLFAC
 40
1.0
  9
$DIMTOFL
 70
     1
  9
$DIMTVP
 40
0.0
  9
$DIMTIX
 70
     0
  9
$DIMSOXD
 70
     0
  9
$DIMSAH
 70
     0
  9
$DIMBLK1
  1

  9
$DIMBLK2
  1

  9
$DIMSTYLE
  2
STANDARD
  9
$DIMCLRD
 70
     0
  9
$DIMCLRE
 70
     0
  9
$DIMCLRT
 70
     0
  9
$DIMTFAC
 40
1.0
  9
$DIMGAP
 40
0.09
  9
$LUNITS
 70
     4
  9
$LUPREC
 70
     4
  9
$SKETCHINC
 40
0.1
  9
$FILLETRAD
 40
0.0
  9
$AUNITS
 70
     0
  9
$AUPREC
 70
     4
  9
$MENU
  1
.
  9
$ELEVATION
 40
0.0
  9
$PELEVATION
 40
0.0
  9
$THICKNESS
 40
0.0
  9
$LIMCHECK
 70
     0
  9
$BLIPMODE
 70
     0
  9
$CHAMFERA
 40
0.5
  9
$CHAMFERB
 40
0.5
  9
$SKPOLY
 70
     0
  9
$TDCREATE
 40
2451065.3838062501
  9
$TDUPDATE
 40
2453913.5785044669
  9
$TDINDWG
 40
0.0382090394
  9
$TDUSRTIMER
 40
0.0382090394
  9
$USRTIMER
 70
     1
  9
$ANGBASE
 50
0.0
  9
$ANGDIR
 70
     0
  9
$PDMODE
 70
    34
  9
$PDSIZE
 40
3.0
  9
$PLINEWID
 40
0.0
  9
$COORDS
 70
     1
  9
$SPLFRAME
 70
     0
  9
$SPLINETYPE
 70
     6
  9
$SPLINESEGS
 70
     8
  9
$ATTDIA
 70
     0
  9
$ATTREQ
 70
     1
  9
$HANDLING
 70
     1
  9
$HANDSEED
  5
AAD
  9
$SURFTAB1
 70
     6
  9
$SURFTAB2
 70
     6
  9
$SURFTYPE
 70
     6
  9
$SURFU
 70
     6
  9
$SURFV
 70
     6
  9
$UCSNAME
  2

  9
$UCSORG
 10
0.0
 20
0.0
 30
0.0
  9
$UCSXDIR
 10
1.0
 20
0.0
 30
0.0
  9
$UCSYDIR
 10
0.0
 20
1.0
 30
0.0
  9
$PUCSNAME
  2

  9
$PUCSORG
 10
0.0
 20
0.0
 30
0.0
  9
$PUCSXDIR
 10
1.0
 20
0.0
 30
0.0
  9
$PUCSYDIR
 10
0.0
 20
1.0
 30
0.0
  9
$USERI1
 70
     0
  9
$USERI2
 70
     0
  9
$USERI3
 70
     0
  9
$USERI4
 70
     0
  9
$USERI5
 70
     0
  9
$USERR1
 40
0.0
  9
$USERR2
 40
0.0
  9
$USERR3
 40
0.0
  9
$USERR4
 40
0.0
  9
$USERR5
 40
0.0
  9
$WORLDVIEW
 70
     1
  9
$SHADEDGE
 70
     3
  9
$SHADEDIF
 70
    70
  9
$TILEMODE
 70
     1
  9
$MAXACTVP
 70
    48
  9
$PLIMCHECK
 70
     0
  9
$PEXTMIN
 10
-1.2568086155789151
 20
1.7476424931492569
 30
-0.0015258207003583
  9
$PEXTMAX
 10
7.9747585635105187
 20
7.0984037517906939
 30
0.0000000349246037
  9
$PLIMMIN
 10
-0.1579164520023376
 20
-0.2812499887361301
  9
$PLIMMAX
 10
10.84208330770177
 20
8.2187497709679782
  9
$UNITMODE
 70
     0
  9
$VISRETAIN
 70
     1
  9
$PLINEGEN
 70
     0
  9
$PSLTSCALE
 70
     1
  0
ENDSEC
  0
SECTION
  2
TABLES
  0
TABLE
  2
VPORT
 70
     2
  0
VPORT
  2
*ACTIVE
 70
     0
 10
0.0
 20
0.0
 11
1.0
 21
1.0
 12
2.8275339491496432
 22
1.1635213348517011
 13
0.0
 23
0.0
 14
0.5
 24
0.5
 15
0.5
 25
0.5
 16
0.0
 26
0.0
 36
1.0
 17
4.9857001396837601
 27
3.3364786651482978
 37
0.0
 40
9.3364485981308398
 41
2.2641129032258061
 42
50.0
 43
0.0
 44
0.0
 50
0.0
 51
0.0
 71
     0
 72
   100
 73
     1
 74
     1
 75
     0
 76
     0
 77
     0
 78
     0
  0
ENDTAB
  0
TABLE
  2
LTYPE
 70
    18
  0
LTYPE
  2
CONTINUOUS
 70
     0
  3
Solid line
 72
    65
 73
     0
 40
0.0
  0
LTYPE
  2
HIDDEN
 70
     0
  3
__ __ __ __ __ __ __ __ __ __ __ __ __ __ __ __
 72
    65
 73
     2
 40
0.375
 49
0.25
 49
-0.125
  0
LTYPE
  2
PHANTOM2
 70
     0
  3
Phantom (.5x) ___ _ _ ___ _ _ ___ _ _ ___ _ _
 72
    65
 73
     6
 40
1.25
 49
0.625
 49
-0.125
 49
0.125
 49
-0.125
 49
0.125
 49
-0.125
  0
LTYPE
  2
CENTER
 70
     0
  3
Center ____ _ ____ _ ____ _ ____ _ ____ _ ____
 72
    65
 73
     4
 40
2.0
 49
1.25
 49
-0.25
 49
0.25
 49
-0.25
  0
LTYPE
  2
ASULTYPE
 70
     0
  3
Solid line
 72
    65
 73
     2
 40
3.0
 49
2.5
 49
0.5
  0
LTYPE
  2
ASVLTYPE
 70
     0
  3
__ __ __ __ __ __ __ __ __ __ __ __ __ __ __ __ __ __ __ __ __
 72
    65
 73
     2
 40
0.75
 49
0.5
 49
-0.25
  0
LTYPE
  2
AM_ISO02W050
 70
     0
  3
__ __ __ __ __ __ __ __ __ __ __ __ __ __ __
 72
    65
 73
     2
 40
7.5
 49
6.0
 49
-1.5
  0
LTYPE
  2
AM_ISO08W050
 70
     0
  3
____ . ____ . ____ . ____ . ____ . ____ . ____
 72
    65
 73
     4
 40
18.0
 49
12.0
 49
-1.5
 49
3.0
 49
-1.5
  0
LTYPE
  2
AM_ISO09W050
 70
     0
  3
_____ . . _____ . . _____ . . ____ .. ____
 72
    65
 73
     6
 40
22.5
 49
12.0
 49
-1.5
 49
3.0
 49
-1.5
 49
3.0
 49
-1.5
  0
LTYPE
  2
AMCONSTR
 70
     0
  3
_______________________
 72
    65
 73
     2
 40
9999.0
 49
9999.0
 49
0.0
  0
LTYPE
  2
AM_ISO08W050X2
 70
     0
  3
__ . __ . __ . __ . __ . __
 72
    65
 73
     4
 40
9.0
 49
6.0
 49
-0.75
 49
1.5
 49
-0.75
  0
LTYPE
  2
AM_ISO02W050X2
 70
     0
  3
 _ _ _ _ _ _ _ _ _ _ _ _
 72
    65
 73
     2
 40
3.75
 49
3.0
 49
-0.75
  0
LTYPE
  2
AMZIGZAG
 70
     0
  3
/\/-/\/-/\/-/\/-/\/-/\/
 72
    65
 73
     2
 40
11.0001
 49
0.0001
 49
-11.0
  0
LTYPE
  2
CENTER2
 70
     0
  3
Center (.5x) ___ _ ___ _ ___ _ ___ _ ___ _ ___
 72
    65
 73
     4
 40
1.125
 49
0.75
 49
-0.125
 49
0.125
 49
-0.125
  0
LTYPE
  2
HIDDEN2
 70
     0
  3
Hidden (.5x) _ _ _ _ _ _ _ _ _ _ _ _ _ _ _ _ _
 72
    65
 73
     2
 40
0.1875
 49
0.125
 49
-0.0625
  0
LTYPE
  2
AMZIGZAG2
 70
     0
  3
/\/-/\/-/\/-/\/-/\/-/\/
 72
    65
 73
     2
 40
0.4401
 49
0.0001
 49
-0.4400000000000001
  0
LTYPE
  2
ACANSTGB
 70
     0
  3
__ . . __ . .
 72
    65
 73
     6
 40
0.35433070866
 49
0.15748031496
 49
-0.03937007874
 49
0.03937007874
 49
-0.03937007874
 49
0.03937007874
 49
-0.03937007874
  0
LTYPE
  2
ACANSTGL
 70
     0
  3
_ _ _ _ _
 72
    65
 73
     2
 40
0.11811023622
 49
0.07874015748
 49
-0.03937007874
  0
ENDTAB
  0
TABLE
  2
LAYER
 70
     4
  0
LAYER
  2
0
 70
     0
 62
     7
  6
CONTINUOUS
  0
LAYER
  2
AM_VIS
 70
     0
 62
     7
  6
CONTINUOUS
  0
LAYER
  2
AM_HID
 70
     0
 62
     7
  6
HIDDEN
  0
LAYER
  2
KEE10
 70
     0
 62
     7
  6
CONTINUOUS
  0
ENDTAB
  0
TABLE
  2
STYLE
 70
     6
  0
STYLE
  2
STANDARD
 70
     0
 40
0.0
 41
1.0
 50
0.0
 71
     0
 42
0.2
  3
txt
  4

  0
STYLE
  2
ADESK1
 70
     0
 40
0.0
 41
1.0
 50
0.0
 71
     0
 42
0.12
  3
romans.shx
  4

  0
STYLE
  2

 70
     1
 40
0.0
 41
1.0
 50
0.0
 71
     0
 42
0.12
  3
ltypeshp.shx
  4

  0
STYLE
  2
ACANSTS
 70
     0
 40
1.0
 41
1.0
 50
0.0
 71
     0
 42
0.12
  3
romans.shx
  4

  0
STYLE
  2
ACANSGDT
 70
     0
 40
0.0
 41
1.0
 50
0.0
 71
     0
 42
0.12
  3
amgdtans.shx
  4

  0
STYLE
  2
ACANSTSB
 70
     0
 40
1.0
 41
1.0
 50
0.0
 71
     0
 42
0.2
  3
romans.shx
  4

  0
ENDTAB
  0
TABLE
  2
VIEW
 70
     0
  0
ENDTAB
  0
TABLE
  2
UCS
 70
     0
  0
ENDTAB
  0
TABLE
  2
APPID
 70
    13
  0
APPID
  2
ACAD
 70
     0
  0
APPID
  2
GENIUS_GENDIM_13
 70
     0
  0
APPID
  2
GENIUS_GENDTOL_13
 70
     0
  0
APPID
  2
GENIUS_GE3DTOL_13
 70
     0
  0
APPID
  2
MCAD_NO_VIS
 70
     0
  0
APPID
  2
ACAD_TEMP_GRAPHIC
 70
     0
  0
APPID
  2
AD_DRAW
 70
     0
  0
APPID
  2
ACATTRIBSERVICES
 70
     0
  0
APPID
  2
ASURF_PCURVE_APPNAME
 70
     0
  0
APPID
  2
AMG_3D2D_5_0
 70
     0
  0
APPID
  2
DESIGNERASSEMBLIES
 70
     0
  0
APPID
  2
ACADM_DIM_EDIT
 70
     0
  0
APPID
  2
AMDT_DM_ADJ
 70
     0
  0
ENDTAB
  0
TABLE
  2
DIMSTYLE
 70
     7
  0
DIMSTYLE
  2
STANDARD
 70
     0
  3

  4

  5

  6

  7

 40
1.0
 41
0.18
 42
0.0625
 43
0.38
 44
0.18
 45
0.0
 46
0.0
 47
0.0
 48
0.0
140
0.18
141
0.09
142
0.0
143
25.399999999999999
144
1.0
145
0.0
146
1.0
147
0.09
 71
     0
 72
     0
 73
     1
 74
     1
 75
     0
 76
     0
 77
     0
 78
     0
170
     0
171
     2
172
     0
173
     0
174
     0
175
     0
176
     0
177
     0
178
     0
  0
DIMSTYLE
  2
AM_ANSI
 70
     0
  3

  4
mm
  5

  6

  7

 40
1.0
 41
0.1
 42
0.05
 43
0.5
 44
0.1
 45
0.0
 46
0.0
 47
0.1
 48
0.1
140
0.12
141
0.0
142
0.0
143
25.399999999999999
144
1.0
145
0.0
146
0.71
147
0.06
 71
     0
 72
     0
 73
     1
 74
     1
 75
     0
 76
     0
 77
     0
 78
     7
170
     0
171
     2
172
     0
173
     0
174
     0
175
     0
176
   256
177
   256
178
     2
  0
DIMSTYLE
  2
AM_ANSI$3
 70
     0
  3

  4
mm
  5

  6

  7

 40
1.0
 41
0.1
 42
0.05
 43
0.5
 44
0.1
 45
0.0
 46
0.0
 47
0.1
 48
0.1
140
0.12
141
0.0
142
0.0
143
25.399999999999999
144
1.0
145
0.0
146
0.71
147
0.06
 71
     0
 72
     0
 73
     1
 74
     1
 75
     0
 76
     0
 77
     0
 78
     7
170
     0
171
     2
172
     0
173
     0
174
     0
175
     0
176
   256
177
   256
178
     2
  0
DIMSTYLE
  2
AM_ANSI$4
 70
     0
  3

  4
mm
  5

  6

  7

 40
1.0
 41
0.1
 42
0.05
 43
0.5
 44
0.1
 45
0.0
 46
0.0
 47
0.1
 48
0.1
140
0.12
141
0.0
142
0.0
143
25.399999999999999
144
1.0
145
0.0
146
0.71
147
0.06
 71
     0
 72
     0
 73
     1
 74
     1
 75
     0
 76
     0
 77
     0
 78
     7
170
     0
171
     2
172
     0
173
     0
174
     0
175
     0
176
   256
177
   256
178
     2
  0
DIMSTYLE
  2
AM_ANSI$7
 70
     0
  3

  4
mm
  5

  6

  7

 40
1.0
 41
0.1
 42
0.05
 43
0.5
 44
0.1
 45
0.0
 46
0.0
 47
0.1
 48
0.1
140
0.24
141
0.0
142
0.0
143
25.399999999999999
144
1.0
145
0.0
146
0.71
147
0.06
 71
     0
 72
     0
 73
     1
 74
     1
 75
     0
 76
     0
 77
     0
 78
     7
170
     0
171
     2
172
     0
173
     0
174
     0
175
     0
176
   256
177
   256
178
     2
  0
DIMSTYLE
  2
AM_ANSI$SF
 70
     0
  3

  4
mm
  5

  6

  7

 40
1.0
 41
0.1
 42
0.05
 43
0.5
 44
0.1
 45
0.0
 46
0.0
 47
0.1
 48
0.1
140
0.12
141
0.0
142
0.0
143
25.399999999999999
144
1.0
145
0.0
146
0.71
147
0.06
 71
     0
 72
     0
 73
     1
 74
     1
 75
     1
 76
     1
 77
     0
 78
     7
170
     0
171
     2
172
     0
173
     0
174
     0
175
     0
176
   256
177
   256
178
     2
  0
DIMSTYLE
  2
AM_ANSI$SH
 70
     0
  3

  4
mm
  5

  6
GENAXEH
  7

 40
1.0
 41
0.1
 42
0.05
 43
0.5
 44
0.1
 45
0.0
 46
0.0
 47
0.1
 48
0.1
140
0.12
141
0.0
142
0.0
143
25.399999999999999
144
1.0
145
0.0
146
0.71
147
0.06
 71
     0
 72
     0
 73
     1
 74
     1
 75
     1
 76
     1
 77
     0
 78
     7
170
     0
171
     2
172
     0
173
     1
174
     0
175
     0
176
   256
177
   256
178
     2
  0
ENDTAB
  0
ENDSEC
  0
SECTION
  2
BLOCKS
  0
BLOCK
  8
0
  2
$MODEL_SPACE
 70
     0
 10
0.0
 20
0.0
 30
0.0
  3
$MODEL_SPACE
  1

  0
ENDBLK
  5
A
  8
0
  0
BLOCK
 67
     1
  8
0
  2
$PAPER_SPACE
 70
     0
 10
0.0
 20
0.0
 30
0.0
  3
$PAPER_SPACE
  1

  0
ENDBLK
  5
F
 67
     1
  8
0
  0
BLOCK
  8
0
  2
*U0
 70
     1
 10
0.0
 20
0.0
 30
0.0
  3
*U0
  1

  0
ENDBLK
  5
11D
  8
0
  0
BLOCK
  8
0
  2
GENAXEH
 70
     0
 10
0.0
 20
0.0
 30
0.0
  3
GENAXEH
  1

  0
LINE
  5
15A
  8
0
 10
-1.0
 20
0.0
 30
0.0
 11
1.0
 21
0.0
 31
0.0
  0
ENDBLK
  5
15C
  8
0
  0
BLOCK
  8
0
  2
_DOT
 70
     0
 10
0.0
 20
0.0
 30
0.0
  3
_DOT
  1

  0
POLYLINE
  5
16D
  8
0
  6
BYBLOCK
 62
     0
 66
     1
 10
0.0
 20
0.0
 30
0.0
 70
     1
 40
0.5
 41
0.5
  0
VERTEX
  5
16E
  8
0
  6
BYBLOCK
 62
     0
 10
-0.25
 20
0.0
 30
0.0
 42
1.0
  0
VERTEX
  5
16F
  8
0
  6
BYBLOCK
 62
     0
 10
0.25
 20
0.0
 30
0.0
 42
1.0
  0
SEQEND
  5
170
  8
0
  6
BYBLOCK
 62
     0
  0
LINE
  5
171
  8
0
  6
BYBLOCK
 62
     0
 10
-0.5
 20
0.0
 30
0.0
 11
-1.0
 21
0.0
 31
0.0
  0
ENDBLK
  5
173
  8
0
  0
BLOCK
  8
0
  2
2D
 70
     0
 10
0.0
 20
0.0
 30
0.0
  3
2D
  1

  0
INSERT
  5
177
  8
0
  2
*U5
 10
0.0
 20
0.0
 30
0.0
  0
INSERT
  5
178
  8
0
  2
*U6
 10
0.0
 20
0.0
 30
0.0
  0
INSERT
  5
179
  8
0
  2
*U7
 10
0.0
 20
0.0
 30
0.0
  0
ENDBLK
  5
17B
  8
0
  0
BLOCK
  8
0
  2
*U4
 70
     1
 10
0.0
 20
0.0
 30
0.0
  3
*U4
  1

  0
TEXT
  5
1C2
  8
0
 10
5.2326412070461501
 20
1.446628859362572
 30
0.0
 40
0.084375
  1
4"
  7
ADESK1
  0
ENDBLK
  5
1C4
  8
0
  0
BLOCK
  8
0
  2
*U5
 70
     1
 10
0.0
 20
0.0
 30
0.0
  3
*U5
  1

  0
TEXT
  5
1C6
  8
KEE10
 10
-0.167740653382606
 20
0.7944046258072062
 30
0.0
 40
0.140625
  1
KEE
  0
ENDBLK
  5
1C8
  8
0
  0
BLOCK
  8
0
  2
*U6
 70
     1
 10
0.0
 20
0.0
 30
0.0
  3
*U6
  1

  0
TEXT
  5
1CA
  8
KEE10
 10
-0.308365653382606
 20
0.4858688129746218
 30
0.0
 40
0.140625
  1
KLAMP
  0
ENDBLK
  5
1CC
  8
0
  0
BLOCK
  8
0
  2
*U7
 70
     1
 10
0.0
 20
0.0
 30
0.0
  3
*U7
  1

  0
TEXT
  5
1CE
  8
KEE10
 10
-0.202896903382606
 20
0.2018753139112972
 30
0.0
 40
0.140625
  1
10-8
  0
ENDBLK
  5
1D0
  8
0
  0
BLOCK
  8
0
  2
*U8
 70
     1
 10
0.0
 20
0.0
 30
0.0
  3
*U8
  1

  0
TEXT
  5
1D2
  8
KEE10
 10
1.186483650117188
 20
4.5441536009047221
 30
0.0
 40
0.1265625
  1
KEE
 50
270.0
  0
ENDBLK
  5
1D4
  8
0
  0
BLOCK
  8
0
  2
*U9
 70
     1
 10
0.0
 20
0.0
 30
0.0
  3
*U9
  1

  0
TEXT
  5
1D6
  8
KEE10
 10
0.9088014185678623
 20
4.6707161009047207
 30
0.0
 40
0.1265625
  1
KLAMP
 50
270.0
  0
ENDBLK
  5
1D8
  8
0
  0
ENDSEC
  0
SECTION
  2
ENTITIES
  0
POINT
  5
26
  8
0
 10
0.0
 20
0.0
 30
0.0
  0
CIRCLE
  5
27
  8
AM_VIS
 10
5.3029537070461501
 20
4.4167005446945851
 30
0.0
 40
2.024999999999999
  0
CIRCLE
  5
29
  8
AM_VIS
 10
5.3029537070461501
 20
5.9917005446945852
 30
0.0
 40
0.225
  0
CIRCLE
  5
2A
  8
AM_VIS
 10
5.3029537070461492
 20
2.8417005446945849
 30
0.0
 40
0.225
  0
CIRCLE
  5
2B
  8
AM_VIS
 10
3.727953707046149
 20
4.4167005446945851
 30
0.0
 40
0.225
  0
CIRCLE
  5
2C
  8
AM_VIS
 10
6.8779537070461494
 20
4.4167005446945851
 30
0.0
 40
0.225
  0
CIRCLE
  5
2D
  8
AM_VIS
 10
5.3029537070461501
 20
4.4167005446945851
 30
0.0
 40
1.1025
  0
CIRCLE
  5
2E
  8
AM_VIS
 10
5.3029537070461501
 20
4.4167005446945851
 30
0.0
 40
0.8774999999999998
  0
LINE
  5
2F
  8
AM_HID
 10
4.3892535279991822
 20
5.1258104284707438
 30
0.0
 11
4.4278139257551512
 21
5.0872500307147757
 31
0.0
  0
LINE
  5
32
  8
AM_HID
 10
4.5938438232699879
 20
5.330400723741552
 30
0.0
 11
4.6324042210259559
 21
5.2918403259855831
 31
0.0
  0
LINE
  5
33
  8
AM_HID
 10
4.4915486756345846
 20
5.2281055761061479
 30
0.0
 11
4.5233684807879788
 21
5.1962857709527528
 31
0.0
  0
LINE
  5
34
  8
AM_VIS
 10
4.6904224578433018
 20
5.4269793583148642
 30
0.0
 11
4.4915486756345864
 21
5.228105576106147
 31
0.0
  0
LINE
  5
35
  8
AM_VIS
 10
4.4915486756345864
 20
5.228105576106147
 30
0.0
 11
4.2926748934258701
 21
5.0292317938974307
 31
0.0
  0
LINE
  5
36
  8
AM_VIS
 10
4.6904224578433018
 20
5.4269793583148642
 30
0.0
 11
4.7693004882674144
 21
5.381439106216356
 31
0.0
  0
LINE
  5
37
  8
AM_VIS
 10
4.2926748934258701
 20
5.0292317938974307
 30
0.0
 11
4.3382151455243783
 21
4.950353763473319
 31
0.0
  0
LINE
  5
38
  8
AM_VIS
 10
0.0276755137013387
 20
6.4417005446945854
 30
0.0
 11
0.0276755137013387
 21
2.3917005446945852
 31
0.0
  0
LINE
  5
39
  8
AM_VIS
 10
-0.3098244862986617
 20
2.3917005446945852
 30
0.0
 11
-0.3098244862986617
 21
6.4417005446945854
 31
0.0
  0
LINE
  5
3A
  8
AM_VIS
 10
1.8276755137013381
 20
5.5192005446945851
 30
0.0
 11
1.8276755137013381
 21
3.314200544694585
 31
0.0
  0
POLYLINE
  8
AM_HID
  5
1D9
  66
     1
 10
0.000000
 20
0.000000
 30
0.000000
  70
     8
  0
VERTEX
  8
AM_HID
  5
1DA
 10
1.01234
 20
5.38144
 30
0.000000
  70
    32
  0
VERTEX
  8
AM_HID
  5
1DB
 10
1.01116
 20
5.38144
 30
0.000000
  70
    32
  0
VERTEX
  8
AM_HID
  5
1DC
 10
1.00998
 20
5.38143
 30
0.000000
  70
    32
  0
VERTEX
  8
AM_HID
  5
1DD
 10
1.00880
 20
5.38143
 30
0.000000
  70
    32
  0
VERTEX
  8
AM_HID
  5
1DE
 10
1.00761
 20
5.38142
 30
0.000000
  70
    32
  0
VERTEX
  8
AM_HID
  5
1DF
 10
1.00643
 20
5.38141
 30
0.000000
  70
    32
  0
VERTEX
  8
AM_HID
  5
1E0
 10
1.00524
 20
5.38139
 30
0.000000
  70
    32
  0
VERTEX
  8
AM_HID
  5
1E1
 10
1.00405
 20
5.38138
 30
0.000000
  70
    32
  0
VERTEX
  8
AM_HID
  5
1E2
 10
1.00286
 20
5.38136
 30
0.000000
  70
    32
  0
VERTEX
  8
AM_HID
  5
1E3
 10
1.00167
 20
5.38133
 30
0.000000
  70
    32
  0
VERTEX
  8
AM_HID
  5
1E4
 10
1.00048
 20
5.38131
 30
0.000000
  70
    32
  0
VERTEX
  8
AM_HID
  5
1E5
 10
0.999291
 20
5.38128
 30
0.000000
  70
    32
  0
VERTEX
  8
AM_HID
  5
1E6
 10
0.998098
 20
5.38125
 30
0.000000
  70
    32
  0
VERTEX
  8
AM_HID
  5
1E7
 10
0.996904
 20
5.38122
 30
0.000000
  70
    32
  0
VERTEX
  8
AM_HID
  5
1E8
 10
0.995709
 20
5.38118
 30
0.000000
  70
    32
  0
VERTEX
  8
AM_HID
  5
1E9
 10
0.994514
 20
5.38115
 30
0.000000
  70
    32
  0
VERTEX
  8
AM_HID
  5
1EA
 10
0.993317
 20
5.38110
 30
0.000000
  70
    32
  0
VERTEX
  8
AM_HID
  5
1EB
 10
0.992120
 20
5.38106
 30
0.000000
  70
    32
  0
VERTEX
  8
AM_HID
  5
1EC
 10
0.990922
 20
5.38102
 30
0.000000
  70
    32
  0
VERTEX
  8
AM_HID
  5
1ED
 10
0.989723
 20
5.38097
 30
0.000000
  70
    32
  0
VERTEX
  8
AM_HID
  5
1EE
 10
0.988524
 20
5.38092
 30
0.000000
  70
    32
  0
VERTEX
  8
AM_HID
  5
1EF
 10
0.987324
 20
5.38086
 30
0.000000
  70
    32
  0
VERTEX
  8
AM_HID
  5
1F0
 10
0.986124
 20
5.38081
 30
0.000000
  70
    32
  0
VERTEX
  8
AM_HID
  5
1F1
 10
0.984923
 20
5.38075
 30
0.000000
  70
    32
  0
VERTEX
  8
AM_HID
  5
1F2
 10
0.983721
 20
5.38069
 30
0.000000
  70
    32
  0
VERTEX
  8
AM_HID
  5
1F3
 10
0.982519
 20
5.38062
 30
0.000000
  70
    32
  0
VERTEX
  8
AM_HID
  5
1F4
 10
0.981317
 20
5.38055
 30
0.000000
  70
    32
  0
VERTEX
  8
AM_HID
  5
1F5
 10
0.980114
 20
5.38048
 30
0.000000
  70
    32
  0
VERTEX
  8
AM_HID
  5
1F6
 10
0.978910
 20
5.38041
 30
0.000000
  70
    32
  0
VERTEX
  8
AM_HID
  5
1F7
 10
0.977707
 20
5.38034
 30
0.000000
  70
    32
  0
VERTEX
  8
AM_HID
  5
1F8
 10
0.976503
 20
5.38026
 30
0.000000
  70
    32
  0
VERTEX
  8
AM_HID
  5
1F9
 10
0.975299
 20
5.38018
 30
0.000000
  70
    32
  0
VERTEX
  8
AM_HID
  5
1FA
 10
0.974095
 20
5.38010
 30
0.000000
  70
    32
  0
VERTEX
  8
AM_HID
  5
1FB
 10
0.972890
 20
5.38001
 30
0.000000
  70
    32
  0
VERTEX
  8
AM_HID
  5
1FC
 10
0.971686
 20
5.37992
 30
0.000000
  70
    32
  0
VERTEX
  8
AM_HID
  5
1FD
 10
0.970481
 20
5.37983
 30
0.000000
  70
    32
  0
VERTEX
  8
AM_HID
  5
1FE
 10
0.969277
 20
5.37974
 30
0.000000
  70
    32
  0
VERTEX
  8
AM_HID
  5
1FF
 10
0.968072
 20
5.37964
 30
0.000000
  70
    32
  0
VERTEX
  8
AM_HID
  5
200
 10
0.966867
 20
5.37954
 30
0.000000
  70
    32
  0
VERTEX
  8
AM_HID
  5
201
 10
0.965663
 20
5.37944
 30
0.000000
  70
    32
  0
VERTEX
  8
AM_HID
  5
202
 10
0.964458
 20
5.37934
 30
0.000000
  70
    32
  0
VERTEX
  8
AM_HID
  5
203
 10
0.963254
 20
5.37923
 30
0.000000
  70
    32
  0
VERTEX
  8
AM_HID
  5
204
 10
0.962050
 20
5.37912
 30
0.000000
  70
    32
  0
VERTEX
  8
AM_HID
  5
205
 10
0.960846
 20
5.37901
 30
0.000000
  70
    32
  0
VERTEX
  8
AM_HID
  5
206
 10
0.959642
 20
5.37889
 30
0.000000
  70
    32
  0
VERTEX
  8
AM_HID
  5
207
 10
0.958439
 20
5.37877
 30
0.000000
  70
    32
  0
VERTEX
  8
AM_HID
  5
208
 10
0.957236
 20
5.37865
 30
0.000000
  70
    32
  0
VERTEX
  8
AM_HID
  5
209
 10
0.956033
 20
5.37853
 30
0.000000
  70
    32
  0
VERTEX
  8
AM_HID
  5
20A
 10
0.954831
 20
5.37840
 30
0.000000
  70
    32
  0
VERTEX
  8
AM_HID
  5
20B
 10
0.953629
 20
5.37828
 30
0.000000
  70
    32
  0
VERTEX
  8
AM_HID
  5
20C
 10
0.952428
 20
5.37814
 30
0.000000
  70
    32
  0
VERTEX
  8
AM_HID
  5
20D
 10
0.951227
 20
5.37801
 30
0.000000
  70
    32
  0
VERTEX
  8
AM_HID
  5
20E
 10
0.950027
 20
5.37787
 30
0.000000
  70
    32
  0
VERTEX
  8
AM_HID
  5
20F
 10
0.948827
 20
5.37773
 30
0.000000
  70
    32
  0
VERTEX
  8
AM_HID
  5
210
 10
0.947629
 20
5.37759
 30
0.000000
  70
    32
  0
VERTEX
  8
AM_HID
  5
211
 10
0.946430
 20
5.37745
 30
0.000000
  70
    32
  0
VERTEX
  8
AM_HID
  5
212
 10
0.945233
 20
5.37730
 30
0.000000
  70
    32
  0
VERTEX
  8
AM_HID
  5
213
 10
0.944036
 20
5.37715
 30
0.000000
  70
    32
  0
VERTEX
  8
AM_HID
  5
214
 10
0.942840
 20
5.37700
 30
0.000000
  70
    32
  0
VERTEX
  8
AM_HID
  5
215
 10
0.941645
 20
5.37684
 30
0.000000
  70
    32
  0
VERTEX
  8
AM_HID
  5
216
 10
0.940451
 20
5.37668
 30
0.000000
  70
    32
  0
VERTEX
  8
AM_HID
  5
217
 10
0.939258
 20
5.37652
 30
0.000000
  70
    32
  0
VERTEX
  8
AM_HID
  5
218
 10
0.938065
 20
5.37636
 30
0.000000
  70
    32
  0
VERTEX
  8
AM_HID
  5
219
 10
0.936874
 20
5.37619
 30
0.000000
  70
    32
  0
VERTEX
  8
AM_HID
  5
21A
 10
0.935684
 20
5.37602
 30
0.000000
  70
    32
  0
VERTEX
  8
AM_HID
  5
21B
 10
0.934494
 20
5.37585
 30
0.000000
  70
    32
  0
VERTEX
  8
AM_HID
  5
21C
 10
0.933306
 20
5.37567
 30
0.000000
  70
    32
  0
VERTEX
  8
AM_HID
  5
21D
 10
0.932119
 20
5.37549
 30
0.000000
  70
    32
  0
VERTEX
  8
AM_HID
  5
21E
 10
0.930933
 20
5.37531
 30
0.000000
  70
    32
  0
VERTEX
  8
AM_HID
  5
21F
 10
0.929749
 20
5.37513
 30
0.000000
  70
    32
  0
VERTEX
  8
AM_HID
  5
220
 10
0.928566
 20
5.37494
 30
0.000000
  70
    32
  0
VERTEX
  8
AM_HID
  5
221
 10
0.927384
 20
5.37476
 30
0.000000
  70
    32
  0
VERTEX
  8
AM_HID
  5
222
 10
0.926203
 20
5.37456
 30
0.000000
  70
    32
  0
VERTEX
  8
AM_HID
  5
223
 10
0.925024
 20
5.37437
 30
0.000000
  70
    32
  0
VERTEX
  8
AM_HID
  5
224
 10
0.923846
 20
5.37417
 30
0.000000
  70
    32
  0
VERTEX
  8
AM_HID
  5
225
 10
0.922670
 20
5.37397
 30
0.000000
  70
    32
  0
VERTEX
  8
AM_HID
  5
226
 10
0.921495
 20
5.37377
 30
0.000000
  70
    32
  0
VERTEX
  8
AM_HID
  5
227
 10
0.920321
 20
5.37356
 30
0.000000
  70
    32
  0
VERTEX
  8
AM_HID
  5
228
 10
0.919149
 20
5.37336
 30
0.000000
  70
    32
  0
VERTEX
  8
AM_HID
  5
229
 10
0.917979
 20
5.37315
 30
0.000000
  70
    32
  0
VERTEX
  8
AM_HID
  5
22A
 10
0.916811
 20
5.37293
 30
0.000000
  70
    32
  0
VERTEX
  8
AM_HID
  5
22B
 10
0.915644
 20
5.37272
 30
0.000000
  70
    32
  0
VERTEX
  8
AM_HID
  5
22C
 10
0.914479
 20
5.37250
 30
0.000000
  70
    32
  0
VERTEX
  8
AM_HID
  5
22D
 10
0.913316
 20
5.37227
 30
0.000000
  70
    32
  0
VERTEX
  8
AM_HID
  5
22E
 10
0.912154
 20
5.37205
 30
0.000000
  70
    32
  0
VERTEX
  8
AM_HID
  5
22F
 10
0.910994
 20
5.37182
 30
0.000000
  70
    32
  0
VERTEX
  8
AM_HID
  5
230
 10
0.909836
 20
5.37159
 30
0.000000
  70
    32
  0
VERTEX
  8
AM_HID
  5
231
 10
0.908681
 20
5.37136
 30
0.000000
  70
    32
  0
VERTEX
  8
AM_HID
  5
232
 10
0.907527
 20
5.37112
 30
0.000000
  70
    32
  0
VERTEX
  8
AM_HID
  5
233
 10
0.906375
 20
5.37088
 30
0.000000
  70
    32
  0
VERTEX
  8
AM_HID
  5
234
 10
0.905225
 20
5.37064
 30
0.000000
  70
    32
  0
VERTEX
  8
AM_HID
  5
235
 10
0.904077
 20
5.37040
 30
0.000000
  70
    32
  0
VERTEX
  8
AM_HID
  5
236
 10
0.902931
 20
5.37015
 30
0.000000
  70
    32
  0
VERTEX
  8
AM_HID
  5
237
 10
0.901788
 20
5.36990
 30
0.000000
  70
    32
  0
VERTEX
  8
AM_HID
  5
238
 10
0.900646
 20
5.36965
 30
0.000000
  70
    32
  0
VERTEX
  8
AM_HID
  5
239
 10
0.899507
 20
5.36939
 30
0.000000
  70
    32
  0
VERTEX
  8
AM_HID
  5
23A
 10
0.898370
 20
5.36913
 30
0.000000
  70
    32
  0
VERTEX
  8
AM_HID
  5
23B
 10
0.897236
 20
5.36887
 30
0.000000
  70
    32
  0
VERTEX
  8
AM_HID
  5
23C
 10
0.896104
 20
5.36861
 30
0.000000
  70
    32
  0
VERTEX
  8
AM_HID
  5
23D
 10
0.894974
 20
5.36834
 30
0.000000
  70
    32
  0
VERTEX
  8
AM_HID
  5
23E
 10
0.893846
 20
5.36807
 30
0.000000
  70
    32
  0
VERTEX
  8
AM_HID
  5
23F
 10
0.892721
 20
5.36780
 30
0.000000
  70
    32
  0
VERTEX
  8
AM_HID
  5
240
 10
0.891598
 20
5.36752
 30
0.000000
  70
    32
  0
VERTEX
  8
AM_HID
  5
241
 10
0.890478
 20
5.36725
 30
0.000000
  70
    32
  0
VERTEX
  8
AM_HID
  5
242
 10
0.889360
 20
5.36696
 30
0.000000
  70
    32
  0
VERTEX
  8
AM_HID
  5
243
 10
0.888245
 20
5.36668
 30
0.000000
  70
    32
  0
VERTEX
  8
AM_HID
  5
244
 10
0.887132
 20
5.36639
 30
0.000000
  70
    32
  0
VERTEX
  8
AM_HID
  5
245
 10
0.886022
 20
5.36610
 30
0.000000
  70
    32
  0
VERTEX
  8
AM_HID
  5
246
 10
0.884914
 20
5.36581
 30
0.000000
  70
    32
  0
VERTEX
  8
AM_HID
  5
247
 10
0.883809
 20
5.36552
 30
0.000000
  70
    32
  0
VERTEX
  8
AM_HID
  5
248
 10
0.882707
 20
5.36522
 30
0.000000
  70
    32
  0
VERTEX
  8
AM_HID
  5
249
 10
0.881607
 20
5.36492
 30
0.000000
  70
    32
  0
VERTEX
  8
AM_HID
  5
24A
 10
0.880509
 20
5.36462
 30
0.000000
  70
    32
  0
VERTEX
  8
AM_HID
  5
24B
 10
0.879415
 20
5.36431
 30
0.000000
  70
    32
  0
VERTEX
  8
AM_HID
  5
24C
 10
0.878323
 20
5.36400
 30
0.000000
  70
    32
  0
VERTEX
  8
AM_HID
  5
24D
 10
0.877234
 20
5.36369
 30
0.000000
  70
    32
  0
VERTEX
  8
AM_HID
  5
24E
 10
0.876148
 20
5.36338
 30
0.000000
  70
    32
  0
VERTEX
  8
AM_HID
  5
24F
 10
0.875064
 20
5.36306
 30
0.000000
  70
    32
  0
VERTEX
  8
AM_HID
  5
250
 10
0.873983
 20
5.36274
 30
0.000000
  70
    32
  0
VERTEX
  8
AM_HID
  5
251
 10
0.872905
 20
5.36242
 30
0.000000
  70
    32
  0
VERTEX
  8
AM_HID
  5
252
 10
0.871830
 20
5.36210
 30
0.000000
  70
    32
  0
VERTEX
  8
AM_HID
  5
253
 10
0.870758
 20
5.36177
 30
0.000000
  70
    32
  0
VERTEX
  8
AM_HID
  5
254
 10
0.869689
 20
5.36144
 30
0.000000
  70
    32
  0
VERTEX
  8
AM_HID
  5
255
 10
0.868622
 20
5.36111
 30
0.000000
  70
    32
  0
VERTEX
  8
AM_HID
  5
256
 10
0.867559
 20
5.36077
 30
0.000000
  70
    32
  0
VERTEX
  8
AM_HID
  5
257
 10
0.866498
 20
5.36044
 30
0.000000
  70
    32
  0
VERTEX
  8
AM_HID
  5
258
 10
0.865441
 20
5.36010
 30
0.000000
  70
    32
  0
VERTEX
  8
AM_HID
  5
259
 10
0.864386
 20
5.35976
 30
0.000000
  70
    32
  0
VERTEX
  8
AM_HID
  5
25A
 10
0.863335
 20
5.35941
 30
0.000000
  70
    32
  0
VERTEX
  8
AM_HID
  5
25B
 10
0.862286
 20
5.35906
 30
0.000000
  70
    32
  0
VERTEX
  8
AM_HID
  5
25C
 10
0.861241
 20
5.35871
 30
0.000000
  70
    32
  0
VERTEX
  8
AM_HID
  5
25D
 10
0.860199
 20
5.35836
 30
0.000000
  70
    32
  0
VERTEX
  8
AM_HID
  5
25E
 10
0.859160
 20
5.35801
 30
0.000000
  70
    32
  0
VERTEX
  8
AM_HID
  5
25F
 10
0.858124
 20
5.35765
 30
0.000000
  70
    32
  0
VERTEX
  8
AM_HID
  5
260
 10
0.857091
 20
5.35729
 30
0.000000
  70
    32
  0
VERTEX
  8
AM_HID
  5
261
 10
0.856062
 20
5.35693
 30
0.000000
  70
    32
  0
VERTEX
  8
AM_HID
  5
262
 10
0.855035
 20
5.35656
 30
0.000000
  70
    32
  0
VERTEX
  8
AM_HID
  5
263
 10
0.854012
 20
5.35620
 30
0.000000
  70
    32
  0
VERTEX
  8
AM_HID
  5
264
 10
0.852993
 20
5.35583
 30
0.000000
  70
    32
  0
VERTEX
  8
AM_HID
  5
265
 10
0.851976
 20
5.35546
 30
0.000000
  70
    32
  0
VERTEX
  8
AM_HID
  5
266
 10
0.850963
 20
5.35508
 30
0.000000
  70
    32
  0
VERTEX
  8
AM_HID
  5
267
 10
0.849953
 20
5.35471
 30
0.000000
  70
    32
  0
VERTEX
  8
AM_HID
  5
268
 10
0.848947
 20
5.35433
 30
0.000000
  70
    32
  0
VERTEX
  8
AM_HID
  5
269
 10
0.847944
 20
5.35395
 30
0.000000
  70
    32
  0
VERTEX
  8
AM_HID
  5
26A
 10
0.846944
 20
5.35357
 30
0.000000
  70
    32
  0
VERTEX
  8
AM_HID
  5
26B
 10
0.845948
 20
5.35318
 30
0.000000
  70
    32
  0
VERTEX
  8
AM_HID
  5
26C
 10
0.844956
 20
5.35279
 30
0.000000
  70
    32
  0
VERTEX
  8
AM_HID
  5
26D
 10
0.843967
 20
5.35240
 30
0.000000
  70
    32
  0
VERTEX
  8
AM_HID
  5
26E
 10
0.842981
 20
5.35201
 30
0.000000
  70
    32
  0
VERTEX
  8
AM_HID
  5
26F
 10
0.841999
 20
5.35162
 30
0.000000
  70
    32
  0
VERTEX
  8
AM_HID
  5
270
 10
0.841021
 20
5.35122
 30
0.000000
  70
    32
  0
VERTEX
  8
AM_HID
  5
271
 10
0.840046
 20
5.35082
 30
0.000000
  70
    32
  0
VERTEX
  8
AM_HID
  5
272
 10
0.839074
 20
5.35042
 30
0.000000
  70
    32
  0
VERTEX
  8
AM_HID
  5
273
 10
0.838107
 20
5.35001
 30
0.000000
  70
    32
  0
VERTEX
  8
AM_HID
  5
274
 10
0.837143
 20
5.34961
 30
0.000000
  70
    32
  0
VERTEX
  8
AM_HID
  5
275
 10
0.836183
 20
5.34920
 30
0.000000
  70
    32
  0
VERTEX
  8
AM_HID
  5
276
 10
0.835226
 20
5.34879
 30
0.000000
  70
    32
  0
VERTEX
  8
AM_HID
  5
277
 10
0.834273
 20
5.34838
 30
0.000000
  70
    32
  0
VERTEX
  8
AM_HID
  5
278
 10
0.833324
 20
5.34796
 30
0.000000
  70
    32
  0
VERTEX
  8
AM_HID
  5
279
 10
0.832379
 20
5.34755
 30
0.000000
  70
    32
  0
VERTEX
  8
AM_HID
  5
27A
 10
0.831437
 20
5.34713
 30
0.000000
  70
    32
  0
VERTEX
  8
AM_HID
  5
27B
 10
0.830500
 20
5.34671
 30
0.000000
  70
    32
  0
VERTEX
  8
AM_HID
  5
27C
 10
0.829566
 20
5.34629
 30
0.000000
  70
    32
  0
VERTEX
  8
AM_HID
  5
27D
 10
0.828636
 20
5.34586
 30
0.000000
  70
    32
  0
VERTEX
  8
AM_HID
  5
27E
 10
0.827710
 20
5.34543
 30
0.000000
  70
    32
  0
VERTEX
  8
AM_HID
  5
27F
 10
0.826788
 20
5.34501
 30
0.000000
  70
    32
  0
VERTEX
  8
AM_HID
  5
280
 10
0.825870
 20
5.34457
 30
0.000000
  70
    32
  0
VERTEX
  8
AM_HID
  5
281
 10
0.824956
 20
5.34414
 30
0.000000
  70
    32
  0
VERTEX
  8
AM_HID
  5
282
 10
0.824046
 20
5.34371
 30
0.000000
  70
    32
  0
VERTEX
  8
AM_HID
  5
283
 10
0.823140
 20
5.34327
 30
0.000000
  70
    32
  0
VERTEX
  8
AM_HID
  5
284
 10
0.822238
 20
5.34283
 30
0.000000
  70
    32
  0
VERTEX
  8
AM_HID
  5
285
 10
0.821340
 20
5.34239
 30
0.000000
  70
    32
  0
VERTEX
  8
AM_HID
  5
286
 10
0.820446
 20
5.34194
 30
0.000000
  70
    32
  0
VERTEX
  8
AM_HID
  5
287
 10
0.819556
 20
5.34150
 30
0.000000
  70
    32
  0
VERTEX
  8
AM_HID
  5
288
 10
0.818670
 20
5.34105
 30
0.000000
  70
    32
  0
VERTEX
  8
AM_HID
  5
289
 10
0.817789
 20
5.34060
 30
0.000000
  70
    32
  0
VERTEX
  8
AM_HID
  5
28A
 10
0.816912
 20
5.34015
 30
0.000000
  70
    32
  0
VERTEX
  8
AM_HID
  5
28B
 10
0.816039
 20
5.33970
 30
0.000000
  70
    32
  0
VERTEX
  8
AM_HID
  5
28C
 10
0.815170
 20
5.33924
 30
0.000000
  70
    32
  0
VERTEX
  8
AM_HID
  5
28D
 10
0.814305
 20
5.33879
 30
0.000000
  70
    32
  0
VERTEX
  8
AM_HID
  5
28E
 10
0.813445
 20
5.33833
 30
0.000000
  70
    32
  0
VERTEX
  8
AM_HID
  5
28F
 10
0.812589
 20
5.33787
 30
0.000000
  70
    32
  0
VERTEX
  8
AM_HID
  5
290
 10
0.811738
 20
5.33741
 30
0.000000
  70
    32
  0
VERTEX
  8
AM_HID
  5
291
 10
0.810890
 20
5.33694
 30
0.000000
  70
    32
  0
VERTEX
  8
AM_HID
  5
292
 10
0.810048
 20
5.33648
 30
0.000000
  70
    32
  0
VERTEX
  8
AM_HID
  5
293
 10
0.809209
 20
5.33601
 30
0.000000
  70
    32
  0
VERTEX
  8
AM_HID
  5
294
 10
0.808375
 20
5.33554
 30
0.000000
  70
    32
  0
VERTEX
  8
AM_HID
  5
295
 10
0.807546
 20
5.33507
 30
0.000000
  70
    32
  0
VERTEX
  8
AM_HID
  5
296
 10
0.806721
 20
5.33459
 30
0.000000
  70
    32
  0
VERTEX
  8
AM_HID
  5
297
 10
0.805900
 20
5.33412
 30
0.000000
  70
    32
  0
VERTEX
  8
AM_HID
  5
298
 10
0.805084
 20
5.33364
 30
0.000000
  70
    32
  0
VERTEX
  8
AM_HID
  5
299
 10
0.804273
 20
5.33316
 30
0.000000
  70
    32
  0
VERTEX
  8
AM_HID
  5
29A
 10
0.803466
 20
5.33268
 30
0.000000
  70
    32
  0
VERTEX
  8
AM_HID
  5
29B
 10
0.802663
 20
5.33220
 30
0.000000
  70
    32
  0
VERTEX
  8
AM_HID
  5
29C
 10
0.801865
 20
5.33172
 30
0.000000
  70
    32
  0
VERTEX
  8
AM_HID
  5
29D
 10
0.801069
 20
5.33123
 30
0.000000
  70
    32
  0
VERTEX
  8
AM_HID
  5
29E
 10
0.800275
 20
5.33074
 30
0.000000
  70
    32
  0
VERTEX
  8
AM_HID
  5
29F
 10
0.799483
 20
5.33024
 30
0.000000
  70
    32
  0
VERTEX
  8
AM_HID
  5
2A0
 10
0.798694
 20
5.32975
 30
0.000000
  70
    32
  0
VERTEX
  8
AM_HID
  5
2A1
 10
0.797908
 20
5.32925
 30
0.000000
  70
    32
  0
VERTEX
  8
AM_HID
  5
2A2
 10
0.797124
 20
5.32874
 30
0.000000
  70
    32
  0
VERTEX
  8
AM_HID
  5
2A3
 10
0.796342
 20
5.32824
 30
0.000000
  70
    32
  0
VERTEX
  8
AM_HID
  5
2A4
 10
0.795563
 20
5.32773
 30
0.000000
  70
    32
  0
VERTEX
  8
AM_HID
  5
2A5
 10
0.794787
 20
5.32722
 30
0.000000
  70
    32
  0
VERTEX
  8
AM_HID
  5
2A6
 10
0.794013
 20
5.32670
 30
0.000000
  70
    32
  0
VERTEX
  8
AM_HID
  5
2A7
 10
0.793242
 20
5.32619
 30
0.000000
  70
    32
  0
VERTEX
  8
AM_HID
  5
2A8
 10
0.792473
 20
5.32566
 30
0.000000
  70
    32
  0
VERTEX
  8
AM_HID
  5
2A9
 10
0.791707
 20
5.32514
 30
0.000000
  70
    32
  0
VERTEX
  8
AM_HID
  5
2AA
 10
0.790944
 20
5.32461
 30
0.000000
  70
    32
  0
VERTEX
  8
AM_HID
  5
2AB
 10
0.790184
 20
5.32408
 30
0.000000
  70
    32
  0
VERTEX
  8
AM_HID
  5
2AC
 10
0.789426
 20
5.32355
 30
0.000000
  70
    32
  0
VERTEX
  8
AM_HID
  5
2AD
 10
0.788671
 20
5.32302
 30
0.000000
  70
    32
  0
VERTEX
  8
AM_HID
  5
2AE
 10
0.787919
 20
5.32248
 30
0.000000
  70
    32
  0
VERTEX
  8
AM_HID
  5
2AF
 10
0.787170
 20
5.32194
 30
0.000000
  70
    32
  0
VERTEX
  8
AM_HID
  5
2B0
 10
0.786424
 20
5.32139
 30
0.000000
  70
    32
  0
VERTEX
  8
AM_HID
  5
2B1
 10
0.785680
 20
5.32084
 30
0.000000
  70
    32
  0
VERTEX
  8
AM_HID
  5
2B2
 10
0.784940
 20
5.32029
 30
0.000000
  70
    32
  0
VERTEX
  8
AM_HID
  5
2B3
 10
0.784202
 20
5.31974
 30
0.000000
  70
    32
  0
VERTEX
  8
AM_HID
  5
2B4
 10
0.783467
 20
5.31919
 30
0.000000
  70
    32
  0
VERTEX
  8
AM_HID
  5
2B5
 10
0.782736
 20
5.31863
 30
0.000000
  70
    32
  0
VERTEX
  8
AM_HID
  5
2B6
 10
0.782007
 20
5.31807
 30
0.000000
  70
    32
  0
VERTEX
  8
AM_HID
  5
2B7
 10
0.781281
 20
5.31750
 30
0.000000
  70
    32
  0
VERTEX
  8
AM_HID
  5
2B8
 10
0.780559
 20
5.31693
 30
0.000000
  70
    32
  0
VERTEX
  8
AM_HID
  5
2B9
 10
0.779839
 20
5.31636
 30
0.000000
  70
    32
  0
VERTEX
  8
AM_HID
  5
2BA
 10
0.779123
 20
5.31579
 30
0.000000
  70
    32
  0
VERTEX
  8
AM_HID
  5
2BB
 10
0.778410
 20
5.31522
 30
0.000000
  70
    32
  0
VERTEX
  8
AM_HID
  5
2BC
 10
0.777700
 20
5.31464
 30
0.000000
  70
    32
  0
VERTEX
  8
AM_HID
  5
2BD
 10
0.776993
 20
5.31406
 30
0.000000
  70
    32
  0
VERTEX
  8
AM_HID
  5
2BE
 10
0.776290
 20
5.31347
 30
0.000000
  70
    32
  0
VERTEX
  8
AM_HID
  5
2BF
 10
0.775590
 20
5.31288
 30
0.000000
  70
    32
  0
VERTEX
  8
AM_HID
  5
2C0
 10
0.774893
 20
5.31230
 30
0.000000
  70
    32
  0
VERTEX
  8
AM_HID
  5
2C1
 10
0.774199
 20
5.31170
 30
0.000000
  70
    32
  0
VERTEX
  8
AM_HID
  5
2C2
 10
0.773509
 20
5.31111
 30
0.000000
  70
    32
  0
VERTEX
  8
AM_HID
  5
2C3
 10
0.772822
 20
5.31051
 30
0.000000
  70
    32
  0
VERTEX
  8
AM_HID
  5
2C4
 10
0.772138
 20
5.30991
 30
0.000000
  70
    32
  0
VERTEX
  8
AM_HID
  5
2C5
 10
0.771458
 20
5.30931
 30
0.000000
  70
    32
  0
VERTEX
  8
AM_HID
  5
2C6
 10
0.770781
 20
5.30870
 30
0.000000
  70
    32
  0
VERTEX
  8
AM_HID
  5
2C7
 10
0.770108
 20
5.30809
 30
0.000000
  70
    32
  0
VERTEX
  8
AM_HID
  5
2C8
 10
0.769438
 20
5.30748
 30
0.000000
  70
    32
  0
VERTEX
  8
AM_HID
  5
2C9
 10
0.768772
 20
5.30687
 30
0.000000
  70
    32
  0
VERTEX
  8
AM_HID
  5
2CA
 10
0.768109
 20
5.30625
 30
0.000000
  70
    32
  0
VERTEX
  8
AM_HID
  5
2CB
 10
0.767450
 20
5.30563
 30
0.000000
  70
    32
  0
VERTEX
  8
AM_HID
  5
2CC
 10
0.766795
 20
5.30501
 30
0.000000
  70
    32
  0
VERTEX
  8
AM_HID
  5
2CD
 10
0.766143
 20
5.30438
 30
0.000000
  70
    32
  0
VERTEX
  8
AM_HID
  5
2CE
 10
0.765494
 20
5.30376
 30
0.000000
  70
    32
  0
VERTEX
  8
AM_HID
  5
2CF
 10
0.764850
 20
5.30313
 30
0.000000
  70
    32
  0
VERTEX
  8
AM_HID
  5
2D0
 10
0.764209
 20
5.30250
 30
0.000000
  70
    32
  0
VERTEX
  8
AM_HID
  5
2D1
 10
0.763572
 20
5.30186
 30
0.000000
  70
    32
  0
VERTEX
  8
AM_HID
  5
2D2
 10
0.762939
 20
5.30122
 30
0.000000
  70
    32
  0
VERTEX
  8
AM_HID
  5
2D3
 10
0.762309
 20
5.30058
 30
0.000000
  70
    32
  0
VERTEX
  8
AM_HID
  5
2D4
 10
0.761683
 20
5.29994
 30
0.000000
  70
    32
  0
VERTEX
  8
AM_HID
  5
2D5
 10
0.761061
 20
5.29929
 30
0.000000
  70
    32
  0
VERTEX
  8
AM_HID
  5
2D6
 10
0.760443
 20
5.29865
 30
0.000000
  70
    32
  0
VERTEX
  8
AM_HID
  5
2D7
 10
0.759829
 20
5.29800
 30
0.000000
  70
    32
  0
VERTEX
  8
AM_HID
  5
2D8
 10
0.759219
 20
5.29734
 30
0.000000
  70
    32
  0
VERTEX
  8
AM_HID
  5
2D9
 10
0.758612
 20
5.29669
 30
0.000000
  70
    32
  0
VERTEX
  8
AM_HID
  5
2DA
 10
0.758010
 20
5.29603
 30
0.000000
  70
    32
  0
VERTEX
  8
AM_HID
  5
2DB
 10
0.757412
 20
5.29537
 30
0.000000
  70
    32
  0
VERTEX
  8
AM_HID
  5
2DC
 10
0.756817
 20
5.29471
 30
0.000000
  70
    32
  0
VERTEX
  8
AM_HID
  5
2DD
 10
0.756227
 20
5.29404
 30
0.000000
  70
    32
  0
VERTEX
  8
AM_HID
  5
2DE
 10
0.755641
 20
5.29337
 30
0.000000
  70
    32
  0
VERTEX
  8
AM_HID
  5
2DF
 10
0.755059
 20
5.29270
 30
0.000000
  70
    32
  0
VERTEX
  8
AM_HID
  5
2E0
 10
0.754481
 20
5.29203
 30
0.000000
  70
    32
  0
VERTEX
  8
AM_HID
  5
2E1
 10
0.753907
 20
5.29135
 30
0.000000
  70
    32
  0
VERTEX
  8
AM_HID
  5
2E2
 10
0.753337
 20
5.29068
 30
0.000000
  70
    32
  0
VERTEX
  8
AM_HID
  5
2E3
 10
0.752772
 20
5.29000
 30
0.000000
  70
    32
  0
VERTEX
  8
AM_HID
  5
2E4
 10
0.752211
 20
5.28931
 30
0.000000
  70
    32
  0
VERTEX
  8
AM_HID
  5
2E5
 10
0.751654
 20
5.28863
 30
0.000000
  70
    32
  0
VERTEX
  8
AM_HID
  5
2E6
 10
0.751101
 20
5.28794
 30
0.000000
  70
    32
  0
VERTEX
  8
AM_HID
  5
2E7
 10
0.750553
 20
5.28725
 30
0.000000
  70
    32
  0
VERTEX
  8
AM_HID
  5
2E8
 10
0.750009
 20
5.28656
 30
0.000000
  70
    32
  0
VERTEX
  8
AM_HID
  5
2E9
 10
0.749469
 20
5.28587
 30
0.000000
  70
    32
  0
VERTEX
  8
AM_HID
  5
2EA
 10
0.748934
 20
5.28517
 30
0.000000
  70
    32
  0
VERTEX
  8
AM_HID
  5
2EB
 10
0.748403
 20
5.28447
 30
0.000000
  70
    32
  0
VERTEX
  8
AM_HID
  5
2EC
 10
0.747877
 20
5.28377
 30
0.000000
  70
    32
  0
VERTEX
  8
AM_HID
  5
2ED
 10
0.747355
 20
5.28306
 30
0.000000
  70
    32
  0
VERTEX
  8
AM_HID
  5
2EE
 10
0.746837
 20
5.28236
 30
0.000000
  70
    32
  0
VERTEX
  8
AM_HID
  5
2EF
 10
0.746324
 20
5.28165
 30
0.000000
  70
    32
  0
VERTEX
  8
AM_HID
  5
2F0
 10
0.745816
 20
5.28094
 30
0.000000
  70
    32
  0
VERTEX
  8
AM_HID
  5
2F1
 10
0.745312
 20
5.28023
 30
0.000000
  70
    32
  0
VERTEX
  8
AM_HID
  5
2F2
 10
0.744813
 20
5.27951
 30
0.000000
  70
    32
  0
VERTEX
  8
AM_HID
  5
2F3
 10
0.744318
 20
5.27879
 30
0.000000
  70
    32
  0
VERTEX
  8
AM_HID
  5
2F4
 10
0.743828
 20
5.27807
 30
0.000000
  70
    32
  0
VERTEX
  8
AM_HID
  5
2F5
 10
0.743343
 20
5.27735
 30
0.000000
  70
    32
  0
VERTEX
  8
AM_HID
  5
2F6
 10
0.742863
 20
5.27663
 30
0.000000
  70
    32
  0
VERTEX
  8
AM_HID
  5
2F7
 10
0.742387
 20
5.27590
 30
0.000000
  70
    32
  0
VERTEX
  8
AM_HID
  5
2F8
 10
0.741916
 20
5.27517
 30
0.000000
  70
    32
  0
VERTEX
  8
AM_HID
  5
2F9
 10
0.741450
 20
5.27444
 30
0.000000
  70
    32
  0
VERTEX
  8
AM_HID
  5
2FA
 10
0.740988
 20
5.27371
 30
0.000000
  70
    32
  0
VERTEX
  8
AM_HID
  5
2FB
 10
0.740532
 20
5.27297
 30
0.000000
  70
    32
  0
VERTEX
  8
AM_HID
  5
2FC
 10
0.740080
 20
5.27223
 30
0.000000
  70
    32
  0
VERTEX
  8
AM_HID
  5
2FD
 10
0.739633
 20
5.27149
 30
0.000000
  70
    32
  0
VERTEX
  8
AM_HID
  5
2FE
 10
0.739191
 20
5.27075
 30
0.000000
  70
    32
  0
VERTEX
  8
AM_HID
  5
2FF
 10
0.738754
 20
5.27001
 30
0.000000
  70
    32
  0
VERTEX
  8
AM_HID
  5
300
 10
0.738321
 20
5.26926
 30
0.000000
  70
    32
  0
VERTEX
  8
AM_HID
  5
301
 10
0.737893
 20
5.26851
 30
0.000000
  70
    32
  0
VERTEX
  8
AM_HID
  5
302
 10
0.737471
 20
5.26776
 30
0.000000
  70
    32
  0
VERTEX
  8
AM_HID
  5
303
 10
0.737052
 20
5.26701
 30
0.000000
  70
    32
  0
VERTEX
  8
AM_HID
  5
304
 10
0.736639
 20
5.26625
 30
0.000000
  70
    32
  0
VERTEX
  8
AM_HID
  5
305
 10
0.736230
 20
5.26550
 30
0.000000
  70
    32
  0
VERTEX
  8
AM_HID
  5
306
 10
0.735826
 20
5.26474
 30
0.000000
  70
    32
  0
VERTEX
  8
AM_HID
  5
307
 10
0.735427
 20
5.26398
 30
0.000000
  70
    32
  0
VERTEX
  8
AM_HID
  5
308
 10
0.735033
 20
5.26322
 30
0.000000
  70
    32
  0
VERTEX
  8
AM_HID
  5
309
 10
0.734643
 20
5.26245
 30
0.000000
  70
    32
  0
VERTEX
  8
AM_HID
  5
30A
 10
0.734258
 20
5.26169
 30
0.000000
  70
    32
  0
VERTEX
  8
AM_HID
  5
30B
 10
0.733877
 20
5.26092
 30
0.000000
  70
    32
  0
VERTEX
  8
AM_HID
  5
30C
 10
0.733501
 20
5.26015
 30
0.000000
  70
    32
  0
VERTEX
  8
AM_HID
  5
30D
 10
0.733130
 20
5.25938
 30
0.000000
  70
    32
  0
VERTEX
  8
AM_HID
  5
30E
 10
0.732763
 20
5.25861
 30
0.000000
  70
    32
  0
VERTEX
  8
AM_HID
  5
30F
 10
0.732401
 20
5.25783
 30
0.000000
  70
    32
  0
VERTEX
  8
AM_HID
  5
310
 10
0.732044
 20
5.25706
 30
0.000000
  70
    32
  0
VERTEX
  8
AM_HID
  5
311
 10
0.731691
 20
5.25628
 30
0.000000
  70
    32
  0
VERTEX
  8
AM_HID
  5
312
 10
0.731342
 20
5.25550
 30
0.000000
  70
    32
  0
VERTEX
  8
AM_HID
  5
313
 10
0.730998
 20
5.25472
 30
0.000000
  70
    32
  0
VERTEX
  8
AM_HID
  5
314
 10
0.730659
 20
5.25394
 30
0.000000
  70
    32
  0
VERTEX
  8
AM_HID
  5
315
 10
0.730324
 20
5.25316
 30
0.000000
  70
    32
  0
VERTEX
  8
AM_HID
  5
316
 10
0.729994
 20
5.25237
 30
0.000000
  70
    32
  0
VERTEX
  8
AM_HID
  5
317
 10
0.729668
 20
5.25158
 30
0.000000
  70
    32
  0
VERTEX
  8
AM_HID
  5
318
 10
0.729347
 20
5.25080
 30
0.000000
  70
    32
  0
VERTEX
  8
AM_HID
  5
319
 10
0.729030
 20
5.25001
 30
0.000000
  70
    32
  0
SEQEND
  8
AM_HID
  5
31A
  0
POLYLINE
  8
AM_VIS
  5
31B
  66
     1
 10
0.000000
 20
0.000000
 30
0.000000
  70
     8
  0
VERTEX
  8
AM_VIS
  5
31C
 10
0.729030
 20
5.25001
 30
0.000000
  70
    32
  0
VERTEX
  8
AM_VIS
  5
31D
 10
0.728642
 20
5.24899
 30
0.000000
  70
    32
  0
VERTEX
  8
AM_VIS
  5
31E
 10
0.728261
 20
5.24797
 30
0.000000
  70
    32
  0
VERTEX
  8
AM_VIS
  5
31F
 10
0.727888
 20
5.24695
 30
0.000000
  70
    32
  0
VERTEX
  8
AM_VIS
  5
320
 10
0.727522
 20
5.24593
 30
0.000000
  70
    32
  0
VERTEX
  8
AM_VIS
  5
321
 10
0.727165
 20
5.24490
 30
0.000000
  70
    32
  0
VERTEX
  8
AM_VIS
  5
322
 10
0.726815
 20
5.24388
 30
0.000000
  70
    32
  0
VERTEX
  8
AM_VIS
  5
323
 10
0.726473
 20
5.24285
 30
0.000000
  70
    32
  0
VERTEX
  8
AM_VIS
  5
324
 10
0.726138
 20
5.24182
 30
0.000000
  70
    32
  0
VERTEX
  8
AM_VIS
  5
325
 10
0.725811
 20
5.24078
 30
0.000000
  70
    32
  0
VERTEX
  8
AM_VIS
  5
326
 10
0.725492
 20
5.23975
 30
0.000000
  70
    32
  0
VERTEX
  8
AM_VIS
  5
327
 10
0.725181
 20
5.23871
 30
0.000000
  70
    32
  0
VERTEX
  8
AM_VIS
  5
328
 10
0.724878
 20
5.23767
 30
0.000000
  70
    32
  0
VERTEX
  8
AM_VIS
  5
329
 10
0.724582
 20
5.23663
 30
0.000000
  70
    32
  0
VERTEX
  8
AM_VIS
  5
32A
 10
0.724293
 20
5.23559
 30
0.000000
  70
    32
  0
VERTEX
  8
AM_VIS
  5
32B
 10
0.724013
 20
5.23455
 30
0.000000
  70
    32
  0
VERTEX
  8
AM_VIS
  5
32C
 10
0.723740
 20
5.23350
 30
0.000000
  70
    32
  0
VERTEX
  8
AM_VIS
  5
32D
 10
0.723475
 20
5.23246
 30
0.000000
  70
    32
  0
VERTEX
  8
AM_VIS
  5
32E
 10
0.723218
 20
5.23141
 30
0.000000
  70
    32
  0
VERTEX
  8
AM_VIS
  5
32F
 10
0.722968
 20
5.23036
 30
0.000000
  70
    32
  0
VERTEX
  8
AM_VIS
  5
330
 10
0.722726
 20
5.22931
 30
0.000000
  70
    32
  0
VERTEX
  8
AM_VIS
  5
331
 10
0.722492
 20
5.22825
 30
0.000000
  70
    32
  0
VERTEX
  8
AM_VIS
  5
332
 10
0.722265
 20
5.22720
 30
0.000000
  70
    32
  0
VERTEX
  8
AM_VIS
  5
333
 10
0.722046
 20
5.22615
 30
0.000000
  70
    32
  0
VERTEX
  8
AM_VIS
  5
334
 10
0.721835
 20
5.22509
 30
0.000000
  70
    32
  0
VERTEX
  8
AM_VIS
  5
335
 10
0.721631
 20
5.22403
 30
0.000000
  70
    32
  0
VERTEX
  8
AM_VIS
  5
336
 10
0.721436
 20
5.22298
 30
0.000000
  70
    32
  0
VERTEX
  8
AM_VIS
  5
337
 10
0.721247
 20
5.22192
 30
0.000000
  70
    32
  0
VERTEX
  8
AM_VIS
  5
338
 10
0.721067
 20
5.22086
 30
0.000000
  70
    32
  0
VERTEX
  8
AM_VIS
  5
339
 10
0.720894
 20
5.21980
 30
0.000000
  70
    32
  0
VERTEX
  8
AM_VIS
  5
33A
 10
0.720729
 20
5.21873
 30
0.000000
  70
    32
  0
VERTEX
  8
AM_VIS
  5
33B
 10
0.720572
 20
5.21767
 30
0.000000
  70
    32
  0
VERTEX
  8
AM_VIS
  5
33C
 10
0.720422
 20
5.21661
 30
0.000000
  70
    32
  0
VERTEX
  8
AM_VIS
  5
33D
 10
0.720280
 20
5.21555
 30
0.000000
  70
    32
  0
VERTEX
  8
AM_VIS
  5
33E
 10
0.720145
 20
5.21448
 30
0.000000
  70
    32
  0
VERTEX
  8
AM_VIS
  5
33F
 10
0.720019
 20
5.21342
 30
0.000000
  70
    32
  0
VERTEX
  8
AM_VIS
  5
340
 10
0.719900
 20
5.21235
 30
0.000000
  70
    32
  0
VERTEX
  8
AM_VIS
  5
341
 10
0.719788
 20
5.21129
 30
0.000000
  70
    32
  0
VERTEX
  8
AM_VIS
  5
342
 10
0.719684
 20
5.21022
 30
0.000000
  70
    32
  0
VERTEX
  8
AM_VIS
  5
343
 10
0.719588
 20
5.20915
 30
0.000000
  70
    32
  0
VERTEX
  8
AM_VIS
  5
344
 10
0.719500
 20
5.20809
 30
0.000000
  70
    32
  0
VERTEX
  8
AM_VIS
  5
345
 10
0.719419
 20
5.20702
 30
0.000000
  70
    32
  0
VERTEX
  8
AM_VIS
  5
346
 10
0.719346
 20
5.20595
 30
0.000000
  70
    32
  0
VERTEX
  8
AM_VIS
  5
347
 10
0.719281
 20
5.20488
 30
0.000000
  70
    32
  0
VERTEX
  8
AM_VIS
  5
348
 10
0.719223
 20
5.20382
 30
0.000000
  70
    32
  0
VERTEX
  8
AM_VIS
  5
349
 10
0.719173
 20
5.20275
 30
0.000000
  70
    32
  0
VERTEX
  8
AM_VIS
  5
34A
 10
0.719130
 20
5.20168
 30
0.000000
  70
    32
  0
VERTEX
  8
AM_VIS
  5
34B
 10
0.719095
 20
5.20061
 30
0.000000
  70
    32
  0
VERTEX
  8
AM_VIS
  5
34C
 10
0.719068
 20
5.19955
 30
0.000000
  70
    32
  0
VERTEX
  8
AM_VIS
  5
34D
 10
0.719049
 20
5.19848
 30
0.000000
  70
    32
  0
VERTEX
  8
AM_VIS
  5
34E
 10
0.719037
 20
5.19741
 30
0.000000
  70
    32
  0
VERTEX
  8
AM_VIS
  5
34F
 10
0.719033
 20
5.19634
 30
0.000000
  70
    32
  0
VERTEX
  8
AM_VIS
  5
350
 10
0.719036
 20
5.19528
 30
0.000000
  70
    32
  0
VERTEX
  8
AM_VIS
  5
351
 10
0.719047
 20
5.19420
 30
0.000000
  70
    32
  0
VERTEX
  8
AM_VIS
  5
352
 10
0.719066
 20
5.19313
 30
0.000000
  70
    32
  0
VERTEX
  8
AM_VIS
  5
353
 10
0.719092
 20
5.19205
 30
0.000000
  70
    32
  0
VERTEX
  8
AM_VIS
  5
354
 10
0.719126
 20
5.19097
 30
0.000000
  70
    32
  0
VERTEX
  8
AM_VIS
  5
355
 10
0.719168
 20
5.18988
 30
0.000000
  70
    32
  0
VERTEX
  8
AM_VIS
  5
356
 10
0.719217
 20
5.18879
 30
0.000000
  70
    32
  0
VERTEX
  8
AM_VIS
  5
357
 10
0.719274
 20
5.18770
 30
0.000000
  70
    32
  0
VERTEX
  8
AM_VIS
  5
358
 10
0.719339
 20
5.18661
 30
0.000000
  70
    32
  0
VERTEX
  8
AM_VIS
  5
359
 10
0.719411
 20
5.18551
 30
0.000000
  70
    32
  0
VERTEX
  8
AM_VIS
  5
35A
 10
0.719491
 20
5.18441
 30
0.000000
  70
    32
  0
VERTEX
  8
AM_VIS
  5
35B
 10
0.719579
 20
5.18331
 30
0.000000
  70
    32
  0
VERTEX
  8
AM_VIS
  5
35C
 10
0.719674
 20
5.18220
 30
0.000000
  70
    32
  0
VERTEX
  8
AM_VIS
  5
35D
 10
0.719778
 20
5.18109
 30
0.000000
  70
    32
  0
VERTEX
  8
AM_VIS
  5
35E
 10
0.719888
 20
5.17998
 30
0.000000
  70
    32
  0
VERTEX
  8
AM_VIS
  5
35F
 10
0.720007
 20
5.17887
 30
0.000000
  70
    32
  0
VERTEX
  8
AM_VIS
  5
360
 10
0.720133
 20
5.17775
 30
0.000000
  70
    32
  0
VERTEX
  8
AM_VIS
  5
361
 10
0.720267
 20
5.17663
 30
0.000000
  70
    32
  0
VERTEX
  8
AM_VIS
  5
362
 10
0.720409
 20
5.17551
 30
0.000000
  70
    32
  0
VERTEX
  8
AM_VIS
  5
363
 10
0.720558
 20
5.17439
 30
0.000000
  70
    32
  0
VERTEX
  8
AM_VIS
  5
364
 10
0.720715
 20
5.17326
 30
0.000000
  70
    32
  0
VERTEX
  8
AM_VIS
  5
365
 10
0.720880
 20
5.17213
 30
0.000000
  70
    32
  0
VERTEX
  8
AM_VIS
  5
366
 10
0.721053
 20
5.17100
 30
0.000000
  70
    32
  0
VERTEX
  8
AM_VIS
  5
367
 10
0.721233
 20
5.16987
 30
0.000000
  70
    32
  0
VERTEX
  8
AM_VIS
  5
368
 10
0.721421
 20
5.16873
 30
0.000000
  70
    32
  0
VERTEX
  8
AM_VIS
  5
369
 10
0.721617
 20
5.16760
 30
0.000000
  70
    32
  0
VERTEX
  8
AM_VIS
  5
36A
 10
0.721820
 20
5.16646
 30
0.000000
  70
    32
  0
VERTEX
  8
AM_VIS
  5
36B
 10
0.722032
 20
5.16532
 30
0.000000
  70
    32
  0
VERTEX
  8
AM_VIS
  5
36C
 10
0.722251
 20
5.16418
 30
0.000000
  70
    32
  0
VERTEX
  8
AM_VIS
  5
36D
 10
0.722478
 20
5.16303
 30
0.000000
  70
    32
  0
VERTEX
  8
AM_VIS
  5
36E
 10
0.722712
 20
5.16188
 30
0.000000
  70
    32
  0
VERTEX
  8
AM_VIS
  5
36F
 10
0.722955
 20
5.16074
 30
0.000000
  70
    32
  0
VERTEX
  8
AM_VIS
  5
370
 10
0.723205
 20
5.15959
 30
0.000000
  70
    32
  0
VERTEX
  8
AM_VIS
  5
371
 10
0.723463
 20
5.15844
 30
0.000000
  70
    32
  0
VERTEX
  8
AM_VIS
  5
372
 10
0.723728
 20
5.15728
 30
0.000000
  70
    32
  0
VERTEX
  8
AM_VIS
  5
373
 10
0.724002
 20
5.15613
 30
0.000000
  70
    32
  0
VERTEX
  8
AM_VIS
  5
374
 10
0.724283
 20
5.15498
 30
0.000000
  70
    32
  0
VERTEX
  8
AM_VIS
  5
375
 10
0.724572
 20
5.15382
 30
0.000000
  70
    32
  0
VERTEX
  8
AM_VIS
  5
376
 10
0.724869
 20
5.15266
 30
0.000000
  70
    32
  0
VERTEX
  8
AM_VIS
  5
377
 10
0.725174
 20
5.15150
 30
0.000000
  70
    32
  0
VERTEX
  8
AM_VIS
  5
378
 10
0.725486
 20
5.15034
 30
0.000000
  70
    32
  0
VERTEX
  8
AM_VIS
  5
379
 10
0.725807
 20
5.14918
 30
0.000000
  70
    32
  0
VERTEX
  8
AM_VIS
  5
37A
 10
0.726135
 20
5.14802
 30
0.000000
  70
    32
  0
VERTEX
  8
AM_VIS
  5
37B
 10
0.726471
 20
5.14686
 30
0.000000
  70
    32
  0
VERTEX
  8
AM_VIS
  5
37C
 10
0.726814
 20
5.14569
 30
0.000000
  70
    32
  0
VERTEX
  8
AM_VIS
  5
37D
 10
0.727166
 20
5.14453
 30
0.000000
  70
    32
  0
VERTEX
  8
AM_VIS
  5
37E
 10
0.727525
 20
5.14336
 30
0.000000
  70
    32
  0
VERTEX
  8
AM_VIS
  5
37F
 10
0.727893
 20
5.14220
 30
0.000000
  70
    32
  0
VERTEX
  8
AM_VIS
  5
380
 10
0.728268
 20
5.14103
 30
0.000000
  70
    32
  0
VERTEX
  8
AM_VIS
  5
381
 10
0.728651
 20
5.13986
 30
0.000000
  70
    32
  0
VERTEX
  8
AM_VIS
  5
382
 10
0.729042
 20
5.13870
 30
0.000000
  70
    32
  0
VERTEX
  8
AM_VIS
  5
383
 10
0.729440
 20
5.13753
 30
0.000000
  70
    32
  0
VERTEX
  8
AM_VIS
  5
384
 10
0.729847
 20
5.13636
 30
0.000000
  70
    32
  0
VERTEX
  8
AM_VIS
  5
385
 10
0.730261
 20
5.13519
 30
0.000000
  70
    32
  0
VERTEX
  8
AM_VIS
  5
386
 10
0.730683
 20
5.13402
 30
0.000000
  70
    32
  0
VERTEX
  8
AM_VIS
  5
387
 10
0.731114
 20
5.13285
 30
0.000000
  70
    32
  0
VERTEX
  8
AM_VIS
  5
388
 10
0.731552
 20
5.13168
 30
0.000000
  70
    32
  0
VERTEX
  8
AM_VIS
  5
389
 10
0.731997
 20
5.13051
 30
0.000000
  70
    32
  0
VERTEX
  8
AM_VIS
  5
38A
 10
0.732451
 20
5.12934
 30
0.000000
  70
    32
  0
VERTEX
  8
AM_VIS
  5
38B
 10
0.732913
 20
5.12817
 30
0.000000
  70
    32
  0
VERTEX
  8
AM_VIS
  5
38C
 10
0.733382
 20
5.12700
 30
0.000000
  70
    32
  0
VERTEX
  8
AM_VIS
  5
38D
 10
0.733860
 20
5.12584
 30
0.000000
  70
    32
  0
VERTEX
  8
AM_VIS
  5
38E
 10
0.734345
 20
5.12467
 30
0.000000
  70
    32
  0
VERTEX
  8
AM_VIS
  5
38F
 10
0.734838
 20
5.12350
 30
0.000000
  70
    32
  0
VERTEX
  8
AM_VIS
  5
390
 10
0.735339
 20
5.12233
 30
0.000000
  70
    32
  0
VERTEX
  8
AM_VIS
  5
391
 10
0.735848
 20
5.12116
 30
0.000000
  70
    32
  0
VERTEX
  8
AM_VIS
  5
392
 10
0.736365
 20
5.11999
 30
0.000000
  70
    32
  0
VERTEX
  8
AM_VIS
  5
393
 10
0.736890
 20
5.11883
 30
0.000000
  70
    32
  0
VERTEX
  8
AM_VIS
  5
394
 10
0.737423
 20
5.11766
 30
0.000000
  70
    32
  0
VERTEX
  8
AM_VIS
  5
395
 10
0.737964
 20
5.11649
 30
0.000000
  70
    32
  0
VERTEX
  8
AM_VIS
  5
396
 10
0.738513
 20
5.11533
 30
0.000000
  70
    32
  0
VERTEX
  8
AM_VIS
  5
397
 10
0.739069
 20
5.11416
 30
0.000000
  70
    32
  0
VERTEX
  8
AM_VIS
  5
398
 10
0.739634
 20
5.11300
 30
0.000000
  70
    32
  0
VERTEX
  8
AM_VIS
  5
399
 10
0.740206
 20
5.11184
 30
0.000000
  70
    32
  0
VERTEX
  8
AM_VIS
  5
39A
 10
0.740787
 20
5.11068
 30
0.000000
  70
    32
  0
VERTEX
  8
AM_VIS
  5
39B
 10
0.741375
 20
5.10952
 30
0.000000
  70
    32
  0
VERTEX
  8
AM_VIS
  5
39C
 10
0.741971
 20
5.10836
 30
0.000000
  70
    32
  0
VERTEX
  8
AM_VIS
  5
39D
 10
0.742575
 20
5.10720
 30
0.000000
  70
    32
  0
VERTEX
  8
AM_VIS
  5
39E
 10
0.743187
 20
5.10604
 30
0.000000
  70
    32
  0
VERTEX
  8
AM_VIS
  5
39F
 10
0.743807
 20
5.10488
 30
0.000000
  70
    32
  0
VERTEX
  8
AM_VIS
  5
3A0
 10
0.744434
 20
5.10373
 30
0.000000
  70
    32
  0
VERTEX
  8
AM_VIS
  5
3A1
 10
0.745069
 20
5.10258
 30
0.000000
  70
    32
  0
VERTEX
  8
AM_VIS
  5
3A2
 10
0.745711
 20
5.10142
 30
0.000000
  70
    32
  0
VERTEX
  8
AM_VIS
  5
3A3
 10
0.746361
 20
5.10027
 30
0.000000
  70
    32
  0
VERTEX
  8
AM_VIS
  5
3A4
 10
0.747018
 20
5.09913
 30
0.000000
  70
    32
  0
VERTEX
  8
AM_VIS
  5
3A5
 10
0.747683
 20
5.09798
 30
0.000000
  70
    32
  0
VERTEX
  8
AM_VIS
  5
3A6
 10
0.748355
 20
5.09683
 30
0.000000
  70
    32
  0
VERTEX
  8
AM_VIS
  5
3A7
 10
0.749034
 20
5.09569
 30
0.000000
  70
    32
  0
VERTEX
  8
AM_VIS
  5
3A8
 10
0.749721
 20
5.09455
 30
0.000000
  70
    32
  0
VERTEX
  8
AM_VIS
  5
3A9
 10
0.750415
 20
5.09341
 30
0.000000
  70
    32
  0
VERTEX
  8
AM_VIS
  5
3AA
 10
0.751115
 20
5.09227
 30
0.000000
  70
    32
  0
VERTEX
  8
AM_VIS
  5
3AB
 10
0.751823
 20
5.09114
 30
0.000000
  70
    32
  0
VERTEX
  8
AM_VIS
  5
3AC
 10
0.752538
 20
5.09000
 30
0.000000
  70
    32
  0
VERTEX
  8
AM_VIS
  5
3AD
 10
0.753260
 20
5.08887
 30
0.000000
  70
    32
  0
VERTEX
  8
AM_VIS
  5
3AE
 10
0.753988
 20
5.08774
 30
0.000000
  70
    32
  0
VERTEX
  8
AM_VIS
  5
3AF
 10
0.754724
 20
5.08661
 30
0.000000
  70
    32
  0
VERTEX
  8
AM_VIS
  5
3B0
 10
0.755466
 20
5.08549
 30
0.000000
  70
    32
  0
VERTEX
  8
AM_VIS
  5
3B1
 10
0.756215
 20
5.08437
 30
0.000000
  70
    32
  0
VERTEX
  8
AM_VIS
  5
3B2
 10
0.756971
 20
5.08324
 30
0.000000
  70
    32
  0
VERTEX
  8
AM_VIS
  5
3B3
 10
0.757733
 20
5.08213
 30
0.000000
  70
    32
  0
VERTEX
  8
AM_VIS
  5
3B4
 10
0.758502
 20
5.08101
 30
0.000000
  70
    32
  0
VERTEX
  8
AM_VIS
  5
3B5
 10
0.759277
 20
5.07990
 30
0.000000
  70
    32
  0
VERTEX
  8
AM_VIS
  5
3B6
 10
0.760059
 20
5.07879
 30
0.000000
  70
    32
  0
VERTEX
  8
AM_VIS
  5
3B7
 10
0.760847
 20
5.07768
 30
0.000000
  70
    32
  0
VERTEX
  8
AM_VIS
  5
3B8
 10
0.761642
 20
5.07658
 30
0.000000
  70
    32
  0
VERTEX
  8
AM_VIS
  5
3B9
 10
0.762442
 20
5.07547
 30
0.000000
  70
    32
  0
VERTEX
  8
AM_VIS
  5
3BA
 10
0.763249
 20
5.07438
 30
0.000000
  70
    32
  0
VERTEX
  8
AM_VIS
  5
3BB
 10
0.764063
 20
5.07328
 30
0.000000
  70
    32
  0
VERTEX
  8
AM_VIS
  5
3BC
 10
0.764882
 20
5.07219
 30
0.000000
  70
    32
  0
VERTEX
  8
AM_VIS
  5
3BD
 10
0.765707
 20
5.07110
 30
0.000000
  70
    32
  0
VERTEX
  8
AM_VIS
  5
3BE
 10
0.766539
 20
5.07001
 30
0.000000
  70
    32
  0
VERTEX
  8
AM_VIS
  5
3BF
 10
0.767376
 20
5.06893
 30
0.000000
  70
    32
  0
VERTEX
  8
AM_VIS
  5
3C0
 10
0.768219
 20
5.06784
 30
0.000000
  70
    32
  0
VERTEX
  8
AM_VIS
  5
3C1
 10
0.769068
 20
5.06677
 30
0.000000
  70
    32
  0
VERTEX
  8
AM_VIS
  5
3C2
 10
0.769923
 20
5.06569
 30
0.000000
  70
    32
  0
VERTEX
  8
AM_VIS
  5
3C3
 10
0.770784
 20
5.06462
 30
0.000000
  70
    32
  0
VERTEX
  8
AM_VIS
  5
3C4
 10
0.771650
 20
5.06356
 30
0.000000
  70
    32
  0
VERTEX
  8
AM_VIS
  5
3C5
 10
0.772522
 20
5.06249
 30
0.000000
  70
    32
  0
VERTEX
  8
AM_VIS
  5
3C6
 10
0.773399
 20
5.06143
 30
0.000000
  70
    32
  0
VERTEX
  8
AM_VIS
  5
3C7
 10
0.774282
 20
5.06038
 30
0.000000
  70
    32
  0
VERTEX
  8
AM_VIS
  5
3C8
 10
0.775170
 20
5.05932
 30
0.000000
  70
    32
  0
VERTEX
  8
AM_VIS
  5
3C9
 10
0.776064
 20
5.05827
 30
0.000000
  70
    32
  0
VERTEX
  8
AM_VIS
  5
3CA
 10
0.776963
 20
5.05723
 30
0.000000
  70
    32
  0
VERTEX
  8
AM_VIS
  5
3CB
 10
0.777868
 20
5.05619
 30
0.000000
  70
    32
  0
VERTEX
  8
AM_VIS
  5
3CC
 10
0.778777
 20
5.05515
 30
0.000000
  70
    32
  0
VERTEX
  8
AM_VIS
  5
3CD
 10
0.779692
 20
5.05411
 30
0.000000
  70
    32
  0
VERTEX
  8
AM_VIS
  5
3CE
 10
0.780612
 20
5.05309
 30
0.000000
  70
    32
  0
VERTEX
  8
AM_VIS
  5
3CF
 10
0.781537
 20
5.05206
 30
0.000000
  70
    32
  0
VERTEX
  8
AM_VIS
  5
3D0
 10
0.782467
 20
5.05104
 30
0.000000
  70
    32
  0
VERTEX
  8
AM_VIS
  5
3D1
 10
0.783402
 20
5.05002
 30
0.000000
  70
    32
  0
VERTEX
  8
AM_VIS
  5
3D2
 10
0.784342
 20
5.04901
 30
0.000000
  70
    32
  0
VERTEX
  8
AM_VIS
  5
3D3
 10
0.785287
 20
5.04800
 30
0.000000
  70
    32
  0
VERTEX
  8
AM_VIS
  5
3D4
 10
0.786236
 20
5.04700
 30
0.000000
  70
    32
  0
VERTEX
  8
AM_VIS
  5
3D5
 10
0.787191
 20
5.04600
 30
0.000000
  70
    32
  0
VERTEX
  8
AM_VIS
  5
3D6
 10
0.788150
 20
5.04500
 30
0.000000
  70
    32
  0
VERTEX
  8
AM_VIS
  5
3D7
 10
0.789113
 20
5.04401
 30
0.000000
  70
    32
  0
VERTEX
  8
AM_VIS
  5
3D8
 10
0.790081
 20
5.04302
 30
0.000000
  70
    32
  0
VERTEX
  8
AM_VIS
  5
3D9
 10
0.791054
 20
5.04204
 30
0.000000
  70
    32
  0
VERTEX
  8
AM_VIS
  5
3DA
 10
0.792031
 20
5.04106
 30
0.000000
  70
    32
  0
VERTEX
  8
AM_VIS
  5
3DB
 10
0.793013
 20
5.04009
 30
0.000000
  70
    32
  0
VERTEX
  8
AM_VIS
  5
3DC
 10
0.793999
 20
5.03913
 30
0.000000
  70
    32
  0
VERTEX
  8
AM_VIS
  5
3DD
 10
0.794989
 20
5.03816
 30
0.000000
  70
    32
  0
VERTEX
  8
AM_VIS
  5
3DE
 10
0.795983
 20
5.03721
 30
0.000000
  70
    32
  0
VERTEX
  8
AM_VIS
  5
3DF
 10
0.796982
 20
5.03625
 30
0.000000
  70
    32
  0
VERTEX
  8
AM_VIS
  5
3E0
 10
0.797985
 20
5.03531
 30
0.000000
  70
    32
  0
VERTEX
  8
AM_VIS
  5
3E1
 10
0.798991
 20
5.03436
 30
0.000000
  70
    32
  0
VERTEX
  8
AM_VIS
  5
3E2
 10
0.800002
 20
5.03343
 30
0.000000
  70
    32
  0
VERTEX
  8
AM_VIS
  5
3E3
 10
0.801017
 20
5.03249
 30
0.000000
  70
    32
  0
VERTEX
  8
AM_VIS
  5
3E4
 10
0.802036
 20
5.03157
 30
0.000000
  70
    32
  0
VERTEX
  8
AM_VIS
  5
3E5
 10
0.803059
 20
5.03065
 30
0.000000
  70
    32
  0
VERTEX
  8
AM_VIS
  5
3E6
 10
0.804089
 20
5.02973
 30
0.000000
  70
    32
  0
VERTEX
  8
AM_VIS
  5
3E7
 10
0.805126
 20
5.02881
 30
0.000000
  70
    32
  0
VERTEX
  8
AM_VIS
  5
3E8
 10
0.806171
 20
5.02790
 30
0.000000
  70
    32
  0
VERTEX
  8
AM_VIS
  5
3E9
 10
0.807223
 20
5.02698
 30
0.000000
  70
    32
  0
VERTEX
  8
AM_VIS
  5
3EA
 10
0.808283
 20
5.02607
 30
0.000000
  70
    32
  0
VERTEX
  8
AM_VIS
  5
3EB
 10
0.809350
 20
5.02517
 30
0.000000
  70
    32
  0
VERTEX
  8
AM_VIS
  5
3EC
 10
0.810424
 20
5.02426
 30
0.000000
  70
    32
  0
VERTEX
  8
AM_VIS
  5
3ED
 10
0.811505
 20
5.02336
 30
0.000000
  70
    32
  0
VERTEX
  8
AM_VIS
  5
3EE
 10
0.812594
 20
5.02246
 30
0.000000
  70
    32
  0
VERTEX
  8
AM_VIS
  5
3EF
 10
0.813689
 20
5.02156
 30
0.000000
  70
    32
  0
VERTEX
  8
AM_VIS
  5
3F0
 10
0.814792
 20
5.02067
 30
0.000000
  70
    32
  0
VERTEX
  8
AM_VIS
  5
3F1
 10
0.815902
 20
5.01978
 30
0.000000
  70
    32
  0
VERTEX
  8
AM_VIS
  5
3F2
 10
0.817018
 20
5.01889
 30
0.000000
  70
    32
  0
VERTEX
  8
AM_VIS
  5
3F3
 10
0.818142
 20
5.01800
 30
0.000000
  70
    32
  0
VERTEX
  8
AM_VIS
  5
3F4
 10
0.819272
 20
5.01712
 30
0.000000
  70
    32
  0
VERTEX
  8
AM_VIS
  5
3F5
 10
0.820409
 20
5.01624
 30
0.000000
  70
    32
  0
VERTEX
  8
AM_VIS
  5
3F6
 10
0.821553
 20
5.01536
 30
0.000000
  70
    32
  0
VERTEX
  8
AM_VIS
  5
3F7
 10
0.822704
 20
5.01449
 30
0.000000
  70
    32
  0
VERTEX
  8
AM_VIS
  5
3F8
 10
0.823861
 20
5.01362
 30
0.000000
  70
    32
  0
VERTEX
  8
AM_VIS
  5
3F9
 10
0.825025
 20
5.01276
 30
0.000000
  70
    32
  0
VERTEX
  8
AM_VIS
  5
3FA
 10
0.826195
 20
5.01189
 30
0.000000
  70
    32
  0
VERTEX
  8
AM_VIS
  5
3FB
 10
0.827372
 20
5.01103
 30
0.000000
  70
    32
  0
VERTEX
  8
AM_VIS
  5
3FC
 10
0.828555
 20
5.01018
 30
0.000000
  70
    32
  0
VERTEX
  8
AM_VIS
  5
3FD
 10
0.829745
 20
5.00933
 30
0.000000
  70
    32
  0
VERTEX
  8
AM_VIS
  5
3FE
 10
0.830941
 20
5.00848
 30
0.000000
  70
    32
  0
VERTEX
  8
AM_VIS
  5
3FF
 10
0.832143
 20
5.00763
 30
0.000000
  70
    32
  0
VERTEX
  8
AM_VIS
  5
400
 10
0.833352
 20
5.00679
 30
0.000000
  70
    32
  0
VERTEX
  8
AM_VIS
  5
401
 10
0.834567
 20
5.00595
 30
0.000000
  70
    32
  0
VERTEX
  8
AM_VIS
  5
402
 10
0.835788
 20
5.00512
 30
0.000000
  70
    32
  0
VERTEX
  8
AM_VIS
  5
403
 10
0.837015
 20
5.00429
 30
0.000000
  70
    32
  0
VERTEX
  8
AM_VIS
  5
404
 10
0.838248
 20
5.00347
 30
0.000000
  70
    32
  0
VERTEX
  8
AM_VIS
  5
405
 10
0.839487
 20
5.00265
 30
0.000000
  70
    32
  0
VERTEX
  8
AM_VIS
  5
406
 10
0.840732
 20
5.00183
 30
0.000000
  70
    32
  0
VERTEX
  8
AM_VIS
  5
407
 10
0.841983
 20
5.00102
 30
0.000000
  70
    32
  0
VERTEX
  8
AM_VIS
  5
408
 10
0.843239
 20
5.00021
 30
0.000000
  70
    32
  0
VERTEX
  8
AM_VIS
  5
409
 10
0.844502
 20
4.99941
 30
0.000000
  70
    32
  0
VERTEX
  8
AM_VIS
  5
40A
 10
0.845770
 20
4.99861
 30
0.000000
  70
    32
  0
VERTEX
  8
AM_VIS
  5
40B
 10
0.847044
 20
4.99781
 30
0.000000
  70
    32
  0
VERTEX
  8
AM_VIS
  5
40C
 10
0.848324
 20
4.99702
 30
0.000000
  70
    32
  0
VERTEX
  8
AM_VIS
  5
40D
 10
0.849609
 20
4.99624
 30
0.000000
  70
    32
  0
VERTEX
  8
AM_VIS
  5
40E
 10
0.850900
 20
4.99546
 30
0.000000
  70
    32
  0
VERTEX
  8
AM_VIS
  5
40F
 10
0.852196
 20
4.99468
 30
0.000000
  70
    32
  0
VERTEX
  8
AM_VIS
  5
410
 10
0.853497
 20
4.99391
 30
0.000000
  70
    32
  0
VERTEX
  8
AM_VIS
  5
411
 10
0.854804
 20
4.99315
 30
0.000000
  70
    32
  0
VERTEX
  8
AM_VIS
  5
412
 10
0.856117
 20
4.99239
 30
0.000000
  70
    32
  0
VERTEX
  8
AM_VIS
  5
413
 10
0.857434
 20
4.99163
 30
0.000000
  70
    32
  0
VERTEX
  8
AM_VIS
  5
414
 10
0.858757
 20
4.99088
 30
0.000000
  70
    32
  0
VERTEX
  8
AM_VIS
  5
415
 10
0.860085
 20
4.99014
 30
0.000000
  70
    32
  0
VERTEX
  8
AM_VIS
  5
416
 10
0.861418
 20
4.98940
 30
0.000000
  70
    32
  0
VERTEX
  8
AM_VIS
  5
417
 10
0.862757
 20
4.98867
 30
0.000000
  70
    32
  0
VERTEX
  8
AM_VIS
  5
418
 10
0.864100
 20
4.98794
 30
0.000000
  70
    32
  0
VERTEX
  8
AM_VIS
  5
419
 10
0.865448
 20
4.98722
 30
0.000000
  70
    32
  0
VERTEX
  8
AM_VIS
  5
41A
 10
0.866802
 20
4.98650
 30
0.000000
  70
    32
  0
VERTEX
  8
AM_VIS
  5
41B
 10
0.868160
 20
4.98579
 30
0.000000
  70
    32
  0
VERTEX
  8
AM_VIS
  5
41C
 10
0.869523
 20
4.98508
 30
0.000000
  70
    32
  0
VERTEX
  8
AM_VIS
  5
41D
 10
0.870890
 20
4.98438
 30
0.000000
  70
    32
  0
VERTEX
  8
AM_VIS
  5
41E
 10
0.872263
 20
4.98369
 30
0.000000
  70
    32
  0
VERTEX
  8
AM_VIS
  5
41F
 10
0.873640
 20
4.98300
 30
0.000000
  70
    32
  0
VERTEX
  8
AM_VIS
  5
420
 10
0.875022
 20
4.98232
 30
0.000000
  70
    32
  0
VERTEX
  8
AM_VIS
  5
421
 10
0.876408
 20
4.98164
 30
0.000000
  70
    32
  0
VERTEX
  8
AM_VIS
  5
422
 10
0.877799
 20
4.98097
 30
0.000000
  70
    32
  0
VERTEX
  8
AM_VIS
  5
423
 10
0.879195
 20
4.98031
 30
0.000000
  70
    32
  0
VERTEX
  8
AM_VIS
  5
424
 10
0.880594
 20
4.97965
 30
0.000000
  70
    32
  0
VERTEX
  8
AM_VIS
  5
425
 10
0.881999
 20
4.97900
 30
0.000000
  70
    32
  0
VERTEX
  8
AM_VIS
  5
426
 10
0.883407
 20
4.97835
 30
0.000000
  70
    32
  0
VERTEX
  8
AM_VIS
  5
427
 10
0.884820
 20
4.97771
 30
0.000000
  70
    32
  0
VERTEX
  8
AM_VIS
  5
428
 10
0.886237
 20
4.97708
 30
0.000000
  70
    32
  0
VERTEX
  8
AM_VIS
  5
429
 10
0.887658
 20
4.97646
 30
0.000000
  70
    32
  0
VERTEX
  8
AM_VIS
  5
42A
 10
0.889084
 20
4.97584
 30
0.000000
  70
    32
  0
VERTEX
  8
AM_VIS
  5
42B
 10
0.890513
 20
4.97523
 30
0.000000
  70
    32
  0
VERTEX
  8
AM_VIS
  5
42C
 10
0.891947
 20
4.97462
 30
0.000000
  70
    32
  0
VERTEX
  8
AM_VIS
  5
42D
 10
0.893384
 20
4.97403
 30
0.000000
  70
    32
  0
VERTEX
  8
AM_VIS
  5
42E
 10
0.894826
 20
4.97343
 30
0.000000
  70
    32
  0
VERTEX
  8
AM_VIS
  5
42F
 10
0.896271
 20
4.97285
 30
0.000000
  70
    32
  0
VERTEX
  8
AM_VIS
  5
430
 10
0.897720
 20
4.97227
 30
0.000000
  70
    32
  0
VERTEX
  8
AM_VIS
  5
431
 10
0.899173
 20
4.97170
 30
0.000000
  70
    32
  0
VERTEX
  8
AM_VIS
  5
432
 10
0.900630
 20
4.97114
 30
0.000000
  70
    32
  0
VERTEX
  8
AM_VIS
  5
433
 10
0.902090
 20
4.97059
 30
0.000000
  70
    32
  0
VERTEX
  8
AM_VIS
  5
434
 10
0.903554
 20
4.97004
 30
0.000000
  70
    32
  0
VERTEX
  8
AM_VIS
  5
435
 10
0.905021
 20
4.96950
 30
0.000000
  70
    32
  0
VERTEX
  8
AM_VIS
  5
436
 10
0.906492
 20
4.96897
 30
0.000000
  70
    32
  0
VERTEX
  8
AM_VIS
  5
437
 10
0.907966
 20
4.96844
 30
0.000000
  70
    32
  0
VERTEX
  8
AM_VIS
  5
438
 10
0.909443
 20
4.96792
 30
0.000000
  70
    32
  0
VERTEX
  8
AM_VIS
  5
439
 10
0.910924
 20
4.96741
 30
0.000000
  70
    32
  0
VERTEX
  8
AM_VIS
  5
43A
 10
0.912407
 20
4.96691
 30
0.000000
  70
    32
  0
VERTEX
  8
AM_VIS
  5
43B
 10
0.913894
 20
4.96641
 30
0.000000
  70
    32
  0
VERTEX
  8
AM_VIS
  5
43C
 10
0.915383
 20
4.96592
 30
0.000000
  70
    32
  0
VERTEX
  8
AM_VIS
  5
43D
 10
0.916876
 20
4.96544
 30
0.000000
  70
    32
  0
VERTEX
  8
AM_VIS
  5
43E
 10
0.918371
 20
4.96497
 30
0.000000
  70
    32
  0
VERTEX
  8
AM_VIS
  5
43F
 10
0.919868
 20
4.96450
 30
0.000000
  70
    32
  0
VERTEX
  8
AM_VIS
  5
440
 10
0.921369
 20
4.96404
 30
0.000000
  70
    32
  0
VERTEX
  8
AM_VIS
  5
441
 10
0.922872
 20
4.96359
 30
0.000000
  70
    32
  0
VERTEX
  8
AM_VIS
  5
442
 10
0.924377
 20
4.96315
 30
0.000000
  70
    32
  0
VERTEX
  8
AM_VIS
  5
443
 10
0.925885
 20
4.96271
 30
0.000000
  70
    32
  0
VERTEX
  8
AM_VIS
  5
444
 10
0.927395
 20
4.96228
 30
0.000000
  70
    32
  0
VERTEX
  8
AM_VIS
  5
445
 10
0.928907
 20
4.96186
 30
0.000000
  70
    32
  0
VERTEX
  8
AM_VIS
  5
446
 10
0.930421
 20
4.96144
 30
0.000000
  70
    32
  0
VERTEX
  8
AM_VIS
  5
447
 10
0.931937
 20
4.96104
 30
0.000000
  70
    32
  0
VERTEX
  8
AM_VIS
  5
448
 10
0.933456
 20
4.96064
 30
0.000000
  70
    32
  0
VERTEX
  8
AM_VIS
  5
449
 10
0.934976
 20
4.96024
 30
0.000000
  70
    32
  0
VERTEX
  8
AM_VIS
  5
44A
 10
0.936498
 20
4.95986
 30
0.000000
  70
    32
  0
VERTEX
  8
AM_VIS
  5
44B
 10
0.938021
 20
4.95948
 30
0.000000
  70
    32
  0
VERTEX
  8
AM_VIS
  5
44C
 10
0.939546
 20
4.95911
 30
0.000000
  70
    32
  0
VERTEX
  8
AM_VIS
  5
44D
 10
0.941073
 20
4.95875
 30
0.000000
  70
    32
  0
VERTEX
  8
AM_VIS
  5
44E
 10
0.942602
 20
4.95840
 30
0.000000
  70
    32
  0
VERTEX
  8
AM_VIS
  5
44F
 10
0.944131
 20
4.95805
 30
0.000000
  70
    32
  0
VERTEX
  8
AM_VIS
  5
450
 10
0.945662
 20
4.95771
 30
0.000000
  70
    32
  0
VERTEX
  8
AM_VIS
  5
451
 10
0.947194
 20
4.95738
 30
0.000000
  70
    32
  0
VERTEX
  8
AM_VIS
  5
452
 10
0.948728
 20
4.95705
 30
0.000000
  70
    32
  0
VERTEX
  8
AM_VIS
  5
453
 10
0.950262
 20
4.95674
 30
0.000000
  70
    32
  0
VERTEX
  8
AM_VIS
  5
454
 10
0.951798
 20
4.95643
 30
0.000000
  70
    32
  0
VERTEX
  8
AM_VIS
  5
455
 10
0.953334
 20
4.95613
 30
0.000000
  70
    32
  0
VERTEX
  8
AM_VIS
  5
456
 10
0.954871
 20
4.95583
 30
0.000000
  70
    32
  0
VERTEX
  8
AM_VIS
  5
457
 10
0.956409
 20
4.95555
 30
0.000000
  70
    32
  0
VERTEX
  8
AM_VIS
  5
458
 10
0.957947
 20
4.95527
 30
0.000000
  70
    32
  0
VERTEX
  8
AM_VIS
  5
459
 10
0.959486
 20
4.95499
 30
0.000000
  70
    32
  0
VERTEX
  8
AM_VIS
  5
45A
 10
0.961026
 20
4.95473
 30
0.000000
  70
    32
  0
VERTEX
  8
AM_VIS
  5
45B
 10
0.962566
 20
4.95448
 30
0.000000
  70
    32
  0
VERTEX
  8
AM_VIS
  5
45C
 10
0.964106
 20
4.95423
 30
0.000000
  70
    32
  0
VERTEX
  8
AM_VIS
  5
45D
 10
0.965647
 20
4.95399
 30
0.000000
  70
    32
  0
VERTEX
  8
AM_VIS
  5
45E
 10
0.967188
 20
4.95375
 30
0.000000
  70
    32
  0
VERTEX
  8
AM_VIS
  5
45F
 10
0.968729
 20
4.95353
 30
0.000000
  70
    32
  0
VERTEX
  8
AM_VIS
  5
460
 10
0.970270
 20
4.95331
 30
0.000000
  70
    32
  0
VERTEX
  8
AM_VIS
  5
461
 10
0.971811
 20
4.95310
 30
0.000000
  70
    32
  0
VERTEX
  8
AM_VIS
  5
462
 10
0.973351
 20
4.95290
 30
0.000000
  70
    32
  0
VERTEX
  8
AM_VIS
  5
463
 10
0.974892
 20
4.95270
 30
0.000000
  70
    32
  0
VERTEX
  8
AM_VIS
  5
464
 10
0.976432
 20
4.95252
 30
0.000000
  70
    32
  0
VERTEX
  8
AM_VIS
  5
465
 10
0.977972
 20
4.95234
 30
0.000000
  70
    32
  0
VERTEX
  8
AM_VIS
  5
466
 10
0.979511
 20
4.95216
 30
0.000000
  70
    32
  0
VERTEX
  8
AM_VIS
  5
467
 10
0.981050
 20
4.95200
 30
0.000000
  70
    32
  0
VERTEX
  8
AM_VIS
  5
468
 10
0.982588
 20
4.95184
 30
0.000000
  70
    32
  0
VERTEX
  8
AM_VIS
  5
469
 10
0.984125
 20
4.95170
 30
0.000000
  70
    32
  0
VERTEX
  8
AM_VIS
  5
46A
 10
0.985662
 20
4.95155
 30
0.000000
  70
    32
  0
VERTEX
  8
AM_VIS
  5
46B
 10
0.987198
 20
4.95142
 30
0.000000
  70
    32
  0
VERTEX
  8
AM_VIS
  5
46C
 10
0.988733
 20
4.95130
 30
0.000000
  70
    32
  0
VERTEX
  8
AM_VIS
  5
46D
 10
0.990266
 20
4.95118
 30
0.000000
  70
    32
  0
VERTEX
  8
AM_VIS
  5
46E
 10
0.991799
 20
4.95107
 30
0.000000
  70
    32
  0
VERTEX
  8
AM_VIS
  5
46F
 10
0.993331
 20
4.95097
 30
0.000000
  70
    32
  0
VERTEX
  8
AM_VIS
  5
470
 10
0.994861
 20
4.95087
 30
0.000000
  70
    32
  0
VERTEX
  8
AM_VIS
  5
471
 10
0.996390
 20
4.95079
 30
0.000000
  70
    32
  0
VERTEX
  8
AM_VIS
  5
472
 10
0.997917
 20
4.95071
 30
0.000000
  70
    32
  0
VERTEX
  8
AM_VIS
  5
473
 10
0.999443
 20
4.95064
 30
0.000000
  70
    32
  0
VERTEX
  8
AM_VIS
  5
474
 10
1.00097
 20
4.95058
 30
0.000000
  70
    32
  0
VERTEX
  8
AM_VIS
  5
475
 10
1.00249
 20
4.95052
 30
0.000000
  70
    32
  0
VERTEX
  8
AM_VIS
  5
476
 10
1.00401
 20
4.95047
 30
0.000000
  70
    32
  0
VERTEX
  8
AM_VIS
  5
477
 10
1.00553
 20
4.95043
 30
0.000000
  70
    32
  0
VERTEX
  8
AM_VIS
  5
478
 10
1.00705
 20
4.95040
 30
0.000000
  70
    32
  0
VERTEX
  8
AM_VIS
  5
479
 10
1.00856
 20
4.95038
 30
0.000000
  70
    32
  0
VERTEX
  8
AM_VIS
  5
47A
 10
1.01007
 20
4.95036
 30
0.000000
  70
    32
  0
VERTEX
  8
AM_VIS
  5
47B
 10
1.01159
 20
4.95035
 30
0.000000
  70
    32
  0
VERTEX
  8
AM_VIS
  5
47C
 10
1.01309
 20
4.95035
 30
0.000000
  70
    32
  0
VERTEX
  8
AM_VIS
  5
47D
 10
1.01461
 20
4.95036
 30
0.000000
  70
    32
  0
VERTEX
  8
AM_VIS
  5
47E
 10
1.01612
 20
4.95038
 30
0.000000
  70
    32
  0
VERTEX
  8
AM_VIS
  5
47F
 10
1.01763
 20
4.95040
 30
0.000000
  70
    32
  0
VERTEX
  8
AM_VIS
  5
480
 10
1.01915
 20
4.95043
 30
0.000000
  70
    32
  0
VERTEX
  8
AM_VIS
  5
481
 10
1.02067
 20
4.95047
 30
0.000000
  70
    32
  0
VERTEX
  8
AM_VIS
  5
482
 10
1.02219
 20
4.95052
 30
0.000000
  70
    32
  0
VERTEX
  8
AM_VIS
  5
483
 10
1.02371
 20
4.95058
 30
0.000000
  70
    32
  0
VERTEX
  8
AM_VIS
  5
484
 10
1.02524
 20
4.95064
 30
0.000000
  70
    32
  0
VERTEX
  8
AM_VIS
  5
485
 10
1.02676
 20
4.95071
 30
0.000000
  70
    32
  0
VERTEX
  8
AM_VIS
  5
486
 10
1.02829
 20
4.95079
 30
0.000000
  70
    32
  0
VERTEX
  8
AM_VIS
  5
487
 10
1.02982
 20
4.95087
 30
0.000000
  70
    32
  0
VERTEX
  8
AM_VIS
  5
488
 10
1.03135
 20
4.95097
 30
0.000000
  70
    32
  0
VERTEX
  8
AM_VIS
  5
489
 10
1.03288
 20
4.95107
 30
0.000000
  70
    32
  0
VERTEX
  8
AM_VIS
  5
48A
 10
1.03441
 20
4.95118
 30
0.000000
  70
    32
  0
VERTEX
  8
AM_VIS
  5
48B
 10
1.03595
 20
4.95130
 30
0.000000
  70
    32
  0
VERTEX
  8
AM_VIS
  5
48C
 10
1.03748
 20
4.95142
 30
0.000000
  70
    32
  0
VERTEX
  8
AM_VIS
  5
48D
 10
1.03902
 20
4.95155
 30
0.000000
  70
    32
  0
VERTEX
  8
AM_VIS
  5
48E
 10
1.04056
 20
4.95170
 30
0.000000
  70
    32
  0
VERTEX
  8
AM_VIS
  5
48F
 10
1.04209
 20
4.95184
 30
0.000000
  70
    32
  0
VERTEX
  8
AM_VIS
  5
490
 10
1.04363
 20
4.95200
 30
0.000000
  70
    32
  0
VERTEX
  8
AM_VIS
  5
491
 10
1.04517
 20
4.95216
 30
0.000000
  70
    32
  0
VERTEX
  8
AM_VIS
  5
492
 10
1.04671
 20
4.95234
 30
0.000000
  70
    32
  0
VERTEX
  8
AM_VIS
  5
493
 10
1.04825
 20
4.95252
 30
0.000000
  70
    32
  0
VERTEX
  8
AM_VIS
  5
494
 10
1.04979
 20
4.95270
 30
0.000000
  70
    32
  0
VERTEX
  8
AM_VIS
  5
495
 10
1.05133
 20
4.95290
 30
0.000000
  70
    32
  0
VERTEX
  8
AM_VIS
  5
496
 10
1.05287
 20
4.95310
 30
0.000000
  70
    32
  0
VERTEX
  8
AM_VIS
  5
497
 10
1.05441
 20
4.95331
 30
0.000000
  70
    32
  0
VERTEX
  8
AM_VIS
  5
498
 10
1.05595
 20
4.95353
 30
0.000000
  70
    32
  0
VERTEX
  8
AM_VIS
  5
499
 10
1.05749
 20
4.95375
 30
0.000000
  70
    32
  0
VERTEX
  8
AM_VIS
  5
49A
 10
1.05903
 20
4.95399
 30
0.000000
  70
    32
  0
VERTEX
  8
AM_VIS
  5
49B
 10
1.06057
 20
4.95423
 30
0.000000
  70
    32
  0
VERTEX
  8
AM_VIS
  5
49C
 10
1.06211
 20
4.95448
 30
0.000000
  70
    32
  0
VERTEX
  8
AM_VIS
  5
49D
 10
1.06365
 20
4.95473
 30
0.000000
  70
    32
  0
VERTEX
  8
AM_VIS
  5
49E
 10
1.06519
 20
4.95499
 30
0.000000
  70
    32
  0
VERTEX
  8
AM_VIS
  5
49F
 10
1.06673
 20
4.95527
 30
0.000000
  70
    32
  0
VERTEX
  8
AM_VIS
  5
4A0
 10
1.06827
 20
4.95555
 30
0.000000
  70
    32
  0
VERTEX
  8
AM_VIS
  5
4A1
 10
1.06981
 20
4.95583
 30
0.000000
  70
    32
  0
VERTEX
  8
AM_VIS
  5
4A2
 10
1.07135
 20
4.95613
 30
0.000000
  70
    32
  0
VERTEX
  8
AM_VIS
  5
4A3
 10
1.07288
 20
4.95643
 30
0.000000
  70
    32
  0
VERTEX
  8
AM_VIS
  5
4A4
 10
1.07442
 20
4.95674
 30
0.000000
  70
    32
  0
VERTEX
  8
AM_VIS
  5
4A5
 10
1.07595
 20
4.95705
 30
0.000000
  70
    32
  0
VERTEX
  8
AM_VIS
  5
4A6
 10
1.07749
 20
4.95738
 30
0.000000
  70
    32
  0
VERTEX
  8
AM_VIS
  5
4A7
 10
1.07902
 20
4.95771
 30
0.000000
  70
    32
  0
VERTEX
  8
AM_VIS
  5
4A8
 10
1.08055
 20
4.95805
 30
0.000000
  70
    32
  0
VERTEX
  8
AM_VIS
  5
4A9
 10
1.08208
 20
4.95840
 30
0.000000
  70
    32
  0
VERTEX
  8
AM_VIS
  5
4AA
 10
1.08361
 20
4.95875
 30
0.000000
  70
    32
  0
VERTEX
  8
AM_VIS
  5
4AB
 10
1.08513
 20
4.95911
 30
0.000000
  70
    32
  0
VERTEX
  8
AM_VIS
  5
4AC
 10
1.08666
 20
4.95948
 30
0.000000
  70
    32
  0
VERTEX
  8
AM_VIS
  5
4AD
 10
1.08818
 20
4.95986
 30
0.000000
  70
    32
  0
VERTEX
  8
AM_VIS
  5
4AE
 10
1.08970
 20
4.96024
 30
0.000000
  70
    32
  0
VERTEX
  8
AM_VIS
  5
4AF
 10
1.09123
 20
4.96064
 30
0.000000
  70
    32
  0
VERTEX
  8
AM_VIS
  5
4B0
 10
1.09274
 20
4.96104
 30
0.000000
  70
    32
  0
VERTEX
  8
AM_VIS
  5
4B1
 10
1.09426
 20
4.96144
 30
0.000000
  70
    32
  0
VERTEX
  8
AM_VIS
  5
4B2
 10
1.09577
 20
4.96186
 30
0.000000
  70
    32
  0
VERTEX
  8
AM_VIS
  5
4B3
 10
1.09729
 20
4.96228
 30
0.000000
  70
    32
  0
VERTEX
  8
AM_VIS
  5
4B4
 10
1.09880
 20
4.96271
 30
0.000000
  70
    32
  0
VERTEX
  8
AM_VIS
  5
4B5
 10
1.10030
 20
4.96315
 30
0.000000
  70
    32
  0
VERTEX
  8
AM_VIS
  5
4B6
 10
1.10181
 20
4.96359
 30
0.000000
  70
    32
  0
VERTEX
  8
AM_VIS
  5
4B7
 10
1.10331
 20
4.96404
 30
0.000000
  70
    32
  0
VERTEX
  8
AM_VIS
  5
4B8
 10
1.10481
 20
4.96450
 30
0.000000
  70
    32
  0
VERTEX
  8
AM_VIS
  5
4B9
 10
1.10631
 20
4.96497
 30
0.000000
  70
    32
  0
VERTEX
  8
AM_VIS
  5
4BA
 10
1.10781
 20
4.96544
 30
0.000000
  70
    32
  0
VERTEX
  8
AM_VIS
  5
4BB
 10
1.10930
 20
4.96592
 30
0.000000
  70
    32
  0
VERTEX
  8
AM_VIS
  5
4BC
 10
1.11079
 20
4.96641
 30
0.000000
  70
    32
  0
VERTEX
  8
AM_VIS
  5
4BD
 10
1.11227
 20
4.96691
 30
0.000000
  70
    32
  0
VERTEX
  8
AM_VIS
  5
4BE
 10
1.11376
 20
4.96741
 30
0.000000
  70
    32
  0
VERTEX
  8
AM_VIS
  5
4BF
 10
1.11524
 20
4.96792
 30
0.000000
  70
    32
  0
VERTEX
  8
AM_VIS
  5
4C0
 10
1.11671
 20
4.96844
 30
0.000000
  70
    32
  0
VERTEX
  8
AM_VIS
  5
4C1
 10
1.11819
 20
4.96897
 30
0.000000
  70
    32
  0
VERTEX
  8
AM_VIS
  5
4C2
 10
1.11966
 20
4.96950
 30
0.000000
  70
    32
  0
VERTEX
  8
AM_VIS
  5
4C3
 10
1.12113
 20
4.97004
 30
0.000000
  70
    32
  0
VERTEX
  8
AM_VIS
  5
4C4
 10
1.12259
 20
4.97059
 30
0.000000
  70
    32
  0
VERTEX
  8
AM_VIS
  5
4C5
 10
1.12405
 20
4.97114
 30
0.000000
  70
    32
  0
VERTEX
  8
AM_VIS
  5
4C6
 10
1.12551
 20
4.97170
 30
0.000000
  70
    32
  0
VERTEX
  8
AM_VIS
  5
4C7
 10
1.12696
 20
4.97227
 30
0.000000
  70
    32
  0
VERTEX
  8
AM_VIS
  5
4C8
 10
1.12841
 20
4.97285
 30
0.000000
  70
    32
  0
VERTEX
  8
AM_VIS
  5
4C9
 10
1.12985
 20
4.97343
 30
0.000000
  70
    32
  0
VERTEX
  8
AM_VIS
  5
4CA
 10
1.13130
 20
4.97403
 30
0.000000
  70
    32
  0
VERTEX
  8
AM_VIS
  5
4CB
 10
1.13273
 20
4.97462
 30
0.000000
  70
    32
  0
VERTEX
  8
AM_VIS
  5
4CC
 10
1.13417
 20
4.97523
 30
0.000000
  70
    32
  0
VERTEX
  8
AM_VIS
  5
4CD
 10
1.13560
 20
4.97584
 30
0.000000
  70
    32
  0
VERTEX
  8
AM_VIS
  5
4CE
 10
1.13702
 20
4.97646
 30
0.000000
  70
    32
  0
VERTEX
  8
AM_VIS
  5
4CF
 10
1.13844
 20
4.97708
 30
0.000000
  70
    32
  0
VERTEX
  8
AM_VIS
  5
4D0
 10
1.13986
 20
4.97771
 30
0.000000
  70
    32
  0
VERTEX
  8
AM_VIS
  5
4D1
 10
1.14127
 20
4.97835
 30
0.000000
  70
    32
  0
VERTEX
  8
AM_VIS
  5
4D2
 10
1.14268
 20
4.97900
 30
0.000000
  70
    32
  0
VERTEX
  8
AM_VIS
  5
4D3
 10
1.14409
 20
4.97965
 30
0.000000
  70
    32
  0
VERTEX
  8
AM_VIS
  5
4D4
 10
1.14549
 20
4.98031
 30
0.000000
  70
    32
  0
VERTEX
  8
AM_VIS
  5
4D5
 10
1.14688
 20
4.98097
 30
0.000000
  70
    32
  0
VERTEX
  8
AM_VIS
  5
4D6
 10
1.14827
 20
4.98164
 30
0.000000
  70
    32
  0
VERTEX
  8
AM_VIS
  5
4D7
 10
1.14966
 20
4.98232
 30
0.000000
  70
    32
  0
VERTEX
  8
AM_VIS
  5
4D8
 10
1.15104
 20
4.98300
 30
0.000000
  70
    32
  0
VERTEX
  8
AM_VIS
  5
4D9
 10
1.15242
 20
4.98369
 30
0.000000
  70
    32
  0
VERTEX
  8
AM_VIS
  5
4DA
 10
1.15379
 20
4.98438
 30
0.000000
  70
    32
  0
VERTEX
  8
AM_VIS
  5
4DB
 10
1.15516
 20
4.98508
 30
0.000000
  70
    32
  0
VERTEX
  8
AM_VIS
  5
4DC
 10
1.15652
 20
4.98579
 30
0.000000
  70
    32
  0
VERTEX
  8
AM_VIS
  5
4DD
 10
1.15788
 20
4.98650
 30
0.000000
  70
    32
  0
VERTEX
  8
AM_VIS
  5
4DE
 10
1.15923
 20
4.98722
 30
0.000000
  70
    32
  0
VERTEX
  8
AM_VIS
  5
4DF
 10
1.16058
 20
4.98794
 30
0.000000
  70
    32
  0
VERTEX
  8
AM_VIS
  5
4E0
 10
1.16192
 20
4.98867
 30
0.000000
  70
    32
  0
VERTEX
  8
AM_VIS
  5
4E1
 10
1.16326
 20
4.98940
 30
0.000000
  70
    32
  0
VERTEX
  8
AM_VIS
  5
4E2
 10
1.16460
 20
4.99014
 30
0.000000
  70
    32
  0
VERTEX
  8
AM_VIS
  5
4E3
 10
1.16592
 20
4.99088
 30
0.000000
  70
    32
  0
VERTEX
  8
AM_VIS
  5
4E4
 10
1.16725
 20
4.99163
 30
0.000000
  70
    32
  0
VERTEX
  8
AM_VIS
  5
4E5
 10
1.16856
 20
4.99239
 30
0.000000
  70
    32
  0
VERTEX
  8
AM_VIS
  5
4E6
 10
1.16988
 20
4.99315
 30
0.000000
  70
    32
  0
VERTEX
  8
AM_VIS
  5
4E7
 10
1.17118
 20
4.99391
 30
0.000000
  70
    32
  0
VERTEX
  8
AM_VIS
  5
4E8
 10
1.17248
 20
4.99468
 30
0.000000
  70
    32
  0
VERTEX
  8
AM_VIS
  5
4E9
 10
1.17378
 20
4.99546
 30
0.000000
  70
    32
  0
VERTEX
  8
AM_VIS
  5
4EA
 10
1.17507
 20
4.99624
 30
0.000000
  70
    32
  0
VERTEX
  8
AM_VIS
  5
4EB
 10
1.17636
 20
4.99702
 30
0.000000
  70
    32
  0
VERTEX
  8
AM_VIS
  5
4EC
 10
1.17764
 20
4.99781
 30
0.000000
  70
    32
  0
VERTEX
  8
AM_VIS
  5
4ED
 10
1.17891
 20
4.99861
 30
0.000000
  70
    32
  0
VERTEX
  8
AM_VIS
  5
4EE
 10
1.18018
 20
4.99941
 30
0.000000
  70
    32
  0
VERTEX
  8
AM_VIS
  5
4EF
 10
1.18144
 20
5.00021
 30
0.000000
  70
    32
  0
VERTEX
  8
AM_VIS
  5
4F0
 10
1.18270
 20
5.00102
 30
0.000000
  70
    32
  0
VERTEX
  8
AM_VIS
  5
4F1
 10
1.18395
 20
5.00183
 30
0.000000
  70
    32
  0
VERTEX
  8
AM_VIS
  5
4F2
 10
1.18519
 20
5.00265
 30
0.000000
  70
    32
  0
VERTEX
  8
AM_VIS
  5
4F3
 10
1.18643
 20
5.00347
 30
0.000000
  70
    32
  0
VERTEX
  8
AM_VIS
  5
4F4
 10
1.18767
 20
5.00429
 30
0.000000
  70
    32
  0
VERTEX
  8
AM_VIS
  5
4F5
 10
1.18889
 20
5.00512
 30
0.000000
  70
    32
  0
VERTEX
  8
AM_VIS
  5
4F6
 10
1.19011
 20
5.00595
 30
0.000000
  70
    32
  0
VERTEX
  8
AM_VIS
  5
4F7
 10
1.19133
 20
5.00679
 30
0.000000
  70
    32
  0
VERTEX
  8
AM_VIS
  5
4F8
 10
1.19254
 20
5.00763
 30
0.000000
  70
    32
  0
VERTEX
  8
AM_VIS
  5
4F9
 10
1.19374
 20
5.00848
 30
0.000000
  70
    32
  0
VERTEX
  8
AM_VIS
  5
4FA
 10
1.19494
 20
5.00933
 30
0.000000
  70
    32
  0
VERTEX
  8
AM_VIS
  5
4FB
 10
1.19613
 20
5.01018
 30
0.000000
  70
    32
  0
VERTEX
  8
AM_VIS
  5
4FC
 10
1.19731
 20
5.01103
 30
0.000000
  70
    32
  0
VERTEX
  8
AM_VIS
  5
4FD
 10
1.19849
 20
5.01189
 30
0.000000
  70
    32
  0
VERTEX
  8
AM_VIS
  5
4FE
 10
1.19966
 20
5.01276
 30
0.000000
  70
    32
  0
VERTEX
  8
AM_VIS
  5
4FF
 10
1.20082
 20
5.01362
 30
0.000000
  70
    32
  0
VERTEX
  8
AM_VIS
  5
500
 10
1.20198
 20
5.01449
 30
0.000000
  70
    32
  0
VERTEX
  8
AM_VIS
  5
501
 10
1.20313
 20
5.01536
 30
0.000000
  70
    32
  0
VERTEX
  8
AM_VIS
  5
502
 10
1.20427
 20
5.01624
 30
0.000000
  70
    32
  0
VERTEX
  8
AM_VIS
  5
503
 10
1.20541
 20
5.01712
 30
0.000000
  70
    32
  0
VERTEX
  8
AM_VIS
  5
504
 10
1.20654
 20
5.01800
 30
0.000000
  70
    32
  0
VERTEX
  8
AM_VIS
  5
505
 10
1.20766
 20
5.01889
 30
0.000000
  70
    32
  0
VERTEX
  8
AM_VIS
  5
506
 10
1.20878
 20
5.01978
 30
0.000000
  70
    32
  0
VERTEX
  8
AM_VIS
  5
507
 10
1.20989
 20
5.02067
 30
0.000000
  70
    32
  0
VERTEX
  8
AM_VIS
  5
508
 10
1.21099
 20
5.02156
 30
0.000000
  70
    32
  0
VERTEX
  8
AM_VIS
  5
509
 10
1.21209
 20
5.02246
 30
0.000000
  70
    32
  0
VERTEX
  8
AM_VIS
  5
50A
 10
1.21318
 20
5.02336
 30
0.000000
  70
    32
  0
VERTEX
  8
AM_VIS
  5
50B
 10
1.21426
 20
5.02426
 30
0.000000
  70
    32
  0
VERTEX
  8
AM_VIS
  5
50C
 10
1.21533
 20
5.02517
 30
0.000000
  70
    32
  0
VERTEX
  8
AM_VIS
  5
50D
 10
1.21640
 20
5.02607
 30
0.000000
  70
    32
  0
VERTEX
  8
AM_VIS
  5
50E
 10
1.21746
 20
5.02698
 30
0.000000
  70
    32
  0
VERTEX
  8
AM_VIS
  5
50F
 10
1.21851
 20
5.02790
 30
0.000000
  70
    32
  0
VERTEX
  8
AM_VIS
  5
510
 10
1.21955
 20
5.02881
 30
0.000000
  70
    32
  0
VERTEX
  8
AM_VIS
  5
511
 10
1.22059
 20
5.02973
 30
0.000000
  70
    32
  0
VERTEX
  8
AM_VIS
  5
512
 10
1.22162
 20
5.03065
 30
0.000000
  70
    32
  0
VERTEX
  8
AM_VIS
  5
513
 10
1.22264
 20
5.03157
 30
0.000000
  70
    32
  0
VERTEX
  8
AM_VIS
  5
514
 10
1.22366
 20
5.03249
 30
0.000000
  70
    32
  0
VERTEX
  8
AM_VIS
  5
515
 10
1.22468
 20
5.03343
 30
0.000000
  70
    32
  0
VERTEX
  8
AM_VIS
  5
516
 10
1.22569
 20
5.03436
 30
0.000000
  70
    32
  0
VERTEX
  8
AM_VIS
  5
517
 10
1.22670
 20
5.03531
 30
0.000000
  70
    32
  0
VERTEX
  8
AM_VIS
  5
518
 10
1.22770
 20
5.03625
 30
0.000000
  70
    32
  0
VERTEX
  8
AM_VIS
  5
519
 10
1.22870
 20
5.03721
 30
0.000000
  70
    32
  0
VERTEX
  8
AM_VIS
  5
51A
 10
1.22969
 20
5.03816
 30
0.000000
  70
    32
  0
VERTEX
  8
AM_VIS
  5
51B
 10
1.23068
 20
5.03913
 30
0.000000
  70
    32
  0
VERTEX
  8
AM_VIS
  5
51C
 10
1.23167
 20
5.04009
 30
0.000000
  70
    32
  0
VERTEX
  8
AM_VIS
  5
51D
 10
1.23265
 20
5.04106
 30
0.000000
  70
    32
  0
VERTEX
  8
AM_VIS
  5
51E
 10
1.23363
 20
5.04204
 30
0.000000
  70
    32
  0
VERTEX
  8
AM_VIS
  5
51F
 10
1.23460
 20
5.04302
 30
0.000000
  70
    32
  0
VERTEX
  8
AM_VIS
  5
520
 10
1.23557
 20
5.04401
 30
0.000000
  70
    32
  0
VERTEX
  8
AM_VIS
  5
521
 10
1.23653
 20
5.04500
 30
0.000000
  70
    32
  0
VERTEX
  8
AM_VIS
  5
522
 10
1.23749
 20
5.04600
 30
0.000000
  70
    32
  0
VERTEX
  8
AM_VIS
  5
523
 10
1.23844
 20
5.04700
 30
0.000000
  70
    32
  0
VERTEX
  8
AM_VIS
  5
524
 10
1.23939
 20
5.04800
 30
0.000000
  70
    32
  0
VERTEX
  8
AM_VIS
  5
525
 10
1.24034
 20
5.04901
 30
0.000000
  70
    32
  0
VERTEX
  8
AM_VIS
  5
526
 10
1.24128
 20
5.05002
 30
0.000000
  70
    32
  0
VERTEX
  8
AM_VIS
  5
527
 10
1.24221
 20
5.05104
 30
0.000000
  70
    32
  0
VERTEX
  8
AM_VIS
  5
528
 10
1.24314
 20
5.05206
 30
0.000000
  70
    32
  0
VERTEX
  8
AM_VIS
  5
529
 10
1.24407
 20
5.05309
 30
0.000000
  70
    32
  0
VERTEX
  8
AM_VIS
  5
52A
 10
1.24499
 20
5.05411
 30
0.000000
  70
    32
  0
VERTEX
  8
AM_VIS
  5
52B
 10
1.24590
 20
5.05515
 30
0.000000
  70
    32
  0
VERTEX
  8
AM_VIS
  5
52C
 10
1.24681
 20
5.05619
 30
0.000000
  70
    32
  0
VERTEX
  8
AM_VIS
  5
52D
 10
1.24772
 20
5.05723
 30
0.000000
  70
    32
  0
VERTEX
  8
AM_VIS
  5
52E
 10
1.24862
 20
5.05827
 30
0.000000
  70
    32
  0
VERTEX
  8
AM_VIS
  5
52F
 10
1.24951
 20
5.05932
 30
0.000000
  70
    32
  0
VERTEX
  8
AM_VIS
  5
530
 10
1.25040
 20
5.06038
 30
0.000000
  70
    32
  0
VERTEX
  8
AM_VIS
  5
531
 10
1.25128
 20
5.06143
 30
0.000000
  70
    32
  0
VERTEX
  8
AM_VIS
  5
532
 10
1.25216
 20
5.06249
 30
0.000000
  70
    32
  0
VERTEX
  8
AM_VIS
  5
533
 10
1.25303
 20
5.06356
 30
0.000000
  70
    32
  0
VERTEX
  8
AM_VIS
  5
534
 10
1.25390
 20
5.06462
 30
0.000000
  70
    32
  0
VERTEX
  8
AM_VIS
  5
535
 10
1.25476
 20
5.06569
 30
0.000000
  70
    32
  0
VERTEX
  8
AM_VIS
  5
536
 10
1.25561
 20
5.06677
 30
0.000000
  70
    32
  0
VERTEX
  8
AM_VIS
  5
537
 10
1.25646
 20
5.06784
 30
0.000000
  70
    32
  0
VERTEX
  8
AM_VIS
  5
538
 10
1.25730
 20
5.06893
 30
0.000000
  70
    32
  0
VERTEX
  8
AM_VIS
  5
539
 10
1.25814
 20
5.07001
 30
0.000000
  70
    32
  0
VERTEX
  8
AM_VIS
  5
53A
 10
1.25897
 20
5.07110
 30
0.000000
  70
    32
  0
VERTEX
  8
AM_VIS
  5
53B
 10
1.25980
 20
5.07219
 30
0.000000
  70
    32
  0
VERTEX
  8
AM_VIS
  5
53C
 10
1.26062
 20
5.07328
 30
0.000000
  70
    32
  0
VERTEX
  8
AM_VIS
  5
53D
 10
1.26143
 20
5.07438
 30
0.000000
  70
    32
  0
VERTEX
  8
AM_VIS
  5
53E
 10
1.26224
 20
5.07547
 30
0.000000
  70
    32
  0
VERTEX
  8
AM_VIS
  5
53F
 10
1.26304
 20
5.07658
 30
0.000000
  70
    32
  0
VERTEX
  8
AM_VIS
  5
540
 10
1.26383
 20
5.07768
 30
0.000000
  70
    32
  0
VERTEX
  8
AM_VIS
  5
541
 10
1.26462
 20
5.07879
 30
0.000000
  70
    32
  0
VERTEX
  8
AM_VIS
  5
542
 10
1.26540
 20
5.07990
 30
0.000000
  70
    32
  0
VERTEX
  8
AM_VIS
  5
543
 10
1.26618
 20
5.08101
 30
0.000000
  70
    32
  0
VERTEX
  8
AM_VIS
  5
544
 10
1.26695
 20
5.08213
 30
0.000000
  70
    32
  0
VERTEX
  8
AM_VIS
  5
545
 10
1.26771
 20
5.08324
 30
0.000000
  70
    32
  0
VERTEX
  8
AM_VIS
  5
546
 10
1.26847
 20
5.08437
 30
0.000000
  70
    32
  0
VERTEX
  8
AM_VIS
  5
547
 10
1.26921
 20
5.08549
 30
0.000000
  70
    32
  0
VERTEX
  8
AM_VIS
  5
548
 10
1.26996
 20
5.08661
 30
0.000000
  70
    32
  0
VERTEX
  8
AM_VIS
  5
549
 10
1.27069
 20
5.08774
 30
0.000000
  70
    32
  0
VERTEX
  8
AM_VIS
  5
54A
 10
1.27142
 20
5.08887
 30
0.000000
  70
    32
  0
VERTEX
  8
AM_VIS
  5
54B
 10
1.27214
 20
5.09000
 30
0.000000
  70
    32
  0
VERTEX
  8
AM_VIS
  5
54C
 10
1.27286
 20
5.09114
 30
0.000000
  70
    32
  0
VERTEX
  8
AM_VIS
  5
54D
 10
1.27357
 20
5.09227
 30
0.000000
  70
    32
  0
VERTEX
  8
AM_VIS
  5
54E
 10
1.27427
 20
5.09341
 30
0.000000
  70
    32
  0
VERTEX
  8
AM_VIS
  5
54F
 10
1.27496
 20
5.09455
 30
0.000000
  70
    32
  0
VERTEX
  8
AM_VIS
  5
550
 10
1.27565
 20
5.09569
 30
0.000000
  70
    32
  0
VERTEX
  8
AM_VIS
  5
551
 10
1.27633
 20
5.09683
 30
0.000000
  70
    32
  0
VERTEX
  8
AM_VIS
  5
552
 10
1.27700
 20
5.09798
 30
0.000000
  70
    32
  0
VERTEX
  8
AM_VIS
  5
553
 10
1.27766
 20
5.09913
 30
0.000000
  70
    32
  0
VERTEX
  8
AM_VIS
  5
554
 10
1.27832
 20
5.10027
 30
0.000000
  70
    32
  0
VERTEX
  8
AM_VIS
  5
555
 10
1.27897
 20
5.10142
 30
0.000000
  70
    32
  0
VERTEX
  8
AM_VIS
  5
556
 10
1.27961
 20
5.10258
 30
0.000000
  70
    32
  0
VERTEX
  8
AM_VIS
  5
557
 10
1.28025
 20
5.10373
 30
0.000000
  70
    32
  0
VERTEX
  8
AM_VIS
  5
558
 10
1.28087
 20
5.10488
 30
0.000000
  70
    32
  0
VERTEX
  8
AM_VIS
  5
559
 10
1.28149
 20
5.10604
 30
0.000000
  70
    32
  0
VERTEX
  8
AM_VIS
  5
55A
 10
1.28211
 20
5.10720
 30
0.000000
  70
    32
  0
VERTEX
  8
AM_VIS
  5
55B
 10
1.28271
 20
5.10836
 30
0.000000
  70
    32
  0
VERTEX
  8
AM_VIS
  5
55C
 10
1.28331
 20
5.10952
 30
0.000000
  70
    32
  0
VERTEX
  8
AM_VIS
  5
55D
 10
1.28389
 20
5.11068
 30
0.000000
  70
    32
  0
VERTEX
  8
AM_VIS
  5
55E
 10
1.28447
 20
5.11184
 30
0.000000
  70
    32
  0
VERTEX
  8
AM_VIS
  5
55F
 10
1.28505
 20
5.11300
 30
0.000000
  70
    32
  0
VERTEX
  8
AM_VIS
  5
560
 10
1.28561
 20
5.11416
 30
0.000000
  70
    32
  0
VERTEX
  8
AM_VIS
  5
561
 10
1.28617
 20
5.11533
 30
0.000000
  70
    32
  0
VERTEX
  8
AM_VIS
  5
562
 10
1.28672
 20
5.11649
 30
0.000000
  70
    32
  0
VERTEX
  8
AM_VIS
  5
563
 10
1.28726
 20
5.11766
 30
0.000000
  70
    32
  0
VERTEX
  8
AM_VIS
  5
564
 10
1.28779
 20
5.11883
 30
0.000000
  70
    32
  0
VERTEX
  8
AM_VIS
  5
565
 10
1.28832
 20
5.11999
 30
0.000000
  70
    32
  0
VERTEX
  8
AM_VIS
  5
566
 10
1.28883
 20
5.12116
 30
0.000000
  70
    32
  0
VERTEX
  8
AM_VIS
  5
567
 10
1.28934
 20
5.12233
 30
0.000000
  70
    32
  0
VERTEX
  8
AM_VIS
  5
568
 10
1.28984
 20
5.12350
 30
0.000000
  70
    32
  0
VERTEX
  8
AM_VIS
  5
569
 10
1.29034
 20
5.12467
 30
0.000000
  70
    32
  0
VERTEX
  8
AM_VIS
  5
56A
 10
1.29082
 20
5.12584
 30
0.000000
  70
    32
  0
VERTEX
  8
AM_VIS
  5
56B
 10
1.29130
 20
5.12700
 30
0.000000
  70
    32
  0
VERTEX
  8
AM_VIS
  5
56C
 10
1.29177
 20
5.12817
 30
0.000000
  70
    32
  0
VERTEX
  8
AM_VIS
  5
56D
 10
1.29223
 20
5.12934
 30
0.000000
  70
    32
  0
VERTEX
  8
AM_VIS
  5
56E
 10
1.29268
 20
5.13051
 30
0.000000
  70
    32
  0
VERTEX
  8
AM_VIS
  5
56F
 10
1.29313
 20
5.13168
 30
0.000000
  70
    32
  0
VERTEX
  8
AM_VIS
  5
570
 10
1.29357
 20
5.13285
 30
0.000000
  70
    32
  0
VERTEX
  8
AM_VIS
  5
571
 10
1.29400
 20
5.13402
 30
0.000000
  70
    32
  0
VERTEX
  8
AM_VIS
  5
572
 10
1.29442
 20
5.13519
 30
0.000000
  70
    32
  0
VERTEX
  8
AM_VIS
  5
573
 10
1.29483
 20
5.13636
 30
0.000000
  70
    32
  0
VERTEX
  8
AM_VIS
  5
574
 10
1.29524
 20
5.13753
 30
0.000000
  70
    32
  0
VERTEX
  8
AM_VIS
  5
575
 10
1.29564
 20
5.13870
 30
0.000000
  70
    32
  0
VERTEX
  8
AM_VIS
  5
576
 10
1.29603
 20
5.13986
 30
0.000000
  70
    32
  0
VERTEX
  8
AM_VIS
  5
577
 10
1.29641
 20
5.14103
 30
0.000000
  70
    32
  0
VERTEX
  8
AM_VIS
  5
578
 10
1.29679
 20
5.14220
 30
0.000000
  70
    32
  0
VERTEX
  8
AM_VIS
  5
579
 10
1.29716
 20
5.14336
 30
0.000000
  70
    32
  0
VERTEX
  8
AM_VIS
  5
57A
 10
1.29751
 20
5.14453
 30
0.000000
  70
    32
  0
VERTEX
  8
AM_VIS
  5
57B
 10
1.29787
 20
5.14569
 30
0.000000
  70
    32
  0
VERTEX
  8
AM_VIS
  5
57C
 10
1.29821
 20
5.14686
 30
0.000000
  70
    32
  0
VERTEX
  8
AM_VIS
  5
57D
 10
1.29855
 20
5.14802
 30
0.000000
  70
    32
  0
VERTEX
  8
AM_VIS
  5
57E
 10
1.29887
 20
5.14918
 30
0.000000
  70
    32
  0
VERTEX
  8
AM_VIS
  5
57F
 10
1.29919
 20
5.15034
 30
0.000000
  70
    32
  0
VERTEX
  8
AM_VIS
  5
580
 10
1.29951
 20
5.15150
 30
0.000000
  70
    32
  0
VERTEX
  8
AM_VIS
  5
581
 10
1.29981
 20
5.15266
 30
0.000000
  70
    32
  0
VERTEX
  8
AM_VIS
  5
582
 10
1.30011
 20
5.15382
 30
0.000000
  70
    32
  0
VERTEX
  8
AM_VIS
  5
583
 10
1.30040
 20
5.15498
 30
0.000000
  70
    32
  0
VERTEX
  8
AM_VIS
  5
584
 10
1.30068
 20
5.15613
 30
0.000000
  70
    32
  0
VERTEX
  8
AM_VIS
  5
585
 10
1.30095
 20
5.15728
 30
0.000000
  70
    32
  0
VERTEX
  8
AM_VIS
  5
586
 10
1.30122
 20
5.15844
 30
0.000000
  70
    32
  0
VERTEX
  8
AM_VIS
  5
587
 10
1.30148
 20
5.15959
 30
0.000000
  70
    32
  0
VERTEX
  8
AM_VIS
  5
588
 10
1.30173
 20
5.16074
 30
0.000000
  70
    32
  0
VERTEX
  8
AM_VIS
  5
589
 10
1.30197
 20
5.16188
 30
0.000000
  70
    32
  0
VERTEX
  8
AM_VIS
  5
58A
 10
1.30220
 20
5.16303
 30
0.000000
  70
    32
  0
VERTEX
  8
AM_VIS
  5
58B
 10
1.30243
 20
5.16418
 30
0.000000
  70
    32
  0
VERTEX
  8
AM_VIS
  5
58C
 10
1.30265
 20
5.16532
 30
0.000000
  70
    32
  0
VERTEX
  8
AM_VIS
  5
58D
 10
1.30286
 20
5.16646
 30
0.000000
  70
    32
  0
VERTEX
  8
AM_VIS
  5
58E
 10
1.30306
 20
5.16760
 30
0.000000
  70
    32
  0
VERTEX
  8
AM_VIS
  5
58F
 10
1.30326
 20
5.16873
 30
0.000000
  70
    32
  0
VERTEX
  8
AM_VIS
  5
590
 10
1.30345
 20
5.16987
 30
0.000000
  70
    32
  0
VERTEX
  8
AM_VIS
  5
591
 10
1.30363
 20
5.17100
 30
0.000000
  70
    32
  0
VERTEX
  8
AM_VIS
  5
592
 10
1.30380
 20
5.17213
 30
0.000000
  70
    32
  0
VERTEX
  8
AM_VIS
  5
593
 10
1.30397
 20
5.17326
 30
0.000000
  70
    32
  0
VERTEX
  8
AM_VIS
  5
594
 10
1.30412
 20
5.17439
 30
0.000000
  70
    32
  0
VERTEX
  8
AM_VIS
  5
595
 10
1.30427
 20
5.17551
 30
0.000000
  70
    32
  0
VERTEX
  8
AM_VIS
  5
596
 10
1.30441
 20
5.17663
 30
0.000000
  70
    32
  0
VERTEX
  8
AM_VIS
  5
597
 10
1.30455
 20
5.17775
 30
0.000000
  70
    32
  0
VERTEX
  8
AM_VIS
  5
598
 10
1.30467
 20
5.17887
 30
0.000000
  70
    32
  0
VERTEX
  8
AM_VIS
  5
599
 10
1.30479
 20
5.17998
 30
0.000000
  70
    32
  0
VERTEX
  8
AM_VIS
  5
59A
 10
1.30490
 20
5.18109
 30
0.000000
  70
    32
  0
VERTEX
  8
AM_VIS
  5
59B
 10
1.30501
 20
5.18220
 30
0.000000
  70
    32
  0
VERTEX
  8
AM_VIS
  5
59C
 10
1.30510
 20
5.18331
 30
0.000000
  70
    32
  0
VERTEX
  8
AM_VIS
  5
59D
 10
1.30519
 20
5.18441
 30
0.000000
  70
    32
  0
VERTEX
  8
AM_VIS
  5
59E
 10
1.30527
 20
5.18551
 30
0.000000
  70
    32
  0
VERTEX
  8
AM_VIS
  5
59F
 10
1.30534
 20
5.18661
 30
0.000000
  70
    32
  0
VERTEX
  8
AM_VIS
  5
5A0
 10
1.30541
 20
5.18770
 30
0.000000
  70
    32
  0
VERTEX
  8
AM_VIS
  5
5A1
 10
1.30546
 20
5.18879
 30
0.000000
  70
    32
  0
VERTEX
  8
AM_VIS
  5
5A2
 10
1.30551
 20
5.18988
 30
0.000000
  70
    32
  0
VERTEX
  8
AM_VIS
  5
5A3
 10
1.30555
 20
5.19097
 30
0.000000
  70
    32
  0
VERTEX
  8
AM_VIS
  5
5A4
 10
1.30559
 20
5.19205
 30
0.000000
  70
    32
  0
VERTEX
  8
AM_VIS
  5
5A5
 10
1.30561
 20
5.19313
 30
0.000000
  70
    32
  0
VERTEX
  8
AM_VIS
  5
5A6
 10
1.30563
 20
5.19420
 30
0.000000
  70
    32
  0
VERTEX
  8
AM_VIS
  5
5A7
 10
1.30564
 20
5.19528
 30
0.000000
  70
    32
  0
VERTEX
  8
AM_VIS
  5
5A8
 10
1.30565
 20
5.19634
 30
0.000000
  70
    32
  0
VERTEX
  8
AM_VIS
  5
5A9
 10
1.30564
 20
5.19741
 30
0.000000
  70
    32
  0
VERTEX
  8
AM_VIS
  5
5AA
 10
1.30563
 20
5.19848
 30
0.000000
  70
    32
  0
VERTEX
  8
AM_VIS
  5
5AB
 10
1.30561
 20
5.19955
 30
0.000000
  70
    32
  0
VERTEX
  8
AM_VIS
  5
5AC
 10
1.30559
 20
5.20061
 30
0.000000
  70
    32
  0
VERTEX
  8
AM_VIS
  5
5AD
 10
1.30555
 20
5.20168
 30
0.000000
  70
    32
  0
VERTEX
  8
AM_VIS
  5
5AE
 10
1.30551
 20
5.20275
 30
0.000000
  70
    32
  0
VERTEX
  8
AM_VIS
  5
5AF
 10
1.30546
 20
5.20382
 30
0.000000
  70
    32
  0
VERTEX
  8
AM_VIS
  5
5B0
 10
1.30540
 20
5.20488
 30
0.000000
  70
    32
  0
VERTEX
  8
AM_VIS
  5
5B1
 10
1.30533
 20
5.20595
 30
0.000000
  70
    32
  0
VERTEX
  8
AM_VIS
  5
5B2
 10
1.30526
 20
5.20702
 30
0.000000
  70
    32
  0
VERTEX
  8
AM_VIS
  5
5B3
 10
1.30518
 20
5.20809
 30
0.000000
  70
    32
  0
VERTEX
  8
AM_VIS
  5
5B4
 10
1.30509
 20
5.20915
 30
0.000000
  70
    32
  0
VERTEX
  8
AM_VIS
  5
5B5
 10
1.30500
 20
5.21022
 30
0.000000
  70
    32
  0
VERTEX
  8
AM_VIS
  5
5B6
 10
1.30489
 20
5.21129
 30
0.000000
  70
    32
  0
VERTEX
  8
AM_VIS
  5
5B7
 10
1.30478
 20
5.21235
 30
0.000000
  70
    32
  0
VERTEX
  8
AM_VIS
  5
5B8
 10
1.30466
 20
5.21342
 30
0.000000
  70
    32
  0
VERTEX
  8
AM_VIS
  5
5B9
 10
1.30454
 20
5.21448
 30
0.000000
  70
    32
  0
VERTEX
  8
AM_VIS
  5
5BA
 10
1.30440
 20
5.21555
 30
0.000000
  70
    32
  0
VERTEX
  8
AM_VIS
  5
5BB
 10
1.30426
 20
5.21661
 30
0.000000
  70
    32
  0
VERTEX
  8
AM_VIS
  5
5BC
 10
1.30411
 20
5.21767
 30
0.000000
  70
    32
  0
VERTEX
  8
AM_VIS
  5
5BD
 10
1.30395
 20
5.21873
 30
0.000000
  70
    32
  0
VERTEX
  8
AM_VIS
  5
5BE
 10
1.30379
 20
5.21980
 30
0.000000
  70
    32
  0
VERTEX
  8
AM_VIS
  5
5BF
 10
1.30361
 20
5.22086
 30
0.000000
  70
    32
  0
VERTEX
  8
AM_VIS
  5
5C0
 10
1.30343
 20
5.22192
 30
0.000000
  70
    32
  0
VERTEX
  8
AM_VIS
  5
5C1
 10
1.30325
 20
5.22298
 30
0.000000
  70
    32
  0
VERTEX
  8
AM_VIS
  5
5C2
 10
1.30305
 20
5.22403
 30
0.000000
  70
    32
  0
VERTEX
  8
AM_VIS
  5
5C3
 10
1.30285
 20
5.22509
 30
0.000000
  70
    32
  0
VERTEX
  8
AM_VIS
  5
5C4
 10
1.30263
 20
5.22615
 30
0.000000
  70
    32
  0
VERTEX
  8
AM_VIS
  5
5C5
 10
1.30242
 20
5.22720
 30
0.000000
  70
    32
  0
VERTEX
  8
AM_VIS
  5
5C6
 10
1.30219
 20
5.22825
 30
0.000000
  70
    32
  0
VERTEX
  8
AM_VIS
  5
5C7
 10
1.30195
 20
5.22931
 30
0.000000
  70
    32
  0
VERTEX
  8
AM_VIS
  5
5C8
 10
1.30171
 20
5.23036
 30
0.000000
  70
    32
  0
VERTEX
  8
AM_VIS
  5
5C9
 10
1.30146
 20
5.23141
 30
0.000000
  70
    32
  0
VERTEX
  8
AM_VIS
  5
5CA
 10
1.30121
 20
5.23246
 30
0.000000
  70
    32
  0
VERTEX
  8
AM_VIS
  5
5CB
 10
1.30094
 20
5.23350
 30
0.000000
  70
    32
  0
VERTEX
  8
AM_VIS
  5
5CC
 10
1.30067
 20
5.23455
 30
0.000000
  70
    32
  0
VERTEX
  8
AM_VIS
  5
5CD
 10
1.30039
 20
5.23559
 30
0.000000
  70
    32
  0
VERTEX
  8
AM_VIS
  5
5CE
 10
1.30010
 20
5.23663
 30
0.000000
  70
    32
  0
VERTEX
  8
AM_VIS
  5
5CF
 10
1.29980
 20
5.23767
 30
0.000000
  70
    32
  0
VERTEX
  8
AM_VIS
  5
5D0
 10
1.29950
 20
5.23871
 30
0.000000
  70
    32
  0
VERTEX
  8
AM_VIS
  5
5D1
 10
1.29919
 20
5.23975
 30
0.000000
  70
    32
  0
VERTEX
  8
AM_VIS
  5
5D2
 10
1.29887
 20
5.24078
 30
0.000000
  70
    32
  0
VERTEX
  8
AM_VIS
  5
5D3
 10
1.29854
 20
5.24182
 30
0.000000
  70
    32
  0
VERTEX
  8
AM_VIS
  5
5D4
 10
1.29821
 20
5.24285
 30
0.000000
  70
    32
  0
VERTEX
  8
AM_VIS
  5
5D5
 10
1.29787
 20
5.24388
 30
0.000000
  70
    32
  0
VERTEX
  8
AM_VIS
  5
5D6
 10
1.29752
 20
5.24490
 30
0.000000
  70
    32
  0
VERTEX
  8
AM_VIS
  5
5D7
 10
1.29716
 20
5.24593
 30
0.000000
  70
    32
  0
VERTEX
  8
AM_VIS
  5
5D8
 10
1.29679
 20
5.24695
 30
0.000000
  70
    32
  0
VERTEX
  8
AM_VIS
  5
5D9
 10
1.29642
 20
5.24797
 30
0.000000
  70
    32
  0
VERTEX
  8
AM_VIS
  5
5DA
 10
1.29604
 20
5.24899
 30
0.000000
  70
    32
  0
VERTEX
  8
AM_VIS
  5
5DB
 10
1.29565
 20
5.25001
 30
0.000000
  70
    32
  0
SEQEND
  8
AM_VIS
  5
5DC
  0
POLYLINE
  8
AM_HID
  5
5DD
  66
     1
 10
0.000000
 20
0.000000
 30
0.000000
  70
     8
  0
VERTEX
  8
AM_HID
  5
5DE
 10
1.29565
 20
5.25001
 30
0.000000
  70
    32
  0
VERTEX
  8
AM_HID
  5
5DF
 10
1.29533
 20
5.25080
 30
0.000000
  70
    32
  0
VERTEX
  8
AM_HID
  5
5E0
 10
1.29501
 20
5.25158
 30
0.000000
  70
    32
  0
VERTEX
  8
AM_HID
  5
5E1
 10
1.29469
 20
5.25237
 30
0.000000
  70
    32
  0
VERTEX
  8
AM_HID
  5
5E2
 10
1.29436
 20
5.25316
 30
0.000000
  70
    32
  0
VERTEX
  8
AM_HID
  5
5E3
 10
1.29402
 20
5.25394
 30
0.000000
  70
    32
  0
VERTEX
  8
AM_HID
  5
5E4
 10
1.29368
 20
5.25472
 30
0.000000
  70
    32
  0
VERTEX
  8
AM_HID
  5
5E5
 10
1.29334
 20
5.25550
 30
0.000000
  70
    32
  0
VERTEX
  8
AM_HID
  5
5E6
 10
1.29299
 20
5.25628
 30
0.000000
  70
    32
  0
VERTEX
  8
AM_HID
  5
5E7
 10
1.29264
 20
5.25706
 30
0.000000
  70
    32
  0
VERTEX
  8
AM_HID
  5
5E8
 10
1.29228
 20
5.25783
 30
0.000000
  70
    32
  0
VERTEX
  8
AM_HID
  5
5E9
 10
1.29192
 20
5.25861
 30
0.000000
  70
    32
  0
VERTEX
  8
AM_HID
  5
5EA
 10
1.29155
 20
5.25938
 30
0.000000
  70
    32
  0
VERTEX
  8
AM_HID
  5
5EB
 10
1.29118
 20
5.26015
 30
0.000000
  70
    32
  0
VERTEX
  8
AM_HID
  5
5EC
 10
1.29080
 20
5.26092
 30
0.000000
  70
    32
  0
VERTEX
  8
AM_HID
  5
5ED
 10
1.29042
 20
5.26169
 30
0.000000
  70
    32
  0
VERTEX
  8
AM_HID
  5
5EE
 10
1.29004
 20
5.26245
 30
0.000000
  70
    32
  0
VERTEX
  8
AM_HID
  5
5EF
 10
1.28965
 20
5.26322
 30
0.000000
  70
    32
  0
VERTEX
  8
AM_HID
  5
5F0
 10
1.28925
 20
5.26398
 30
0.000000
  70
    32
  0
VERTEX
  8
AM_HID
  5
5F1
 10
1.28885
 20
5.26474
 30
0.000000
  70
    32
  0
VERTEX
  8
AM_HID
  5
5F2
 10
1.28845
 20
5.26550
 30
0.000000
  70
    32
  0
VERTEX
  8
AM_HID
  5
5F3
 10
1.28804
 20
5.26625
 30
0.000000
  70
    32
  0
VERTEX
  8
AM_HID
  5
5F4
 10
1.28763
 20
5.26701
 30
0.000000
  70
    32
  0
VERTEX
  8
AM_HID
  5
5F5
 10
1.28721
 20
5.26776
 30
0.000000
  70
    32
  0
VERTEX
  8
AM_HID
  5
5F6
 10
1.28679
 20
5.26851
 30
0.000000
  70
    32
  0
VERTEX
  8
AM_HID
  5
5F7
 10
1.28636
 20
5.26926
 30
0.000000
  70
    32
  0
VERTEX
  8
AM_HID
  5
5F8
 10
1.28593
 20
5.27001
 30
0.000000
  70
    32
  0
VERTEX
  8
AM_HID
  5
5F9
 10
1.28549
 20
5.27075
 30
0.000000
  70
    32
  0
VERTEX
  8
AM_HID
  5
5FA
 10
1.28505
 20
5.27149
 30
0.000000
  70
    32
  0
VERTEX
  8
AM_HID
  5
5FB
 10
1.28460
 20
5.27223
 30
0.000000
  70
    32
  0
VERTEX
  8
AM_HID
  5
5FC
 10
1.28415
 20
5.27297
 30
0.000000
  70
    32
  0
VERTEX
  8
AM_HID
  5
5FD
 10
1.28369
 20
5.27371
 30
0.000000
  70
    32
  0
VERTEX
  8
AM_HID
  5
5FE
 10
1.28323
 20
5.27444
 30
0.000000
  70
    32
  0
VERTEX
  8
AM_HID
  5
5FF
 10
1.28276
 20
5.27517
 30
0.000000
  70
    32
  0
VERTEX
  8
AM_HID
  5
600
 10
1.28229
 20
5.27590
 30
0.000000
  70
    32
  0
VERTEX
  8
AM_HID
  5
601
 10
1.28182
 20
5.27663
 30
0.000000
  70
    32
  0
VERTEX
  8
AM_HID
  5
602
 10
1.28134
 20
5.27735
 30
0.000000
  70
    32
  0
VERTEX
  8
AM_HID
  5
603
 10
1.28085
 20
5.27807
 30
0.000000
  70
    32
  0
VERTEX
  8
AM_HID
  5
604
 10
1.28036
 20
5.27879
 30
0.000000
  70
    32
  0
VERTEX
  8
AM_HID
  5
605
 10
1.27987
 20
5.27951
 30
0.000000
  70
    32
  0
VERTEX
  8
AM_HID
  5
606
 10
1.27937
 20
5.28023
 30
0.000000
  70
    32
  0
VERTEX
  8
AM_HID
  5
607
 10
1.27886
 20
5.28094
 30
0.000000
  70
    32
  0
VERTEX
  8
AM_HID
  5
608
 10
1.27836
 20
5.28165
 30
0.000000
  70
    32
  0
VERTEX
  8
AM_HID
  5
609
 10
1.27784
 20
5.28236
 30
0.000000
  70
    32
  0
VERTEX
  8
AM_HID
  5
60A
 10
1.27733
 20
5.28306
 30
0.000000
  70
    32
  0
VERTEX
  8
AM_HID
  5
60B
 10
1.27680
 20
5.28377
 30
0.000000
  70
    32
  0
VERTEX
  8
AM_HID
  5
60C
 10
1.27628
 20
5.28447
 30
0.000000
  70
    32
  0
VERTEX
  8
AM_HID
  5
60D
 10
1.27575
 20
5.28517
 30
0.000000
  70
    32
  0
VERTEX
  8
AM_HID
  5
60E
 10
1.27521
 20
5.28587
 30
0.000000
  70
    32
  0
VERTEX
  8
AM_HID
  5
60F
 10
1.27467
 20
5.28656
 30
0.000000
  70
    32
  0
VERTEX
  8
AM_HID
  5
610
 10
1.27413
 20
5.28725
 30
0.000000
  70
    32
  0
VERTEX
  8
AM_HID
  5
611
 10
1.27358
 20
5.28794
 30
0.000000
  70
    32
  0
VERTEX
  8
AM_HID
  5
612
 10
1.27303
 20
5.28863
 30
0.000000
  70
    32
  0
VERTEX
  8
AM_HID
  5
613
 10
1.27247
 20
5.28931
 30
0.000000
  70
    32
  0
VERTEX
  8
AM_HID
  5
614
 10
1.27191
 20
5.29000
 30
0.000000
  70
    32
  0
VERTEX
  8
AM_HID
  5
615
 10
1.27134
 20
5.29068
 30
0.000000
  70
    32
  0
VERTEX
  8
AM_HID
  5
616
 10
1.27077
 20
5.29135
 30
0.000000
  70
    32
  0
VERTEX
  8
AM_HID
  5
617
 10
1.27020
 20
5.29203
 30
0.000000
  70
    32
  0
VERTEX
  8
AM_HID
  5
618
 10
1.26962
 20
5.29270
 30
0.000000
  70
    32
  0
VERTEX
  8
AM_HID
  5
619
 10
1.26904
 20
5.29337
 30
0.000000
  70
    32
  0
VERTEX
  8
AM_HID
  5
61A
 10
1.26845
 20
5.29404
 30
0.000000
  70
    32
  0
VERTEX
  8
AM_HID
  5
61B
 10
1.26786
 20
5.29471
 30
0.000000
  70
    32
  0
VERTEX
  8
AM_HID
  5
61C
 10
1.26727
 20
5.29537
 30
0.000000
  70
    32
  0
VERTEX
  8
AM_HID
  5
61D
 10
1.26667
 20
5.29603
 30
0.000000
  70
    32
  0
VERTEX
  8
AM_HID
  5
61E
 10
1.26607
 20
5.29669
 30
0.000000
  70
    32
  0
VERTEX
  8
AM_HID
  5
61F
 10
1.26546
 20
5.29734
 30
0.000000
  70
    32
  0
VERTEX
  8
AM_HID
  5
620
 10
1.26485
 20
5.29800
 30
0.000000
  70
    32
  0
VERTEX
  8
AM_HID
  5
621
 10
1.26424
 20
5.29865
 30
0.000000
  70
    32
  0
VERTEX
  8
AM_HID
  5
622
 10
1.26362
 20
5.29929
 30
0.000000
  70
    32
  0
VERTEX
  8
AM_HID
  5
623
 10
1.26300
 20
5.29994
 30
0.000000
  70
    32
  0
VERTEX
  8
AM_HID
  5
624
 10
1.26237
 20
5.30058
 30
0.000000
  70
    32
  0
VERTEX
  8
AM_HID
  5
625
 10
1.26174
 20
5.30122
 30
0.000000
  70
    32
  0
VERTEX
  8
AM_HID
  5
626
 10
1.26111
 20
5.30186
 30
0.000000
  70
    32
  0
VERTEX
  8
AM_HID
  5
627
 10
1.26047
 20
5.30250
 30
0.000000
  70
    32
  0
VERTEX
  8
AM_HID
  5
628
 10
1.25983
 20
5.30313
 30
0.000000
  70
    32
  0
VERTEX
  8
AM_HID
  5
629
 10
1.25919
 20
5.30376
 30
0.000000
  70
    32
  0
VERTEX
  8
AM_HID
  5
62A
 10
1.25854
 20
5.30438
 30
0.000000
  70
    32
  0
VERTEX
  8
AM_HID
  5
62B
 10
1.25789
 20
5.30501
 30
0.000000
  70
    32
  0
VERTEX
  8
AM_HID
  5
62C
 10
1.25723
 20
5.30563
 30
0.000000
  70
    32
  0
VERTEX
  8
AM_HID
  5
62D
 10
1.25657
 20
5.30625
 30
0.000000
  70
    32
  0
VERTEX
  8
AM_HID
  5
62E
 10
1.25591
 20
5.30687
 30
0.000000
  70
    32
  0
VERTEX
  8
AM_HID
  5
62F
 10
1.25524
 20
5.30748
 30
0.000000
  70
    32
  0
VERTEX
  8
AM_HID
  5
630
 10
1.25457
 20
5.30809
 30
0.000000
  70
    32
  0
VERTEX
  8
AM_HID
  5
631
 10
1.25390
 20
5.30870
 30
0.000000
  70
    32
  0
VERTEX
  8
AM_HID
  5
632
 10
1.25322
 20
5.30931
 30
0.000000
  70
    32
  0
VERTEX
  8
AM_HID
  5
633
 10
1.25254
 20
5.30991
 30
0.000000
  70
    32
  0
VERTEX
  8
AM_HID
  5
634
 10
1.25186
 20
5.31051
 30
0.000000
  70
    32
  0
VERTEX
  8
AM_HID
  5
635
 10
1.25117
 20
5.31111
 30
0.000000
  70
    32
  0
VERTEX
  8
AM_HID
  5
636
 10
1.25048
 20
5.31170
 30
0.000000
  70
    32
  0
VERTEX
  8
AM_HID
  5
637
 10
1.24979
 20
5.31230
 30
0.000000
  70
    32
  0
VERTEX
  8
AM_HID
  5
638
 10
1.24909
 20
5.31288
 30
0.000000
  70
    32
  0
VERTEX
  8
AM_HID
  5
639
 10
1.24839
 20
5.31347
 30
0.000000
  70
    32
  0
VERTEX
  8
AM_HID
  5
63A
 10
1.24769
 20
5.31406
 30
0.000000
  70
    32
  0
VERTEX
  8
AM_HID
  5
63B
 10
1.24698
 20
5.31464
 30
0.000000
  70
    32
  0
VERTEX
  8
AM_HID
  5
63C
 10
1.24627
 20
5.31522
 30
0.000000
  70
    32
  0
VERTEX
  8
AM_HID
  5
63D
 10
1.24556
 20
5.31579
 30
0.000000
  70
    32
  0
VERTEX
  8
AM_HID
  5
63E
 10
1.24484
 20
5.31636
 30
0.000000
  70
    32
  0
VERTEX
  8
AM_HID
  5
63F
 10
1.24412
 20
5.31693
 30
0.000000
  70
    32
  0
VERTEX
  8
AM_HID
  5
640
 10
1.24340
 20
5.31750
 30
0.000000
  70
    32
  0
VERTEX
  8
AM_HID
  5
641
 10
1.24267
 20
5.31807
 30
0.000000
  70
    32
  0
VERTEX
  8
AM_HID
  5
642
 10
1.24195
 20
5.31863
 30
0.000000
  70
    32
  0
VERTEX
  8
AM_HID
  5
643
 10
1.24121
 20
5.31919
 30
0.000000
  70
    32
  0
VERTEX
  8
AM_HID
  5
644
 10
1.24048
 20
5.31974
 30
0.000000
  70
    32
  0
VERTEX
  8
AM_HID
  5
645
 10
1.23974
 20
5.32029
 30
0.000000
  70
    32
  0
VERTEX
  8
AM_HID
  5
646
 10
1.23900
 20
5.32084
 30
0.000000
  70
    32
  0
VERTEX
  8
AM_HID
  5
647
 10
1.23826
 20
5.32139
 30
0.000000
  70
    32
  0
VERTEX
  8
AM_HID
  5
648
 10
1.23751
 20
5.32194
 30
0.000000
  70
    32
  0
VERTEX
  8
AM_HID
  5
649
 10
1.23676
 20
5.32248
 30
0.000000
  70
    32
  0
VERTEX
  8
AM_HID
  5
64A
 10
1.23601
 20
5.32302
 30
0.000000
  70
    32
  0
VERTEX
  8
AM_HID
  5
64B
 10
1.23525
 20
5.32355
 30
0.000000
  70
    32
  0
VERTEX
  8
AM_HID
  5
64C
 10
1.23450
 20
5.32408
 30
0.000000
  70
    32
  0
VERTEX
  8
AM_HID
  5
64D
 10
1.23374
 20
5.32461
 30
0.000000
  70
    32
  0
VERTEX
  8
AM_HID
  5
64E
 10
1.23297
 20
5.32514
 30
0.000000
  70
    32
  0
VERTEX
  8
AM_HID
  5
64F
 10
1.23221
 20
5.32566
 30
0.000000
  70
    32
  0
VERTEX
  8
AM_HID
  5
650
 10
1.23144
 20
5.32619
 30
0.000000
  70
    32
  0
VERTEX
  8
AM_HID
  5
651
 10
1.23067
 20
5.32670
 30
0.000000
  70
    32
  0
VERTEX
  8
AM_HID
  5
652
 10
1.22989
 20
5.32722
 30
0.000000
  70
    32
  0
VERTEX
  8
AM_HID
  5
653
 10
1.22912
 20
5.32773
 30
0.000000
  70
    32
  0
VERTEX
  8
AM_HID
  5
654
 10
1.22834
 20
5.32824
 30
0.000000
  70
    32
  0
VERTEX
  8
AM_HID
  5
655
 10
1.22756
 20
5.32874
 30
0.000000
  70
    32
  0
VERTEX
  8
AM_HID
  5
656
 10
1.22677
 20
5.32925
 30
0.000000
  70
    32
  0
VERTEX
  8
AM_HID
  5
657
 10
1.22599
 20
5.32975
 30
0.000000
  70
    32
  0
VERTEX
  8
AM_HID
  5
658
 10
1.22520
 20
5.33024
 30
0.000000
  70
    32
  0
VERTEX
  8
AM_HID
  5
659
 10
1.22441
 20
5.33074
 30
0.000000
  70
    32
  0
VERTEX
  8
AM_HID
  5
65A
 10
1.22361
 20
5.33123
 30
0.000000
  70
    32
  0
VERTEX
  8
AM_HID
  5
65B
 10
1.22282
 20
5.33172
 30
0.000000
  70
    32
  0
VERTEX
  8
AM_HID
  5
65C
 10
1.22202
 20
5.33220
 30
0.000000
  70
    32
  0
VERTEX
  8
AM_HID
  5
65D
 10
1.22121
 20
5.33268
 30
0.000000
  70
    32
  0
VERTEX
  8
AM_HID
  5
65E
 10
1.22041
 20
5.33316
 30
0.000000
  70
    32
  0
VERTEX
  8
AM_HID
  5
65F
 10
1.21960
 20
5.33364
 30
0.000000
  70
    32
  0
VERTEX
  8
AM_HID
  5
660
 10
1.21878
 20
5.33412
 30
0.000000
  70
    32
  0
VERTEX
  8
AM_HID
  5
661
 10
1.21796
 20
5.33459
 30
0.000000
  70
    32
  0
VERTEX
  8
AM_HID
  5
662
 10
1.21714
 20
5.33507
 30
0.000000
  70
    32
  0
VERTEX
  8
AM_HID
  5
663
 10
1.21631
 20
5.33554
 30
0.000000
  70
    32
  0
VERTEX
  8
AM_HID
  5
664
 10
1.21547
 20
5.33601
 30
0.000000
  70
    32
  0
VERTEX
  8
AM_HID
  5
665
 10
1.21463
 20
5.33648
 30
0.000000
  70
    32
  0
VERTEX
  8
AM_HID
  5
666
 10
1.21379
 20
5.33694
 30
0.000000
  70
    32
  0
VERTEX
  8
AM_HID
  5
667
 10
1.21294
 20
5.33741
 30
0.000000
  70
    32
  0
VERTEX
  8
AM_HID
  5
668
 10
1.21209
 20
5.33787
 30
0.000000
  70
    32
  0
VERTEX
  8
AM_HID
  5
669
 10
1.21124
 20
5.33833
 30
0.000000
  70
    32
  0
VERTEX
  8
AM_HID
  5
66A
 10
1.21038
 20
5.33879
 30
0.000000
  70
    32
  0
VERTEX
  8
AM_HID
  5
66B
 10
1.20951
 20
5.33924
 30
0.000000
  70
    32
  0
VERTEX
  8
AM_HID
  5
66C
 10
1.20864
 20
5.33970
 30
0.000000
  70
    32
  0
VERTEX
  8
AM_HID
  5
66D
 10
1.20777
 20
5.34015
 30
0.000000
  70
    32
  0
VERTEX
  8
AM_HID
  5
66E
 10
1.20689
 20
5.34060
 30
0.000000
  70
    32
  0
VERTEX
  8
AM_HID
  5
66F
 10
1.20601
 20
5.34105
 30
0.000000
  70
    32
  0
VERTEX
  8
AM_HID
  5
670
 10
1.20512
 20
5.34150
 30
0.000000
  70
    32
  0
VERTEX
  8
AM_HID
  5
671
 10
1.20423
 20
5.34194
 30
0.000000
  70
    32
  0
VERTEX
  8
AM_HID
  5
672
 10
1.20334
 20
5.34239
 30
0.000000
  70
    32
  0
VERTEX
  8
AM_HID
  5
673
 10
1.20244
 20
5.34283
 30
0.000000
  70
    32
  0
VERTEX
  8
AM_HID
  5
674
 10
1.20154
 20
5.34327
 30
0.000000
  70
    32
  0
VERTEX
  8
AM_HID
  5
675
 10
1.20063
 20
5.34371
 30
0.000000
  70
    32
  0
VERTEX
  8
AM_HID
  5
676
 10
1.19972
 20
5.34414
 30
0.000000
  70
    32
  0
VERTEX
  8
AM_HID
  5
677
 10
1.19881
 20
5.34457
 30
0.000000
  70
    32
  0
VERTEX
  8
AM_HID
  5
678
 10
1.19789
 20
5.34501
 30
0.000000
  70
    32
  0
VERTEX
  8
AM_HID
  5
679
 10
1.19697
 20
5.34543
 30
0.000000
  70
    32
  0
VERTEX
  8
AM_HID
  5
67A
 10
1.19604
 20
5.34586
 30
0.000000
  70
    32
  0
VERTEX
  8
AM_HID
  5
67B
 10
1.19511
 20
5.34629
 30
0.000000
  70
    32
  0
VERTEX
  8
AM_HID
  5
67C
 10
1.19418
 20
5.34671
 30
0.000000
  70
    32
  0
VERTEX
  8
AM_HID
  5
67D
 10
1.19324
 20
5.34713
 30
0.000000
  70
    32
  0
VERTEX
  8
AM_HID
  5
67E
 10
1.19230
 20
5.34755
 30
0.000000
  70
    32
  0
VERTEX
  8
AM_HID
  5
67F
 10
1.19136
 20
5.34796
 30
0.000000
  70
    32
  0
VERTEX
  8
AM_HID
  5
680
 10
1.19041
 20
5.34838
 30
0.000000
  70
    32
  0
VERTEX
  8
AM_HID
  5
681
 10
1.18945
 20
5.34879
 30
0.000000
  70
    32
  0
VERTEX
  8
AM_HID
  5
682
 10
1.18850
 20
5.34920
 30
0.000000
  70
    32
  0
VERTEX
  8
AM_HID
  5
683
 10
1.18754
 20
5.34961
 30
0.000000
  70
    32
  0
VERTEX
  8
AM_HID
  5
684
 10
1.18657
 20
5.35001
 30
0.000000
  70
    32
  0
VERTEX
  8
AM_HID
  5
685
 10
1.18561
 20
5.35042
 30
0.000000
  70
    32
  0
VERTEX
  8
AM_HID
  5
686
 10
1.18463
 20
5.35082
 30
0.000000
  70
    32
  0
VERTEX
  8
AM_HID
  5
687
 10
1.18366
 20
5.35122
 30
0.000000
  70
    32
  0
VERTEX
  8
AM_HID
  5
688
 10
1.18268
 20
5.35162
 30
0.000000
  70
    32
  0
VERTEX
  8
AM_HID
  5
689
 10
1.18170
 20
5.35201
 30
0.000000
  70
    32
  0
VERTEX
  8
AM_HID
  5
68A
 10
1.18071
 20
5.35240
 30
0.000000
  70
    32
  0
VERTEX
  8
AM_HID
  5
68B
 10
1.17972
 20
5.35279
 30
0.000000
  70
    32
  0
VERTEX
  8
AM_HID
  5
68C
 10
1.17873
 20
5.35318
 30
0.000000
  70
    32
  0
VERTEX
  8
AM_HID
  5
68D
 10
1.17774
 20
5.35357
 30
0.000000
  70
    32
  0
VERTEX
  8
AM_HID
  5
68E
 10
1.17674
 20
5.35395
 30
0.000000
  70
    32
  0
VERTEX
  8
AM_HID
  5
68F
 10
1.17573
 20
5.35433
 30
0.000000
  70
    32
  0
VERTEX
  8
AM_HID
  5
690
 10
1.17473
 20
5.35471
 30
0.000000
  70
    32
  0
VERTEX
  8
AM_HID
  5
691
 10
1.17372
 20
5.35508
 30
0.000000
  70
    32
  0
VERTEX
  8
AM_HID
  5
692
 10
1.17270
 20
5.35546
 30
0.000000
  70
    32
  0
VERTEX
  8
AM_HID
  5
693
 10
1.17169
 20
5.35583
 30
0.000000
  70
    32
  0
VERTEX
  8
AM_HID
  5
694
 10
1.17067
 20
5.35620
 30
0.000000
  70
    32
  0
VERTEX
  8
AM_HID
  5
695
 10
1.16965
 20
5.35656
 30
0.000000
  70
    32
  0
VERTEX
  8
AM_HID
  5
696
 10
1.16862
 20
5.35693
 30
0.000000
  70
    32
  0
VERTEX
  8
AM_HID
  5
697
 10
1.16759
 20
5.35729
 30
0.000000
  70
    32
  0
VERTEX
  8
AM_HID
  5
698
 10
1.16656
 20
5.35765
 30
0.000000
  70
    32
  0
VERTEX
  8
AM_HID
  5
699
 10
1.16552
 20
5.35801
 30
0.000000
  70
    32
  0
VERTEX
  8
AM_HID
  5
69A
 10
1.16448
 20
5.35836
 30
0.000000
  70
    32
  0
VERTEX
  8
AM_HID
  5
69B
 10
1.16344
 20
5.35871
 30
0.000000
  70
    32
  0
VERTEX
  8
AM_HID
  5
69C
 10
1.16239
 20
5.35906
 30
0.000000
  70
    32
  0
VERTEX
  8
AM_HID
  5
69D
 10
1.16135
 20
5.35941
 30
0.000000
  70
    32
  0
VERTEX
  8
AM_HID
  5
69E
 10
1.16029
 20
5.35976
 30
0.000000
  70
    32
  0
VERTEX
  8
AM_HID
  5
69F
 10
1.15924
 20
5.36010
 30
0.000000
  70
    32
  0
VERTEX
  8
AM_HID
  5
6A0
 10
1.15818
 20
5.36044
 30
0.000000
  70
    32
  0
VERTEX
  8
AM_HID
  5
6A1
 10
1.15712
 20
5.36077
 30
0.000000
  70
    32
  0
VERTEX
  8
AM_HID
  5
6A2
 10
1.15606
 20
5.36111
 30
0.000000
  70
    32
  0
VERTEX
  8
AM_HID
  5
6A3
 10
1.15499
 20
5.36144
 30
0.000000
  70
    32
  0
VERTEX
  8
AM_HID
  5
6A4
 10
1.15392
 20
5.36177
 30
0.000000
  70
    32
  0
VERTEX
  8
AM_HID
  5
6A5
 10
1.15285
 20
5.36210
 30
0.000000
  70
    32
  0
VERTEX
  8
AM_HID
  5
6A6
 10
1.15178
 20
5.36242
 30
0.000000
  70
    32
  0
VERTEX
  8
AM_HID
  5
6A7
 10
1.15070
 20
5.36274
 30
0.000000
  70
    32
  0
VERTEX
  8
AM_HID
  5
6A8
 10
1.14962
 20
5.36306
 30
0.000000
  70
    32
  0
VERTEX
  8
AM_HID
  5
6A9
 10
1.14853
 20
5.36338
 30
0.000000
  70
    32
  0
VERTEX
  8
AM_HID
  5
6AA
 10
1.14745
 20
5.36369
 30
0.000000
  70
    32
  0
VERTEX
  8
AM_HID
  5
6AB
 10
1.14636
 20
5.36400
 30
0.000000
  70
    32
  0
VERTEX
  8
AM_HID
  5
6AC
 10
1.14527
 20
5.36431
 30
0.000000
  70
    32
  0
VERTEX
  8
AM_HID
  5
6AD
 10
1.14417
 20
5.36462
 30
0.000000
  70
    32
  0
VERTEX
  8
AM_HID
  5
6AE
 10
1.14307
 20
5.36492
 30
0.000000
  70
    32
  0
VERTEX
  8
AM_HID
  5
6AF
 10
1.14197
 20
5.36522
 30
0.000000
  70
    32
  0
VERTEX
  8
AM_HID
  5
6B0
 10
1.14087
 20
5.36552
 30
0.000000
  70
    32
  0
VERTEX
  8
AM_HID
  5
6B1
 10
1.13977
 20
5.36581
 30
0.000000
  70
    32
  0
VERTEX
  8
AM_HID
  5
6B2
 10
1.13866
 20
5.36610
 30
0.000000
  70
    32
  0
VERTEX
  8
AM_HID
  5
6B3
 10
1.13755
 20
5.36639
 30
0.000000
  70
    32
  0
VERTEX
  8
AM_HID
  5
6B4
 10
1.13644
 20
5.36668
 30
0.000000
  70
    32
  0
VERTEX
  8
AM_HID
  5
6B5
 10
1.13532
 20
5.36696
 30
0.000000
  70
    32
  0
VERTEX
  8
AM_HID
  5
6B6
 10
1.13420
 20
5.36725
 30
0.000000
  70
    32
  0
VERTEX
  8
AM_HID
  5
6B7
 10
1.13308
 20
5.36752
 30
0.000000
  70
    32
  0
VERTEX
  8
AM_HID
  5
6B8
 10
1.13196
 20
5.36780
 30
0.000000
  70
    32
  0
VERTEX
  8
AM_HID
  5
6B9
 10
1.13083
 20
5.36807
 30
0.000000
  70
    32
  0
VERTEX
  8
AM_HID
  5
6BA
 10
1.12971
 20
5.36834
 30
0.000000
  70
    32
  0
VERTEX
  8
AM_HID
  5
6BB
 10
1.12858
 20
5.36861
 30
0.000000
  70
    32
  0
VERTEX
  8
AM_HID
  5
6BC
 10
1.12744
 20
5.36887
 30
0.000000
  70
    32
  0
VERTEX
  8
AM_HID
  5
6BD
 10
1.12631
 20
5.36913
 30
0.000000
  70
    32
  0
VERTEX
  8
AM_HID
  5
6BE
 10
1.12517
 20
5.36939
 30
0.000000
  70
    32
  0
VERTEX
  8
AM_HID
  5
6BF
 10
1.12403
 20
5.36965
 30
0.000000
  70
    32
  0
VERTEX
  8
AM_HID
  5
6C0
 10
1.12289
 20
5.36990
 30
0.000000
  70
    32
  0
VERTEX
  8
AM_HID
  5
6C1
 10
1.12175
 20
5.37015
 30
0.000000
  70
    32
  0
VERTEX
  8
AM_HID
  5
6C2
 10
1.12060
 20
5.37040
 30
0.000000
  70
    32
  0
VERTEX
  8
AM_HID
  5
6C3
 10
1.11946
 20
5.37064
 30
0.000000
  70
    32
  0
VERTEX
  8
AM_HID
  5
6C4
 10
1.11831
 20
5.37088
 30
0.000000
  70
    32
  0
VERTEX
  8
AM_HID
  5
6C5
 10
1.11715
 20
5.37112
 30
0.000000
  70
    32
  0
VERTEX
  8
AM_HID
  5
6C6
 10
1.11600
 20
5.37136
 30
0.000000
  70
    32
  0
VERTEX
  8
AM_HID
  5
6C7
 10
1.11484
 20
5.37159
 30
0.000000
  70
    32
  0
VERTEX
  8
AM_HID
  5
6C8
 10
1.11369
 20
5.37182
 30
0.000000
  70
    32
  0
VERTEX
  8
AM_HID
  5
6C9
 10
1.11253
 20
5.37205
 30
0.000000
  70
    32
  0
VERTEX
  8
AM_HID
  5
6CA
 10
1.11137
 20
5.37227
 30
0.000000
  70
    32
  0
VERTEX
  8
AM_HID
  5
6CB
 10
1.11020
 20
5.37250
 30
0.000000
  70
    32
  0
VERTEX
  8
AM_HID
  5
6CC
 10
1.10904
 20
5.37272
 30
0.000000
  70
    32
  0
VERTEX
  8
AM_HID
  5
6CD
 10
1.10787
 20
5.37293
 30
0.000000
  70
    32
  0
VERTEX
  8
AM_HID
  5
6CE
 10
1.10670
 20
5.37315
 30
0.000000
  70
    32
  0
VERTEX
  8
AM_HID
  5
6CF
 10
1.10553
 20
5.37336
 30
0.000000
  70
    32
  0
VERTEX
  8
AM_HID
  5
6D0
 10
1.10436
 20
5.37356
 30
0.000000
  70
    32
  0
VERTEX
  8
AM_HID
  5
6D1
 10
1.10319
 20
5.37377
 30
0.000000
  70
    32
  0
VERTEX
  8
AM_HID
  5
6D2
 10
1.10201
 20
5.37397
 30
0.000000
  70
    32
  0
VERTEX
  8
AM_HID
  5
6D3
 10
1.10083
 20
5.37417
 30
0.000000
  70
    32
  0
VERTEX
  8
AM_HID
  5
6D4
 10
1.09966
 20
5.37437
 30
0.000000
  70
    32
  0
VERTEX
  8
AM_HID
  5
6D5
 10
1.09848
 20
5.37456
 30
0.000000
  70
    32
  0
VERTEX
  8
AM_HID
  5
6D6
 10
1.09730
 20
5.37476
 30
0.000000
  70
    32
  0
VERTEX
  8
AM_HID
  5
6D7
 10
1.09611
 20
5.37494
 30
0.000000
  70
    32
  0
VERTEX
  8
AM_HID
  5
6D8
 10
1.09493
 20
5.37513
 30
0.000000
  70
    32
  0
VERTEX
  8
AM_HID
  5
6D9
 10
1.09375
 20
5.37531
 30
0.000000
  70
    32
  0
VERTEX
  8
AM_HID
  5
6DA
 10
1.09256
 20
5.37549
 30
0.000000
  70
    32
  0
VERTEX
  8
AM_HID
  5
6DB
 10
1.09137
 20
5.37567
 30
0.000000
  70
    32
  0
VERTEX
  8
AM_HID
  5
6DC
 10
1.09019
 20
5.37585
 30
0.000000
  70
    32
  0
VERTEX
  8
AM_HID
  5
6DD
 10
1.08900
 20
5.37602
 30
0.000000
  70
    32
  0
VERTEX
  8
AM_HID
  5
6DE
 10
1.08781
 20
5.37619
 30
0.000000
  70
    32
  0
VERTEX
  8
AM_HID
  5
6DF
 10
1.08662
 20
5.37636
 30
0.000000
  70
    32
  0
VERTEX
  8
AM_HID
  5
6E0
 10
1.08542
 20
5.37652
 30
0.000000
  70
    32
  0
VERTEX
  8
AM_HID
  5
6E1
 10
1.08423
 20
5.37668
 30
0.000000
  70
    32
  0
VERTEX
  8
AM_HID
  5
6E2
 10
1.08304
 20
5.37684
 30
0.000000
  70
    32
  0
VERTEX
  8
AM_HID
  5
6E3
 10
1.08184
 20
5.37700
 30
0.000000
  70
    32
  0
VERTEX
  8
AM_HID
  5
6E4
 10
1.08064
 20
5.37715
 30
0.000000
  70
    32
  0
VERTEX
  8
AM_HID
  5
6E5
 10
1.07945
 20
5.37730
 30
0.000000
  70
    32
  0
VERTEX
  8
AM_HID
  5
6E6
 10
1.07825
 20
5.37745
 30
0.000000
  70
    32
  0
VERTEX
  8
AM_HID
  5
6E7
 10
1.07705
 20
5.37759
 30
0.000000
  70
    32
  0
VERTEX
  8
AM_HID
  5
6E8
 10
1.07585
 20
5.37773
 30
0.000000
  70
    32
  0
VERTEX
  8
AM_HID
  5
6E9
 10
1.07465
 20
5.37787
 30
0.000000
  70
    32
  0
VERTEX
  8
AM_HID
  5
6EA
 10
1.07345
 20
5.37801
 30
0.000000
  70
    32
  0
VERTEX
  8
AM_HID
  5
6EB
 10
1.07225
 20
5.37814
 30
0.000000
  70
    32
  0
VERTEX
  8
AM_HID
  5
6EC
 10
1.07105
 20
5.37828
 30
0.000000
  70
    32
  0
VERTEX
  8
AM_HID
  5
6ED
 10
1.06985
 20
5.37840
 30
0.000000
  70
    32
  0
VERTEX
  8
AM_HID
  5
6EE
 10
1.06865
 20
5.37853
 30
0.000000
  70
    32
  0
VERTEX
  8
AM_HID
  5
6EF
 10
1.06744
 20
5.37865
 30
0.000000
  70
    32
  0
VERTEX
  8
AM_HID
  5
6F0
 10
1.06624
 20
5.37877
 30
0.000000
  70
    32
  0
VERTEX
  8
AM_HID
  5
6F1
 10
1.06504
 20
5.37889
 30
0.000000
  70
    32
  0
VERTEX
  8
AM_HID
  5
6F2
 10
1.06383
 20
5.37901
 30
0.000000
  70
    32
  0
VERTEX
  8
AM_HID
  5
6F3
 10
1.06263
 20
5.37912
 30
0.000000
  70
    32
  0
VERTEX
  8
AM_HID
  5
6F4
 10
1.06143
 20
5.37923
 30
0.000000
  70
    32
  0
VERTEX
  8
AM_HID
  5
6F5
 10
1.06022
 20
5.37934
 30
0.000000
  70
    32
  0
VERTEX
  8
AM_HID
  5
6F6
 10
1.05902
 20
5.37944
 30
0.000000
  70
    32
  0
VERTEX
  8
AM_HID
  5
6F7
 10
1.05781
 20
5.37954
 30
0.000000
  70
    32
  0
VERTEX
  8
AM_HID
  5
6F8
 10
1.05661
 20
5.37964
 30
0.000000
  70
    32
  0
VERTEX
  8
AM_HID
  5
6F9
 10
1.05540
 20
5.37974
 30
0.000000
  70
    32
  0
VERTEX
  8
AM_HID
  5
6FA
 10
1.05420
 20
5.37983
 30
0.000000
  70
    32
  0
VERTEX
  8
AM_HID
  5
6FB
 10
1.05299
 20
5.37992
 30
0.000000
  70
    32
  0
VERTEX
  8
AM_HID
  5
6FC
 10
1.05179
 20
5.38001
 30
0.000000
  70
    32
  0
VERTEX
  8
AM_HID
  5
6FD
 10
1.05059
 20
5.38010
 30
0.000000
  70
    32
  0
VERTEX
  8
AM_HID
  5
6FE
 10
1.04938
 20
5.38018
 30
0.000000
  70
    32
  0
VERTEX
  8
AM_HID
  5
6FF
 10
1.04818
 20
5.38026
 30
0.000000
  70
    32
  0
VERTEX
  8
AM_HID
  5
700
 10
1.04697
 20
5.38034
 30
0.000000
  70
    32
  0
VERTEX
  8
AM_HID
  5
701
 10
1.04577
 20
5.38041
 30
0.000000
  70
    32
  0
VERTEX
  8
AM_HID
  5
702
 10
1.04457
 20
5.38048
 30
0.000000
  70
    32
  0
VERTEX
  8
AM_HID
  5
703
 10
1.04336
 20
5.38055
 30
0.000000
  70
    32
  0
VERTEX
  8
AM_HID
  5
704
 10
1.04216
 20
5.38062
 30
0.000000
  70
    32
  0
VERTEX
  8
AM_HID
  5
705
 10
1.04096
 20
5.38069
 30
0.000000
  70
    32
  0
VERTEX
  8
AM_HID
  5
706
 10
1.03976
 20
5.38075
 30
0.000000
  70
    32
  0
VERTEX
  8
AM_HID
  5
707
 10
1.03856
 20
5.38081
 30
0.000000
  70
    32
  0
VERTEX
  8
AM_HID
  5
708
 10
1.03736
 20
5.38086
 30
0.000000
  70
    32
  0
VERTEX
  8
AM_HID
  5
709
 10
1.03616
 20
5.38092
 30
0.000000
  70
    32
  0
VERTEX
  8
AM_HID
  5
70A
 10
1.03496
 20
5.38097
 30
0.000000
  70
    32
  0
VERTEX
  8
AM_HID
  5
70B
 10
1.03376
 20
5.38102
 30
0.000000
  70
    32
  0
VERTEX
  8
AM_HID
  5
70C
 10
1.03256
 20
5.38106
 30
0.000000
  70
    32
  0
VERTEX
  8
AM_HID
  5
70D
 10
1.03136
 20
5.38110
 30
0.000000
  70
    32
  0
VERTEX
  8
AM_HID
  5
70E
 10
1.03017
 20
5.38115
 30
0.000000
  70
    32
  0
VERTEX
  8
AM_HID
  5
70F
 10
1.02897
 20
5.38118
 30
0.000000
  70
    32
  0
VERTEX
  8
AM_HID
  5
710
 10
1.02778
 20
5.38122
 30
0.000000
  70
    32
  0
VERTEX
  8
AM_HID
  5
711
 10
1.02658
 20
5.38125
 30
0.000000
  70
    32
  0
VERTEX
  8
AM_HID
  5
712
 10
1.02539
 20
5.38128
 30
0.000000
  70
    32
  0
VERTEX
  8
AM_HID
  5
713
 10
1.02420
 20
5.38131
 30
0.000000
  70
    32
  0
VERTEX
  8
AM_HID
  5
714
 10
1.02301
 20
5.38133
 30
0.000000
  70
    32
  0
VERTEX
  8
AM_HID
  5
715
 10
1.02182
 20
5.38136
 30
0.000000
  70
    32
  0
VERTEX
  8
AM_HID
  5
716
 10
1.02063
 20
5.38138
 30
0.000000
  70
    32
  0
VERTEX
  8
AM_HID
  5
717
 10
1.01944
 20
5.38139
 30
0.000000
  70
    32
  0
VERTEX
  8
AM_HID
  5
718
 10
1.01825
 20
5.38141
 30
0.000000
  70
    32
  0
VERTEX
  8
AM_HID
  5
719
 10
1.01707
 20
5.38142
 30
0.000000
  70
    32
  0
VERTEX
  8
AM_HID
  5
71A
 10
1.01588
 20
5.38143
 30
0.000000
  70
    32
  0
VERTEX
  8
AM_HID
  5
71B
 10
1.01470
 20
5.38143
 30
0.000000
  70
    32
  0
VERTEX
  8
AM_HID
  5
71C
 10
1.01352
 20
5.38144
 30
0.000000
  70
    32
  0
VERTEX
  8
AM_HID
  5
71D
 10
1.01234
 20
5.38144
 30
0.000000
  70
    32
  0
SEQEND
  8
AM_HID
  5
71E
  0
LINE
  5
3E
  8
AM_VIS
 10
0.9288166666732831
 20
5.2918403259855831
 30
0.0
 11
1.09586394325289
 21
5.2918403259855831
 31
0.0
  0
POLYLINE
  5
3F
  8
AM_HID
 10
0.8583503790651974
 20
5.2121136528238825
 30
0.0
 66
     1
 70
     8
  0
VERTEX
  8
AM_HID
  5
71F
 10
0.858350
 20
5.21211
 30
0.000000
  70
    32
  0
VERTEX
  8
AM_HID
  5
720
 10
0.858248
 20
5.21199
 30
0.000000
  70
    32
  0
VERTEX
  8
AM_HID
  5
721
 10
0.858146
 20
5.21187
 30
0.000000
  70
    32
  0
VERTEX
  8
AM_HID
  5
722
 10
0.858044
 20
5.21175
 30
0.000000
  70
    32
  0
VERTEX
  8
AM_HID
  5
723
 10
0.857942
 20
5.21162
 30
0.000000
  70
    32
  0
VERTEX
  8
AM_HID
  5
724
 10
0.857840
 20
5.21150
 30
0.000000
  70
    32
  0
VERTEX
  8
AM_HID
  5
725
 10
0.857738
 20
5.21138
 30
0.000000
  70
    32
  0
VERTEX
  8
AM_HID
  5
726
 10
0.857636
 20
5.21126
 30
0.000000
  70
    32
  0
VERTEX
  8
AM_HID
  5
727
 10
0.857534
 20
5.21113
 30
0.000000
  70
    32
  0
VERTEX
  8
AM_HID
  5
728
 10
0.857432
 20
5.21101
 30
0.000000
  70
    32
  0
VERTEX
  8
AM_HID
  5
729
 10
0.857330
 20
5.21089
 30
0.000000
  70
    32
  0
VERTEX
  8
AM_HID
  5
72A
 10
0.857228
 20
5.21077
 30
0.000000
  70
    32
  0
VERTEX
  8
AM_HID
  5
72B
 10
0.857126
 20
5.21064
 30
0.000000
  70
    32
  0
VERTEX
  8
AM_HID
  5
72C
 10
0.857024
 20
5.21052
 30
0.000000
  70
    32
  0
VERTEX
  8
AM_HID
  5
72D
 10
0.856922
 20
5.21040
 30
0.000000
  70
    32
  0
VERTEX
  8
AM_HID
  5
72E
 10
0.856820
 20
5.21028
 30
0.000000
  70
    32
  0
VERTEX
  8
AM_HID
  5
72F
 10
0.856718
 20
5.21015
 30
0.000000
  70
    32
  0
VERTEX
  8
AM_HID
  5
730
 10
0.856616
 20
5.21003
 30
0.000000
  70
    32
  0
VERTEX
  8
AM_HID
  5
731
 10
0.856514
 20
5.20991
 30
0.000000
  70
    32
  0
VERTEX
  8
AM_HID
  5
732
 10
0.856412
 20
5.20979
 30
0.000000
  70
    32
  0
VERTEX
  8
AM_HID
  5
733
 10
0.856310
 20
5.20966
 30
0.000000
  70
    32
  0
VERTEX
  8
AM_HID
  5
734
 10
0.856208
 20
5.20954
 30
0.000000
  70
    32
  0
VERTEX
  8
AM_HID
  5
735
 10
0.856106
 20
5.20942
 30
0.000000
  70
    32
  0
VERTEX
  8
AM_HID
  5
736
 10
0.856004
 20
5.20929
 30
0.000000
  70
    32
  0
VERTEX
  8
AM_HID
  5
737
 10
0.855902
 20
5.20917
 30
0.000000
  70
    32
  0
VERTEX
  8
AM_HID
  5
738
 10
0.855800
 20
5.20905
 30
0.000000
  70
    32
  0
VERTEX
  8
AM_HID
  5
739
 10
0.855698
 20
5.20893
 30
0.000000
  70
    32
  0
VERTEX
  8
AM_HID
  5
73A
 10
0.855596
 20
5.20880
 30
0.000000
  70
    32
  0
VERTEX
  8
AM_HID
  5
73B
 10
0.855494
 20
5.20868
 30
0.000000
  70
    32
  0
VERTEX
  8
AM_HID
  5
73C
 10
0.855392
 20
5.20856
 30
0.000000
  70
    32
  0
VERTEX
  8
AM_HID
  5
73D
 10
0.855290
 20
5.20843
 30
0.000000
  70
    32
  0
VERTEX
  8
AM_HID
  5
73E
 10
0.855188
 20
5.20831
 30
0.000000
  70
    32
  0
VERTEX
  8
AM_HID
  5
73F
 10
0.855086
 20
5.20819
 30
0.000000
  70
    32
  0
VERTEX
  8
AM_HID
  5
740
 10
0.854984
 20
5.20806
 30
0.000000
  70
    32
  0
VERTEX
  8
AM_HID
  5
741
 10
0.854882
 20
5.20794
 30
0.000000
  70
    32
  0
VERTEX
  8
AM_HID
  5
742
 10
0.854780
 20
5.20782
 30
0.000000
  70
    32
  0
VERTEX
  8
AM_HID
  5
743
 10
0.854678
 20
5.20770
 30
0.000000
  70
    32
  0
VERTEX
  8
AM_HID
  5
744
 10
0.854576
 20
5.20757
 30
0.000000
  70
    32
  0
VERTEX
  8
AM_HID
  5
745
 10
0.854474
 20
5.20745
 30
0.000000
  70
    32
  0
VERTEX
  8
AM_HID
  5
746
 10
0.854372
 20
5.20733
 30
0.000000
  70
    32
  0
VERTEX
  8
AM_HID
  5
747
 10
0.854270
 20
5.20720
 30
0.000000
  70
    32
  0
VERTEX
  8
AM_HID
  5
748
 10
0.854168
 20
5.20708
 30
0.000000
  70
    32
  0
VERTEX
  8
AM_HID
  5
749
 10
0.854066
 20
5.20696
 30
0.000000
  70
    32
  0
VERTEX
  8
AM_HID
  5
74A
 10
0.853964
 20
5.20683
 30
0.000000
  70
    32
  0
VERTEX
  8
AM_HID
  5
74B
 10
0.853862
 20
5.20671
 30
0.000000
  70
    32
  0
VERTEX
  8
AM_HID
  5
74C
 10
0.853760
 20
5.20659
 30
0.000000
  70
    32
  0
VERTEX
  8
AM_HID
  5
74D
 10
0.853658
 20
5.20646
 30
0.000000
  70
    32
  0
VERTEX
  8
AM_HID
  5
74E
 10
0.853556
 20
5.20634
 30
0.000000
  70
    32
  0
VERTEX
  8
AM_HID
  5
74F
 10
0.853454
 20
5.20622
 30
0.000000
  70
    32
  0
VERTEX
  8
AM_HID
  5
750
 10
0.853352
 20
5.20609
 30
0.000000
  70
    32
  0
VERTEX
  8
AM_HID
  5
751
 10
0.853250
 20
5.20597
 30
0.000000
  70
    32
  0
VERTEX
  8
AM_HID
  5
752
 10
0.853148
 20
5.20585
 30
0.000000
  70
    32
  0
VERTEX
  8
AM_HID
  5
753
 10
0.853046
 20
5.20572
 30
0.000000
  70
    32
  0
VERTEX
  8
AM_HID
  5
754
 10
0.852944
 20
5.20560
 30
0.000000
  70
    32
  0
VERTEX
  8
AM_HID
  5
755
 10
0.852842
 20
5.20548
 30
0.000000
  70
    32
  0
VERTEX
  8
AM_HID
  5
756
 10
0.852740
 20
5.20535
 30
0.000000
  70
    32
  0
VERTEX
  8
AM_HID
  5
757
 10
0.852638
 20
5.20523
 30
0.000000
  70
    32
  0
VERTEX
  8
AM_HID
  5
758
 10
0.852536
 20
5.20511
 30
0.000000
  70
    32
  0
VERTEX
  8
AM_HID
  5
759
 10
0.852434
 20
5.20498
 30
0.000000
  70
    32
  0
VERTEX
  8
AM_HID
  5
75A
 10
0.852332
 20
5.20486
 30
0.000000
  70
    32
  0
VERTEX
  8
AM_HID
  5
75B
 10
0.852230
 20
5.20474
 30
0.000000
  70
    32
  0
VERTEX
  8
AM_HID
  5
75C
 10
0.852128
 20
5.20461
 30
0.000000
  70
    32
  0
VERTEX
  8
AM_HID
  5
75D
 10
0.852026
 20
5.20449
 30
0.000000
  70
    32
  0
VERTEX
  8
AM_HID
  5
75E
 10
0.851924
 20
5.20436
 30
0.000000
  70
    32
  0
VERTEX
  8
AM_HID
  5
75F
 10
0.851822
 20
5.20424
 30
0.000000
  70
    32
  0
VERTEX
  8
AM_HID
  5
760
 10
0.851720
 20
5.20412
 30
0.000000
  70
    32
  0
VERTEX
  8
AM_HID
  5
761
 10
0.851618
 20
5.20399
 30
0.000000
  70
    32
  0
VERTEX
  8
AM_HID
  5
762
 10
0.851516
 20
5.20387
 30
0.000000
  70
    32
  0
VERTEX
  8
AM_HID
  5
763
 10
0.851414
 20
5.20375
 30
0.000000
  70
    32
  0
VERTEX
  8
AM_HID
  5
764
 10
0.851312
 20
5.20362
 30
0.000000
  70
    32
  0
VERTEX
  8
AM_HID
  5
765
 10
0.851210
 20
5.20350
 30
0.000000
  70
    32
  0
VERTEX
  8
AM_HID
  5
766
 10
0.851108
 20
5.20338
 30
0.000000
  70
    32
  0
VERTEX
  8
AM_HID
  5
767
 10
0.851006
 20
5.20325
 30
0.000000
  70
    32
  0
VERTEX
  8
AM_HID
  5
768
 10
0.850904
 20
5.20313
 30
0.000000
  70
    32
  0
VERTEX
  8
AM_HID
  5
769
 10
0.850802
 20
5.20300
 30
0.000000
  70
    32
  0
VERTEX
  8
AM_HID
  5
76A
 10
0.850700
 20
5.20288
 30
0.000000
  70
    32
  0
VERTEX
  8
AM_HID
  5
76B
 10
0.850598
 20
5.20276
 30
0.000000
  70
    32
  0
VERTEX
  8
AM_HID
  5
76C
 10
0.850496
 20
5.20263
 30
0.000000
  70
    32
  0
VERTEX
  8
AM_HID
  5
76D
 10
0.850394
 20
5.20251
 30
0.000000
  70
    32
  0
VERTEX
  8
AM_HID
  5
76E
 10
0.850292
 20
5.20238
 30
0.000000
  70
    32
  0
VERTEX
  8
AM_HID
  5
76F
 10
0.850190
 20
5.20226
 30
0.000000
  70
    32
  0
VERTEX
  8
AM_HID
  5
770
 10
0.850088
 20
5.20214
 30
0.000000
  70
    32
  0
VERTEX
  8
AM_HID
  5
771
 10
0.849986
 20
5.20201
 30
0.000000
  70
    32
  0
VERTEX
  8
AM_HID
  5
772
 10
0.849884
 20
5.20189
 30
0.000000
  70
    32
  0
VERTEX
  8
AM_HID
  5
773
 10
0.849782
 20
5.20176
 30
0.000000
  70
    32
  0
VERTEX
  8
AM_HID
  5
774
 10
0.849680
 20
5.20164
 30
0.000000
  70
    32
  0
VERTEX
  8
AM_HID
  5
775
 10
0.849578
 20
5.20152
 30
0.000000
  70
    32
  0
VERTEX
  8
AM_HID
  5
776
 10
0.849476
 20
5.20139
 30
0.000000
  70
    32
  0
VERTEX
  8
AM_HID
  5
777
 10
0.849374
 20
5.20127
 30
0.000000
  70
    32
  0
VERTEX
  8
AM_HID
  5
778
 10
0.849272
 20
5.20114
 30
0.000000
  70
    32
  0
VERTEX
  8
AM_HID
  5
779
 10
0.849170
 20
5.20102
 30
0.000000
  70
    32
  0
VERTEX
  8
AM_HID
  5
77A
 10
0.849068
 20
5.20090
 30
0.000000
  70
    32
  0
VERTEX
  8
AM_HID
  5
77B
 10
0.848966
 20
5.20077
 30
0.000000
  70
    32
  0
VERTEX
  8
AM_HID
  5
77C
 10
0.848864
 20
5.20065
 30
0.000000
  70
    32
  0
VERTEX
  8
AM_HID
  5
77D
 10
0.848762
 20
5.20052
 30
0.000000
  70
    32
  0
VERTEX
  8
AM_HID
  5
77E
 10
0.848660
 20
5.20040
 30
0.000000
  70
    32
  0
VERTEX
  8
AM_HID
  5
77F
 10
0.848558
 20
5.20027
 30
0.000000
  70
    32
  0
VERTEX
  8
AM_HID
  5
780
 10
0.848456
 20
5.20015
 30
0.000000
  70
    32
  0
VERTEX
  8
AM_HID
  5
781
 10
0.848354
 20
5.20003
 30
0.000000
  70
    32
  0
VERTEX
  8
AM_HID
  5
782
 10
0.848252
 20
5.19990
 30
0.000000
  70
    32
  0
VERTEX
  8
AM_HID
  5
783
 10
0.848150
 20
5.19978
 30
0.000000
  70
    32
  0
VERTEX
  8
AM_HID
  5
784
 10
0.848047
 20
5.19965
 30
0.000000
  70
    32
  0
VERTEX
  8
AM_HID
  5
785
 10
0.847945
 20
5.19953
 30
0.000000
  70
    32
  0
VERTEX
  8
AM_HID
  5
786
 10
0.847843
 20
5.19940
 30
0.000000
  70
    32
  0
VERTEX
  8
AM_HID
  5
787
 10
0.847741
 20
5.19928
 30
0.000000
  70
    32
  0
VERTEX
  8
AM_HID
  5
788
 10
0.847639
 20
5.19915
 30
0.000000
  70
    32
  0
VERTEX
  8
AM_HID
  5
789
 10
0.847537
 20
5.19903
 30
0.000000
  70
    32
  0
VERTEX
  8
AM_HID
  5
78A
 10
0.847435
 20
5.19891
 30
0.000000
  70
    32
  0
VERTEX
  8
AM_HID
  5
78B
 10
0.847333
 20
5.19878
 30
0.000000
  70
    32
  0
VERTEX
  8
AM_HID
  5
78C
 10
0.847231
 20
5.19866
 30
0.000000
  70
    32
  0
VERTEX
  8
AM_HID
  5
78D
 10
0.847129
 20
5.19853
 30
0.000000
  70
    32
  0
VERTEX
  8
AM_HID
  5
78E
 10
0.847027
 20
5.19841
 30
0.000000
  70
    32
  0
VERTEX
  8
AM_HID
  5
78F
 10
0.846925
 20
5.19828
 30
0.000000
  70
    32
  0
VERTEX
  8
AM_HID
  5
790
 10
0.846823
 20
5.19816
 30
0.000000
  70
    32
  0
VERTEX
  8
AM_HID
  5
791
 10
0.846721
 20
5.19803
 30
0.000000
  70
    32
  0
VERTEX
  8
AM_HID
  5
792
 10
0.846619
 20
5.19791
 30
0.000000
  70
    32
  0
VERTEX
  8
AM_HID
  5
793
 10
0.846517
 20
5.19778
 30
0.000000
  70
    32
  0
VERTEX
  8
AM_HID
  5
794
 10
0.846415
 20
5.19766
 30
0.000000
  70
    32
  0
VERTEX
  8
AM_HID
  5
795
 10
0.846313
 20
5.19753
 30
0.000000
  70
    32
  0
VERTEX
  8
AM_HID
  5
796
 10
0.846211
 20
5.19741
 30
0.000000
  70
    32
  0
VERTEX
  8
AM_HID
  5
797
 10
0.846109
 20
5.19728
 30
0.000000
  70
    32
  0
VERTEX
  8
AM_HID
  5
798
 10
0.846007
 20
5.19716
 30
0.000000
  70
    32
  0
VERTEX
  8
AM_HID
  5
799
 10
0.845905
 20
5.19704
 30
0.000000
  70
    32
  0
VERTEX
  8
AM_HID
  5
79A
 10
0.845803
 20
5.19691
 30
0.000000
  70
    32
  0
VERTEX
  8
AM_HID
  5
79B
 10
0.845701
 20
5.19679
 30
0.000000
  70
    32
  0
VERTEX
  8
AM_HID
  5
79C
 10
0.845599
 20
5.19666
 30
0.000000
  70
    32
  0
VERTEX
  8
AM_HID
  5
79D
 10
0.845497
 20
5.19654
 30
0.000000
  70
    32
  0
VERTEX
  8
AM_HID
  5
79E
 10
0.845395
 20
5.19641
 30
0.000000
  70
    32
  0
VERTEX
  8
AM_HID
  5
79F
 10
0.845293
 20
5.19629
 30
0.000000
  70
    32
  0
SEQEND
  8
AM_HID
  5
7A0
  0
POLYLINE
  5
40
  8
AM_VIS
 10
0.9288166666729438
 20
5.2918403259851861
 30
0.0
 66
     1
 70
     8
  0
VERTEX
  8
AM_VIS
  5
7A1
 10
0.928817
 20
5.29184
 30
0.000000
  70
    32
  0
VERTEX
  8
AM_VIS
  5
7A2
 10
0.928269
 20
5.29126
 30
0.000000
  70
    32
  0
VERTEX
  8
AM_VIS
  5
7A3
 10
0.927721
 20
5.29068
 30
0.000000
  70
    32
  0
VERTEX
  8
AM_VIS
  5
7A4
 10
0.927174
 20
5.29009
 30
0.000000
  70
    32
  0
VERTEX
  8
AM_VIS
  5
7A5
 10
0.926626
 20
5.28951
 30
0.000000
  70
    32
  0
VERTEX
  8
AM_VIS
  5
7A6
 10
0.926078
 20
5.28892
 30
0.000000
  70
    32
  0
VERTEX
  8
AM_VIS
  5
7A7
 10
0.925530
 20
5.28834
 30
0.000000
  70
    32
  0
VERTEX
  8
AM_VIS
  5
7A8
 10
0.924982
 20
5.28775
 30
0.000000
  70
    32
  0
VERTEX
  8
AM_VIS
  5
7A9
 10
0.924434
 20
5.28716
 30
0.000000
  70
    32
  0
VERTEX
  8
AM_VIS
  5
7AA
 10
0.923886
 20
5.28658
 30
0.000000
  70
    32
  0
VERTEX
  8
AM_VIS
  5
7AB
 10
0.923337
 20
5.28599
 30
0.000000
  70
    32
  0
VERTEX
  8
AM_VIS
  5
7AC
 10
0.922789
 20
5.28540
 30
0.000000
  70
    32
  0
VERTEX
  8
AM_VIS
  5
7AD
 10
0.922241
 20
5.28481
 30
0.000000
  70
    32
  0
VERTEX
  8
AM_VIS
  5
7AE
 10
0.921692
 20
5.28422
 30
0.000000
  70
    32
  0
VERTEX
  8
AM_VIS
  5
7AF
 10
0.921144
 20
5.28363
 30
0.000000
  70
    32
  0
VERTEX
  8
AM_VIS
  5
7B0
 10
0.920595
 20
5.28304
 30
0.000000
  70
    32
  0
VERTEX
  8
AM_VIS
  5
7B1
 10
0.920047
 20
5.28245
 30
0.000000
  70
    32
  0
VERTEX
  8
AM_VIS
  5
7B2
 10
0.919498
 20
5.28185
 30
0.000000
  70
    32
  0
VERTEX
  8
AM_VIS
  5
7B3
 10
0.918950
 20
5.28126
 30
0.000000
  70
    32
  0
VERTEX
  8
AM_VIS
  5
7B4
 10
0.918401
 20
5.28067
 30
0.000000
  70
    32
  0
VERTEX
  8
AM_VIS
  5
7B5
 10
0.917852
 20
5.28007
 30
0.000000
  70
    32
  0
VERTEX
  8
AM_VIS
  5
7B6
 10
0.917303
 20
5.27948
 30
0.000000
  70
    32
  0
VERTEX
  8
AM_VIS
  5
7B7
 10
0.916754
 20
5.27888
 30
0.000000
  70
    32
  0
VERTEX
  8
AM_VIS
  5
7B8
 10
0.916206
 20
5.27828
 30
0.000000
  70
    32
  0
VERTEX
  8
AM_VIS
  5
7B9
 10
0.915657
 20
5.27769
 30
0.000000
  70
    32
  0
VERTEX
  8
AM_VIS
  5
7BA
 10
0.915108
 20
5.27709
 30
0.000000
  70
    32
  0
VERTEX
  8
AM_VIS
  5
7BB
 10
0.914558
 20
5.27649
 30
0.000000
  70
    32
  0
VERTEX
  8
AM_VIS
  5
7BC
 10
0.914009
 20
5.27589
 30
0.000000
  70
    32
  0
VERTEX
  8
AM_VIS
  5
7BD
 10
0.913460
 20
5.27529
 30
0.000000
  70
    32
  0
VERTEX
  8
AM_VIS
  5
7BE
 10
0.912911
 20
5.27469
 30
0.000000
  70
    32
  0
VERTEX
  8
AM_VIS
  5
7BF
 10
0.912362
 20
5.27409
 30
0.000000
  70
    32
  0
VERTEX
  8
AM_VIS
  5
7C0
 10
0.911812
 20
5.27349
 30
0.000000
  70
    32
  0
VERTEX
  8
AM_VIS
  5
7C1
 10
0.911263
 20
5.27288
 30
0.000000
  70
    32
  0
VERTEX
  8
AM_VIS
  5
7C2
 10
0.910713
 20
5.27228
 30
0.000000
  70
    32
  0
VERTEX
  8
AM_VIS
  5
7C3
 10
0.910164
 20
5.27168
 30
0.000000
  70
    32
  0
VERTEX
  8
AM_VIS
  5
7C4
 10
0.909614
 20
5.27107
 30
0.000000
  70
    32
  0
VERTEX
  8
AM_VIS
  5
7C5
 10
0.909065
 20
5.27047
 30
0.000000
  70
    32
  0
VERTEX
  8
AM_VIS
  5
7C6
 10
0.908515
 20
5.26986
 30
0.000000
  70
    32
  0
VERTEX
  8
AM_VIS
  5
7C7
 10
0.907965
 20
5.26926
 30
0.000000
  70
    32
  0
VERTEX
  8
AM_VIS
  5
7C8
 10
0.907416
 20
5.26865
 30
0.000000
  70
    32
  0
VERTEX
  8
AM_VIS
  5
7C9
 10
0.906866
 20
5.26804
 30
0.000000
  70
    32
  0
VERTEX
  8
AM_VIS
  5
7CA
 10
0.906316
 20
5.26743
 30
0.000000
  70
    32
  0
VERTEX
  8
AM_VIS
  5
7CB
 10
0.905766
 20
5.26682
 30
0.000000
  70
    32
  0
VERTEX
  8
AM_VIS
  5
7CC
 10
0.905216
 20
5.26621
 30
0.000000
  70
    32
  0
VERTEX
  8
AM_VIS
  5
7CD
 10
0.904666
 20
5.26560
 30
0.000000
  70
    32
  0
VERTEX
  8
AM_VIS
  5
7CE
 10
0.904116
 20
5.26499
 30
0.000000
  70
    32
  0
VERTEX
  8
AM_VIS
  5
7CF
 10
0.903566
 20
5.26438
 30
0.000000
  70
    32
  0
VERTEX
  8
AM_VIS
  5
7D0
 10
0.903016
 20
5.26377
 30
0.000000
  70
    32
  0
VERTEX
  8
AM_VIS
  5
7D1
 10
0.902466
 20
5.26316
 30
0.000000
  70
    32
  0
VERTEX
  8
AM_VIS
  5
7D2
 10
0.901916
 20
5.26254
 30
0.000000
  70
    32
  0
VERTEX
  8
AM_VIS
  5
7D3
 10
0.901366
 20
5.26193
 30
0.000000
  70
    32
  0
VERTEX
  8
AM_VIS
  5
7D4
 10
0.900815
 20
5.26131
 30
0.000000
  70
    32
  0
VERTEX
  8
AM_VIS
  5
7D5
 10
0.900265
 20
5.26070
 30
0.000000
  70
    32
  0
VERTEX
  8
AM_VIS
  5
7D6
 10
0.899715
 20
5.26008
 30
0.000000
  70
    32
  0
VERTEX
  8
AM_VIS
  5
7D7
 10
0.899164
 20
5.25947
 30
0.000000
  70
    32
  0
VERTEX
  8
AM_VIS
  5
7D8
 10
0.898614
 20
5.25885
 30
0.000000
  70
    32
  0
VERTEX
  8
AM_VIS
  5
7D9
 10
0.898063
 20
5.25823
 30
0.000000
  70
    32
  0
VERTEX
  8
AM_VIS
  5
7DA
 10
0.897513
 20
5.25761
 30
0.000000
  70
    32
  0
VERTEX
  8
AM_VIS
  5
7DB
 10
0.896962
 20
5.25699
 30
0.000000
  70
    32
  0
VERTEX
  8
AM_VIS
  5
7DC
 10
0.896412
 20
5.25638
 30
0.000000
  70
    32
  0
VERTEX
  8
AM_VIS
  5
7DD
 10
0.895861
 20
5.25575
 30
0.000000
  70
    32
  0
VERTEX
  8
AM_VIS
  5
7DE
 10
0.895310
 20
5.25513
 30
0.000000
  70
    32
  0
VERTEX
  8
AM_VIS
  5
7DF
 10
0.894760
 20
5.25451
 30
0.000000
  70
    32
  0
VERTEX
  8
AM_VIS
  5
7E0
 10
0.894209
 20
5.25389
 30
0.000000
  70
    32
  0
VERTEX
  8
AM_VIS
  5
7E1
 10
0.893658
 20
5.25327
 30
0.000000
  70
    32
  0
VERTEX
  8
AM_VIS
  5
7E2
 10
0.893107
 20
5.25264
 30
0.000000
  70
    32
  0
VERTEX
  8
AM_VIS
  5
7E3
 10
0.892556
 20
5.25202
 30
0.000000
  70
    32
  0
VERTEX
  8
AM_VIS
  5
7E4
 10
0.892006
 20
5.25139
 30
0.000000
  70
    32
  0
VERTEX
  8
AM_VIS
  5
7E5
 10
0.891455
 20
5.25077
 30
0.000000
  70
    32
  0
VERTEX
  8
AM_VIS
  5
7E6
 10
0.890904
 20
5.25014
 30
0.000000
  70
    32
  0
VERTEX
  8
AM_VIS
  5
7E7
 10
0.890353
 20
5.24952
 30
0.000000
  70
    32
  0
VERTEX
  8
AM_VIS
  5
7E8
 10
0.889802
 20
5.24889
 30
0.000000
  70
    32
  0
VERTEX
  8
AM_VIS
  5
7E9
 10
0.889251
 20
5.24826
 30
0.000000
  70
    32
  0
VERTEX
  8
AM_VIS
  5
7EA
 10
0.888699
 20
5.24763
 30
0.000000
  70
    32
  0
VERTEX
  8
AM_VIS
  5
7EB
 10
0.888148
 20
5.24700
 30
0.000000
  70
    32
  0
VERTEX
  8
AM_VIS
  5
7EC
 10
0.887597
 20
5.24637
 30
0.000000
  70
    32
  0
VERTEX
  8
AM_VIS
  5
7ED
 10
0.887046
 20
5.24574
 30
0.000000
  70
    32
  0
VERTEX
  8
AM_VIS
  5
7EE
 10
0.886495
 20
5.24511
 30
0.000000
  70
    32
  0
VERTEX
  8
AM_VIS
  5
7EF
 10
0.885944
 20
5.24448
 30
0.000000
  70
    32
  0
VERTEX
  8
AM_VIS
  5
7F0
 10
0.885392
 20
5.24385
 30
0.000000
  70
    32
  0
VERTEX
  8
AM_VIS
  5
7F1
 10
0.884841
 20
5.24322
 30
0.000000
  70
    32
  0
VERTEX
  8
AM_VIS
  5
7F2
 10
0.884290
 20
5.24258
 30
0.000000
  70
    32
  0
VERTEX
  8
AM_VIS
  5
7F3
 10
0.883738
 20
5.24195
 30
0.000000
  70
    32
  0
VERTEX
  8
AM_VIS
  5
7F4
 10
0.883187
 20
5.24131
 30
0.000000
  70
    32
  0
VERTEX
  8
AM_VIS
  5
7F5
 10
0.882635
 20
5.24068
 30
0.000000
  70
    32
  0
VERTEX
  8
AM_VIS
  5
7F6
 10
0.882084
 20
5.24004
 30
0.000000
  70
    32
  0
VERTEX
  8
AM_VIS
  5
7F7
 10
0.881532
 20
5.23941
 30
0.000000
  70
    32
  0
VERTEX
  8
AM_VIS
  5
7F8
 10
0.880981
 20
5.23877
 30
0.000000
  70
    32
  0
VERTEX
  8
AM_VIS
  5
7F9
 10
0.880429
 20
5.23813
 30
0.000000
  70
    32
  0
VERTEX
  8
AM_VIS
  5
7FA
 10
0.879878
 20
5.23749
 30
0.000000
  70
    32
  0
VERTEX
  8
AM_VIS
  5
7FB
 10
0.879326
 20
5.23685
 30
0.000000
  70
    32
  0
VERTEX
  8
AM_VIS
  5
7FC
 10
0.878775
 20
5.23621
 30
0.000000
  70
    32
  0
VERTEX
  8
AM_VIS
  5
7FD
 10
0.878223
 20
5.23557
 30
0.000000
  70
    32
  0
VERTEX
  8
AM_VIS
  5
7FE
 10
0.877671
 20
5.23493
 30
0.000000
  70
    32
  0
VERTEX
  8
AM_VIS
  5
7FF
 10
0.877120
 20
5.23429
 30
0.000000
  70
    32
  0
VERTEX
  8
AM_VIS
  5
800
 10
0.876568
 20
5.23365
 30
0.000000
  70
    32
  0
VERTEX
  8
AM_VIS
  5
801
 10
0.876016
 20
5.23301
 30
0.000000
  70
    32
  0
VERTEX
  8
AM_VIS
  5
802
 10
0.875464
 20
5.23236
 30
0.000000
  70
    32
  0
VERTEX
  8
AM_VIS
  5
803
 10
0.874913
 20
5.23172
 30
0.000000
  70
    32
  0
VERTEX
  8
AM_VIS
  5
804
 10
0.874361
 20
5.23107
 30
0.000000
  70
    32
  0
VERTEX
  8
AM_VIS
  5
805
 10
0.873809
 20
5.23043
 30
0.000000
  70
    32
  0
VERTEX
  8
AM_VIS
  5
806
 10
0.873257
 20
5.22978
 30
0.000000
  70
    32
  0
VERTEX
  8
AM_VIS
  5
807
 10
0.872705
 20
5.22914
 30
0.000000
  70
    32
  0
VERTEX
  8
AM_VIS
  5
808
 10
0.872153
 20
5.22849
 30
0.000000
  70
    32
  0
VERTEX
  8
AM_VIS
  5
809
 10
0.871601
 20
5.22784
 30
0.000000
  70
    32
  0
VERTEX
  8
AM_VIS
  5
80A
 10
0.871049
 20
5.22719
 30
0.000000
  70
    32
  0
VERTEX
  8
AM_VIS
  5
80B
 10
0.870497
 20
5.22654
 30
0.000000
  70
    32
  0
VERTEX
  8
AM_VIS
  5
80C
 10
0.869945
 20
5.22589
 30
0.000000
  70
    32
  0
VERTEX
  8
AM_VIS
  5
80D
 10
0.869393
 20
5.22524
 30
0.000000
  70
    32
  0
VERTEX
  8
AM_VIS
  5
80E
 10
0.868841
 20
5.22459
 30
0.000000
  70
    32
  0
VERTEX
  8
AM_VIS
  5
80F
 10
0.868289
 20
5.22394
 30
0.000000
  70
    32
  0
VERTEX
  8
AM_VIS
  5
810
 10
0.867737
 20
5.22329
 30
0.000000
  70
    32
  0
VERTEX
  8
AM_VIS
  5
811
 10
0.867185
 20
5.22264
 30
0.000000
  70
    32
  0
VERTEX
  8
AM_VIS
  5
812
 10
0.866633
 20
5.22198
 30
0.000000
  70
    32
  0
VERTEX
  8
AM_VIS
  5
813
 10
0.866081
 20
5.22133
 30
0.000000
  70
    32
  0
VERTEX
  8
AM_VIS
  5
814
 10
0.865529
 20
5.22068
 30
0.000000
  70
    32
  0
VERTEX
  8
AM_VIS
  5
815
 10
0.864977
 20
5.22002
 30
0.000000
  70
    32
  0
VERTEX
  8
AM_VIS
  5
816
 10
0.864425
 20
5.21937
 30
0.000000
  70
    32
  0
VERTEX
  8
AM_VIS
  5
817
 10
0.863873
 20
5.21871
 30
0.000000
  70
    32
  0
VERTEX
  8
AM_VIS
  5
818
 10
0.863320
 20
5.21805
 30
0.000000
  70
    32
  0
VERTEX
  8
AM_VIS
  5
819
 10
0.862768
 20
5.21739
 30
0.000000
  70
    32
  0
VERTEX
  8
AM_VIS
  5
81A
 10
0.862216
 20
5.21674
 30
0.000000
  70
    32
  0
VERTEX
  8
AM_VIS
  5
81B
 10
0.861664
 20
5.21608
 30
0.000000
  70
    32
  0
VERTEX
  8
AM_VIS
  5
81C
 10
0.861112
 20
5.21542
 30
0.000000
  70
    32
  0
VERTEX
  8
AM_VIS
  5
81D
 10
0.860559
 20
5.21476
 30
0.000000
  70
    32
  0
VERTEX
  8
AM_VIS
  5
81E
 10
0.860007
 20
5.21410
 30
0.000000
  70
    32
  0
VERTEX
  8
AM_VIS
  5
81F
 10
0.859455
 20
5.21344
 30
0.000000
  70
    32
  0
VERTEX
  8
AM_VIS
  5
820
 10
0.858903
 20
5.21278
 30
0.000000
  70
    32
  0
VERTEX
  8
AM_VIS
  5
821
 10
0.858350
 20
5.21211
 30
0.000000
  70
    32
  0
SEQEND
  8
AM_VIS
  5
822
  0
POLYLINE
  5
41
  8
AM_HID
 10
0.9288166666736286
 20
5.0872500307142676
 30
0.0
 66
     1
 70
     8
  0
VERTEX
  8
AM_HID
  5
823
 10
0.928817
 20
5.08725
 30
0.000000
  70
    32
  0
VERTEX
  8
AM_HID
  5
824
 10
0.928168
 20
5.08815
 30
0.000000
  70
    32
  0
VERTEX
  8
AM_HID
  5
825
 10
0.927519
 20
5.08905
 30
0.000000
  70
    32
  0
VERTEX
  8
AM_HID
  5
826
 10
0.926870
 20
5.08995
 30
0.000000
  70
    32
  0
VERTEX
  8
AM_HID
  5
827
 10
0.926221
 20
5.09084
 30
0.000000
  70
    32
  0
VERTEX
  8
AM_HID
  5
828
 10
0.925572
 20
5.09174
 30
0.000000
  70
    32
  0
VERTEX
  8
AM_HID
  5
829
 10
0.924923
 20
5.09264
 30
0.000000
  70
    32
  0
VERTEX
  8
AM_HID
  5
82A
 10
0.924273
 20
5.09353
 30
0.000000
  70
    32
  0
VERTEX
  8
AM_HID
  5
82B
 10
0.923624
 20
5.09443
 30
0.000000
  70
    32
  0
VERTEX
  8
AM_HID
  5
82C
 10
0.922974
 20
5.09532
 30
0.000000
  70
    32
  0
VERTEX
  8
AM_HID
  5
82D
 10
0.922325
 20
5.09621
 30
0.000000
  70
    32
  0
VERTEX
  8
AM_HID
  5
82E
 10
0.921675
 20
5.09710
 30
0.000000
  70
    32
  0
VERTEX
  8
AM_HID
  5
82F
 10
0.921025
 20
5.09800
 30
0.000000
  70
    32
  0
VERTEX
  8
AM_HID
  5
830
 10
0.920376
 20
5.09889
 30
0.000000
  70
    32
  0
VERTEX
  8
AM_HID
  5
831
 10
0.919726
 20
5.09978
 30
0.000000
  70
    32
  0
VERTEX
  8
AM_HID
  5
832
 10
0.919076
 20
5.10067
 30
0.000000
  70
    32
  0
VERTEX
  8
AM_HID
  5
833
 10
0.918426
 20
5.10155
 30
0.000000
  70
    32
  0
VERTEX
  8
AM_HID
  5
834
 10
0.917776
 20
5.10244
 30
0.000000
  70
    32
  0
VERTEX
  8
AM_HID
  5
835
 10
0.917125
 20
5.10333
 30
0.000000
  70
    32
  0
VERTEX
  8
AM_HID
  5
836
 10
0.916475
 20
5.10422
 30
0.000000
  70
    32
  0
VERTEX
  8
AM_HID
  5
837
 10
0.915825
 20
5.10510
 30
0.000000
  70
    32
  0
VERTEX
  8
AM_HID
  5
838
 10
0.915174
 20
5.10599
 30
0.000000
  70
    32
  0
VERTEX
  8
AM_HID
  5
839
 10
0.914524
 20
5.10687
 30
0.000000
  70
    32
  0
VERTEX
  8
AM_HID
  5
83A
 10
0.913873
 20
5.10775
 30
0.000000
  70
    32
  0
VERTEX
  8
AM_HID
  5
83B
 10
0.913223
 20
5.10864
 30
0.000000
  70
    32
  0
VERTEX
  8
AM_HID
  5
83C
 10
0.912572
 20
5.10952
 30
0.000000
  70
    32
  0
VERTEX
  8
AM_HID
  5
83D
 10
0.911921
 20
5.11040
 30
0.000000
  70
    32
  0
VERTEX
  8
AM_HID
  5
83E
 10
0.911270
 20
5.11128
 30
0.000000
  70
    32
  0
VERTEX
  8
AM_HID
  5
83F
 10
0.910619
 20
5.11216
 30
0.000000
  70
    32
  0
VERTEX
  8
AM_HID
  5
840
 10
0.909968
 20
5.11304
 30
0.000000
  70
    32
  0
VERTEX
  8
AM_HID
  5
841
 10
0.909317
 20
5.11392
 30
0.000000
  70
    32
  0
VERTEX
  8
AM_HID
  5
842
 10
0.908666
 20
5.11480
 30
0.000000
  70
    32
  0
VERTEX
  8
AM_HID
  5
843
 10
0.908015
 20
5.11567
 30
0.000000
  70
    32
  0
VERTEX
  8
AM_HID
  5
844
 10
0.907364
 20
5.11655
 30
0.000000
  70
    32
  0
VERTEX
  8
AM_HID
  5
845
 10
0.906712
 20
5.11743
 30
0.000000
  70
    32
  0
VERTEX
  8
AM_HID
  5
846
 10
0.906061
 20
5.11830
 30
0.000000
  70
    32
  0
VERTEX
  8
AM_HID
  5
847
 10
0.905410
 20
5.11917
 30
0.000000
  70
    32
  0
VERTEX
  8
AM_HID
  5
848
 10
0.904758
 20
5.12005
 30
0.000000
  70
    32
  0
VERTEX
  8
AM_HID
  5
849
 10
0.904106
 20
5.12092
 30
0.000000
  70
    32
  0
VERTEX
  8
AM_HID
  5
84A
 10
0.903455
 20
5.12179
 30
0.000000
  70
    32
  0
VERTEX
  8
AM_HID
  5
84B
 10
0.902803
 20
5.12266
 30
0.000000
  70
    32
  0
VERTEX
  8
AM_HID
  5
84C
 10
0.902151
 20
5.12353
 30
0.000000
  70
    32
  0
VERTEX
  8
AM_HID
  5
84D
 10
0.901499
 20
5.12440
 30
0.000000
  70
    32
  0
VERTEX
  8
AM_HID
  5
84E
 10
0.900848
 20
5.12527
 30
0.000000
  70
    32
  0
VERTEX
  8
AM_HID
  5
84F
 10
0.900196
 20
5.12614
 30
0.000000
  70
    32
  0
VERTEX
  8
AM_HID
  5
850
 10
0.899544
 20
5.12701
 30
0.000000
  70
    32
  0
VERTEX
  8
AM_HID
  5
851
 10
0.898892
 20
5.12787
 30
0.000000
  70
    32
  0
VERTEX
  8
AM_HID
  5
852
 10
0.898239
 20
5.12874
 30
0.000000
  70
    32
  0
VERTEX
  8
AM_HID
  5
853
 10
0.897587
 20
5.12960
 30
0.000000
  70
    32
  0
VERTEX
  8
AM_HID
  5
854
 10
0.896935
 20
5.13047
 30
0.000000
  70
    32
  0
VERTEX
  8
AM_HID
  5
855
 10
0.896283
 20
5.13133
 30
0.000000
  70
    32
  0
VERTEX
  8
AM_HID
  5
856
 10
0.895630
 20
5.13219
 30
0.000000
  70
    32
  0
VERTEX
  8
AM_HID
  5
857
 10
0.894978
 20
5.13306
 30
0.000000
  70
    32
  0
VERTEX
  8
AM_HID
  5
858
 10
0.894326
 20
5.13392
 30
0.000000
  70
    32
  0
VERTEX
  8
AM_HID
  5
859
 10
0.893673
 20
5.13478
 30
0.000000
  70
    32
  0
VERTEX
  8
AM_HID
  5
85A
 10
0.893021
 20
5.13564
 30
0.000000
  70
    32
  0
VERTEX
  8
AM_HID
  5
85B
 10
0.892368
 20
5.13650
 30
0.000000
  70
    32
  0
VERTEX
  8
AM_HID
  5
85C
 10
0.891715
 20
5.13735
 30
0.000000
  70
    32
  0
VERTEX
  8
AM_HID
  5
85D
 10
0.891063
 20
5.13821
 30
0.000000
  70
    32
  0
VERTEX
  8
AM_HID
  5
85E
 10
0.890410
 20
5.13907
 30
0.000000
  70
    32
  0
VERTEX
  8
AM_HID
  5
85F
 10
0.889757
 20
5.13992
 30
0.000000
  70
    32
  0
VERTEX
  8
AM_HID
  5
860
 10
0.889104
 20
5.14078
 30
0.000000
  70
    32
  0
VERTEX
  8
AM_HID
  5
861
 10
0.888451
 20
5.14163
 30
0.000000
  70
    32
  0
VERTEX
  8
AM_HID
  5
862
 10
0.887798
 20
5.14249
 30
0.000000
  70
    32
  0
VERTEX
  8
AM_HID
  5
863
 10
0.887145
 20
5.14334
 30
0.000000
  70
    32
  0
VERTEX
  8
AM_HID
  5
864
 10
0.886492
 20
5.14419
 30
0.000000
  70
    32
  0
VERTEX
  8
AM_HID
  5
865
 10
0.885839
 20
5.14504
 30
0.000000
  70
    32
  0
VERTEX
  8
AM_HID
  5
866
 10
0.885186
 20
5.14589
 30
0.000000
  70
    32
  0
VERTEX
  8
AM_HID
  5
867
 10
0.884533
 20
5.14674
 30
0.000000
  70
    32
  0
VERTEX
  8
AM_HID
  5
868
 10
0.883880
 20
5.14759
 30
0.000000
  70
    32
  0
VERTEX
  8
AM_HID
  5
869
 10
0.883227
 20
5.14844
 30
0.000000
  70
    32
  0
VERTEX
  8
AM_HID
  5
86A
 10
0.882573
 20
5.14929
 30
0.000000
  70
    32
  0
VERTEX
  8
AM_HID
  5
86B
 10
0.881920
 20
5.15014
 30
0.000000
  70
    32
  0
VERTEX
  8
AM_HID
  5
86C
 10
0.881267
 20
5.15098
 30
0.000000
  70
    32
  0
VERTEX
  8
AM_HID
  5
86D
 10
0.880613
 20
5.15183
 30
0.000000
  70
    32
  0
VERTEX
  8
AM_HID
  5
86E
 10
0.879960
 20
5.15267
 30
0.000000
  70
    32
  0
VERTEX
  8
AM_HID
  5
86F
 10
0.879306
 20
5.15351
 30
0.000000
  70
    32
  0
VERTEX
  8
AM_HID
  5
870
 10
0.878653
 20
5.15436
 30
0.000000
  70
    32
  0
VERTEX
  8
AM_HID
  5
871
 10
0.877999
 20
5.15520
 30
0.000000
  70
    32
  0
VERTEX
  8
AM_HID
  5
872
 10
0.877346
 20
5.15604
 30
0.000000
  70
    32
  0
VERTEX
  8
AM_HID
  5
873
 10
0.876692
 20
5.15688
 30
0.000000
  70
    32
  0
VERTEX
  8
AM_HID
  5
874
 10
0.876039
 20
5.15772
 30
0.000000
  70
    32
  0
VERTEX
  8
AM_HID
  5
875
 10
0.875385
 20
5.15856
 30
0.000000
  70
    32
  0
VERTEX
  8
AM_HID
  5
876
 10
0.874731
 20
5.15940
 30
0.000000
  70
    32
  0
VERTEX
  8
AM_HID
  5
877
 10
0.874077
 20
5.16023
 30
0.000000
  70
    32
  0
VERTEX
  8
AM_HID
  5
878
 10
0.873424
 20
5.16107
 30
0.000000
  70
    32
  0
VERTEX
  8
AM_HID
  5
879
 10
0.872770
 20
5.16191
 30
0.000000
  70
    32
  0
VERTEX
  8
AM_HID
  5
87A
 10
0.872116
 20
5.16274
 30
0.000000
  70
    32
  0
VERTEX
  8
AM_HID
  5
87B
 10
0.871462
 20
5.16358
 30
0.000000
  70
    32
  0
VERTEX
  8
AM_HID
  5
87C
 10
0.870808
 20
5.16441
 30
0.000000
  70
    32
  0
VERTEX
  8
AM_HID
  5
87D
 10
0.870154
 20
5.16524
 30
0.000000
  70
    32
  0
VERTEX
  8
AM_HID
  5
87E
 10
0.869501
 20
5.16607
 30
0.000000
  70
    32
  0
VERTEX
  8
AM_HID
  5
87F
 10
0.868847
 20
5.16690
 30
0.000000
  70
    32
  0
VERTEX
  8
AM_HID
  5
880
 10
0.868193
 20
5.16773
 30
0.000000
  70
    32
  0
VERTEX
  8
AM_HID
  5
881
 10
0.867539
 20
5.16856
 30
0.000000
  70
    32
  0
VERTEX
  8
AM_HID
  5
882
 10
0.866885
 20
5.16939
 30
0.000000
  70
    32
  0
VERTEX
  8
AM_HID
  5
883
 10
0.866231
 20
5.17022
 30
0.000000
  70
    32
  0
VERTEX
  8
AM_HID
  5
884
 10
0.865576
 20
5.17105
 30
0.000000
  70
    32
  0
VERTEX
  8
AM_HID
  5
885
 10
0.864922
 20
5.17187
 30
0.000000
  70
    32
  0
VERTEX
  8
AM_HID
  5
886
 10
0.864268
 20
5.17270
 30
0.000000
  70
    32
  0
VERTEX
  8
AM_HID
  5
887
 10
0.863614
 20
5.17352
 30
0.000000
  70
    32
  0
VERTEX
  8
AM_HID
  5
888
 10
0.862960
 20
5.17435
 30
0.000000
  70
    32
  0
VERTEX
  8
AM_HID
  5
889
 10
0.862306
 20
5.17517
 30
0.000000
  70
    32
  0
VERTEX
  8
AM_HID
  5
88A
 10
0.861652
 20
5.17599
 30
0.000000
  70
    32
  0
VERTEX
  8
AM_HID
  5
88B
 10
0.860997
 20
5.17681
 30
0.000000
  70
    32
  0
VERTEX
  8
AM_HID
  5
88C
 10
0.860343
 20
5.17764
 30
0.000000
  70
    32
  0
VERTEX
  8
AM_HID
  5
88D
 10
0.859689
 20
5.17846
 30
0.000000
  70
    32
  0
VERTEX
  8
AM_HID
  5
88E
 10
0.859035
 20
5.17927
 30
0.000000
  70
    32
  0
VERTEX
  8
AM_HID
  5
88F
 10
0.858380
 20
5.18009
 30
0.000000
  70
    32
  0
VERTEX
  8
AM_HID
  5
890
 10
0.857726
 20
5.18091
 30
0.000000
  70
    32
  0
VERTEX
  8
AM_HID
  5
891
 10
0.857072
 20
5.18173
 30
0.000000
  70
    32
  0
VERTEX
  8
AM_HID
  5
892
 10
0.856418
 20
5.18254
 30
0.000000
  70
    32
  0
VERTEX
  8
AM_HID
  5
893
 10
0.855763
 20
5.18336
 30
0.000000
  70
    32
  0
VERTEX
  8
AM_HID
  5
894
 10
0.855109
 20
5.18417
 30
0.000000
  70
    32
  0
VERTEX
  8
AM_HID
  5
895
 10
0.854455
 20
5.18498
 30
0.000000
  70
    32
  0
VERTEX
  8
AM_HID
  5
896
 10
0.853800
 20
5.18580
 30
0.000000
  70
    32
  0
VERTEX
  8
AM_HID
  5
897
 10
0.853146
 20
5.18661
 30
0.000000
  70
    32
  0
VERTEX
  8
AM_HID
  5
898
 10
0.852491
 20
5.18742
 30
0.000000
  70
    32
  0
VERTEX
  8
AM_HID
  5
899
 10
0.851837
 20
5.18823
 30
0.000000
  70
    32
  0
VERTEX
  8
AM_HID
  5
89A
 10
0.851183
 20
5.18904
 30
0.000000
  70
    32
  0
VERTEX
  8
AM_HID
  5
89B
 10
0.850528
 20
5.18985
 30
0.000000
  70
    32
  0
VERTEX
  8
AM_HID
  5
89C
 10
0.849874
 20
5.19066
 30
0.000000
  70
    32
  0
VERTEX
  8
AM_HID
  5
89D
 10
0.849219
 20
5.19146
 30
0.000000
  70
    32
  0
VERTEX
  8
AM_HID
  5
89E
 10
0.848565
 20
5.19227
 30
0.000000
  70
    32
  0
VERTEX
  8
AM_HID
  5
89F
 10
0.847911
 20
5.19307
 30
0.000000
  70
    32
  0
VERTEX
  8
AM_HID
  5
8A0
 10
0.847256
 20
5.19388
 30
0.000000
  70
    32
  0
VERTEX
  8
AM_HID
  5
8A1
 10
0.846602
 20
5.19468
 30
0.000000
  70
    32
  0
VERTEX
  8
AM_HID
  5
8A2
 10
0.845947
 20
5.19548
 30
0.000000
  70
    32
  0
VERTEX
  8
AM_HID
  5
8A3
 10
0.845293
 20
5.19629
 30
0.000000
  70
    32
  0
SEQEND
  8
AM_HID
  5
8A4
  0
LINE
  5
42
  8
AM_HID
 10
1.0958639432528889
 20
5.0872500307147783
 30
0.0
 11
0.9288166666732831
 21
5.0872500307147783
 31
0.0
  0
POLYLINE
  5
43
  8
AM_HID
 10
1.1793875815426942
 20
5.1962857709527537
 30
0.0
 66
     1
 70
     8
  0
VERTEX
  8
AM_HID
  5
8A5
 10
1.17939
 20
5.19629
 30
0.000000
  70
    32
  0
VERTEX
  8
AM_HID
  5
8A6
 10
1.17873
 20
5.19548
 30
0.000000
  70
    32
  0
VERTEX
  8
AM_HID
  5
8A7
 10
1.17808
 20
5.19468
 30
0.000000
  70
    32
  0
VERTEX
  8
AM_HID
  5
8A8
 10
1.17742
 20
5.19388
 30
0.000000
  70
    32
  0
VERTEX
  8
AM_HID
  5
8A9
 10
1.17677
 20
5.19307
 30
0.000000
  70
    32
  0
VERTEX
  8
AM_HID
  5
8AA
 10
1.17612
 20
5.19227
 30
0.000000
  70
    32
  0
VERTEX
  8
AM_HID
  5
8AB
 10
1.17546
 20
5.19146
 30
0.000000
  70
    32
  0
VERTEX
  8
AM_HID
  5
8AC
 10
1.17481
 20
5.19066
 30
0.000000
  70
    32
  0
VERTEX
  8
AM_HID
  5
8AD
 10
1.17415
 20
5.18985
 30
0.000000
  70
    32
  0
VERTEX
  8
AM_HID
  5
8AE
 10
1.17350
 20
5.18904
 30
0.000000
  70
    32
  0
VERTEX
  8
AM_HID
  5
8AF
 10
1.17284
 20
5.18823
 30
0.000000
  70
    32
  0
VERTEX
  8
AM_HID
  5
8B0
 10
1.17219
 20
5.18742
 30
0.000000
  70
    32
  0
VERTEX
  8
AM_HID
  5
8B1
 10
1.17153
 20
5.18661
 30
0.000000
  70
    32
  0
VERTEX
  8
AM_HID
  5
8B2
 10
1.17088
 20
5.18580
 30
0.000000
  70
    32
  0
VERTEX
  8
AM_HID
  5
8B3
 10
1.17023
 20
5.18498
 30
0.000000
  70
    32
  0
VERTEX
  8
AM_HID
  5
8B4
 10
1.16957
 20
5.18417
 30
0.000000
  70
    32
  0
VERTEX
  8
AM_HID
  5
8B5
 10
1.16892
 20
5.18336
 30
0.000000
  70
    32
  0
VERTEX
  8
AM_HID
  5
8B6
 10
1.16826
 20
5.18254
 30
0.000000
  70
    32
  0
VERTEX
  8
AM_HID
  5
8B7
 10
1.16761
 20
5.18173
 30
0.000000
  70
    32
  0
VERTEX
  8
AM_HID
  5
8B8
 10
1.16695
 20
5.18091
 30
0.000000
  70
    32
  0
VERTEX
  8
AM_HID
  5
8B9
 10
1.16630
 20
5.18009
 30
0.000000
  70
    32
  0
VERTEX
  8
AM_HID
  5
8BA
 10
1.16565
 20
5.17927
 30
0.000000
  70
    32
  0
VERTEX
  8
AM_HID
  5
8BB
 10
1.16499
 20
5.17846
 30
0.000000
  70
    32
  0
VERTEX
  8
AM_HID
  5
8BC
 10
1.16434
 20
5.17764
 30
0.000000
  70
    32
  0
VERTEX
  8
AM_HID
  5
8BD
 10
1.16368
 20
5.17681
 30
0.000000
  70
    32
  0
VERTEX
  8
AM_HID
  5
8BE
 10
1.16303
 20
5.17599
 30
0.000000
  70
    32
  0
VERTEX
  8
AM_HID
  5
8BF
 10
1.16237
 20
5.17517
 30
0.000000
  70
    32
  0
VERTEX
  8
AM_HID
  5
8C0
 10
1.16172
 20
5.17435
 30
0.000000
  70
    32
  0
VERTEX
  8
AM_HID
  5
8C1
 10
1.16107
 20
5.17352
 30
0.000000
  70
    32
  0
VERTEX
  8
AM_HID
  5
8C2
 10
1.16041
 20
5.17270
 30
0.000000
  70
    32
  0
VERTEX
  8
AM_HID
  5
8C3
 10
1.15976
 20
5.17187
 30
0.000000
  70
    32
  0
VERTEX
  8
AM_HID
  5
8C4
 10
1.15910
 20
5.17105
 30
0.000000
  70
    32
  0
VERTEX
  8
AM_HID
  5
8C5
 10
1.15845
 20
5.17022
 30
0.000000
  70
    32
  0
VERTEX
  8
AM_HID
  5
8C6
 10
1.15780
 20
5.16939
 30
0.000000
  70
    32
  0
VERTEX
  8
AM_HID
  5
8C7
 10
1.15714
 20
5.16856
 30
0.000000
  70
    32
  0
VERTEX
  8
AM_HID
  5
8C8
 10
1.15649
 20
5.16773
 30
0.000000
  70
    32
  0
VERTEX
  8
AM_HID
  5
8C9
 10
1.15583
 20
5.16690
 30
0.000000
  70
    32
  0
VERTEX
  8
AM_HID
  5
8CA
 10
1.15518
 20
5.16607
 30
0.000000
  70
    32
  0
VERTEX
  8
AM_HID
  5
8CB
 10
1.15453
 20
5.16524
 30
0.000000
  70
    32
  0
VERTEX
  8
AM_HID
  5
8CC
 10
1.15387
 20
5.16441
 30
0.000000
  70
    32
  0
VERTEX
  8
AM_HID
  5
8CD
 10
1.15322
 20
5.16358
 30
0.000000
  70
    32
  0
VERTEX
  8
AM_HID
  5
8CE
 10
1.15256
 20
5.16274
 30
0.000000
  70
    32
  0
VERTEX
  8
AM_HID
  5
8CF
 10
1.15191
 20
5.16191
 30
0.000000
  70
    32
  0
VERTEX
  8
AM_HID
  5
8D0
 10
1.15126
 20
5.16107
 30
0.000000
  70
    32
  0
VERTEX
  8
AM_HID
  5
8D1
 10
1.15060
 20
5.16023
 30
0.000000
  70
    32
  0
VERTEX
  8
AM_HID
  5
8D2
 10
1.14995
 20
5.15940
 30
0.000000
  70
    32
  0
VERTEX
  8
AM_HID
  5
8D3
 10
1.14930
 20
5.15856
 30
0.000000
  70
    32
  0
VERTEX
  8
AM_HID
  5
8D4
 10
1.14864
 20
5.15772
 30
0.000000
  70
    32
  0
VERTEX
  8
AM_HID
  5
8D5
 10
1.14799
 20
5.15688
 30
0.000000
  70
    32
  0
VERTEX
  8
AM_HID
  5
8D6
 10
1.14733
 20
5.15604
 30
0.000000
  70
    32
  0
VERTEX
  8
AM_HID
  5
8D7
 10
1.14668
 20
5.15520
 30
0.000000
  70
    32
  0
VERTEX
  8
AM_HID
  5
8D8
 10
1.14603
 20
5.15436
 30
0.000000
  70
    32
  0
VERTEX
  8
AM_HID
  5
8D9
 10
1.14537
 20
5.15351
 30
0.000000
  70
    32
  0
VERTEX
  8
AM_HID
  5
8DA
 10
1.14472
 20
5.15267
 30
0.000000
  70
    32
  0
VERTEX
  8
AM_HID
  5
8DB
 10
1.14407
 20
5.15183
 30
0.000000
  70
    32
  0
VERTEX
  8
AM_HID
  5
8DC
 10
1.14341
 20
5.15098
 30
0.000000
  70
    32
  0
VERTEX
  8
AM_HID
  5
8DD
 10
1.14276
 20
5.15014
 30
0.000000
  70
    32
  0
VERTEX
  8
AM_HID
  5
8DE
 10
1.14211
 20
5.14929
 30
0.000000
  70
    32
  0
VERTEX
  8
AM_HID
  5
8DF
 10
1.14145
 20
5.14844
 30
0.000000
  70
    32
  0
VERTEX
  8
AM_HID
  5
8E0
 10
1.14080
 20
5.14759
 30
0.000000
  70
    32
  0
VERTEX
  8
AM_HID
  5
8E1
 10
1.14015
 20
5.14674
 30
0.000000
  70
    32
  0
VERTEX
  8
AM_HID
  5
8E2
 10
1.13949
 20
5.14589
 30
0.000000
  70
    32
  0
VERTEX
  8
AM_HID
  5
8E3
 10
1.13884
 20
5.14504
 30
0.000000
  70
    32
  0
VERTEX
  8
AM_HID
  5
8E4
 10
1.13819
 20
5.14419
 30
0.000000
  70
    32
  0
VERTEX
  8
AM_HID
  5
8E5
 10
1.13754
 20
5.14334
 30
0.000000
  70
    32
  0
VERTEX
  8
AM_HID
  5
8E6
 10
1.13688
 20
5.14249
 30
0.000000
  70
    32
  0
VERTEX
  8
AM_HID
  5
8E7
 10
1.13623
 20
5.14163
 30
0.000000
  70
    32
  0
VERTEX
  8
AM_HID
  5
8E8
 10
1.13558
 20
5.14078
 30
0.000000
  70
    32
  0
VERTEX
  8
AM_HID
  5
8E9
 10
1.13492
 20
5.13992
 30
0.000000
  70
    32
  0
VERTEX
  8
AM_HID
  5
8EA
 10
1.13427
 20
5.13907
 30
0.000000
  70
    32
  0
VERTEX
  8
AM_HID
  5
8EB
 10
1.13362
 20
5.13821
 30
0.000000
  70
    32
  0
VERTEX
  8
AM_HID
  5
8EC
 10
1.13297
 20
5.13735
 30
0.000000
  70
    32
  0
VERTEX
  8
AM_HID
  5
8ED
 10
1.13231
 20
5.13650
 30
0.000000
  70
    32
  0
VERTEX
  8
AM_HID
  5
8EE
 10
1.13166
 20
5.13564
 30
0.000000
  70
    32
  0
VERTEX
  8
AM_HID
  5
8EF
 10
1.13101
 20
5.13478
 30
0.000000
  70
    32
  0
VERTEX
  8
AM_HID
  5
8F0
 10
1.13036
 20
5.13392
 30
0.000000
  70
    32
  0
VERTEX
  8
AM_HID
  5
8F1
 10
1.12970
 20
5.13306
 30
0.000000
  70
    32
  0
VERTEX
  8
AM_HID
  5
8F2
 10
1.12905
 20
5.13219
 30
0.000000
  70
    32
  0
VERTEX
  8
AM_HID
  5
8F3
 10
1.12840
 20
5.13133
 30
0.000000
  70
    32
  0
VERTEX
  8
AM_HID
  5
8F4
 10
1.12775
 20
5.13047
 30
0.000000
  70
    32
  0
VERTEX
  8
AM_HID
  5
8F5
 10
1.12709
 20
5.12960
 30
0.000000
  70
    32
  0
VERTEX
  8
AM_HID
  5
8F6
 10
1.12644
 20
5.12874
 30
0.000000
  70
    32
  0
VERTEX
  8
AM_HID
  5
8F7
 10
1.12579
 20
5.12787
 30
0.000000
  70
    32
  0
VERTEX
  8
AM_HID
  5
8F8
 10
1.12514
 20
5.12701
 30
0.000000
  70
    32
  0
VERTEX
  8
AM_HID
  5
8F9
 10
1.12448
 20
5.12614
 30
0.000000
  70
    32
  0
VERTEX
  8
AM_HID
  5
8FA
 10
1.12383
 20
5.12527
 30
0.000000
  70
    32
  0
VERTEX
  8
AM_HID
  5
8FB
 10
1.12318
 20
5.12440
 30
0.000000
  70
    32
  0
VERTEX
  8
AM_HID
  5
8FC
 10
1.12253
 20
5.12353
 30
0.000000
  70
    32
  0
VERTEX
  8
AM_HID
  5
8FD
 10
1.12188
 20
5.12266
 30
0.000000
  70
    32
  0
VERTEX
  8
AM_HID
  5
8FE
 10
1.12123
 20
5.12179
 30
0.000000
  70
    32
  0
VERTEX
  8
AM_HID
  5
8FF
 10
1.12057
 20
5.12092
 30
0.000000
  70
    32
  0
VERTEX
  8
AM_HID
  5
900
 10
1.11992
 20
5.12005
 30
0.000000
  70
    32
  0
VERTEX
  8
AM_HID
  5
901
 10
1.11927
 20
5.11917
 30
0.000000
  70
    32
  0
VERTEX
  8
AM_HID
  5
902
 10
1.11862
 20
5.11830
 30
0.000000
  70
    32
  0
VERTEX
  8
AM_HID
  5
903
 10
1.11797
 20
5.11743
 30
0.000000
  70
    32
  0
VERTEX
  8
AM_HID
  5
904
 10
1.11732
 20
5.11655
 30
0.000000
  70
    32
  0
VERTEX
  8
AM_HID
  5
905
 10
1.11667
 20
5.11567
 30
0.000000
  70
    32
  0
VERTEX
  8
AM_HID
  5
906
 10
1.11601
 20
5.11480
 30
0.000000
  70
    32
  0
VERTEX
  8
AM_HID
  5
907
 10
1.11536
 20
5.11392
 30
0.000000
  70
    32
  0
VERTEX
  8
AM_HID
  5
908
 10
1.11471
 20
5.11304
 30
0.000000
  70
    32
  0
VERTEX
  8
AM_HID
  5
909
 10
1.11406
 20
5.11216
 30
0.000000
  70
    32
  0
VERTEX
  8
AM_HID
  5
90A
 10
1.11341
 20
5.11128
 30
0.000000
  70
    32
  0
VERTEX
  8
AM_HID
  5
90B
 10
1.11276
 20
5.11040
 30
0.000000
  70
    32
  0
VERTEX
  8
AM_HID
  5
90C
 10
1.11211
 20
5.10952
 30
0.000000
  70
    32
  0
VERTEX
  8
AM_HID
  5
90D
 10
1.11146
 20
5.10864
 30
0.000000
  70
    32
  0
VERTEX
  8
AM_HID
  5
90E
 10
1.11081
 20
5.10775
 30
0.000000
  70
    32
  0
VERTEX
  8
AM_HID
  5
90F
 10
1.11016
 20
5.10687
 30
0.000000
  70
    32
  0
VERTEX
  8
AM_HID
  5
910
 10
1.10951
 20
5.10599
 30
0.000000
  70
    32
  0
VERTEX
  8
AM_HID
  5
911
 10
1.10886
 20
5.10510
 30
0.000000
  70
    32
  0
VERTEX
  8
AM_HID
  5
912
 10
1.10821
 20
5.10422
 30
0.000000
  70
    32
  0
VERTEX
  8
AM_HID
  5
913
 10
1.10756
 20
5.10333
 30
0.000000
  70
    32
  0
VERTEX
  8
AM_HID
  5
914
 10
1.10691
 20
5.10244
 30
0.000000
  70
    32
  0
VERTEX
  8
AM_HID
  5
915
 10
1.10625
 20
5.10155
 30
0.000000
  70
    32
  0
VERTEX
  8
AM_HID
  5
916
 10
1.10560
 20
5.10067
 30
0.000000
  70
    32
  0
VERTEX
  8
AM_HID
  5
917
 10
1.10495
 20
5.09978
 30
0.000000
  70
    32
  0
VERTEX
  8
AM_HID
  5
918
 10
1.10430
 20
5.09889
 30
0.000000
  70
    32
  0
VERTEX
  8
AM_HID
  5
919
 10
1.10366
 20
5.09800
 30
0.000000
  70
    32
  0
VERTEX
  8
AM_HID
  5
91A
 10
1.10301
 20
5.09710
 30
0.000000
  70
    32
  0
VERTEX
  8
AM_HID
  5
91B
 10
1.10236
 20
5.09621
 30
0.000000
  70
    32
  0
VERTEX
  8
AM_HID
  5
91C
 10
1.10171
 20
5.09532
 30
0.000000
  70
    32
  0
VERTEX
  8
AM_HID
  5
91D
 10
1.10106
 20
5.09443
 30
0.000000
  70
    32
  0
VERTEX
  8
AM_HID
  5
91E
 10
1.10041
 20
5.09353
 30
0.000000
  70
    32
  0
VERTEX
  8
AM_HID
  5
91F
 10
1.09976
 20
5.09264
 30
0.000000
  70
    32
  0
VERTEX
  8
AM_HID
  5
920
 10
1.09911
 20
5.09174
 30
0.000000
  70
    32
  0
VERTEX
  8
AM_HID
  5
921
 10
1.09846
 20
5.09084
 30
0.000000
  70
    32
  0
VERTEX
  8
AM_HID
  5
922
 10
1.09781
 20
5.08995
 30
0.000000
  70
    32
  0
VERTEX
  8
AM_HID
  5
923
 10
1.09716
 20
5.08905
 30
0.000000
  70
    32
  0
VERTEX
  8
AM_HID
  5
924
 10
1.09651
 20
5.08815
 30
0.000000
  70
    32
  0
VERTEX
  8
AM_HID
  5
925
 10
1.09586
 20
5.08725
 30
0.000000
  70
    32
  0
SEQEND
  8
AM_HID
  5
926
  0
POLYLINE
  5
44
  8
AM_VIS
 10
1.1663302308606318
 20
5.2121136528243293
 30
0.0
 66
     1
 70
     8
  0
VERTEX
  8
AM_VIS
  5
927
 10
1.16633
 20
5.21211
 30
0.000000
  70
    32
  0
VERTEX
  8
AM_VIS
  5
928
 10
1.16578
 20
5.21278
 30
0.000000
  70
    32
  0
VERTEX
  8
AM_VIS
  5
929
 10
1.16523
 20
5.21344
 30
0.000000
  70
    32
  0
VERTEX
  8
AM_VIS
  5
92A
 10
1.16467
 20
5.21410
 30
0.000000
  70
    32
  0
VERTEX
  8
AM_VIS
  5
92B
 10
1.16412
 20
5.21476
 30
0.000000
  70
    32
  0
VERTEX
  8
AM_VIS
  5
92C
 10
1.16357
 20
5.21542
 30
0.000000
  70
    32
  0
VERTEX
  8
AM_VIS
  5
92D
 10
1.16302
 20
5.21608
 30
0.000000
  70
    32
  0
VERTEX
  8
AM_VIS
  5
92E
 10
1.16246
 20
5.21674
 30
0.000000
  70
    32
  0
VERTEX
  8
AM_VIS
  5
92F
 10
1.16191
 20
5.21739
 30
0.000000
  70
    32
  0
VERTEX
  8
AM_VIS
  5
930
 10
1.16136
 20
5.21805
 30
0.000000
  70
    32
  0
VERTEX
  8
AM_VIS
  5
931
 10
1.16081
 20
5.21871
 30
0.000000
  70
    32
  0
VERTEX
  8
AM_VIS
  5
932
 10
1.16026
 20
5.21937
 30
0.000000
  70
    32
  0
VERTEX
  8
AM_VIS
  5
933
 10
1.15970
 20
5.22002
 30
0.000000
  70
    32
  0
VERTEX
  8
AM_VIS
  5
934
 10
1.15915
 20
5.22068
 30
0.000000
  70
    32
  0
VERTEX
  8
AM_VIS
  5
935
 10
1.15860
 20
5.22133
 30
0.000000
  70
    32
  0
VERTEX
  8
AM_VIS
  5
936
 10
1.15805
 20
5.22198
 30
0.000000
  70
    32
  0
VERTEX
  8
AM_VIS
  5
937
 10
1.15750
 20
5.22264
 30
0.000000
  70
    32
  0
VERTEX
  8
AM_VIS
  5
938
 10
1.15694
 20
5.22329
 30
0.000000
  70
    32
  0
VERTEX
  8
AM_VIS
  5
939
 10
1.15639
 20
5.22394
 30
0.000000
  70
    32
  0
VERTEX
  8
AM_VIS
  5
93A
 10
1.15584
 20
5.22459
 30
0.000000
  70
    32
  0
VERTEX
  8
AM_VIS
  5
93B
 10
1.15529
 20
5.22524
 30
0.000000
  70
    32
  0
VERTEX
  8
AM_VIS
  5
93C
 10
1.15474
 20
5.22589
 30
0.000000
  70
    32
  0
VERTEX
  8
AM_VIS
  5
93D
 10
1.15418
 20
5.22654
 30
0.000000
  70
    32
  0
VERTEX
  8
AM_VIS
  5
93E
 10
1.15363
 20
5.22719
 30
0.000000
  70
    32
  0
VERTEX
  8
AM_VIS
  5
93F
 10
1.15308
 20
5.22784
 30
0.000000
  70
    32
  0
VERTEX
  8
AM_VIS
  5
940
 10
1.15253
 20
5.22849
 30
0.000000
  70
    32
  0
VERTEX
  8
AM_VIS
  5
941
 10
1.15198
 20
5.22914
 30
0.000000
  70
    32
  0
VERTEX
  8
AM_VIS
  5
942
 10
1.15142
 20
5.22978
 30
0.000000
  70
    32
  0
VERTEX
  8
AM_VIS
  5
943
 10
1.15087
 20
5.23043
 30
0.000000
  70
    32
  0
VERTEX
  8
AM_VIS
  5
944
 10
1.15032
 20
5.23107
 30
0.000000
  70
    32
  0
VERTEX
  8
AM_VIS
  5
945
 10
1.14977
 20
5.23172
 30
0.000000
  70
    32
  0
VERTEX
  8
AM_VIS
  5
946
 10
1.14922
 20
5.23236
 30
0.000000
  70
    32
  0
VERTEX
  8
AM_VIS
  5
947
 10
1.14866
 20
5.23301
 30
0.000000
  70
    32
  0
VERTEX
  8
AM_VIS
  5
948
 10
1.14811
 20
5.23365
 30
0.000000
  70
    32
  0
VERTEX
  8
AM_VIS
  5
949
 10
1.14756
 20
5.23429
 30
0.000000
  70
    32
  0
VERTEX
  8
AM_VIS
  5
94A
 10
1.14701
 20
5.23493
 30
0.000000
  70
    32
  0
VERTEX
  8
AM_VIS
  5
94B
 10
1.14646
 20
5.23557
 30
0.000000
  70
    32
  0
VERTEX
  8
AM_VIS
  5
94C
 10
1.14591
 20
5.23621
 30
0.000000
  70
    32
  0
VERTEX
  8
AM_VIS
  5
94D
 10
1.14535
 20
5.23685
 30
0.000000
  70
    32
  0
VERTEX
  8
AM_VIS
  5
94E
 10
1.14480
 20
5.23749
 30
0.000000
  70
    32
  0
VERTEX
  8
AM_VIS
  5
94F
 10
1.14425
 20
5.23813
 30
0.000000
  70
    32
  0
VERTEX
  8
AM_VIS
  5
950
 10
1.14370
 20
5.23877
 30
0.000000
  70
    32
  0
VERTEX
  8
AM_VIS
  5
951
 10
1.14315
 20
5.23941
 30
0.000000
  70
    32
  0
VERTEX
  8
AM_VIS
  5
952
 10
1.14260
 20
5.24004
 30
0.000000
  70
    32
  0
VERTEX
  8
AM_VIS
  5
953
 10
1.14205
 20
5.24068
 30
0.000000
  70
    32
  0
VERTEX
  8
AM_VIS
  5
954
 10
1.14149
 20
5.24131
 30
0.000000
  70
    32
  0
VERTEX
  8
AM_VIS
  5
955
 10
1.14094
 20
5.24195
 30
0.000000
  70
    32
  0
VERTEX
  8
AM_VIS
  5
956
 10
1.14039
 20
5.24258
 30
0.000000
  70
    32
  0
VERTEX
  8
AM_VIS
  5
957
 10
1.13984
 20
5.24322
 30
0.000000
  70
    32
  0
VERTEX
  8
AM_VIS
  5
958
 10
1.13929
 20
5.24385
 30
0.000000
  70
    32
  0
VERTEX
  8
AM_VIS
  5
959
 10
1.13874
 20
5.24448
 30
0.000000
  70
    32
  0
VERTEX
  8
AM_VIS
  5
95A
 10
1.13819
 20
5.24511
 30
0.000000
  70
    32
  0
VERTEX
  8
AM_VIS
  5
95B
 10
1.13763
 20
5.24574
 30
0.000000
  70
    32
  0
VERTEX
  8
AM_VIS
  5
95C
 10
1.13708
 20
5.24637
 30
0.000000
  70
    32
  0
VERTEX
  8
AM_VIS
  5
95D
 10
1.13653
 20
5.24700
 30
0.000000
  70
    32
  0
VERTEX
  8
AM_VIS
  5
95E
 10
1.13598
 20
5.24763
 30
0.000000
  70
    32
  0
VERTEX
  8
AM_VIS
  5
95F
 10
1.13543
 20
5.24826
 30
0.000000
  70
    32
  0
VERTEX
  8
AM_VIS
  5
960
 10
1.13488
 20
5.24889
 30
0.000000
  70
    32
  0
VERTEX
  8
AM_VIS
  5
961
 10
1.13433
 20
5.24952
 30
0.000000
  70
    32
  0
VERTEX
  8
AM_VIS
  5
962
 10
1.13378
 20
5.25014
 30
0.000000
  70
    32
  0
VERTEX
  8
AM_VIS
  5
963
 10
1.13323
 20
5.25077
 30
0.000000
  70
    32
  0
VERTEX
  8
AM_VIS
  5
964
 10
1.13268
 20
5.25139
 30
0.000000
  70
    32
  0
VERTEX
  8
AM_VIS
  5
965
 10
1.13212
 20
5.25202
 30
0.000000
  70
    32
  0
VERTEX
  8
AM_VIS
  5
966
 10
1.13157
 20
5.25264
 30
0.000000
  70
    32
  0
VERTEX
  8
AM_VIS
  5
967
 10
1.13102
 20
5.25327
 30
0.000000
  70
    32
  0
VERTEX
  8
AM_VIS
  5
968
 10
1.13047
 20
5.25389
 30
0.000000
  70
    32
  0
VERTEX
  8
AM_VIS
  5
969
 10
1.12992
 20
5.25451
 30
0.000000
  70
    32
  0
VERTEX
  8
AM_VIS
  5
96A
 10
1.12937
 20
5.25513
 30
0.000000
  70
    32
  0
VERTEX
  8
AM_VIS
  5
96B
 10
1.12882
 20
5.25575
 30
0.000000
  70
    32
  0
VERTEX
  8
AM_VIS
  5
96C
 10
1.12827
 20
5.25638
 30
0.000000
  70
    32
  0
VERTEX
  8
AM_VIS
  5
96D
 10
1.12772
 20
5.25699
 30
0.000000
  70
    32
  0
VERTEX
  8
AM_VIS
  5
96E
 10
1.12717
 20
5.25761
 30
0.000000
  70
    32
  0
VERTEX
  8
AM_VIS
  5
96F
 10
1.12662
 20
5.25823
 30
0.000000
  70
    32
  0
VERTEX
  8
AM_VIS
  5
970
 10
1.12607
 20
5.25885
 30
0.000000
  70
    32
  0
VERTEX
  8
AM_VIS
  5
971
 10
1.12552
 20
5.25947
 30
0.000000
  70
    32
  0
VERTEX
  8
AM_VIS
  5
972
 10
1.12497
 20
5.26008
 30
0.000000
  70
    32
  0
VERTEX
  8
AM_VIS
  5
973
 10
1.12442
 20
5.26070
 30
0.000000
  70
    32
  0
VERTEX
  8
AM_VIS
  5
974
 10
1.12387
 20
5.26131
 30
0.000000
  70
    32
  0
VERTEX
  8
AM_VIS
  5
975
 10
1.12332
 20
5.26193
 30
0.000000
  70
    32
  0
VERTEX
  8
AM_VIS
  5
976
 10
1.12276
 20
5.26254
 30
0.000000
  70
    32
  0
VERTEX
  8
AM_VIS
  5
977
 10
1.12221
 20
5.26316
 30
0.000000
  70
    32
  0
VERTEX
  8
AM_VIS
  5
978
 10
1.12166
 20
5.26377
 30
0.000000
  70
    32
  0
VERTEX
  8
AM_VIS
  5
979
 10
1.12111
 20
5.26438
 30
0.000000
  70
    32
  0
VERTEX
  8
AM_VIS
  5
97A
 10
1.12056
 20
5.26499
 30
0.000000
  70
    32
  0
VERTEX
  8
AM_VIS
  5
97B
 10
1.12001
 20
5.26560
 30
0.000000
  70
    32
  0
VERTEX
  8
AM_VIS
  5
97C
 10
1.11946
 20
5.26621
 30
0.000000
  70
    32
  0
VERTEX
  8
AM_VIS
  5
97D
 10
1.11891
 20
5.26682
 30
0.000000
  70
    32
  0
VERTEX
  8
AM_VIS
  5
97E
 10
1.11836
 20
5.26743
 30
0.000000
  70
    32
  0
VERTEX
  8
AM_VIS
  5
97F
 10
1.11781
 20
5.26804
 30
0.000000
  70
    32
  0
VERTEX
  8
AM_VIS
  5
980
 10
1.11726
 20
5.26865
 30
0.000000
  70
    32
  0
VERTEX
  8
AM_VIS
  5
981
 10
1.11672
 20
5.26926
 30
0.000000
  70
    32
  0
VERTEX
  8
AM_VIS
  5
982
 10
1.11617
 20
5.26986
 30
0.000000
  70
    32
  0
VERTEX
  8
AM_VIS
  5
983
 10
1.11562
 20
5.27047
 30
0.000000
  70
    32
  0
VERTEX
  8
AM_VIS
  5
984
 10
1.11507
 20
5.27107
 30
0.000000
  70
    32
  0
VERTEX
  8
AM_VIS
  5
985
 10
1.11452
 20
5.27168
 30
0.000000
  70
    32
  0
VERTEX
  8
AM_VIS
  5
986
 10
1.11397
 20
5.27228
 30
0.000000
  70
    32
  0
VERTEX
  8
AM_VIS
  5
987
 10
1.11342
 20
5.27288
 30
0.000000
  70
    32
  0
VERTEX
  8
AM_VIS
  5
988
 10
1.11287
 20
5.27349
 30
0.000000
  70
    32
  0
VERTEX
  8
AM_VIS
  5
989
 10
1.11232
 20
5.27409
 30
0.000000
  70
    32
  0
VERTEX
  8
AM_VIS
  5
98A
 10
1.11177
 20
5.27469
 30
0.000000
  70
    32
  0
VERTEX
  8
AM_VIS
  5
98B
 10
1.11122
 20
5.27529
 30
0.000000
  70
    32
  0
VERTEX
  8
AM_VIS
  5
98C
 10
1.11067
 20
5.27589
 30
0.000000
  70
    32
  0
VERTEX
  8
AM_VIS
  5
98D
 10
1.11012
 20
5.27649
 30
0.000000
  70
    32
  0
VERTEX
  8
AM_VIS
  5
98E
 10
1.10957
 20
5.27709
 30
0.000000
  70
    32
  0
VERTEX
  8
AM_VIS
  5
98F
 10
1.10902
 20
5.27769
 30
0.000000
  70
    32
  0
VERTEX
  8
AM_VIS
  5
990
 10
1.10848
 20
5.27828
 30
0.000000
  70
    32
  0
VERTEX
  8
AM_VIS
  5
991
 10
1.10793
 20
5.27888
 30
0.000000
  70
    32
  0
VERTEX
  8
AM_VIS
  5
992
 10
1.10738
 20
5.27948
 30
0.000000
  70
    32
  0
VERTEX
  8
AM_VIS
  5
993
 10
1.10683
 20
5.28007
 30
0.000000
  70
    32
  0
VERTEX
  8
AM_VIS
  5
994
 10
1.10628
 20
5.28067
 30
0.000000
  70
    32
  0
VERTEX
  8
AM_VIS
  5
995
 10
1.10573
 20
5.28126
 30
0.000000
  70
    32
  0
VERTEX
  8
AM_VIS
  5
996
 10
1.10518
 20
5.28185
 30
0.000000
  70
    32
  0
VERTEX
  8
AM_VIS
  5
997
 10
1.10463
 20
5.28245
 30
0.000000
  70
    32
  0
VERTEX
  8
AM_VIS
  5
998
 10
1.10409
 20
5.28304
 30
0.000000
  70
    32
  0
VERTEX
  8
AM_VIS
  5
999
 10
1.10354
 20
5.28363
 30
0.000000
  70
    32
  0
VERTEX
  8
AM_VIS
  5
99A
 10
1.10299
 20
5.28422
 30
0.000000
  70
    32
  0
VERTEX
  8
AM_VIS
  5
99B
 10
1.10244
 20
5.28481
 30
0.000000
  70
    32
  0
VERTEX
  8
AM_VIS
  5
99C
 10
1.10189
 20
5.28540
 30
0.000000
  70
    32
  0
VERTEX
  8
AM_VIS
  5
99D
 10
1.10134
 20
5.28599
 30
0.000000
  70
    32
  0
VERTEX
  8
AM_VIS
  5
99E
 10
1.10080
 20
5.28658
 30
0.000000
  70
    32
  0
VERTEX
  8
AM_VIS
  5
99F
 10
1.10025
 20
5.28716
 30
0.000000
  70
    32
  0
VERTEX
  8
AM_VIS
  5
9A0
 10
1.09970
 20
5.28775
 30
0.000000
  70
    32
  0
VERTEX
  8
AM_VIS
  5
9A1
 10
1.09915
 20
5.28834
 30
0.000000
  70
    32
  0
VERTEX
  8
AM_VIS
  5
9A2
 10
1.09860
 20
5.28892
 30
0.000000
  70
    32
  0
VERTEX
  8
AM_VIS
  5
9A3
 10
1.09805
 20
5.28951
 30
0.000000
  70
    32
  0
VERTEX
  8
AM_VIS
  5
9A4
 10
1.09751
 20
5.29009
 30
0.000000
  70
    32
  0
VERTEX
  8
AM_VIS
  5
9A5
 10
1.09696
 20
5.29068
 30
0.000000
  70
    32
  0
VERTEX
  8
AM_VIS
  5
9A6
 10
1.09641
 20
5.29126
 30
0.000000
  70
    32
  0
VERTEX
  8
AM_VIS
  5
9A7
 10
1.09586
 20
5.29184
 30
0.000000
  70
    32
  0
SEQEND
  8
AM_VIS
  5
9A8
  0
POLYLINE
  5
45
  8
AM_HID
 10
1.1793875815426937
 20
5.1962857709527528
 30
0.0
 66
     1
 70
     8
  0
VERTEX
  8
AM_HID
  5
9A9
 10
1.17939
 20
5.19629
 30
0.000000
  70
    32
  0
VERTEX
  8
AM_HID
  5
9AA
 10
1.17929
 20
5.19641
 30
0.000000
  70
    32
  0
VERTEX
  8
AM_HID
  5
9AB
 10
1.17918
 20
5.19654
 30
0.000000
  70
    32
  0
VERTEX
  8
AM_HID
  5
9AC
 10
1.17908
 20
5.19666
 30
0.000000
  70
    32
  0
VERTEX
  8
AM_HID
  5
9AD
 10
1.17898
 20
5.19679
 30
0.000000
  70
    32
  0
VERTEX
  8
AM_HID
  5
9AE
 10
1.17888
 20
5.19691
 30
0.000000
  70
    32
  0
VERTEX
  8
AM_HID
  5
9AF
 10
1.17878
 20
5.19704
 30
0.000000
  70
    32
  0
VERTEX
  8
AM_HID
  5
9B0
 10
1.17867
 20
5.19716
 30
0.000000
  70
    32
  0
VERTEX
  8
AM_HID
  5
9B1
 10
1.17857
 20
5.19728
 30
0.000000
  70
    32
  0
VERTEX
  8
AM_HID
  5
9B2
 10
1.17847
 20
5.19741
 30
0.000000
  70
    32
  0
VERTEX
  8
AM_HID
  5
9B3
 10
1.17837
 20
5.19753
 30
0.000000
  70
    32
  0
VERTEX
  8
AM_HID
  5
9B4
 10
1.17827
 20
5.19766
 30
0.000000
  70
    32
  0
VERTEX
  8
AM_HID
  5
9B5
 10
1.17816
 20
5.19778
 30
0.000000
  70
    32
  0
VERTEX
  8
AM_HID
  5
9B6
 10
1.17806
 20
5.19791
 30
0.000000
  70
    32
  0
VERTEX
  8
AM_HID
  5
9B7
 10
1.17796
 20
5.19803
 30
0.000000
  70
    32
  0
VERTEX
  8
AM_HID
  5
9B8
 10
1.17786
 20
5.19816
 30
0.000000
  70
    32
  0
VERTEX
  8
AM_HID
  5
9B9
 10
1.17776
 20
5.19828
 30
0.000000
  70
    32
  0
VERTEX
  8
AM_HID
  5
9BA
 10
1.17765
 20
5.19841
 30
0.000000
  70
    32
  0
VERTEX
  8
AM_HID
  5
9BB
 10
1.17755
 20
5.19853
 30
0.000000
  70
    32
  0
VERTEX
  8
AM_HID
  5
9BC
 10
1.17745
 20
5.19866
 30
0.000000
  70
    32
  0
VERTEX
  8
AM_HID
  5
9BD
 10
1.17735
 20
5.19878
 30
0.000000
  70
    32
  0
VERTEX
  8
AM_HID
  5
9BE
 10
1.17725
 20
5.19891
 30
0.000000
  70
    32
  0
VERTEX
  8
AM_HID
  5
9BF
 10
1.17714
 20
5.19903
 30
0.000000
  70
    32
  0
VERTEX
  8
AM_HID
  5
9C0
 10
1.17704
 20
5.19915
 30
0.000000
  70
    32
  0
VERTEX
  8
AM_HID
  5
9C1
 10
1.17694
 20
5.19928
 30
0.000000
  70
    32
  0
VERTEX
  8
AM_HID
  5
9C2
 10
1.17684
 20
5.19940
 30
0.000000
  70
    32
  0
VERTEX
  8
AM_HID
  5
9C3
 10
1.17674
 20
5.19953
 30
0.000000
  70
    32
  0
VERTEX
  8
AM_HID
  5
9C4
 10
1.17663
 20
5.19965
 30
0.000000
  70
    32
  0
VERTEX
  8
AM_HID
  5
9C5
 10
1.17653
 20
5.19978
 30
0.000000
  70
    32
  0
VERTEX
  8
AM_HID
  5
9C6
 10
1.17643
 20
5.19990
 30
0.000000
  70
    32
  0
VERTEX
  8
AM_HID
  5
9C7
 10
1.17633
 20
5.20003
 30
0.000000
  70
    32
  0
VERTEX
  8
AM_HID
  5
9C8
 10
1.17623
 20
5.20015
 30
0.000000
  70
    32
  0
VERTEX
  8
AM_HID
  5
9C9
 10
1.17612
 20
5.20027
 30
0.000000
  70
    32
  0
VERTEX
  8
AM_HID
  5
9CA
 10
1.17602
 20
5.20040
 30
0.000000
  70
    32
  0
VERTEX
  8
AM_HID
  5
9CB
 10
1.17592
 20
5.20052
 30
0.000000
  70
    32
  0
VERTEX
  8
AM_HID
  5
9CC
 10
1.17582
 20
5.20065
 30
0.000000
  70
    32
  0
VERTEX
  8
AM_HID
  5
9CD
 10
1.17571
 20
5.20077
 30
0.000000
  70
    32
  0
VERTEX
  8
AM_HID
  5
9CE
 10
1.17561
 20
5.20090
 30
0.000000
  70
    32
  0
VERTEX
  8
AM_HID
  5
9CF
 10
1.17551
 20
5.20102
 30
0.000000
  70
    32
  0
VERTEX
  8
AM_HID
  5
9D0
 10
1.17541
 20
5.20114
 30
0.000000
  70
    32
  0
VERTEX
  8
AM_HID
  5
9D1
 10
1.17531
 20
5.20127
 30
0.000000
  70
    32
  0
VERTEX
  8
AM_HID
  5
9D2
 10
1.17520
 20
5.20139
 30
0.000000
  70
    32
  0
VERTEX
  8
AM_HID
  5
9D3
 10
1.17510
 20
5.20152
 30
0.000000
  70
    32
  0
VERTEX
  8
AM_HID
  5
9D4
 10
1.17500
 20
5.20164
 30
0.000000
  70
    32
  0
VERTEX
  8
AM_HID
  5
9D5
 10
1.17490
 20
5.20176
 30
0.000000
  70
    32
  0
VERTEX
  8
AM_HID
  5
9D6
 10
1.17480
 20
5.20189
 30
0.000000
  70
    32
  0
VERTEX
  8
AM_HID
  5
9D7
 10
1.17469
 20
5.20201
 30
0.000000
  70
    32
  0
VERTEX
  8
AM_HID
  5
9D8
 10
1.17459
 20
5.20214
 30
0.000000
  70
    32
  0
VERTEX
  8
AM_HID
  5
9D9
 10
1.17449
 20
5.20226
 30
0.000000
  70
    32
  0
VERTEX
  8
AM_HID
  5
9DA
 10
1.17439
 20
5.20238
 30
0.000000
  70
    32
  0
VERTEX
  8
AM_HID
  5
9DB
 10
1.17429
 20
5.20251
 30
0.000000
  70
    32
  0
VERTEX
  8
AM_HID
  5
9DC
 10
1.17418
 20
5.20263
 30
0.000000
  70
    32
  0
VERTEX
  8
AM_HID
  5
9DD
 10
1.17408
 20
5.20276
 30
0.000000
  70
    32
  0
VERTEX
  8
AM_HID
  5
9DE
 10
1.17398
 20
5.20288
 30
0.000000
  70
    32
  0
VERTEX
  8
AM_HID
  5
9DF
 10
1.17388
 20
5.20300
 30
0.000000
  70
    32
  0
VERTEX
  8
AM_HID
  5
9E0
 10
1.17378
 20
5.20313
 30
0.000000
  70
    32
  0
VERTEX
  8
AM_HID
  5
9E1
 10
1.17367
 20
5.20325
 30
0.000000
  70
    32
  0
VERTEX
  8
AM_HID
  5
9E2
 10
1.17357
 20
5.20338
 30
0.000000
  70
    32
  0
VERTEX
  8
AM_HID
  5
9E3
 10
1.17347
 20
5.20350
 30
0.000000
  70
    32
  0
VERTEX
  8
AM_HID
  5
9E4
 10
1.17337
 20
5.20362
 30
0.000000
  70
    32
  0
VERTEX
  8
AM_HID
  5
9E5
 10
1.17327
 20
5.20375
 30
0.000000
  70
    32
  0
VERTEX
  8
AM_HID
  5
9E6
 10
1.17316
 20
5.20387
 30
0.000000
  70
    32
  0
VERTEX
  8
AM_HID
  5
9E7
 10
1.17306
 20
5.20399
 30
0.000000
  70
    32
  0
VERTEX
  8
AM_HID
  5
9E8
 10
1.17296
 20
5.20412
 30
0.000000
  70
    32
  0
VERTEX
  8
AM_HID
  5
9E9
 10
1.17286
 20
5.20424
 30
0.000000
  70
    32
  0
VERTEX
  8
AM_HID
  5
9EA
 10
1.17276
 20
5.20436
 30
0.000000
  70
    32
  0
VERTEX
  8
AM_HID
  5
9EB
 10
1.17265
 20
5.20449
 30
0.000000
  70
    32
  0
VERTEX
  8
AM_HID
  5
9EC
 10
1.17255
 20
5.20461
 30
0.000000
  70
    32
  0
VERTEX
  8
AM_HID
  5
9ED
 10
1.17245
 20
5.20474
 30
0.000000
  70
    32
  0
VERTEX
  8
AM_HID
  5
9EE
 10
1.17235
 20
5.20486
 30
0.000000
  70
    32
  0
VERTEX
  8
AM_HID
  5
9EF
 10
1.17225
 20
5.20498
 30
0.000000
  70
    32
  0
VERTEX
  8
AM_HID
  5
9F0
 10
1.17214
 20
5.20511
 30
0.000000
  70
    32
  0
VERTEX
  8
AM_HID
  5
9F1
 10
1.17204
 20
5.20523
 30
0.000000
  70
    32
  0
VERTEX
  8
AM_HID
  5
9F2
 10
1.17194
 20
5.20535
 30
0.000000
  70
    32
  0
VERTEX
  8
AM_HID
  5
9F3
 10
1.17184
 20
5.20548
 30
0.000000
  70
    32
  0
VERTEX
  8
AM_HID
  5
9F4
 10
1.17174
 20
5.20560
 30
0.000000
  70
    32
  0
VERTEX
  8
AM_HID
  5
9F5
 10
1.17163
 20
5.20572
 30
0.000000
  70
    32
  0
VERTEX
  8
AM_HID
  5
9F6
 10
1.17153
 20
5.20585
 30
0.000000
  70
    32
  0
VERTEX
  8
AM_HID
  5
9F7
 10
1.17143
 20
5.20597
 30
0.000000
  70
    32
  0
VERTEX
  8
AM_HID
  5
9F8
 10
1.17133
 20
5.20609
 30
0.000000
  70
    32
  0
VERTEX
  8
AM_HID
  5
9F9
 10
1.17123
 20
5.20622
 30
0.000000
  70
    32
  0
VERTEX
  8
AM_HID
  5
9FA
 10
1.17112
 20
5.20634
 30
0.000000
  70
    32
  0
VERTEX
  8
AM_HID
  5
9FB
 10
1.17102
 20
5.20646
 30
0.000000
  70
    32
  0
VERTEX
  8
AM_HID
  5
9FC
 10
1.17092
 20
5.20659
 30
0.000000
  70
    32
  0
VERTEX
  8
AM_HID
  5
9FD
 10
1.17082
 20
5.20671
 30
0.000000
  70
    32
  0
VERTEX
  8
AM_HID
  5
9FE
 10
1.17072
 20
5.20683
 30
0.000000
  70
    32
  0
VERTEX
  8
AM_HID
  5
9FF
 10
1.17061
 20
5.20696
 30
0.000000
  70
    32
  0
VERTEX
  8
AM_HID
  5
A00
 10
1.17051
 20
5.20708
 30
0.000000
  70
    32
  0
VERTEX
  8
AM_HID
  5
A01
 10
1.17041
 20
5.20720
 30
0.000000
  70
    32
  0
VERTEX
  8
AM_HID
  5
A02
 10
1.17031
 20
5.20733
 30
0.000000
  70
    32
  0
VERTEX
  8
AM_HID
  5
A03
 10
1.17021
 20
5.20745
 30
0.000000
  70
    32
  0
VERTEX
  8
AM_HID
  5
A04
 10
1.17010
 20
5.20757
 30
0.000000
  70
    32
  0
VERTEX
  8
AM_HID
  5
A05
 10
1.17000
 20
5.20770
 30
0.000000
  70
    32
  0
VERTEX
  8
AM_HID
  5
A06
 10
1.16990
 20
5.20782
 30
0.000000
  70
    32
  0
VERTEX
  8
AM_HID
  5
A07
 10
1.16980
 20
5.20794
 30
0.000000
  70
    32
  0
VERTEX
  8
AM_HID
  5
A08
 10
1.16970
 20
5.20806
 30
0.000000
  70
    32
  0
VERTEX
  8
AM_HID
  5
A09
 10
1.16959
 20
5.20819
 30
0.000000
  70
    32
  0
VERTEX
  8
AM_HID
  5
A0A
 10
1.16949
 20
5.20831
 30
0.000000
  70
    32
  0
VERTEX
  8
AM_HID
  5
A0B
 10
1.16939
 20
5.20843
 30
0.000000
  70
    32
  0
VERTEX
  8
AM_HID
  5
A0C
 10
1.16929
 20
5.20856
 30
0.000000
  70
    32
  0
VERTEX
  8
AM_HID
  5
A0D
 10
1.16919
 20
5.20868
 30
0.000000
  70
    32
  0
VERTEX
  8
AM_HID
  5
A0E
 10
1.16908
 20
5.20880
 30
0.000000
  70
    32
  0
VERTEX
  8
AM_HID
  5
A0F
 10
1.16898
 20
5.20893
 30
0.000000
  70
    32
  0
VERTEX
  8
AM_HID
  5
A10
 10
1.16888
 20
5.20905
 30
0.000000
  70
    32
  0
VERTEX
  8
AM_HID
  5
A11
 10
1.16878
 20
5.20917
 30
0.000000
  70
    32
  0
VERTEX
  8
AM_HID
  5
A12
 10
1.16868
 20
5.20929
 30
0.000000
  70
    32
  0
VERTEX
  8
AM_HID
  5
A13
 10
1.16857
 20
5.20942
 30
0.000000
  70
    32
  0
VERTEX
  8
AM_HID
  5
A14
 10
1.16847
 20
5.20954
 30
0.000000
  70
    32
  0
VERTEX
  8
AM_HID
  5
A15
 10
1.16837
 20
5.20966
 30
0.000000
  70
    32
  0
VERTEX
  8
AM_HID
  5
A16
 10
1.16827
 20
5.20979
 30
0.000000
  70
    32
  0
VERTEX
  8
AM_HID
  5
A17
 10
1.16817
 20
5.20991
 30
0.000000
  70
    32
  0
VERTEX
  8
AM_HID
  5
A18
 10
1.16806
 20
5.21003
 30
0.000000
  70
    32
  0
VERTEX
  8
AM_HID
  5
A19
 10
1.16796
 20
5.21015
 30
0.000000
  70
    32
  0
VERTEX
  8
AM_HID
  5
A1A
 10
1.16786
 20
5.21028
 30
0.000000
  70
    32
  0
VERTEX
  8
AM_HID
  5
A1B
 10
1.16776
 20
5.21040
 30
0.000000
  70
    32
  0
VERTEX
  8
AM_HID
  5
A1C
 10
1.16766
 20
5.21052
 30
0.000000
  70
    32
  0
VERTEX
  8
AM_HID
  5
A1D
 10
1.16755
 20
5.21064
 30
0.000000
  70
    32
  0
VERTEX
  8
AM_HID
  5
A1E
 10
1.16745
 20
5.21077
 30
0.000000
  70
    32
  0
VERTEX
  8
AM_HID
  5
A1F
 10
1.16735
 20
5.21089
 30
0.000000
  70
    32
  0
VERTEX
  8
AM_HID
  5
A20
 10
1.16725
 20
5.21101
 30
0.000000
  70
    32
  0
VERTEX
  8
AM_HID
  5
A21
 10
1.16715
 20
5.21113
 30
0.000000
  70
    32
  0
VERTEX
  8
AM_HID
  5
A22
 10
1.16704
 20
5.21126
 30
0.000000
  70
    32
  0
VERTEX
  8
AM_HID
  5
A23
 10
1.16694
 20
5.21138
 30
0.000000
  70
    32
  0
VERTEX
  8
AM_HID
  5
A24
 10
1.16684
 20
5.21150
 30
0.000000
  70
    32
  0
VERTEX
  8
AM_HID
  5
A25
 10
1.16674
 20
5.21162
 30
0.000000
  70
    32
  0
VERTEX
  8
AM_HID
  5
A26
 10
1.16664
 20
5.21175
 30
0.000000
  70
    32
  0
VERTEX
  8
AM_HID
  5
A27
 10
1.16653
 20
5.21187
 30
0.000000
  70
    32
  0
VERTEX
  8
AM_HID
  5
A28
 10
1.16643
 20
5.21199
 30
0.000000
  70
    32
  0
VERTEX
  8
AM_HID
  5
A29
 10
1.16633
 20
5.21211
 30
0.000000
  70
    32
  0
SEQEND
  8
AM_HID
  5
A2A
  0
LINE
  5
46
  8
AM_HID
 10
0.9288166666732822
 20
5.1258104284707446
 30
0.0
 11
0.9288166666732822
 21
5.0872500307147774
 31
0.0
  0
LINE
  5
47
  8
AM_VIS
 10
1.0958639432528889
 20
5.1258104284707438
 30
0.0
 11
0.9288166666732822
 21
5.1258104284707438
 31
0.0
  0
LINE
  5
48
  8
AM_HID
 10
1.0958639432528889
 20
5.1258104284707438
 30
0.0
 11
1.0958639432528889
 21
5.0872500307147757
 31
0.0
  0
LINE
  5
49
  8
AM_HID
 10
0.8452930283834794
 20
5.2281055761061479
 30
0.0
 11
0.8452930283834794
 21
5.1962857709527528
 31
0.0
  0
LINE
  5
4A
  8
AM_VIS
 10
0.9288166666732831
 20
5.1258104284707438
 30
0.0
 11
0.8452930283834794
 21
5.228105576106147
 31
0.0
  0
LINE
  5
4B
  8
AM_VIS
 10
0.9288166666732831
 20
5.330400723741552
 30
0.0
 11
0.9288166666732831
 21
5.2918403259855831
 31
0.0
  0
LINE
  5
4C
  8
AM_VIS
 10
0.8452930283834794
 20
5.228105576106147
 30
0.0
 11
0.9288166666732831
 21
5.3304007237415503
 31
0.0
  0
LINE
  5
4D
  8
AM_VIS
 10
1.09586394325289
 20
5.330400723741552
 30
0.0
 11
1.09586394325289
 21
5.2918403259855831
 31
0.0
  0
LINE
  5
4E
  8
AM_VIS
 10
0.9288166666732831
 20
5.3304007237415512
 30
0.0
 11
1.09586394325289
 21
5.3304007237415512
 31
0.0
  0
LINE
  5
4F
  8
AM_VIS
 10
1.1793875815426931
 20
5.228105576106147
 30
0.0
 11
1.0958639432528889
 21
5.1258104284707438
 31
0.0
  0
LINE
  5
50
  8
AM_HID
 10
1.1793875815426931
 20
5.2281055761061479
 30
0.0
 11
1.1793875815426931
 21
5.1962857709527528
 31
0.0
  0
LINE
  5
51
  8
AM_VIS
 10
1.09586394325289
 20
5.3304007237415512
 30
0.0
 11
1.179387581542694
 21
5.228105576106147
 31
0.0
  0
POLYLINE
  5
52
  8
AM_VIS
 10
1.0123403049630868
 20
5.0292317938974307
 30
0.0
 66
     1
 70
     8
  0
VERTEX
  8
AM_VIS
  5
A2B
 10
1.01234
 20
5.02923
 30
0.000000
  70
    32
  0
VERTEX
  8
AM_VIS
  5
A2C
 10
1.02614
 20
5.02947
 30
0.000000
  70
    32
  0
VERTEX
  8
AM_VIS
  5
A2D
 10
1.03991
 20
5.03019
 30
0.000000
  70
    32
  0
VERTEX
  8
AM_VIS
  5
A2E
 10
1.05361
 20
5.03138
 30
0.000000
  70
    32
  0
VERTEX
  8
AM_VIS
  5
A2F
 10
1.06721
 20
5.03305
 30
0.000000
  70
    32
  0
VERTEX
  8
AM_VIS
  5
A30
 10
1.08068
 20
5.03519
 30
0.000000
  70
    32
  0
VERTEX
  8
AM_VIS
  5
A31
 10
1.09398
 20
5.03780
 30
0.000000
  70
    32
  0
VERTEX
  8
AM_VIS
  5
A32
 10
1.10709
 20
5.04086
 30
0.000000
  70
    32
  0
VERTEX
  8
AM_VIS
  5
A33
 10
1.11997
 20
5.04437
 30
0.000000
  70
    32
  0
VERTEX
  8
AM_VIS
  5
A34
 10
1.13259
 20
5.04833
 30
0.000000
  70
    32
  0
VERTEX
  8
AM_VIS
  5
A35
 10
1.14492
 20
5.05271
 30
0.000000
  70
    32
  0
VERTEX
  8
AM_VIS
  5
A36
 10
1.15693
 20
5.05753
 30
0.000000
  70
    32
  0
VERTEX
  8
AM_VIS
  5
A37
 10
1.16859
 20
5.06275
 30
0.000000
  70
    32
  0
VERTEX
  8
AM_VIS
  5
A38
 10
1.17988
 20
5.06837
 30
0.000000
  70
    32
  0
VERTEX
  8
AM_VIS
  5
A39
 10
1.19076
 20
5.07437
 30
0.000000
  70
    32
  0
VERTEX
  8
AM_VIS
  5
A3A
 10
1.20122
 20
5.08075
 30
0.000000
  70
    32
  0
VERTEX
  8
AM_VIS
  5
A3B
 10
1.21121
 20
5.08748
 30
0.000000
  70
    32
  0
VERTEX
  8
AM_VIS
  5
A3C
 10
1.22073
 20
5.09455
 30
0.000000
  70
    32
  0
VERTEX
  8
AM_VIS
  5
A3D
 10
1.22975
 20
5.10194
 30
0.000000
  70
    32
  0
VERTEX
  8
AM_VIS
  5
A3E
 10
1.23824
 20
5.10964
 30
0.000000
  70
    32
  0
VERTEX
  8
AM_VIS
  5
A3F
 10
1.24619
 20
5.11762
 30
0.000000
  70
    32
  0
VERTEX
  8
AM_VIS
  5
A40
 10
1.25358
 20
5.12586
 30
0.000000
  70
    32
  0
VERTEX
  8
AM_VIS
  5
A41
 10
1.26038
 20
5.13436
 30
0.000000
  70
    32
  0
VERTEX
  8
AM_VIS
  5
A42
 10
1.26659
 20
5.14308
 30
0.000000
  70
    32
  0
VERTEX
  8
AM_VIS
  5
A43
 10
1.27218
 20
5.15200
 30
0.000000
  70
    32
  0
VERTEX
  8
AM_VIS
  5
A44
 10
1.27715
 20
5.16111
 30
0.000000
  70
    32
  0
VERTEX
  8
AM_VIS
  5
A45
 10
1.28148
 20
5.17038
 30
0.000000
  70
    32
  0
VERTEX
  8
AM_VIS
  5
A46
 10
1.28516
 20
5.17978
 30
0.000000
  70
    32
  0
VERTEX
  8
AM_VIS
  5
A47
 10
1.28819
 20
5.18931
 30
0.000000
  70
    32
  0
VERTEX
  8
AM_VIS
  5
A48
 10
1.29055
 20
5.19892
 30
0.000000
  70
    32
  0
VERTEX
  8
AM_VIS
  5
A49
 10
1.29224
 20
5.20861
 30
0.000000
  70
    32
  0
VERTEX
  8
AM_VIS
  5
A4A
 10
1.29325
 20
5.21835
 30
0.000000
  70
    32
  0
VERTEX
  8
AM_VIS
  5
A4B
 10
1.29359
 20
5.22811
 30
0.000000
  70
    32
  0
VERTEX
  8
AM_VIS
  5
A4C
 10
1.29325
 20
5.23786
 30
0.000000
  70
    32
  0
VERTEX
  8
AM_VIS
  5
A4D
 10
1.29224
 20
5.24760
 30
0.000000
  70
    32
  0
VERTEX
  8
AM_VIS
  5
A4E
 10
1.29055
 20
5.25729
 30
0.000000
  70
    32
  0
VERTEX
  8
AM_VIS
  5
A4F
 10
1.28819
 20
5.26690
 30
0.000000
  70
    32
  0
VERTEX
  8
AM_VIS
  5
A50
 10
1.28516
 20
5.27643
 30
0.000000
  70
    32
  0
VERTEX
  8
AM_VIS
  5
A51
 10
1.28148
 20
5.28584
 30
0.000000
  70
    32
  0
VERTEX
  8
AM_VIS
  5
A52
 10
1.27715
 20
5.29510
 30
0.000000
  70
    32
  0
VERTEX
  8
AM_VIS
  5
A53
 10
1.27218
 20
5.30421
 30
0.000000
  70
    32
  0
VERTEX
  8
AM_VIS
  5
A54
 10
1.26659
 20
5.31314
 30
0.000000
  70
    32
  0
VERTEX
  8
AM_VIS
  5
A55
 10
1.26038
 20
5.32185
 30
0.000000
  70
    32
  0
VERTEX
  8
AM_VIS
  5
A56
 10
1.25358
 20
5.33035
 30
0.000000
  70
    32
  0
VERTEX
  8
AM_VIS
  5
A57
 10
1.24619
 20
5.33859
 30
0.000000
  70
    32
  0
VERTEX
  8
AM_VIS
  5
A58
 10
1.23824
 20
5.34657
 30
0.000000
  70
    32
  0
VERTEX
  8
AM_VIS
  5
A59
 10
1.22975
 20
5.35427
 30
0.000000
  70
    32
  0
VERTEX
  8
AM_VIS
  5
A5A
 10
1.22073
 20
5.36166
 30
0.000000
  70
    32
  0
VERTEX
  8
AM_VIS
  5
A5B
 10
1.21121
 20
5.36873
 30
0.000000
  70
    32
  0
VERTEX
  8
AM_VIS
  5
A5C
 10
1.20122
 20
5.37546
 30
0.000000
  70
    32
  0
VERTEX
  8
AM_VIS
  5
A5D
 10
1.19076
 20
5.38184
 30
0.000000
  70
    32
  0
VERTEX
  8
AM_VIS
  5
A5E
 10
1.17988
 20
5.38784
 30
0.000000
  70
    32
  0
VERTEX
  8
AM_VIS
  5
A5F
 10
1.16859
 20
5.39346
 30
0.000000
  70
    32
  0
VERTEX
  8
AM_VIS
  5
A60
 10
1.15693
 20
5.39869
 30
0.000000
  70
    32
  0
VERTEX
  8
AM_VIS
  5
A61
 10
1.14492
 20
5.40350
 30
0.000000
  70
    32
  0
VERTEX
  8
AM_VIS
  5
A62
 10
1.13259
 20
5.40789
 30
0.000000
  70
    32
  0
VERTEX
  8
AM_VIS
  5
A63
 10
1.11997
 20
5.41184
 30
0.000000
  70
    32
  0
VERTEX
  8
AM_VIS
  5
A64
 10
1.10709
 20
5.41535
 30
0.000000
  70
    32
  0
VERTEX
  8
AM_VIS
  5
A65
 10
1.09398
 20
5.41842
 30
0.000000
  70
    32
  0
VERTEX
  8
AM_VIS
  5
A66
 10
1.08068
 20
5.42102
 30
0.000000
  70
    32
  0
VERTEX
  8
AM_VIS
  5
A67
 10
1.06721
 20
5.42316
 30
0.000000
  70
    32
  0
VERTEX
  8
AM_VIS
  5
A68
 10
1.05361
 20
5.42483
 30
0.000000
  70
    32
  0
VERTEX
  8
AM_VIS
  5
A69
 10
1.03991
 20
5.42602
 30
0.000000
  70
    32
  0
VERTEX
  8
AM_VIS
  5
A6A
 10
1.02614
 20
5.42674
 30
0.000000
  70
    32
  0
VERTEX
  8
AM_VIS
  5
A6B
 10
1.01234
 20
5.42698
 30
0.000000
  70
    32
  0
VERTEX
  8
AM_VIS
  5
A6C
 10
0.998540
 20
5.42674
 30
0.000000
  70
    32
  0
VERTEX
  8
AM_VIS
  5
A6D
 10
0.984773
 20
5.42602
 30
0.000000
  70
    32
  0
VERTEX
  8
AM_VIS
  5
A6E
 10
0.971072
 20
5.42483
 30
0.000000
  70
    32
  0
VERTEX
  8
AM_VIS
  5
A6F
 10
0.957471
 20
5.42316
 30
0.000000
  70
    32
  0
VERTEX
  8
AM_VIS
  5
A70
 10
0.944002
 20
5.42102
 30
0.000000
  70
    32
  0
VERTEX
  8
AM_VIS
  5
A71
 10
0.930698
 20
5.41842
 30
0.000000
  70
    32
  0
VERTEX
  8
AM_VIS
  5
A72
 10
0.917590
 20
5.41535
 30
0.000000
  70
    32
  0
VERTEX
  8
AM_VIS
  5
A73
 10
0.904711
 20
5.41184
 30
0.000000
  70
    32
  0
VERTEX
  8
AM_VIS
  5
A74
 10
0.892090
 20
5.40789
 30
0.000000
  70
    32
  0
VERTEX
  8
AM_VIS
  5
A75
 10
0.879760
 20
5.40350
 30
0.000000
  70
    32
  0
VERTEX
  8
AM_VIS
  5
A76
 10
0.867749
 20
5.39869
 30
0.000000
  70
    32
  0
VERTEX
  8
AM_VIS
  5
A77
 10
0.856086
 20
5.39346
 30
0.000000
  70
    32
  0
VERTEX
  8
AM_VIS
  5
A78
 10
0.844800
 20
5.38784
 30
0.000000
  70
    32
  0
VERTEX
  8
AM_VIS
  5
A79
 10
0.833917
 20
5.38184
 30
0.000000
  70
    32
  0
VERTEX
  8
AM_VIS
  5
A7A
 10
0.823464
 20
5.37546
 30
0.000000
  70
    32
  0
VERTEX
  8
AM_VIS
  5
A7B
 10
0.813467
 20
5.36873
 30
0.000000
  70
    32
  0
VERTEX
  8
AM_VIS
  5
A7C
 10
0.803948
 20
5.36166
 30
0.000000
  70
    32
  0
VERTEX
  8
AM_VIS
  5
A7D
 10
0.794931
 20
5.35427
 30
0.000000
  70
    32
  0
VERTEX
  8
AM_VIS
  5
A7E
 10
0.786438
 20
5.34657
 30
0.000000
  70
    32
  0
VERTEX
  8
AM_VIS
  5
A7F
 10
0.778489
 20
5.33859
 30
0.000000
  70
    32
  0
VERTEX
  8
AM_VIS
  5
A80
 10
0.771104
 20
5.33035
 30
0.000000
  70
    32
  0
VERTEX
  8
AM_VIS
  5
A81
 10
0.764300
 20
5.32185
 30
0.000000
  70
    32
  0
VERTEX
  8
AM_VIS
  5
A82
 10
0.758093
 20
5.31314
 30
0.000000
  70
    32
  0
VERTEX
  8
AM_VIS
  5
A83
 10
0.752499
 20
5.30421
 30
0.000000
  70
    32
  0
VERTEX
  8
AM_VIS
  5
A84
 10
0.747531
 20
5.29510
 30
0.000000
  70
    32
  0
VERTEX
  8
AM_VIS
  5
A85
 10
0.743201
 20
5.28584
 30
0.000000
  70
    32
  0
VERTEX
  8
AM_VIS
  5
A86
 10
0.739519
 20
5.27643
 30
0.000000
  70
    32
  0
VERTEX
  8
AM_VIS
  5
A87
 10
0.736494
 20
5.26690
 30
0.000000
  70
    32
  0
VERTEX
  8
AM_VIS
  5
A88
 10
0.734134
 20
5.25729
 30
0.000000
  70
    32
  0
VERTEX
  8
AM_VIS
  5
A89
 10
0.732445
 20
5.24760
 30
0.000000
  70
    32
  0
VERTEX
  8
AM_VIS
  5
A8A
 10
0.731429
 20
5.23786
 30
0.000000
  70
    32
  0
VERTEX
  8
AM_VIS
  5
A8B
 10
0.731090
 20
5.22811
 30
0.000000
  70
    32
  0
VERTEX
  8
AM_VIS
  5
A8C
 10
0.731429
 20
5.21835
 30
0.000000
  70
    32
  0
VERTEX
  8
AM_VIS
  5
A8D
 10
0.732445
 20
5.20861
 30
0.000000
  70
    32
  0
VERTEX
  8
AM_VIS
  5
A8E
 10
0.734134
 20
5.19892
 30
0.000000
  70
    32
  0
VERTEX
  8
AM_VIS
  5
A8F
 10
0.736494
 20
5.18931
 30
0.000000
  70
    32
  0
VERTEX
  8
AM_VIS
  5
A90
 10
0.739519
 20
5.17978
 30
0.000000
  70
    32
  0
VERTEX
  8
AM_VIS
  5
A91
 10
0.743201
 20
5.17038
 30
0.000000
  70
    32
  0
VERTEX
  8
AM_VIS
  5
A92
 10
0.747531
 20
5.16111
 30
0.000000
  70
    32
  0
VERTEX
  8
AM_VIS
  5
A93
 10
0.752499
 20
5.15200
 30
0.000000
  70
    32
  0
VERTEX
  8
AM_VIS
  5
A94
 10
0.758093
 20
5.14308
 30
0.000000
  70
    32
  0
VERTEX
  8
AM_VIS
  5
A95
 10
0.764300
 20
5.13436
 30
0.000000
  70
    32
  0
VERTEX
  8
AM_VIS
  5
A96
 10
0.771104
 20
5.12586
 30
0.000000
  70
    32
  0
VERTEX
  8
AM_VIS
  5
A97
 10
0.778489
 20
5.11762
 30
0.000000
  70
    32
  0
VERTEX
  8
AM_VIS
  5
A98
 10
0.786438
 20
5.10964
 30
0.000000
  70
    32
  0
VERTEX
  8
AM_VIS
  5
A99
 10
0.794931
 20
5.10194
 30
0.000000
  70
    32
  0
VERTEX
  8
AM_VIS
  5
A9A
 10
0.803948
 20
5.09455
 30
0.000000
  70
    32
  0
VERTEX
  8
AM_VIS
  5
A9B
 10
0.813467
 20
5.08748
 30
0.000000
  70
    32
  0
VERTEX
  8
AM_VIS
  5
A9C
 10
0.823464
 20
5.08075
 30
0.000000
  70
    32
  0
VERTEX
  8
AM_VIS
  5
A9D
 10
0.833917
 20
5.07437
 30
0.000000
  70
    32
  0
VERTEX
  8
AM_VIS
  5
A9E
 10
0.844800
 20
5.06837
 30
0.000000
  70
    32
  0
VERTEX
  8
AM_VIS
  5
A9F
 10
0.856086
 20
5.06275
 30
0.000000
  70
    32
  0
VERTEX
  8
AM_VIS
  5
AA0
 10
0.867749
 20
5.05753
 30
0.000000
  70
    32
  0
VERTEX
  8
AM_VIS
  5
AA1
 10
0.879760
 20
5.05271
 30
0.000000
  70
    32
  0
VERTEX
  8
AM_VIS
  5
AA2
 10
0.892090
 20
5.04833
 30
0.000000
  70
    32
  0
VERTEX
  8
AM_VIS
  5
AA3
 10
0.904711
 20
5.04437
 30
0.000000
  70
    32
  0
VERTEX
  8
AM_VIS
  5
AA4
 10
0.917590
 20
5.04086
 30
0.000000
  70
    32
  0
VERTEX
  8
AM_VIS
  5
AA5
 10
0.930698
 20
5.03780
 30
0.000000
  70
    32
  0
VERTEX
  8
AM_VIS
  5
AA6
 10
0.944002
 20
5.03519
 30
0.000000
  70
    32
  0
VERTEX
  8
AM_VIS
  5
AA7
 10
0.957471
 20
5.03305
 30
0.000000
  70
    32
  0
VERTEX
  8
AM_VIS
  5
AA8
 10
0.971072
 20
5.03138
 30
0.000000
  70
    32
  0
VERTEX
  8
AM_VIS
  5
AA9
 10
0.984773
 20
5.03019
 30
0.000000
  70
    32
  0
VERTEX
  8
AM_VIS
  5
AAA
 10
0.998540
 20
5.02947
 30
0.000000
  70
    32
  0
VERTEX
  8
AM_VIS
  5
AAB
 10
1.01234
 20
5.02923
 30
0.000000
  70
    32
  0
SEQEND
  8
AM_VIS
  5
AAC
  0
LINE
  5
53
  8
AM_HID
 10
-0.3098244862986617
 20
4.6417005446945847
 30
0.0
 11
0.0276755137013387
 21
4.6417005446945847
 31
0.0
  0
LINE
  5
54
  8
AM_HID
 10
-0.3098244862986617
 20
4.1917005446945854
 30
0.0
 11
0.0276755137013387
 21
4.1917005446945854
 31
0.0
  0
LINE
  5
55
  8
AM_HID
 10
-0.3098244862986617
 20
3.066700544694585
 30
0.0
 11
0.0276755137013387
 21
3.066700544694585
 31
0.0
  0
LINE
  5
56
  8
AM_HID
 10
-0.3098244862986617
 20
2.6167005446945848
 30
0.0
 11
0.0276755137013387
 21
2.6167005446945848
 31
0.0
  0
LINE
  5
57
  8
AM_HID
 10
-0.3098244862986617
 20
6.2167005446945849
 30
0.0
 11
0.0276755137013387
 21
6.2167005446945849
 31
0.0
  0
LINE
  5
58
  8
AM_HID
 10
-0.3098244862986617
 20
5.7667005446945847
 30
0.0
 11
0.0276755137013387
 21
5.7667005446945847
 31
0.0
  0
LINE
  5
59
  8
AM_VIS
 10
-0.3098244862986617
 20
6.4417005446945854
 30
0.0
 11
0.0276755137013387
 21
6.4417005446945854
 31
0.0
  0
LINE
  5
5A
  8
AM_VIS
 10
-0.3098244862986617
 20
2.3917005446945852
 30
0.0
 11
0.0276755137013387
 21
2.3917005446945852
 31
0.0
  0
LINE
  5
5B
  8
AM_VIS
 10
0.0276755137013387
 20
5.5192005446945851
 30
0.0
 11
1.8276755137013381
 21
5.5192005446945851
 31
0.0
  0
LINE
  5
5C
  8
AM_VIS
 10
0.0276755137013387
 20
3.314200544694585
 30
0.0
 11
1.8276755137013381
 21
3.314200544694585
 31
0.0
  0
LINE
  5
5D
  8
AM_HID
 10
1.8276755137013381
 20
3.5392005446945851
 30
0.0
 11
0.0276755137013387
 21
3.5392005446945851
 31
0.0
  0
LINE
  5
5E
  8
AM_HID
 10
1.8276755137013381
 20
5.2942005446945846
 30
0.0
 11
0.0276755137013387
 21
5.2942005446945846
 31
0.0
  0
LINE
  5
5F
  8
AM_VIS
 10
1.2833058485887301
 20
5.2813936454446964
 30
0.0
 11
1.2956504400312561
 21
5.2500080184874696
 31
0.0
  0
LINE
  5
60
  8
AM_VIS
 10
0.7413747613374442
 20
5.2813936454446964
 30
0.0
 11
0.7290301698949167
 21
5.2500080184874696
 31
0.0
  0
LINE
  5
163
  8
0
 10
3.2779537070461489
 20
4.3604505446945847
 30
0.0
 11
3.2779537070461489
 21
1.334852073648287
 31
0.0
  0
LINE
  5
164
  8
0
 10
7.3279537070461487
 20
4.3604505446945847
 30
0.0
 11
7.3279537070461487
 21
1.334852073648287
 31
0.0
  0
LINE
  5
165
  8
0
 10
3.3904537070461491
 20
1.4968520736482871
 30
0.0
 11
4.9869090641890059
 21
1.4968520736482871
 31
0.0
  0
LINE
  5
166
  8
0
 10
7.2154537070461489
 20
1.4968520736482871
 30
0.0
 11
5.6189983499032916
 21
1.4968520736482871
 31
0.0
  0
SOLID
  5
167
  8
0
 10
3.3904537070461491
 20
1.5156020736482869
 30
0.0
 11
3.3904537070461491
 21
1.4781020736482859
 31
0.0
 12
3.2779537070461489
 22
1.4968520736482871
 32
0.0
 13
3.2779537070461489
 23
1.4968520736482871
 33
0.0
  0
SOLID
  5
168
  8
0
 10
7.2154537070461489
 20
1.5156020736482869
 30
0.0
 11
7.2154537070461489
 21
1.4781020736482859
 31
0.0
 12
7.3279537070461487
 22
1.4968520736482871
 32
0.0
 13
7.3279537070461487
 23
1.4968520736482871
 33
0.0
  0
INSERT
  5
169
  8
0
  2
*U4
 10
0.0
 20
0.0
 30
0.0
  0
INSERT
  5
180
  8
0
  2
*U8
 10
0.0
 20
0.0
 30
0.0
  0
INSERT
  5
181
  8
0
  2
*U9
 10
0.0
 20
0.0
 30
0.0
  0
ENDSEC
  0
EOF
