  0
SECTION
  2
HEADER
  9
$ACADVER
  1
AC1009
  9
$INSBASE
 10
0.0
 20
0.0
 30
0.0
  9
$EXTMIN
 10
37.044511458071682
 20
52.104535316043723
 30
0.0
  9
$EXTMAX
 10
45.554450976792779
 20
61.62450006323909
 30
0.0
  9
$LIMMIN
 10
0.0
 20
0.0
  9
$LIMMAX
 10
12.0
 20
9.0
  9
$ORTHOMODE
 70
     1
  9
$REGENMODE
 70
     1
  9
$FILLMODE
 70
     1
  9
$QTEXTMODE
 70
     0
  9
$MIRRTEXT
 70
     0
  9
$DRAGMODE
 70
     2
  9
$LTSCALE
 40
1.0
  9
$OSMODE
 70
    39
  9
$ATTMODE
 70
     1
  9
$TEXTSIZE
 40
0.0891389223585435
  9
$TRACEWID
 40
0.05
  9
$TEXTSTYLE
  7
STANDARD
  9
$CLAYER
  8
0
  9
$CELTYPE
  6
BYLAYER
  9
$CECOLOR
 62
   256
  9
$DIMSCALE
 40
1.0
  9
$DIMASZ
 40
0.18
  9
$DIMEXO
 40
0.0625
  9
$DIMDLI
 40
0.38
  9
$DIMRND
 40
0.0
  9
$DIMDLE
 40
0.0
  9
$DIMEXE
 40
0.18
  9
$DIMTP
 40
0.0
  9
$DIMTM
 40
0.0
  9
$DIMTXT
 40
0.18
  9
$DIMCEN
 40
0.09
  9
$DIMTSZ
 40
0.0
  9
$DIMTOL
 70
     0
  9
$DIMLIM
 70
     0
  9
$DIMTIH
 70
     1
  9
$DIMTOH
 70
     1
  9
$DIMSE1
 70
     0
  9
$DIMSE2
 70
     0
  9
$DIMTAD
 70
     0
  9
$DIMZIN
 70
     4
  9
$DIMBLK
  1

  9
$DIMASO
 70
     1
  9
$DIMSHO
 70
     1
  9
$DIMPOST
  1

  9
$DIMAPOST
  1

  9
$DIMALT
 70
     0
  9
$DIMALTD
 70
     2
  9
$DIMALTF
 40
25.399999999999999
  9
$DIMLFAC
 40
1.0
  9
$DIMTOFL
 70
     0
  9
$DIMTVP
 40
0.0
  9
$DIMTIX
 70
     0
  9
$DIMSOXD
 70
     0
  9
$DIMSAH
 70
     0
  9
$DIMBLK1
  1

  9
$DIMBLK2
  1

  9
$DIMSTYLE
  2
STANDARD
  9
$DIMCLRD
 70
     0
  9
$DIMCLRE
 70
     0
  9
$DIMCLRT
 70
     0
  9
$DIMTFAC
 40
1.0
  9
$DIMGAP
 40
0.09
  9
$LUNITS
 70
     2
  9
$LUPREC
 70
     4
  9
$SKETCHINC
 40
0.1
  9
$FILLETRAD
 40
0.03
  9
$AUNITS
 70
     0
  9
$AUPREC
 70
     0
  9
$MENU
  1
.
  9
$ELEVATION
 40
0.0
  9
$PELEVATION
 40
0.0
  9
$THICKNESS
 40
0.0
  9
$LIMCHECK
 70
     0
  9
$BLIPMODE
 70
     0
  9
$CHAMFERA
 40
0.5
  9
$CHAMFERB
 40
0.5
  9
$SKPOLY
 70
     0
  9
$TDCREATE
 40
2452053.3935915511
  9
$TDUPDATE
 40
2453031.6302881129
  9
$TDINDWG
 40
0.1735996759
  9
$TDUSRTIMER
 40
0.1735977083
  9
$USRTIMER
 70
     1
  9
$ANGBASE
 50
0.0
  9
$ANGDIR
 70
     0
  9
$PDMODE
 70
     0
  9
$PDSIZE
 40
0.0
  9
$PLINEWID
 40
0.0
  9
$COORDS
 70
     1
  9
$SPLFRAME
 70
     0
  9
$SPLINETYPE
 70
     6
  9
$SPLINESEGS
 70
     8
  9
$ATTDIA
 70
     0
  9
$ATTREQ
 70
     1
  9
$HANDLING
 70
 22529
  9
$HANDSEED
  5
3F7
  9
$SURFTAB1
 70
     6
  9
$SURFTAB2
 70
     6
  9
$SURFTYPE
 70
     6
  9
$SURFU
 70
     6
  9
$SURFV
 70
     6
  9
$UCSNAME
  2

  9
$UCSORG
 10
0.0
 20
0.0
 30
0.0
  9
$UCSXDIR
 10
1.0
 20
0.0
 30
0.0
  9
$UCSYDIR
 10
0.0
 20
1.0
 30
0.0
  9
$PUCSNAME
  2

  9
$PUCSORG
 10
0.0
 20
0.0
 30
0.0
  9
$PUCSXDIR
 10
1.0
 20
0.0
 30
0.0
  9
$PUCSYDIR
 10
0.0
 20
1.0
 30
0.0
  9
$USERI1
 70
     0
  9
$USERI2
 70
     0
  9
$USERI3
 70
     0
  9
$USERI4
 70
     0
  9
$USERI5
 70
     0
  9
$USERR1
 40
0.0
  9
$USERR2
 40
0.0
  9
$USERR3
 40
0.0
  9
$USERR4
 40
0.0
  9
$USERR5
 40
0.0
  9
$WORLDVIEW
 70
     1
  9
$SHADEDGE
 70
     3
  9
$SHADEDIF
 70
    70
  9
$TILEMODE
 70
     1
  9
$MAXACTVP
 70
    48
  9
$PLIMCHECK
 70
     0
  9
$PEXTMIN
 10
1.04775008441895
 20
0.7937500251559762
 30
0.0
  9
$PEXTMAX
 10
9.4297507597705472
 20
7.1437502264037827
 30
0.0
  9
$PLIMMIN
 10
-0.2812495194082185
 20
-0.2812499887361301
  9
$PLIMMAX
 10
10.71875024029589
 20
8.2187497709679782
  9
$UNITMODE
 70
     0
  9
$VISRETAIN
 70
     1
  9
$PLINEGEN
 70
     0
  9
$PSLTSCALE
 70
     1
  0
ENDSEC
  0
SECTION
  2
TABLES
  0
TABLE
  2
VPORT
 70
     3
  0
VPORT
  2
*ACTIVE
 70
     0
 10
0.0
 20
0.0
 11
1.0
 21
1.0
 12
42.096723383803408
 22
56.702775092799122
 13
0.0
 23
0.0
 14
0.5
 24
0.5
 15
0.5
 25
0.5
 16
0.0
 26
0.0
 36
1.0
 17
0.0
 27
0.0
 37
0.0
 40
12.31320920787322
 41
2.100352112676056
 42
50.0
 43
0.0
 44
0.0
 50
0.0
 51
0.0
 71
     8
 72
   100
 73
     1
 74
     2
 75
     0
 76
     0
 77
     0
 78
     0
  0
ENDTAB
  0
TABLE
  2
LTYPE
 70
     1
  0
LTYPE
  2
CONTINUOUS
 70
     0
  3
Solid line
 72
    65
 73
     0
 40
0.0
  0
ENDTAB
  0
TABLE
  2
LAYER
 70
     2
  0
LAYER
  2
0
 70
     0
 62
     7
  6
CONTINUOUS
  0
LAYER
  2
DEFPOINTS
 70
     0
 62
     7
  6
CONTINUOUS
  0
ENDTAB
  0
TABLE
  2
STYLE
 70
     2
  0
STYLE
  2
STANDARD
 70
     0
 40
0.0
 41
1.0
 50
0.0
 71
     0
 42
0.0891389223585435
  3
txt
  4

  0
STYLE
  2
DAVES
 70
     0
 40
2.0
 41
0.85
 50
0.0
 71
     0
 42
2.0
  3
txt
  4

  0
ENDTAB
  0
TABLE
  2
VIEW
 70
     0
  0
ENDTAB
  0
TABLE
  2
UCS
 70
     0
  0
ENDTAB
  0
TABLE
  2
APPID
 70
     6
  0
APPID
  2
ACAD
 70
     0
  0
APPID
  2
AVE_RENDER
 70
     0
  0
APPID
  2
AVE_FINISH
 70
     0
  0
APPID
  2
CONTENTBLOCKDESCRIPTION
 70
     0
  0
APPID
  2
CONTENTTABDATA
 70
     0
  0
APPID
  2
CONTENTCURRENTTAB
 70
     0
  0
ENDTAB
  0
TABLE
  2
DIMSTYLE
 70
     1
  0
DIMSTYLE
  2
STANDARD
 70
     0
  3

  4

  5

  6

  7

 40
1.0
 41
0.18
 42
0.0625
 43
0.38
 44
0.18
 45
0.0
 46
0.0
 47
0.0
 48
0.0
140
0.18
141
0.09
142
0.0
143
25.399999999999999
144
1.0
145
0.0
146
1.0
147
0.09
 71
     0
 72
     0
 73
     1
 74
     1
 75
     0
 76
     0
 77
     0
 78
     0
170
     0
171
     2
172
     0
173
     0
174
     0
175
     0
176
     0
177
     0
178
     0
  0
ENDTAB
  0
ENDSEC
  0
SECTION
  2
BLOCKS
  0
BLOCK
  8
0
  2
$MODEL_SPACE
 70
     0
 10
0.0
 20
0.0
 30
0.0
  3
$MODEL_SPACE
  1

  0
ENDBLK
  5
21
  8
0
  0
BLOCK
 67
     1
  8
0
  2
$PAPER_SPACE
 70
     0
 10
0.0
 20
0.0
 30
0.0
  3
$PAPER_SPACE
  1

  0
ENDBLK
  5
1D
 67
     1
  8
0
  0
BLOCK
  8
0
  2
*D3
 70
     1
 10
0.0
 20
0.0
 30
0.0
  3
*D3
  1

  0
LINE
  5
360
  8
0
 62
     0
 10
39.13575456815839
 20
59.480355850962397
 30
0.0
 11
39.13575456815839
 21
59.240126700516747
 31
0.0
  0
LINE
  5
361
  8
0
 62
     0
 10
38.081570889419631
 20
59.480355850962397
 30
0.0
 11
38.081570889419631
 21
59.240126700516747
 31
0.0
  0
LINE
  5
362
  8
0
 62
     0
 10
39.315754568158383
 20
59.420126700516747
 30
0.0
 11
39.495754568158389
 21
59.420126700516747
 31
0.0
  0
LINE
  5
363
  8
0
 62
     0
 10
37.901570889419631
 20
59.420126700516747
 30
0.0
 11
37.721570889419631
 21
59.420126700516747
 31
0.0
  0
SOLID
  5
364
  8
0
 62
     0
 10
39.315754568158383
 20
59.450126700516748
 30
0.0
 11
39.315754568158383
 21
59.390126700516753
 31
0.0
 12
39.13575456815839
 22
59.420126700516747
 32
0.0
 13
39.13575456815839
 23
59.420126700516747
 33
0.0
  0
SOLID
  5
365
  8
0
 62
     0
 10
37.901570889419631
 20
59.450126700516748
 30
0.0
 11
37.901570889419631
 21
59.390126700516753
 31
0.0
 12
38.081570889419631
 22
59.420126700516747
 32
0.0
 13
38.081570889419631
 23
59.420126700516747
 33
0.0
  0
TEXT
  5
366
  8
0
 62
     0
 10
38.383662728789012
 20
59.33012670051675
 30
0.0
 40
0.18
  1
1.05
  0
POINT
  5
367
  8
DEFPOINTS
 62
     0
 10
39.13575456815839
 20
59.542855850962397
 30
0.0
  0
POINT
  5
368
  8
DEFPOINTS
 62
     0
 10
38.081570889419631
 20
59.542855850962397
 30
0.0
  0
POINT
  5
369
  8
DEFPOINTS
 62
     0
 10
38.081570889419631
 20
59.420126700516747
 30
0.0
  0
ENDBLK
  5
316
  8
0
  0
BLOCK
  8
0
  2
*D4
 70
     1
 10
0.0
 20
0.0
 30
0.0
  3
*D4
  1

  0
LINE
  5
36A
  8
0
 62
     0
 10
38.886952809503789
 20
60.840030623900461
 30
0.0
 11
38.886952809503789
 21
60.441738383968193
 31
0.0
  0
LINE
  5
36B
  8
0
 62
     0
 10
38.33435179096174
 20
60.840030623900461
 30
0.0
 11
38.33435179096174
 21
60.441738383968193
 31
0.0
  0
LINE
  5
36C
  8
0
 62
     0
 10
38.706952809503782
 20
60.6217383839682
 30
0.0
 11
38.51435179096174
 21
60.6217383839682
 31
0.0
  0
LINE
  5
36D
  8
0
 62
     0
 10
38.33435179096174
 20
60.6217383839682
 30
0.0
 11
38.154351790961741
 21
60.6217383839682
 31
0.0
  0
SOLID
  5
36E
  8
0
 62
     0
 10
38.706952809503782
 20
60.651738383968201
 30
0.0
 11
38.706952809503782
 21
60.591738383968192
 31
0.0
 12
38.886952809503789
 22
60.6217383839682
 32
0.0
 13
38.886952809503789
 23
60.6217383839682
 33
0.0
  0
SOLID
  5
36F
  8
0
 62
     0
 10
38.51435179096174
 20
60.651738383968201
 30
0.0
 11
38.51435179096174
 21
60.591738383968192
 31
0.0
 12
38.33435179096174
 22
60.6217383839682
 32
0.0
 13
38.33435179096174
 23
60.6217383839682
 33
0.0
  0
TEXT
  5
370
  8
0
 62
     0
 10
37.704351790961731
 20
60.53173838396819
 30
0.0
 40
0.18
  1
.55
  0
POINT
  5
371
  8
DEFPOINTS
 62
     0
 10
38.886952809503789
 20
60.902530623900468
 30
0.0
  0
POINT
  5
372
  8
DEFPOINTS
 62
     0
 10
38.33435179096174
 20
60.902530623900468
 30
0.0
  0
POINT
  5
373
  8
DEFPOINTS
 62
     0
 10
38.33435179096174
 20
60.6217383839682
 30
0.0
  0
ENDBLK
  5
323
  8
0
  0
BLOCK
  8
0
  2
*D5
 70
     1
 10
0.0
 20
0.0
 30
0.0
  3
*D5
  1

  0
LINE
  5
3A1
  8
0
 62
     0
 10
37.735652300232779
 20
55.617647635468977
 30
0.0
 11
37.735652300232779
 21
52.358636094657982
 31
0.0
  0
LINE
  5
3A2
  8
0
 62
     0
 10
43.806668535407873
 20
55.62238271436572
 30
0.0
 11
43.806668535407873
 21
52.358636094657982
 31
0.0
  0
LINE
  5
3A3
  8
0
 62
     0
 10
37.915652300232779
 20
52.538636094657988
 30
0.0
 11
40.42616041782032
 21
52.538636094657988
 31
0.0
  0
LINE
  5
3A4
  8
0
 62
     0
 10
43.62666853540788
 20
52.538636094657988
 30
0.0
 11
41.116160417820318
 21
52.538636094657988
 31
0.0
  0
SOLID
  5
3A5
  8
0
 62
     0
 10
37.915652300232779
 20
52.56863609465799
 30
0.0
 11
37.915652300232779
 21
52.508636094657987
 31
0.0
 12
37.735652300232779
 22
52.538636094657988
 32
0.0
 13
37.735652300232779
 23
52.538636094657988
 33
0.0
  0
SOLID
  5
3A6
  8
0
 62
     0
 10
43.62666853540788
 20
52.56863609465799
 30
0.0
 11
43.62666853540788
 21
52.508636094657987
 31
0.0
 12
43.806668535407873
 22
52.538636094657988
 32
0.0
 13
43.806668535407873
 23
52.538636094657988
 33
0.0
  0
TEXT
  5
3A7
  8
0
 62
     0
 10
40.516160417820323
 20
52.448636094657992
 30
0.0
 40
0.18
  1
6.07
  0
POINT
  5
3A8
  8
DEFPOINTS
 62
     0
 10
37.735652300232779
 20
55.680147635468977
 30
0.0
  0
POINT
  5
3A9
  8
DEFPOINTS
 62
     0
 10
43.806668535407873
 20
55.68488271436572
 30
0.0
  0
POINT
  5
3AA
  8
DEFPOINTS
 62
     0
 10
43.806668535407873
 20
52.538636094657988
 30
0.0
  0
ENDBLK
  5
388
  8
0
  0
BLOCK
  8
0
  2
*D6
 70
     1
 10
0.0
 20
0.0
 30
0.0
  3
*D6
  1

  0
LINE
  5
397
  8
0
 62
     0
 10
41.01166993456637
 20
52.782769644532863
 30
0.0
 11
45.479450976792783
 21
52.782769644532863
 31
0.0
  0
LINE
  5
398
  8
0
 62
     0
 10
42.102565480869252
 20
57.381799714042778
 30
0.0
 11
45.479450976792783
 21
57.381799714042778
 31
0.0
  0
LINE
  5
399
  8
0
 62
     0
 10
45.299450976792777
 20
52.962769644532862
 30
0.0
 11
45.299450976792777
 21
54.902284679287817
 31
0.0
  0
LINE
  5
39A
  8
0
 62
     0
 10
45.299450976792777
 20
57.201799714042778
 30
0.0
 11
45.299450976792777
 21
55.262284679287824
 31
0.0
  0
SOLID
  5
39B
  8
0
 62
     0
 10
45.269450976792783
 20
52.962769644532862
 30
0.0
 11
45.329450976792778
 21
52.962769644532862
 31
0.0
 12
45.299450976792777
 22
52.782769644532863
 32
0.0
 13
45.299450976792777
 23
52.782769644532863
 33
0.0
  0
SOLID
  5
39C
  8
0
 62
     0
 10
45.269450976792783
 20
57.201799714042778
 30
0.0
 11
45.329450976792778
 21
57.201799714042778
 31
0.0
 12
45.299450976792777
 22
57.381799714042778
 32
0.0
 13
45.299450976792777
 23
57.381799714042778
 33
0.0
  0
TEXT
  5
39D
  8
0
 62
     0
 10
45.04445097679276
 20
54.992284679287827
 30
0.0
 40
0.18
  1
4.60
  0
POINT
  5
39E
  8
DEFPOINTS
 62
     0
 10
40.94916993456637
 20
52.782769644532863
 30
0.0
  0
POINT
  5
39F
  8
DEFPOINTS
 62
     0
 10
42.040065480869252
 20
57.381799714042778
 30
0.0
  0
POINT
  5
3A0
  8
DEFPOINTS
 62
     0
 10
45.299450976792777
 20
57.381799714042778
 30
0.0
  0
ENDBLK
  5
396
  8
0
  0
ENDSEC
  0
SECTION
  2
ENTITIES
  0
ARC
  5
C7
  8
0
 10
41.949169934566271
 20
55.513538875302103
 30
0.0
 40
1.8653846153846141
 50
5.2703000437025507
 51
195.92290542476891
  0
LINE
  5
C9
  8
0
 10
37.737631473027797
 20
58.552000413763629
 30
0.0
 11
37.737631473027797
 21
56.064794002474663
 31
0.0
  0
LINE
  5
CA
  8
0
 10
37.737631473027797
 20
58.552000413763629
 30
0.0
 11
39.487631473027797
 21
58.552000413763629
 31
0.0
  0
ARC
  5
DB
  8
0
 10
41.041415665037633
 20
55.549783548874018
 30
0.0
 40
2.7685511051102969
 50
268.09060073435262
 51
2.797018015095269
  0
ARC
  5
DD
  8
0
 10
40.939448695960493
 20
55.985552533977298
 30
0.0
 40
3.20279764259281
 50
178.58228163526721
 51
270.17390633475071
  0
ARC
  5
DE
  8
0
 10
40.939448695960493
 20
55.985552533977298
 30
0.0
 40
3.20279764259281
 50
178.54338058408109
 51
178.58228163526701
  0
LINE
  5
E0
  8
0
 10
39.487631473027797
 20
58.552000413763629
 30
0.0
 11
39.487631473027797
 21
56.330846567609782
 31
0.0
  0
ARC
  5
E1
  8
0
 10
41.786364147374393
 20
56.560011611421743
 30
0.0
 40
2.3101273829410278
 50
185.69311494844101
 51
223.35518744552809
  0
ARC
  5
E2
  8
0
 10
40.127617559620838
 20
54.993868640988786
 30
0.0
 40
0.0288461538461539
 50
223.3551874455286
 51
15.92290542477495
  0
LINE
  5
374
  8
0
 10
39.117876524200497
 20
58.552000413763629
 30
0.0
 11
39.117876524200497
 21
56.330846567609782
 31
0.0
  0
LINE
  5
375
  8
0
 10
38.107386421855097
 20
58.552000413763629
 30
0.0
 11
38.107386421855097
 21
56.064794002474663
 31
0.0
  0
ARC
  5
376
  8
0
 10
40.939448695960493
 20
55.985552533977298
 30
0.0
 40
2.8330426937655102
 50
178.58228163526721
 51
270.17390633475071
  0
ARC
  5
377
  8
0
 10
41.786364147374393
 20
56.560011611421743
 30
0.0
 40
2.679882331768328
 50
185.69311494844101
 51
223.35518744552809
  0
ARC
  5
378
  8
0
 10
41.949169934566271
 20
55.513538875302103
 30
0.0
 40
1.495629666557315
 50
5.2703000437025507
 51
195.92290542476891
  0
ARC
  5
379
  8
0
 10
41.041415665037633
 20
55.549783548874018
 30
0.0
 40
2.3987961562829971
 50
268.09060073435262
 51
2.797018015095269
  0
ARC
  5
37A
  8
0
 10
40.127617559620838
 20
54.993868640988786
 30
0.0
 40
0.3986011026734536
 50
223.3551874455286
 51
15.92290542477495
  0
VIEWPORT
  5
2E
 67
     1
  8
0
 10
5.2187503604438348
 20
3.968749891115924
 30
0.0
 40
17.157696883371148
 41
8.9929997457669462
 68
     1
 69
     1
1001
ACAD
1000
MVIEW
1002
{
1070
    16
1010
0.0
1020
0.0
1030
0.0
1010
0.0
1020
0.0
1030
1.0
1040
0.0
1040
8.9929997457669462
1040
5.2187503604438348
1040
3.968749891115924
1040
50.0
1040
0.0
1040
0.0
1070
     0
1070
   100
1070
     1
1070
     1
1070
     0
1070
     0
1070
     0
1070
     0
1040
0.0
1040
0.0
1040
0.0
1040
0.5
1040
0.5
1040
0.5
1040
0.5
1070
     0
1002
{
1002
}
1002
}
  0
VIEWPORT
  5
30
 67
     1
  8
0
 10
5.2387504220947489
 20
3.968750125779879
 30
0.0
 40
8.3820006753515983
 41
6.3500002012478074
 68
     2
 69
     2
1001
ACAD
1000
MVIEW
1002
{
1070
    16
1010
0.0
1020
0.0
1030
0.0
1010
0.0
1020
0.0
1030
1.0
1040
0.0
1040
9.2454283402629365
1040
6.0
1040
4.5
1040
50.0
1040
0.0
1040
0.0
1070
     0
1070
   100
1070
     1
1070
     3
1070
     0
1070
     0
1070
     0
1070
     0
1040
0.0
1040
0.0
1040
0.0
1040
0.5
1040
0.5
1040
0.5
1040
0.5
1070
     0
1002
{
1002
}
1002
}
  0
ENDSEC
  0
EOF
