  0
SECTION
  2
HEADER
  9
$ACADVER
  1
AC1009
  9
$INSBASE
 10
-5.8397469801784867
 20
0.1684136008177264
 30
0.0
  9
$EXTMIN
 10
-8.0272469801784876
 20
-4.0615987115406806
 30
-0.0000000000000002
  9
$EXTMAX
 10
17.75454777787818
 20
6.656452525056598
 30
0.5600000000000002
  9
$LIMMIN
 10
0.0
 20
0.0
  9
$LIMMAX
 10
12.0
 20
9.0
  9
$ORTHOMODE
 70
     1
  9
$REGENMODE
 70
     0
  9
$FILLMODE
 70
     1
  9
$QTEXTMODE
 70
     0
  9
$MIRRTEXT
 70
     0
  9
$DRAGMODE
 70
     2
  9
$LTSCALE
 40
0.5
  9
$OSMODE
 70
    55
  9
$ATTMODE
 70
     1
  9
$TEXTSIZE
 40
0.2
  9
$TRACEWID
 40
0.05
  9
$TEXTSTYLE
  7
STANDARD
  9
$CLAYER
  8
0
  9
$CELTYPE
  6
BYLAYER
  9
$CECOLOR
 62
   256
  9
$DIMSCALE
 40
0.0
  9
$DIMASZ
 40
0.125
  9
$DIMEXO
 40
0.0625
  9
$DIMDLI
 40
0.375
  9
$DIMRND
 40
0.0
  9
$DIMDLE
 40
0.0
  9
$DIMEXE
 40
0.1875
  9
$DIMTP
 40
0.0
  9
$DIMTM
 40
0.0
  9
$DIMTXT
 40
0.09375
  9
$DIMCEN
 40
-0.125
  9
$DIMTSZ
 40
0.0
  9
$DIMTOL
 70
     0
  9
$DIMLIM
 70
     0
  9
$DIMTIH
 70
     0
  9
$DIMTOH
 70
     0
  9
$DIMSE1
 70
     0
  9
$DIMSE2
 70
     0
  9
$DIMTAD
 70
     0
  9
$DIMZIN
 70
     3
  9
$DIMBLK
  1

  9
$DIMASO
 70
     0
  9
$DIMSHO
 70
     1
  9
$DIMPOST
  1

  9
$DIMAPOST
  1

  9
$DIMALT
 70
     0
  9
$DIMALTD
 70
     2
  9
$DIMALTF
 40
25.399999999999999
  9
$DIMLFAC
 40
1.0
  9
$DIMTOFL
 70
     1
  9
$DIMTVP
 40
0.0
  9
$DIMTIX
 70
     0
  9
$DIMSOXD
 70
     0
  9
$DIMSAH
 70
     1
  9
$DIMBLK1
  1
DOT
  9
$DIMBLK2
  1
DOT
  9
$DIMSTYLE
  2
STANDARD
  9
$DIMCLRD
 70
     0
  9
$DIMCLRE
 70
     0
  9
$DIMCLRT
 70
     0
  9
$DIMTFAC
 40
1.0
  9
$DIMGAP
 40
0.09
  9
$LUNITS
 70
     4
  9
$LUPREC
 70
     4
  9
$SKETCHINC
 40
0.1
  9
$FILLETRAD
 40
0.0
  9
$AUNITS
 70
     0
  9
$AUPREC
 70
     4
  9
$MENU
  1
.
  9
$ELEVATION
 40
0.5600000000000002
  9
$PELEVATION
 40
0.0
  9
$THICKNESS
 40
0.0
  9
$LIMCHECK
 70
     0
  9
$BLIPMODE
 70
     0
  9
$CHAMFERA
 40
0.125
  9
$CHAMFERB
 40
0.5
  9
$SKPOLY
 70
     0
  9
$TDCREATE
 40
2451086.9526012731
  9
$TDUPDATE
 40
2453913.5774175348
  9
$TDINDWG
 40
0.0839147801
  9
$TDUSRTIMER
 40
0.0839147801
  9
$USRTIMER
 70
     1
  9
$ANGBASE
 50
0.0
  9
$ANGDIR
 70
     0
  9
$PDMODE
 70
    34
  9
$PDSIZE
 40
3.0
  9
$PLINEWID
 40
0.0
  9
$COORDS
 70
     1
  9
$SPLFRAME
 70
     0
  9
$SPLINETYPE
 70
     6
  9
$SPLINESEGS
 70
     8
  9
$ATTDIA
 70
     0
  9
$ATTREQ
 70
     1
  9
$HANDLING
 70
     1
  9
$HANDSEED
  5
511
  9
$SURFTAB1
 70
     6
  9
$SURFTAB2
 70
     6
  9
$SURFTYPE
 70
     6
  9
$SURFU
 70
     6
  9
$SURFV
 70
     6
  9
$UCSNAME
  2

  9
$UCSORG
 10
0.0
 20
0.0
 30
0.0
  9
$UCSXDIR
 10
1.0
 20
0.0
 30
0.0
  9
$UCSYDIR
 10
0.0
 20
1.0
 30
0.0
  9
$PUCSNAME
  2

  9
$PUCSORG
 10
0.0
 20
0.0
 30
0.0
  9
$PUCSXDIR
 10
1.0
 20
0.0
 30
0.0
  9
$PUCSYDIR
 10
0.0
 20
1.0
 30
0.0
  9
$USERI1
 70
     0
  9
$USERI2
 70
     0
  9
$USERI3
 70
     0
  9
$USERI4
 70
     0
  9
$USERI5
 70
     0
  9
$USERR1
 40
0.0
  9
$USERR2
 40
0.0
  9
$USERR3
 40
0.0
  9
$USERR4
 40
0.0
  9
$USERR5
 40
0.0
  9
$WORLDVIEW
 70
     1
  9
$SHADEDGE
 70
     3
  9
$SHADEDIF
 70
    70
  9
$TILEMODE
 70
     1
  9
$MAXACTVP
 70
    48
  9
$PLIMCHECK
 70
     0
  9
$PEXTMIN
 10
8.5933260996818497
 20
1.966452525056597
 30
0.0
  9
$PEXTMAX
 10
17.75454777787818
 20
6.656452525056598
 30
0.0
  9
$PLIMMIN
 10
0.0
 20
0.0
  9
$PLIMMAX
 10
12.0
 20
9.0
  9
$UNITMODE
 70
     0
  9
$VISRETAIN
 70
     1
  9
$PLINEGEN
 70
     0
  9
$PSLTSCALE
 70
     1
  0
ENDSEC
  0
SECTION
  2
TABLES
  0
TABLE
  2
VPORT
 70
     2
  0
VPORT
  2
*ACTIVE
 70
     0
 10
0.0
 20
0.0
 11
1.0
 21
1.0
 12
0.513738900555401
 22
-1.3840190195392541
 13
0.0
 23
0.0
 14
0.5
 24
0.5
 15
0.5
 25
0.5
 16
0.0
 26
-0.0000000000000001
 36
0.9999999999999994
 17
0.0
 27
0.0
 37
0.0
 40
8.1945346823212866
 41
2.6243523316062172
 42
50.0
 43
0.0
 44
0.0
 50
0.0
 51
0.0
 71
     0
 72
   100
 73
     1
 74
     1
 75
     0
 76
     0
 77
     0
 78
     0
  0
ENDTAB
  0
TABLE
  2
LTYPE
 70
    17
  0
LTYPE
  2
CONTINUOUS
 70
     0
  3
Solid line
 72
    65
 73
     0
 40
0.0
  0
LTYPE
  2
HIDDEN
 70
     0
  3
__ __ __ __ __ __ __ __ __ __ __ __ __ __ __ __
 72
    65
 73
     2
 40
0.375
 49
0.25
 49
-0.125
  0
LTYPE
  2
PHANTOM2
 70
     0
  3
___ _ _ ___ _ _ ___ _ _ ___ _ _ ___ _ _ ___ _ _
 72
    65
 73
     6
 40
1.25
 49
0.625
 49
-0.125
 49
0.125
 49
-0.125
 49
0.125
 49
-0.125
  0
LTYPE
  2
CENTER
 70
     0
  3
____ _ ____ _ ____ _ ____ _ ____ _ ____ _ ____ 
 72
    65
 73
     4
 40
2.0
 49
1.25
 49
-0.25
 49
0.25
 49
-0.25
  0
LTYPE
  2
ACJISTGB
 70
     0
  3
__ . . __ . .
 72
    65
 73
     6
 40
9.0
 49
4.0
 49
-1.0
 49
1.0
 49
-1.0
 49
1.0
 49
-1.0
  0
LTYPE
  2
ACJISTGL
 70
     0
  3
_ _ _ _ _
 72
    65
 73
     2
 40
3.0
 49
2.0
 49
-1.0
  0
LTYPE
  2
ACANSTGB
 70
     0
  3
__ . . __ . .
 72
    65
 73
     6
 40
0.35433070866
 49
0.15748031496
 49
-0.03937007874
 49
0.03937007874
 49
-0.03937007874
 49
0.03937007874
 49
-0.03937007874
  0
LTYPE
  2
ACANSTGL
 70
     0
  3
_ _ _ _ _
 72
    65
 73
     2
 40
0.11811023622
 49
0.07874015748
 49
-0.03937007874
  0
LTYPE
  2
ACBSIWELD
 70
     0
  3
_ _ _ _ _
 72
    65
 73
     2
 40
2.0
 49
2.0
 49
-1.0
  0
LTYPE
  2
ACBSITGB
 70
     0
  3
__ . . __ . .
 72
    65
 73
     6
 40
9.0
 49
4.0
 49
-1.0
 49
1.0
 49
-1.0
 49
1.0
 49
-1.0
  0
LTYPE
  2
ACBSITGL
 70
     0
  3
_ _ _ _ _
 72
    65
 73
     2
 40
3.0
 49
2.0
 49
-1.0
  0
LTYPE
  2
ACDINWELD
 70
     0
  3
_ _ _ _ _
 72
    65
 73
     2
 40
2.0
 49
2.0
 49
-1.0
  0
LTYPE
  2
ACDINTGB
 70
     0
  3
__ . . __ . .
 72
    65
 73
     6
 40
9.0
 49
4.0
 49
-1.0
 49
1.0
 49
-1.0
 49
1.0
 49
-1.0
  0
LTYPE
  2
ACDINTGL
 70
     0
  3
_ _ _ _ _
 72
    65
 73
     2
 40
3.0
 49
2.0
 49
-1.0
  0
LTYPE
  2
ACISOWELD
 70
     0
  3
_ _ _ _ _
 72
    65
 73
     2
 40
2.0
 49
2.0
 49
-1.0
  0
LTYPE
  2
ACISOTGB
 70
     0
  3
__ . . __ . .
 72
    65
 73
     6
 40
9.0
 49
4.0
 49
-1.0
 49
1.0
 49
-1.0
 49
1.0
 49
-1.0
  0
LTYPE
  2
ACISOTGL
 70
     0
  3
_ _ _ _ _
 72
    65
 73
     2
 40
3.0
 49
2.0
 49
-1.0
  0
ENDTAB
  0
TABLE
  2
LAYER
 70
    10
  0
LAYER
  2
0
 70
     0
 62
     7
  6
CONTINUOUS
  0
LAYER
  2
AM_VIEWS
 70
     0
 62
    -7
  6
CONTINUOUS
  0
LAYER
  2
AM_VIS
 70
     0
 62
     7
  6
CONTINUOUS
  0
LAYER
  2
AM_HID
 70
     0
 62
     7
  6
HIDDEN
  0
LAYER
  2
AM_BM
 70
     0
 62
     7
  6
CONTINUOUS
  0
LAYER
  2
AM_BL
 70
     0
 62
     7
  6
CONTINUOUS
  0
LAYER
  2
AM_PARDIM
 70
     0
 62
     3
  6
CONTINUOUS
  0
LAYER
  2
AM_REFDIM
 70
     0
 62
     4
  6
CONTINUOUS
  0
LAYER
  2
KEE70
 70
     0
 62
     7
  6
CONTINUOUS
  0
LAYER
  2
DIMKEE
 70
     0
 62
     7
  6
CONTINUOUS
  0
ENDTAB
  0
TABLE
  2
STYLE
 70
    11
  0
STYLE
  2
STANDARD
 70
     0
 40
0.0
 41
1.0
 50
0.0
 71
     0
 42
0.2
  3
txt
  4

  0
STYLE
  2
ACJISTS
 70
     0
 40
1.0
 41
1.0
 50
0.0
 71
     0
 42
0.2
  3
isocp.shx
  4
bigfont.shx
  0
STYLE
  2
ACJISGDT
 70
     0
 40
0.0
 41
1.0
 50
0.0
 71
     0
 42
0.2
  3
amgdt.shx
  4

  0
STYLE
  2
ACANSTSB
 70
     0
 40
1.0
 41
1.0
 50
0.0
 71
     0
 42
0.2
  3
romans.shx
  4

  0
STYLE
  2
ACANSGDT
 70
     0
 40
0.0
 41
1.0
 50
0.0
 71
     0
 42
0.2
  3
amgdt.shx
  4

  0
STYLE
  2
ACBSITS
 70
     0
 40
1.0
 41
1.0
 50
0.0
 71
     0
 42
0.2
  3
isocp.shx
  4

  0
STYLE
  2
ACBSIGDT
 70
     0
 40
0.0
 41
1.0
 50
0.0
 71
     0
 42
0.2
  3
amgdt.shx
  4

  0
STYLE
  2
ACDINTS
 70
     0
 40
1.0
 41
1.0
 50
0.0
 71
     0
 42
0.2
  3
isocp.shx
  4

  0
STYLE
  2
ACDINGDT
 70
     0
 40
0.0
 41
1.0
 50
0.0
 71
     0
 42
0.2
  3
amgdt.shx
  4

  0
STYLE
  2
ACISOTS
 70
     0
 40
1.0
 41
1.0
 50
0.0
 71
     0
 42
0.2
  3
isocp.shx
  4

  0
STYLE
  2
ACISOGDT
 70
     0
 40
0.0
 41
1.0
 50
0.0
 71
     0
 42
0.2
  3
amgdt.shx
  4

  0
ENDTAB
  0
TABLE
  2
VIEW
 70
     0
  0
ENDTAB
  0
TABLE
  2
UCS
 70
     0
  0
ENDTAB
  0
TABLE
  2
APPID
 70
     5
  0
APPID
  2
ACAD
 70
     0
  0
APPID
  2
MCAD_NO_VIS
 70
     0
  0
APPID
  2
AD_DRAW
 70
     0
  0
APPID
  2
DESIGNERASSEMBLIES
 70
     0
  0
APPID
  2
ASURF_PCURVE_APPNAME
 70
     0
  0
ENDTAB
  0
TABLE
  2
DIMSTYLE
 70
     1
  0
DIMSTYLE
  2
STANDARD
 70
     0
  3

  4

  5

  6

  7

 40
1.0
 41
0.18
 42
0.0625
 43
0.38
 44
0.18
 45
0.0
 46
0.0
 47
0.0
 48
0.0
140
0.18
141
0.09
142
0.0
143
25.399999999999999
144
1.0
145
0.0
146
1.0
147
0.09
 71
     0
 72
     0
 73
     1
 74
     1
 75
     0
 76
     0
 77
     0
 78
     0
170
     0
171
     2
172
     0
173
     0
174
     0
175
     0
176
     0
177
     0
178
     0
  0
ENDTAB
  0
ENDSEC
  0
SECTION
  2
BLOCKS
  0
BLOCK
  8
0
  2
$MODEL_SPACE
 70
     0
 10
0.0
 20
0.0
 30
0.0
  3
$MODEL_SPACE
  1

  0
ENDBLK
  5
7
  8
0
  0
BLOCK
 67
     1
  8
0
  2
$PAPER_SPACE
 70
     0
 10
0.0
 20
0.0
 30
0.0
  3
$PAPER_SPACE
  1

  0
ENDBLK
  5
A
 67
     1
  8
0
  0
BLOCK
  8
0
  2
*U0
 70
     1
 10
0.0
 20
0.0
 30
0.0
  3
*U0
  1

  0
ENDBLK
  5
FC
  8
0
  0
BLOCK
  8
0
  2
_DOT
 70
     0
 10
0.0
 20
0.0
 30
0.0
  3
_DOT
  1

  0
POLYLINE
  5
158
  8
0
  6
BYBLOCK
 62
     0
 66
     1
 10
0.0
 20
0.0
 30
0.0
 70
     1
 40
0.5
 41
0.5
  0
VERTEX
  5
2E2
  8
0
  6
BYBLOCK
 62
     0
 10
-0.25
 20
0.0
 30
0.0
 42
1.0
  0
VERTEX
  5
2E3
  8
0
  6
BYBLOCK
 62
     0
 10
0.25
 20
0.0
 30
0.0
 42
1.0
  0
SEQEND
  5
2E4
  8
0
  6
BYBLOCK
 62
     0
  0
LINE
  5
15C
  8
0
  6
BYBLOCK
 62
     0
 10
-0.5
 20
0.0
 30
0.0
 11
-1.0
 21
0.0
 31
0.0
  0
ENDBLK
  5
15D
  8
0
  0
BLOCK
  8
0
  2
*U2
 70
     1
 10
0.0
 20
0.0
 30
0.0
  3
*U2
  1

  0
TEXT
  5
2E6
  8
DIMKEE
 10
-6.0194344801784867
 20
-3.9209737115406811
 30
0.5600000000000002
 40
0.09375
  1
4.250
  0
ENDBLK
  5
2E8
  8
0
  0
BLOCK
  8
0
  2
*U3
 70
     1
 10
0.0
 20
0.0
 30
0.0
  3
*U3
  1

  0
TEXT
  5
2EA
  8
DIMKEE
 10
-1.125
 20
-3.8790829718560351
 30
0.5600000000000002
 40
0.09375
  1
2.00
  0
ENDBLK
  5
2EC
  8
0
  0
BLOCK
  8
0
  2
*U4
 70
     1
 10
0.0
 20
0.0
 30
0.0
  3
*U4
  1

  0
TEXT
  5
2EE
  8
DIMKEE
 10
-5.9803719801784849
 20
-3.3973395043423
 30
0.5600000000000002
 40
0.09375
  1
3.25
  0
ENDBLK
  5
2F0
  8
0
  0
BLOCK
  8
0
  2
*U5
 70
     1
 10
0.0
 20
0.0
 30
0.0
  3
*U5
  1

  0
TEXT
  5
2F2
  8
DIMKEE
 10
-2.759649991802215
 20
-1.347211399182273
 30
0.5600000000000002
 40
0.09375
  1
2.75
 50
90.0
  0
ENDBLK
  5
2F4
  8
0
  0
BLOCK
  8
0
  2
*U6
 70
     1
 10
0.0
 20
0.0
 30
0.0
  3
*U6
  1

  0
TEXT
  5
2F6
  8
KEE70
 10
0.0001727163222405
 20
-0.0035230725124378
 30
0.0
 40
0.0006
  1
KEE KLAMP 15-8
 50
90.0
  0
ENDBLK
  5
2F8
  8
0
  0
BLOCK
  8
0
  2
*U7
 70
     1
 10
0.0
 20
0.0
 30
0.0
  3
*U7
  1

  0
TEXT
  5
2FA
  8
KEE70
 10
-0.6215944377274667
 20
-0.0579208025648796
 30
0.5600000000000002
 40
0.140625
  1
70-8
 50
90.0
  0
ENDBLK
  5
2FC
  8
0
  0
BLOCK
  8
0
  2
*U8
 70
     1
 10
0.0
 20
0.0
 30
0.0
  3
*U8
  1

  0
TEXT
  5
2FE
  8
KEE70
 10
-0.9055879367907913
 20
-0.1399520525648796
 30
0.5600000000000002
 40
0.140625
  1
KLAMP
 50
90.0
  0
ENDBLK
  5
300
  8
0
  0
BLOCK
  8
0
  2
*U9
 70
     1
 10
0.0
 20
0.0
 30
0.0
  3
*U9
  1

  0
TEXT
  5
302
  8
KEE70
 10
-1.214123749623375
 20
0.0006729474351204
 30
0.5600000000000002
 40
0.140625
  1
KEE
 50
90.0
  0
ENDBLK
  5
304
  8
0
  0
ENDSEC
  0
SECTION
  2
ENTITIES
  0
POLYLINE
  5
1E
  8
AM_VIEWS
 66
     1
 10
0.0
 20
0.0
 30
0.0
  0
VERTEX
  5
1DA
  8
AM_VIEWS
 10
8.5933260996818497
 20
1.966452525056597
 30
0.0
  0
VERTEX
  5
1DB
  8
AM_VIEWS
 10
8.5933260996818497
 20
6.656452525056598
 30
0.0
  0
VERTEX
  5
1DC
  8
AM_VIEWS
 10
17.75454777787818
 20
6.656452525056598
 30
0.0
  0
VERTEX
  5
1DD
  8
AM_VIEWS
 10
17.75454777787818
 20
1.966452525056597
 30
0.0
  0
VERTEX
  5
1DE
  8
AM_VIEWS
 10
8.5933260996818497
 20
1.966452525056597
 30
0.0
  0
SEQEND
  5
1DF
  8
AM_VIEWS
  0
LINE
  5
20
  8
KEE70
 10
-1.125
 20
-1.96767115349336
 30
-0.0000000000000001
 11
-0.875
 21
-1.96767115349336
 31
-0.0000000000000001
  0
LINE
  5
23
  8
KEE70
 10
-1.125
 20
-1.765990257669745
 30
0.0
 11
-0.875
 21
-1.765990257669745
 31
0.0
  0
POLYLINE
  5
25
  8
KEE70
 66
     1
 10
0.0
 20
0.0
 30
0.0
  0
VERTEX
  5
1E0
  8
KEE70
 10
-1.0
 20
-0.7242505576844655
 30
0.0
  0
VERTEX
  5
1E1
  8
KEE70
 10
-1.060382991197762
 20
-0.7214149065538456
 30
0.0
  0
VERTEX
  5
1E2
  8
KEE70
 10
-1.1199559466631639
 20
-0.7126568286421202
 30
0.0
  0
VERTEX
  5
1E3
  8
KEE70
 10
-1.125
 20
-0.7115934019037314
 30
0.0
  0
SEQEND
  5
1E4
  8
KEE70
  0
POLYLINE
  5
26
  8
KEE70
 66
     1
 10
0.0
 20
0.0
 30
0.0
  0
VERTEX
  5
1E5
  8
KEE70
 10
-0.875
 20
-0.7115934019037306
 30
0.0
  0
VERTEX
  5
1E6
  8
KEE70
 10
-0.8800440533368423
 20
-0.7126568286421211
 30
0.0
  0
VERTEX
  5
1E7
  8
KEE70
 10
-0.9396170088022408
 20
-0.7214149065538456
 30
0.0
  0
VERTEX
  5
1E8
  8
KEE70
 10
-1.0
 20
-0.7242505576844655
 30
0.0
  0
SEQEND
  5
1E9
  8
KEE70
  0
POLYLINE
  5
27
  8
KEE70
 66
     1
 10
0.0
 20
0.0
 30
0.0
  0
VERTEX
  5
1EA
  8
KEE70
 10
-0.6875000000000036
 20
-0.5386931803688208
 30
0.0
  0
VERTEX
  5
1EB
  8
KEE70
 10
-0.6934743395633199
 20
-0.580063644580391
 30
0.0
  0
VERTEX
  5
1EC
  8
KEE70
 10
-0.7114395154018958
 20
-0.6184081166976201
 30
0.0
  0
VERTEX
  5
1ED
  8
KEE70
 10
-0.7408826919003424
 20
-0.6512431912364427
 30
0.0
  0
VERTEX
  5
1EE
  8
KEE70
 10
-0.7790291308792093
 20
-0.6774637895170832
 30
0.0
  0
VERTEX
  5
1EF
  8
KEE70
 10
-0.8232318960366384
 20
-0.6969813741464366
 30
0.0
  0
VERTEX
  5
1F0
  8
KEE70
 10
-0.875
 20
-0.7115934019037306
 30
0.0
  0
SEQEND
  5
1F1
  8
KEE70
  0
POLYLINE
  5
28
  8
KEE70
  6
HIDDEN
 66
     1
 10
0.0
 20
0.0
 30
0.0
  0
VERTEX
  5
1F2
  8
KEE70
  6
HIDDEN
 10
-0.6875000000000036
 20
-0.5386931803688224
 30
0.0
  0
VERTEX
  5
1F3
  8
KEE70
  6
HIDDEN
 10
-0.6934743395633199
 20
-0.4946814105241693
 30
0.0
  0
VERTEX
  5
1F4
  8
KEE70
  6
HIDDEN
 10
-0.7114395154018958
 20
-0.4487667495225942
 30
0.0
  0
VERTEX
  5
1F5
  8
KEE70
  6
HIDDEN
 10
-0.7408826919003424
 20
-0.4044089982391706
 30
0.0
  0
VERTEX
  5
1F6
  8
KEE70
  6
HIDDEN
 10
-0.7790291308792093
 20
-0.3649637895170841
 30
0.0
  0
VERTEX
  5
1F7
  8
KEE70
  6
HIDDEN
 10
-0.8254675359079826
 20
-0.3313064020078782
 30
0.0
  0
VERTEX
  5
1F8
  8
KEE70
  6
HIDDEN
 10
-0.8800440533368387
 20
-0.304571492321025
 30
0.0
  0
VERTEX
  5
1F9
  8
KEE70
  6
HIDDEN
 10
-0.9396170088022408
 20
-0.2879240487864516
 30
0.0
  0
VERTEX
  5
1FA
  8
KEE70
  6
HIDDEN
 10
-1.0
 20
-0.2823088194428758
 30
0.0
  0
SEQEND
  5
1FB
  8
KEE70
  6
HIDDEN
  0
POLYLINE
  5
29
  8
KEE70
  6
HIDDEN
 66
     1
 10
0.0
 20
0.0
 30
0.0
  0
VERTEX
  5
1FC
  8
KEE70
  6
HIDDEN
 10
-1.3125000000000011
 20
-0.5386931803688216
 30
0.0
  0
VERTEX
  5
1FD
  8
KEE70
  6
HIDDEN
 10
-1.3065256604366831
 20
-0.4946814105241693
 30
0.0
  0
VERTEX
  5
1FE
  8
KEE70
  6
HIDDEN
 10
-1.2885604845981069
 20
-0.4487667495225942
 30
0.0
  0
VERTEX
  5
1FF
  8
KEE70
  6
HIDDEN
 10
-1.2591173080996609
 20
-0.4044089982391706
 30
0.0
  0
VERTEX
  5
200
  8
KEE70
  6
HIDDEN
 10
-1.2209708691207961
 20
-0.3649637895170841
 30
0.0
  0
VERTEX
  5
201
  8
KEE70
  6
HIDDEN
 10
-1.1745324640920221
 20
-0.3313064020078782
 30
0.0
  0
VERTEX
  5
202
  8
KEE70
  6
HIDDEN
 10
-1.119955946663161
 20
-0.304571492321025
 30
0.0
  0
VERTEX
  5
203
  8
KEE70
  6
HIDDEN
 10
-1.060382991197762
 20
-0.2879240487864516
 30
0.0
  0
VERTEX
  5
204
  8
KEE70
  6
HIDDEN
 10
-1.0
 20
-0.2823088194428758
 30
0.0
  0
SEQEND
  5
205
  8
KEE70
  6
HIDDEN
  0
POLYLINE
  5
2A
  8
KEE70
 66
     1
 10
0.0
 20
0.0
 30
0.0
  0
VERTEX
  5
206
  8
KEE70
 10
-1.3125000000000011
 20
-0.5386931803688208
 30
0.0
  0
VERTEX
  5
207
  8
KEE70
 10
-1.3065256604366831
 20
-0.580063644580391
 30
0.0
  0
VERTEX
  5
208
  8
KEE70
 10
-1.2885604845981069
 20
-0.6184081166976201
 30
0.0
  0
VERTEX
  5
209
  8
KEE70
 10
-1.2591173080996609
 20
-0.6512431912364427
 30
0.0
  0
VERTEX
  5
20A
  8
KEE70
 10
-1.2209708691207961
 20
-0.6774637895170832
 30
0.0
  0
VERTEX
  5
20B
  8
KEE70
 10
-1.1767681039632261
 20
-0.6969813741465423
 30
0.0
  0
VERTEX
  5
20C
  8
KEE70
 10
-1.1249999999996509
 20
-0.7115934019038815
 30
0.0
  0
SEQEND
  5
20D
  8
KEE70
  0
LINE
  5
2B
  8
KEE70
 10
-0.875
 20
-2.1195436482630181
 30
0.0
 11
-0.875
 21
-1.765990257669745
 31
0.0
  0
LINE
  5
2C
  8
KEE70
 10
-0.875
 20
-1.765990257669745
 30
0.0
 11
-0.875
 21
-0.9540836152144564
 31
0.0
  0
LINE
  5
2D
  8
KEE70
 10
-1.125
 20
-2.1195436482630181
 30
-0.0000000000000001
 11
-0.875
 21
-2.1195436482630181
 31
-0.0000000000000001
  0
LINE
  5
2E
  8
KEE70
 10
-0.875
 20
-2.3315863991822741
 30
0.0
 11
-0.875
 21
-2.1195436482630181
 31
0.0
  0
LINE
  5
2F
  8
KEE70
 10
-2.0000000000000009
 20
-2.5815863991822741
 30
0.0000000000000001
 11
0.0
 21
-2.5815863991822741
 31
0.0000000000000001
  0
LINE
  5
30
  8
KEE70
 10
-2.0000000000000009
 20
-2.5815863991822741
 30
0.0000000000000001
 11
-2.0000000000000009
 21
-2.3315863991822741
 31
0.0000000000000001
  0
LINE
  5
31
  8
KEE70
 10
0.0
 20
-2.5815863991822741
 30
0.0000000000000001
 11
0.0
 21
-2.3315863991822741
 31
0.0000000000000001
  0
LINE
  5
32
  8
KEE70
 10
0.0
 20
-2.3315863991822741
 30
0.0000000000000001
 11
-2.0
 21
-2.3315863991822741
 31
0.0000000000000001
  0
LINE
  5
33
  8
KEE70
 10
-1.5625
 20
-2.1440863991822741
 30
0.0
 11
-1.75
 21
-2.3315863991822741
 31
0.0
  0
LINE
  5
34
  8
KEE70
 10
-0.4375
 20
-0.9815863991822739
 30
0.0
 11
-0.4375
 21
-2.1440863991822741
 31
0.0
  0
LINE
  5
35
  8
KEE70
 10
-0.4375
 20
-2.1440863991822741
 30
0.0
 11
-0.25
 21
-2.3315863991822741
 31
0.0
  0
POLYLINE
  5
36
  8
KEE70
 66
     1
 10
0.0
 20
0.0
 30
0.0
  0
VERTEX
  5
20E
  8
KEE70
 10
-1.125
 20
-0.9798648646911773
 30
0.0
  0
VERTEX
  5
20F
  8
KEE70
 10
-1.0
 20
-0.9983125868816689
 30
0.0
  0
VERTEX
  5
210
  8
KEE70
 10
-0.875
 20
-0.9798648646911756
 30
0.0
  0
SEQEND
  5
211
  8
KEE70
  0
LINE
  5
37
  8
KEE70
 10
-1.125
 20
-1.260564372306813
 30
-0.0000000000000001
 11
-0.875
 21
-1.260564372306813
 31
-0.0000000000000001
  0
LINE
  5
38
  8
KEE70
 10
-1.5625
 20
-0.9815863991822739
 30
0.0
 11
-1.5625
 21
-2.1440863991822741
 31
0.0
  0
LINE
  5
39
  8
KEE70
 10
-1.125
 20
-0.9540836152144564
 30
0.0
 11
-1.125
 21
-1.765990257669745
 31
0.0
  0
LINE
  5
3A
  8
KEE70
 10
-1.125
 20
-1.765990257669745
 30
0.0
 11
-1.125
 21
-2.1195436482630181
 31
-0.0000000000000001
  0
LINE
  5
3B
  8
KEE70
 10
-1.125
 20
-2.1195436482630181
 30
-0.0000000000000001
 11
-1.125
 21
-2.3315863991822741
 31
-0.0000000000000001
  0
POLYLINE
  5
3C
  8
KEE70
 66
     1
 10
0.0
 20
0.0
 30
0.0
  0
VERTEX
  5
212
  8
KEE70
 10
-1.124999999896154
 20
-0.9909452445218178
 30
0.0
  0
VERTEX
  5
213
  8
KEE70
 10
-1.1628571747620591
 20
-0.9887766537172698
 30
0.0
  0
VERTEX
  5
214
  8
KEE70
 10
-1.2379563252649739
 20
-0.9801341452165877
 30
0.0
  0
VERTEX
  5
215
  8
KEE70
 10
-1.301943452137333
 20
-0.963781005517578
 30
0.0
  0
VERTEX
  5
216
  8
KEE70
 10
-1.3153926495427171
 20
-0.9584032266827398
 30
0.0
  0
SEQEND
  5
217
  8
KEE70
  0
POLYLINE
  5
3D
  8
KEE70
 66
     1
 10
0.0
 20
0.0
 30
0.0
  0
VERTEX
  5
218
  8
KEE70
 10
-1.124999999999964
 20
-0.9277432327090853
 30
0.0
  0
VERTEX
  5
219
  8
KEE70
 10
-1.125
 20
-0.9156461942141413
 30
0.0
  0
VERTEX
  5
21A
  8
KEE70
 10
-1.125
 20
-0.9154001240102784
 30
0.0
  0
SEQEND
  5
21B
  8
KEE70
  0
POLYLINE
  5
3E
  8
KEE70
 10
-1.1249999999999971
 20
-0.979864865844527
 30
0.0
 66
     1
 70
     8
  0
VERTEX
  8
KEE70
  5
309
 10
-1.12500
 20
-0.979865
 30
0.000000
  70
    32
  0
VERTEX
  8
KEE70
  5
30A
 10
-1.13710
 20
-0.975911
 30
0.000000
  70
    32
  0
VERTEX
  8
KEE70
  5
30B
 10
-1.14895
 20
-0.971597
 30
0.000000
  70
    32
  0
VERTEX
  8
KEE70
  5
30C
 10
-1.16053
 20
-0.966928
 30
0.000000
  70
    32
  0
VERTEX
  8
KEE70
  5
30D
 10
-1.17182
 20
-0.961915
 30
0.000000
  70
    32
  0
VERTEX
  8
KEE70
  5
30E
 10
-1.18279
 20
-0.956566
 30
0.000000
  70
    32
  0
VERTEX
  8
KEE70
  5
30F
 10
-1.19344
 20
-0.950891
 30
0.000000
  70
    32
  0
VERTEX
  8
KEE70
  5
310
 10
-1.20373
 20
-0.944900
 30
0.000000
  70
    32
  0
VERTEX
  8
KEE70
  5
311
 10
-1.21365
 20
-0.938605
 30
0.000000
  70
    32
  0
VERTEX
  8
KEE70
  5
312
 10
-1.22318
 20
-0.932016
 30
0.000000
  70
    32
  0
VERTEX
  8
KEE70
  5
313
 10
-1.23230
 20
-0.925145
 30
0.000000
  70
    32
  0
VERTEX
  8
KEE70
  5
314
 10
-1.24100
 20
-0.918006
 30
0.000000
  70
    32
  0
VERTEX
  8
KEE70
  5
315
 10
-1.24927
 20
-0.910611
 30
0.000000
  70
    32
  0
VERTEX
  8
KEE70
  5
316
 10
-1.25708
 20
-0.902973
 30
0.000000
  70
    32
  0
VERTEX
  8
KEE70
  5
317
 10
-1.26442
 20
-0.895107
 30
0.000000
  70
    32
  0
VERTEX
  8
KEE70
  5
318
 10
-1.27128
 20
-0.887026
 30
0.000000
  70
    32
  0
VERTEX
  8
KEE70
  5
319
 10
-1.27765
 20
-0.878746
 30
0.000000
  70
    32
  0
VERTEX
  8
KEE70
  5
31A
 10
-1.28351
 20
-0.870281
 30
0.000000
  70
    32
  0
VERTEX
  8
KEE70
  5
31B
 10
-1.28886
 20
-0.861648
 30
0.000000
  70
    32
  0
VERTEX
  8
KEE70
  5
31C
 10
-1.29368
 20
-0.852861
 30
0.000000
  70
    32
  0
VERTEX
  8
KEE70
  5
31D
 10
-1.29797
 20
-0.843936
 30
0.000000
  70
    32
  0
VERTEX
  8
KEE70
  5
31E
 10
-1.30172
 20
-0.834890
 30
0.000000
  70
    32
  0
VERTEX
  8
KEE70
  5
31F
 10
-1.30491
 20
-0.825740
 30
0.000000
  70
    32
  0
VERTEX
  8
KEE70
  5
320
 10
-1.30755
 20
-0.816502
 30
0.000000
  70
    32
  0
VERTEX
  8
KEE70
  5
321
 10
-1.30964
 20
-0.807192
 30
0.000000
  70
    32
  0
VERTEX
  8
KEE70
  5
322
 10
-1.31115
 20
-0.797828
 30
0.000000
  70
    32
  0
VERTEX
  8
KEE70
  5
323
 10
-1.31211
 20
-0.788427
 30
0.000000
  70
    32
  0
VERTEX
  8
KEE70
  5
324
 10
-1.31249
 20
-0.779005
 30
0.000000
  70
    32
  0
VERTEX
  8
KEE70
  5
325
 10
-1.31231
 20
-0.769581
 30
0.000000
  70
    32
  0
VERTEX
  8
KEE70
  5
326
 10
-1.31156
 20
-0.760171
 30
0.000000
  70
    32
  0
VERTEX
  8
KEE70
  5
327
 10
-1.31024
 20
-0.750792
 30
0.000000
  70
    32
  0
VERTEX
  8
KEE70
  5
328
 10
-1.30835
 20
-0.741461
 30
0.000000
  70
    32
  0
VERTEX
  8
KEE70
  5
329
 10
-1.30591
 20
-0.732195
 30
0.000000
  70
    32
  0
VERTEX
  8
KEE70
  5
32A
 10
-1.30291
 20
-0.723012
 30
0.000000
  70
    32
  0
VERTEX
  8
KEE70
  5
32B
 10
-1.29936
 20
-0.713927
 30
0.000000
  70
    32
  0
VERTEX
  8
KEE70
  5
32C
 10
-1.29526
 20
-0.704958
 30
0.000000
  70
    32
  0
VERTEX
  8
KEE70
  5
32D
 10
-1.29062
 20
-0.696121
 30
0.000000
  70
    32
  0
VERTEX
  8
KEE70
  5
32E
 10
-1.28546
 20
-0.687431
 30
0.000000
  70
    32
  0
VERTEX
  8
KEE70
  5
32F
 10
-1.27978
 20
-0.678905
 30
0.000000
  70
    32
  0
VERTEX
  8
KEE70
  5
330
 10
-1.27359
 20
-0.670558
 30
0.000000
  70
    32
  0
VERTEX
  8
KEE70
  5
331
 10
-1.26690
 20
-0.662405
 30
0.000000
  70
    32
  0
VERTEX
  8
KEE70
  5
332
 10
-1.25973
 20
-0.654462
 30
0.000000
  70
    32
  0
VERTEX
  8
KEE70
  5
333
 10
-1.25208
 20
-0.646742
 30
0.000000
  70
    32
  0
VERTEX
  8
KEE70
  5
334
 10
-1.24397
 20
-0.639259
 30
0.000000
  70
    32
  0
VERTEX
  8
KEE70
  5
335
 10
-1.23542
 20
-0.632028
 30
0.000000
  70
    32
  0
VERTEX
  8
KEE70
  5
336
 10
-1.22645
 20
-0.625061
 30
0.000000
  70
    32
  0
VERTEX
  8
KEE70
  5
337
 10
-1.21706
 20
-0.618372
 30
0.000000
  70
    32
  0
VERTEX
  8
KEE70
  5
338
 10
-1.20727
 20
-0.611971
 30
0.000000
  70
    32
  0
VERTEX
  8
KEE70
  5
339
 10
-1.19711
 20
-0.605871
 30
0.000000
  70
    32
  0
VERTEX
  8
KEE70
  5
33A
 10
-1.18659
 20
-0.600084
 30
0.000000
  70
    32
  0
VERTEX
  8
KEE70
  5
33B
 10
-1.17573
 20
-0.594618
 30
0.000000
  70
    32
  0
VERTEX
  8
KEE70
  5
33C
 10
-1.16455
 20
-0.589486
 30
0.000000
  70
    32
  0
VERTEX
  8
KEE70
  5
33D
 10
-1.15307
 20
-0.584695
 30
0.000000
  70
    32
  0
VERTEX
  8
KEE70
  5
33E
 10
-1.14131
 20
-0.580254
 30
0.000000
  70
    32
  0
VERTEX
  8
KEE70
  5
33F
 10
-1.12930
 20
-0.576172
 30
0.000000
  70
    32
  0
VERTEX
  8
KEE70
  5
340
 10
-1.11705
 20
-0.572457
 30
0.000000
  70
    32
  0
VERTEX
  8
KEE70
  5
341
 10
-1.10459
 20
-0.569113
 30
0.000000
  70
    32
  0
VERTEX
  8
KEE70
  5
342
 10
-1.09193
 20
-0.566149
 30
0.000000
  70
    32
  0
VERTEX
  8
KEE70
  5
343
 10
-1.07911
 20
-0.563569
 30
0.000000
  70
    32
  0
VERTEX
  8
KEE70
  5
344
 10
-1.06615
 20
-0.561378
 30
0.000000
  70
    32
  0
VERTEX
  8
KEE70
  5
345
 10
-1.05306
 20
-0.559580
 30
0.000000
  70
    32
  0
VERTEX
  8
KEE70
  5
346
 10
-1.03988
 20
-0.558178
 30
0.000000
  70
    32
  0
VERTEX
  8
KEE70
  5
347
 10
-1.02663
 20
-0.557175
 30
0.000000
  70
    32
  0
VERTEX
  8
KEE70
  5
348
 10
-1.01333
 20
-0.556572
 30
0.000000
  70
    32
  0
VERTEX
  8
KEE70
  5
349
 10
-1.00000
 20
-0.556371
 30
0.000000
  70
    32
  0
VERTEX
  8
KEE70
  5
34A
 10
-0.986674
 20
-0.556572
 30
0.000000
  70
    32
  0
VERTEX
  8
KEE70
  5
34B
 10
-0.973371
 20
-0.557175
 30
0.000000
  70
    32
  0
VERTEX
  8
KEE70
  5
34C
 10
-0.960118
 20
-0.558178
 30
0.000000
  70
    32
  0
VERTEX
  8
KEE70
  5
34D
 10
-0.946937
 20
-0.559580
 30
0.000000
  70
    32
  0
VERTEX
  8
KEE70
  5
34E
 10
-0.933852
 20
-0.561378
 30
0.000000
  70
    32
  0
VERTEX
  8
KEE70
  5
34F
 10
-0.920888
 20
-0.563569
 30
0.000000
  70
    32
  0
VERTEX
  8
KEE70
  5
350
 10
-0.908067
 20
-0.566149
 30
0.000000
  70
    32
  0
VERTEX
  8
KEE70
  5
351
 10
-0.895414
 20
-0.569113
 30
0.000000
  70
    32
  0
VERTEX
  8
KEE70
  5
352
 10
-0.882952
 20
-0.572457
 30
0.000000
  70
    32
  0
VERTEX
  8
KEE70
  5
353
 10
-0.870702
 20
-0.576172
 30
0.000000
  70
    32
  0
VERTEX
  8
KEE70
  5
354
 10
-0.858687
 20
-0.580254
 30
0.000000
  70
    32
  0
VERTEX
  8
KEE70
  5
355
 10
-0.846930
 20
-0.584695
 30
0.000000
  70
    32
  0
VERTEX
  8
KEE70
  5
356
 10
-0.835451
 20
-0.589486
 30
0.000000
  70
    32
  0
VERTEX
  8
KEE70
  5
357
 10
-0.824271
 20
-0.594618
 30
0.000000
  70
    32
  0
VERTEX
  8
KEE70
  5
358
 10
-0.813411
 20
-0.600084
 30
0.000000
  70
    32
  0
VERTEX
  8
KEE70
  5
359
 10
-0.802891
 20
-0.605871
 30
0.000000
  70
    32
  0
VERTEX
  8
KEE70
  5
35A
 10
-0.792729
 20
-0.611971
 30
0.000000
  70
    32
  0
VERTEX
  8
KEE70
  5
35B
 10
-0.782944
 20
-0.618372
 30
0.000000
  70
    32
  0
VERTEX
  8
KEE70
  5
35C
 10
-0.773554
 20
-0.625061
 30
0.000000
  70
    32
  0
VERTEX
  8
KEE70
  5
35D
 10
-0.764577
 20
-0.632028
 30
0.000000
  70
    32
  0
VERTEX
  8
KEE70
  5
35E
 10
-0.756027
 20
-0.639259
 30
0.000000
  70
    32
  0
VERTEX
  8
KEE70
  5
35F
 10
-0.747922
 20
-0.646742
 30
0.000000
  70
    32
  0
VERTEX
  8
KEE70
  5
360
 10
-0.740275
 20
-0.654462
 30
0.000000
  70
    32
  0
VERTEX
  8
KEE70
  5
361
 10
-0.733100
 20
-0.662405
 30
0.000000
  70
    32
  0
VERTEX
  8
KEE70
  5
362
 10
-0.726411
 20
-0.670558
 30
0.000000
  70
    32
  0
VERTEX
  8
KEE70
  5
363
 10
-0.720220
 20
-0.678905
 30
0.000000
  70
    32
  0
VERTEX
  8
KEE70
  5
364
 10
-0.714538
 20
-0.687431
 30
0.000000
  70
    32
  0
VERTEX
  8
KEE70
  5
365
 10
-0.709376
 20
-0.696121
 30
0.000000
  70
    32
  0
VERTEX
  8
KEE70
  5
366
 10
-0.704742
 20
-0.704958
 30
0.000000
  70
    32
  0
VERTEX
  8
KEE70
  5
367
 10
-0.700645
 20
-0.713927
 30
0.000000
  70
    32
  0
VERTEX
  8
KEE70
  5
368
 10
-0.697093
 20
-0.723012
 30
0.000000
  70
    32
  0
VERTEX
  8
KEE70
  5
369
 10
-0.694092
 20
-0.732195
 30
0.000000
  70
    32
  0
VERTEX
  8
KEE70
  5
36A
 10
-0.691647
 20
-0.741461
 30
0.000000
  70
    32
  0
VERTEX
  8
KEE70
  5
36B
 10
-0.689764
 20
-0.750792
 30
0.000000
  70
    32
  0
VERTEX
  8
KEE70
  5
36C
 10
-0.688445
 20
-0.760171
 30
0.000000
  70
    32
  0
VERTEX
  8
KEE70
  5
36D
 10
-0.687693
 20
-0.769581
 30
0.000000
  70
    32
  0
VERTEX
  8
KEE70
  5
36E
 10
-0.687509
 20
-0.779005
 30
0.000000
  70
    32
  0
VERTEX
  8
KEE70
  5
36F
 10
-0.687893
 20
-0.788427
 30
0.000000
  70
    32
  0
VERTEX
  8
KEE70
  5
370
 10
-0.688846
 20
-0.797828
 30
0.000000
  70
    32
  0
VERTEX
  8
KEE70
  5
371
 10
-0.690364
 20
-0.807192
 30
0.000000
  70
    32
  0
VERTEX
  8
KEE70
  5
372
 10
-0.692446
 20
-0.816502
 30
0.000000
  70
    32
  0
VERTEX
  8
KEE70
  5
373
 10
-0.695088
 20
-0.825740
 30
0.000000
  70
    32
  0
VERTEX
  8
KEE70
  5
374
 10
-0.698284
 20
-0.834890
 30
0.000000
  70
    32
  0
VERTEX
  8
KEE70
  5
375
 10
-0.702029
 20
-0.843936
 30
0.000000
  70
    32
  0
VERTEX
  8
KEE70
  5
376
 10
-0.706316
 20
-0.852861
 30
0.000000
  70
    32
  0
VERTEX
  8
KEE70
  5
377
 10
-0.711138
 20
-0.861648
 30
0.000000
  70
    32
  0
VERTEX
  8
KEE70
  5
378
 10
-0.716485
 20
-0.870281
 30
0.000000
  70
    32
  0
VERTEX
  8
KEE70
  5
379
 10
-0.722348
 20
-0.878746
 30
0.000000
  70
    32
  0
VERTEX
  8
KEE70
  5
37A
 10
-0.728716
 20
-0.887026
 30
0.000000
  70
    32
  0
VERTEX
  8
KEE70
  5
37B
 10
-0.735578
 20
-0.895107
 30
0.000000
  70
    32
  0
VERTEX
  8
KEE70
  5
37C
 10
-0.742921
 20
-0.902973
 30
0.000000
  70
    32
  0
VERTEX
  8
KEE70
  5
37D
 10
-0.750731
 20
-0.910611
 30
0.000000
  70
    32
  0
VERTEX
  8
KEE70
  5
37E
 10
-0.758995
 20
-0.918006
 30
0.000000
  70
    32
  0
VERTEX
  8
KEE70
  5
37F
 10
-0.767698
 20
-0.925145
 30
0.000000
  70
    32
  0
VERTEX
  8
KEE70
  5
380
 10
-0.776823
 20
-0.932016
 30
0.000000
  70
    32
  0
VERTEX
  8
KEE70
  5
381
 10
-0.786354
 20
-0.938605
 30
0.000000
  70
    32
  0
VERTEX
  8
KEE70
  5
382
 10
-0.796274
 20
-0.944900
 30
0.000000
  70
    32
  0
VERTEX
  8
KEE70
  5
383
 10
-0.806564
 20
-0.950891
 30
0.000000
  70
    32
  0
VERTEX
  8
KEE70
  5
384
 10
-0.817207
 20
-0.956566
 30
0.000000
  70
    32
  0
VERTEX
  8
KEE70
  5
385
 10
-0.828182
 20
-0.961915
 30
0.000000
  70
    32
  0
VERTEX
  8
KEE70
  5
386
 10
-0.839469
 20
-0.966928
 30
0.000000
  70
    32
  0
VERTEX
  8
KEE70
  5
387
 10
-0.851049
 20
-0.971597
 30
0.000000
  70
    32
  0
VERTEX
  8
KEE70
  5
388
 10
-0.862900
 20
-0.975911
 30
0.000000
  70
    32
  0
VERTEX
  8
KEE70
  5
389
 10
-0.875000
 20
-0.979865
 30
0.000000
  70
    32
  0
SEQEND
  8
KEE70
  5
38A
  0
POLYLINE
  5
3F
  8
KEE70
 66
     1
 10
0.0
 20
0.0
 30
0.0
  0
VERTEX
  5
21C
  8
KEE70
 10
-1.4141885408620369
 20
-0.7773417190185948
 30
0.0
  0
VERTEX
  5
21D
  8
KEE70
 10
-1.4087275034940661
 20
-0.8206183067007977
 30
0.0
  0
VERTEX
  5
21E
  8
KEE70
 10
-1.3896084863320171
 20
-0.8689400947938548
 30
0.0
  0
VERTEX
  5
21F
  8
KEE70
 10
-1.3588632671487699
 20
-0.9141063650242005
 30
0.0
  0
VERTEX
  5
220
  8
KEE70
 10
-1.3153926495427171
 20
-0.9584032266827398
 30
0.0
  0
SEQEND
  5
221
  8
KEE70
  0
POLYLINE
  5
40
  8
KEE70
 10
-1.1249999999999973
 20
-1.0506675890901547
 30
0.0
 66
     1
 70
     8
  0
VERTEX
  8
KEE70
  5
38B
 10
-1.12500
 20
-1.05067
 30
0.000000
  70
    32
  0
VERTEX
  8
KEE70
  5
38C
 10
-1.12674
 20
-1.05027
 30
0.000000
  70
    32
  0
VERTEX
  8
KEE70
  5
38D
 10
-1.12847
 20
-1.04986
 30
0.000000
  70
    32
  0
VERTEX
  8
KEE70
  5
38E
 10
-1.13021
 20
-1.04945
 30
0.000000
  70
    32
  0
VERTEX
  8
KEE70
  5
38F
 10
-1.13194
 20
-1.04903
 30
0.000000
  70
    32
  0
VERTEX
  8
KEE70
  5
390
 10
-1.13367
 20
-1.04861
 30
0.000000
  70
    32
  0
VERTEX
  8
KEE70
  5
391
 10
-1.13539
 20
-1.04818
 30
0.000000
  70
    32
  0
VERTEX
  8
KEE70
  5
392
 10
-1.13711
 20
-1.04775
 30
0.000000
  70
    32
  0
VERTEX
  8
KEE70
  5
393
 10
-1.13883
 20
-1.04731
 30
0.000000
  70
    32
  0
VERTEX
  8
KEE70
  5
394
 10
-1.14055
 20
-1.04686
 30
0.000000
  70
    32
  0
VERTEX
  8
KEE70
  5
395
 10
-1.14226
 20
-1.04641
 30
0.000000
  70
    32
  0
VERTEX
  8
KEE70
  5
396
 10
-1.14398
 20
-1.04596
 30
0.000000
  70
    32
  0
VERTEX
  8
KEE70
  5
397
 10
-1.14568
 20
-1.04550
 30
0.000000
  70
    32
  0
VERTEX
  8
KEE70
  5
398
 10
-1.14739
 20
-1.04503
 30
0.000000
  70
    32
  0
VERTEX
  8
KEE70
  5
399
 10
-1.14909
 20
-1.04456
 30
0.000000
  70
    32
  0
VERTEX
  8
KEE70
  5
39A
 10
-1.15079
 20
-1.04408
 30
0.000000
  70
    32
  0
VERTEX
  8
KEE70
  5
39B
 10
-1.15249
 20
-1.04360
 30
0.000000
  70
    32
  0
VERTEX
  8
KEE70
  5
39C
 10
-1.15418
 20
-1.04311
 30
0.000000
  70
    32
  0
VERTEX
  8
KEE70
  5
39D
 10
-1.15587
 20
-1.04262
 30
0.000000
  70
    32
  0
VERTEX
  8
KEE70
  5
39E
 10
-1.15756
 20
-1.04212
 30
0.000000
  70
    32
  0
VERTEX
  8
KEE70
  5
39F
 10
-1.15924
 20
-1.04162
 30
0.000000
  70
    32
  0
VERTEX
  8
KEE70
  5
3A0
 10
-1.16092
 20
-1.04111
 30
0.000000
  70
    32
  0
VERTEX
  8
KEE70
  5
3A1
 10
-1.16260
 20
-1.04059
 30
0.000000
  70
    32
  0
VERTEX
  8
KEE70
  5
3A2
 10
-1.16427
 20
-1.04007
 30
0.000000
  70
    32
  0
VERTEX
  8
KEE70
  5
3A3
 10
-1.16594
 20
-1.03955
 30
0.000000
  70
    32
  0
VERTEX
  8
KEE70
  5
3A4
 10
-1.16761
 20
-1.03901
 30
0.000000
  70
    32
  0
VERTEX
  8
KEE70
  5
3A5
 10
-1.16927
 20
-1.03848
 30
0.000000
  70
    32
  0
VERTEX
  8
KEE70
  5
3A6
 10
-1.17093
 20
-1.03794
 30
0.000000
  70
    32
  0
VERTEX
  8
KEE70
  5
3A7
 10
-1.17259
 20
-1.03739
 30
0.000000
  70
    32
  0
VERTEX
  8
KEE70
  5
3A8
 10
-1.17425
 20
-1.03684
 30
0.000000
  70
    32
  0
VERTEX
  8
KEE70
  5
3A9
 10
-1.17590
 20
-1.03628
 30
0.000000
  70
    32
  0
VERTEX
  8
KEE70
  5
3AA
 10
-1.17754
 20
-1.03572
 30
0.000000
  70
    32
  0
VERTEX
  8
KEE70
  5
3AB
 10
-1.17918
 20
-1.03515
 30
0.000000
  70
    32
  0
VERTEX
  8
KEE70
  5
3AC
 10
-1.18082
 20
-1.03458
 30
0.000000
  70
    32
  0
VERTEX
  8
KEE70
  5
3AD
 10
-1.18246
 20
-1.03400
 30
0.000000
  70
    32
  0
VERTEX
  8
KEE70
  5
3AE
 10
-1.18409
 20
-1.03342
 30
0.000000
  70
    32
  0
VERTEX
  8
KEE70
  5
3AF
 10
-1.18572
 20
-1.03283
 30
0.000000
  70
    32
  0
VERTEX
  8
KEE70
  5
3B0
 10
-1.18734
 20
-1.03224
 30
0.000000
  70
    32
  0
VERTEX
  8
KEE70
  5
3B1
 10
-1.18896
 20
-1.03164
 30
0.000000
  70
    32
  0
VERTEX
  8
KEE70
  5
3B2
 10
-1.19058
 20
-1.03103
 30
0.000000
  70
    32
  0
VERTEX
  8
KEE70
  5
3B3
 10
-1.19219
 20
-1.03042
 30
0.000000
  70
    32
  0
VERTEX
  8
KEE70
  5
3B4
 10
-1.19380
 20
-1.02981
 30
0.000000
  70
    32
  0
VERTEX
  8
KEE70
  5
3B5
 10
-1.19541
 20
-1.02919
 30
0.000000
  70
    32
  0
VERTEX
  8
KEE70
  5
3B6
 10
-1.19701
 20
-1.02857
 30
0.000000
  70
    32
  0
VERTEX
  8
KEE70
  5
3B7
 10
-1.19860
 20
-1.02794
 30
0.000000
  70
    32
  0
VERTEX
  8
KEE70
  5
3B8
 10
-1.20020
 20
-1.02730
 30
0.000000
  70
    32
  0
VERTEX
  8
KEE70
  5
3B9
 10
-1.20179
 20
-1.02666
 30
0.000000
  70
    32
  0
VERTEX
  8
KEE70
  5
3BA
 10
-1.20337
 20
-1.02602
 30
0.000000
  70
    32
  0
VERTEX
  8
KEE70
  5
3BB
 10
-1.20495
 20
-1.02537
 30
0.000000
  70
    32
  0
VERTEX
  8
KEE70
  5
3BC
 10
-1.20653
 20
-1.02471
 30
0.000000
  70
    32
  0
VERTEX
  8
KEE70
  5
3BD
 10
-1.20810
 20
-1.02405
 30
0.000000
  70
    32
  0
VERTEX
  8
KEE70
  5
3BE
 10
-1.20967
 20
-1.02339
 30
0.000000
  70
    32
  0
VERTEX
  8
KEE70
  5
3BF
 10
-1.21123
 20
-1.02272
 30
0.000000
  70
    32
  0
VERTEX
  8
KEE70
  5
3C0
 10
-1.21279
 20
-1.02204
 30
0.000000
  70
    32
  0
VERTEX
  8
KEE70
  5
3C1
 10
-1.21435
 20
-1.02136
 30
0.000000
  70
    32
  0
VERTEX
  8
KEE70
  5
3C2
 10
-1.21590
 20
-1.02068
 30
0.000000
  70
    32
  0
VERTEX
  8
KEE70
  5
3C3
 10
-1.21745
 20
-1.01999
 30
0.000000
  70
    32
  0
VERTEX
  8
KEE70
  5
3C4
 10
-1.21899
 20
-1.01930
 30
0.000000
  70
    32
  0
VERTEX
  8
KEE70
  5
3C5
 10
-1.22053
 20
-1.01860
 30
0.000000
  70
    32
  0
VERTEX
  8
KEE70
  5
3C6
 10
-1.22206
 20
-1.01789
 30
0.000000
  70
    32
  0
VERTEX
  8
KEE70
  5
3C7
 10
-1.22359
 20
-1.01718
 30
0.000000
  70
    32
  0
VERTEX
  8
KEE70
  5
3C8
 10
-1.22511
 20
-1.01647
 30
0.000000
  70
    32
  0
VERTEX
  8
KEE70
  5
3C9
 10
-1.22663
 20
-1.01575
 30
0.000000
  70
    32
  0
VERTEX
  8
KEE70
  5
3CA
 10
-1.22815
 20
-1.01503
 30
0.000000
  70
    32
  0
VERTEX
  8
KEE70
  5
3CB
 10
-1.22966
 20
-1.01430
 30
0.000000
  70
    32
  0
VERTEX
  8
KEE70
  5
3CC
 10
-1.23116
 20
-1.01356
 30
0.000000
  70
    32
  0
VERTEX
  8
KEE70
  5
3CD
 10
-1.23267
 20
-1.01283
 30
0.000000
  70
    32
  0
VERTEX
  8
KEE70
  5
3CE
 10
-1.23416
 20
-1.01208
 30
0.000000
  70
    32
  0
VERTEX
  8
KEE70
  5
3CF
 10
-1.23565
 20
-1.01134
 30
0.000000
  70
    32
  0
VERTEX
  8
KEE70
  5
3D0
 10
-1.23714
 20
-1.01058
 30
0.000000
  70
    32
  0
VERTEX
  8
KEE70
  5
3D1
 10
-1.23862
 20
-1.00983
 30
0.000000
  70
    32
  0
VERTEX
  8
KEE70
  5
3D2
 10
-1.24010
 20
-1.00906
 30
0.000000
  70
    32
  0
VERTEX
  8
KEE70
  5
3D3
 10
-1.24157
 20
-1.00830
 30
0.000000
  70
    32
  0
VERTEX
  8
KEE70
  5
3D4
 10
-1.24304
 20
-1.00753
 30
0.000000
  70
    32
  0
VERTEX
  8
KEE70
  5
3D5
 10
-1.24450
 20
-1.00675
 30
0.000000
  70
    32
  0
VERTEX
  8
KEE70
  5
3D6
 10
-1.24596
 20
-1.00597
 30
0.000000
  70
    32
  0
VERTEX
  8
KEE70
  5
3D7
 10
-1.24741
 20
-1.00519
 30
0.000000
  70
    32
  0
VERTEX
  8
KEE70
  5
3D8
 10
-1.24886
 20
-1.00440
 30
0.000000
  70
    32
  0
VERTEX
  8
KEE70
  5
3D9
 10
-1.25030
 20
-1.00360
 30
0.000000
  70
    32
  0
VERTEX
  8
KEE70
  5
3DA
 10
-1.25174
 20
-1.00280
 30
0.000000
  70
    32
  0
VERTEX
  8
KEE70
  5
3DB
 10
-1.25317
 20
-1.00200
 30
0.000000
  70
    32
  0
VERTEX
  8
KEE70
  5
3DC
 10
-1.25460
 20
-1.00119
 30
0.000000
  70
    32
  0
VERTEX
  8
KEE70
  5
3DD
 10
-1.25602
 20
-1.00038
 30
0.000000
  70
    32
  0
VERTEX
  8
KEE70
  5
3DE
 10
-1.25744
 20
-0.999562
 30
0.000000
  70
    32
  0
VERTEX
  8
KEE70
  5
3DF
 10
-1.25885
 20
-0.998741
 30
0.000000
  70
    32
  0
VERTEX
  8
KEE70
  5
3E0
 10
-1.26026
 20
-0.997914
 30
0.000000
  70
    32
  0
VERTEX
  8
KEE70
  5
3E1
 10
-1.26166
 20
-0.997084
 30
0.000000
  70
    32
  0
VERTEX
  8
KEE70
  5
3E2
 10
-1.26306
 20
-0.996249
 30
0.000000
  70
    32
  0
VERTEX
  8
KEE70
  5
3E3
 10
-1.26445
 20
-0.995410
 30
0.000000
  70
    32
  0
VERTEX
  8
KEE70
  5
3E4
 10
-1.26583
 20
-0.994566
 30
0.000000
  70
    32
  0
VERTEX
  8
KEE70
  5
3E5
 10
-1.26721
 20
-0.993718
 30
0.000000
  70
    32
  0
VERTEX
  8
KEE70
  5
3E6
 10
-1.26859
 20
-0.992865
 30
0.000000
  70
    32
  0
VERTEX
  8
KEE70
  5
3E7
 10
-1.26996
 20
-0.992008
 30
0.000000
  70
    32
  0
VERTEX
  8
KEE70
  5
3E8
 10
-1.27132
 20
-0.991147
 30
0.000000
  70
    32
  0
VERTEX
  8
KEE70
  5
3E9
 10
-1.27268
 20
-0.990281
 30
0.000000
  70
    32
  0
VERTEX
  8
KEE70
  5
3EA
 10
-1.27403
 20
-0.989411
 30
0.000000
  70
    32
  0
VERTEX
  8
KEE70
  5
3EB
 10
-1.27538
 20
-0.988537
 30
0.000000
  70
    32
  0
VERTEX
  8
KEE70
  5
3EC
 10
-1.27672
 20
-0.987659
 30
0.000000
  70
    32
  0
VERTEX
  8
KEE70
  5
3ED
 10
-1.27805
 20
-0.986776
 30
0.000000
  70
    32
  0
VERTEX
  8
KEE70
  5
3EE
 10
-1.27938
 20
-0.985889
 30
0.000000
  70
    32
  0
VERTEX
  8
KEE70
  5
3EF
 10
-1.28071
 20
-0.984997
 30
0.000000
  70
    32
  0
VERTEX
  8
KEE70
  5
3F0
 10
-1.28203
 20
-0.984102
 30
0.000000
  70
    32
  0
VERTEX
  8
KEE70
  5
3F1
 10
-1.28334
 20
-0.983202
 30
0.000000
  70
    32
  0
VERTEX
  8
KEE70
  5
3F2
 10
-1.28465
 20
-0.982299
 30
0.000000
  70
    32
  0
VERTEX
  8
KEE70
  5
3F3
 10
-1.28595
 20
-0.981391
 30
0.000000
  70
    32
  0
VERTEX
  8
KEE70
  5
3F4
 10
-1.28725
 20
-0.980479
 30
0.000000
  70
    32
  0
VERTEX
  8
KEE70
  5
3F5
 10
-1.28854
 20
-0.979562
 30
0.000000
  70
    32
  0
VERTEX
  8
KEE70
  5
3F6
 10
-1.28982
 20
-0.978642
 30
0.000000
  70
    32
  0
VERTEX
  8
KEE70
  5
3F7
 10
-1.29110
 20
-0.977718
 30
0.000000
  70
    32
  0
VERTEX
  8
KEE70
  5
3F8
 10
-1.29237
 20
-0.976789
 30
0.000000
  70
    32
  0
VERTEX
  8
KEE70
  5
3F9
 10
-1.29364
 20
-0.975857
 30
0.000000
  70
    32
  0
VERTEX
  8
KEE70
  5
3FA
 10
-1.29490
 20
-0.974920
 30
0.000000
  70
    32
  0
VERTEX
  8
KEE70
  5
3FB
 10
-1.29615
 20
-0.973980
 30
0.000000
  70
    32
  0
VERTEX
  8
KEE70
  5
3FC
 10
-1.29740
 20
-0.973035
 30
0.000000
  70
    32
  0
VERTEX
  8
KEE70
  5
3FD
 10
-1.29864
 20
-0.972087
 30
0.000000
  70
    32
  0
VERTEX
  8
KEE70
  5
3FE
 10
-1.29988
 20
-0.971134
 30
0.000000
  70
    32
  0
VERTEX
  8
KEE70
  5
3FF
 10
-1.30111
 20
-0.970178
 30
0.000000
  70
    32
  0
VERTEX
  8
KEE70
  5
400
 10
-1.30233
 20
-0.969218
 30
0.000000
  70
    32
  0
VERTEX
  8
KEE70
  5
401
 10
-1.30355
 20
-0.968254
 30
0.000000
  70
    32
  0
VERTEX
  8
KEE70
  5
402
 10
-1.30476
 20
-0.967286
 30
0.000000
  70
    32
  0
VERTEX
  8
KEE70
  5
403
 10
-1.30597
 20
-0.966314
 30
0.000000
  70
    32
  0
VERTEX
  8
KEE70
  5
404
 10
-1.30717
 20
-0.965338
 30
0.000000
  70
    32
  0
VERTEX
  8
KEE70
  5
405
 10
-1.30836
 20
-0.964359
 30
0.000000
  70
    32
  0
VERTEX
  8
KEE70
  5
406
 10
-1.30955
 20
-0.963376
 30
0.000000
  70
    32
  0
VERTEX
  8
KEE70
  5
407
 10
-1.31073
 20
-0.962389
 30
0.000000
  70
    32
  0
VERTEX
  8
KEE70
  5
408
 10
-1.31191
 20
-0.961398
 30
0.000000
  70
    32
  0
VERTEX
  8
KEE70
  5
409
 10
-1.31308
 20
-0.960403
 30
0.000000
  70
    32
  0
VERTEX
  8
KEE70
  5
40A
 10
-1.31424
 20
-0.959405
 30
0.000000
  70
    32
  0
VERTEX
  8
KEE70
  5
40B
 10
-1.31539
 20
-0.958403
 30
0.000000
  70
    32
  0
SEQEND
  8
KEE70
  5
40C
  0
POLYLINE
  5
41
  8
KEE70
 66
     1
 10
0.0
 20
0.0
 30
0.0
  0
VERTEX
  5
222
  8
KEE70
 10
-1.65625
 20
-0.6447591975468044
 30
0.0
  0
VERTEX
  5
223
  8
KEE70
 10
-1.62208250796284
 20
-0.6464179575999447
 30
0.0
  0
VERTEX
  5
224
  8
KEE70
 10
-1.5755734596525059
 20
-0.6542168923719478
 30
0.0
  0
VERTEX
  5
225
  8
KEE70
 10
-1.5335232630299771
 20
-0.6675259754754217
 30
0.0
  0
VERTEX
  5
226
  8
KEE70
 10
-1.495640758396021
 20
-0.6860650998447389
 30
0.0
  0
VERTEX
  5
227
  8
KEE70
 10
-1.4653551131917351
 20
-0.7073888001446838
 30
0.0
  0
VERTEX
  5
228
  8
KEE70
 10
-1.4406484757180631
 20
-0.7320485118131943
 30
0.0
  0
VERTEX
  5
229
  8
KEE70
 10
-1.4178003076148891
 20
-0.7684240099854325
 30
0.0
  0
VERTEX
  5
22A
  8
KEE70
 10
-1.4141885408620369
 20
-0.7773417190199689
 30
0.0
  0
SEQEND
  5
22B
  8
KEE70
  0
POLYLINE
  5
42
  8
KEE70
 66
     1
 10
0.0
 20
0.0
 30
0.0
  0
VERTEX
  5
22C
  8
KEE70
 10
-1.4141885408620369
 20
-0.7773417190199689
 30
0.0
  0
VERTEX
  5
22D
  8
KEE70
 10
-1.4087275034940661
 20
-0.7340651313377649
 30
0.0
  0
VERTEX
  5
22E
  8
KEE70
 10
-1.3896084863320171
 20
-0.6857433432447087
 30
0.0
  0
VERTEX
  5
22F
  8
KEE70
 10
-1.3588632671487699
 20
-0.6405770730143621
 30
0.0
  0
VERTEX
  5
230
  8
KEE70
 10
-1.3153926495427171
 20
-0.5962802113566648
 30
0.0
  0
SEQEND
  5
231
  8
KEE70
  0
POLYLINE
  5
43
  8
KEE70
 66
     1
 10
0.0
 20
0.0
 30
0.0
  0
VERTEX
  5
232
  8
KEE70
 10
-1.0
 20
-0.4187772233199088
 30
0.0
  0
VERTEX
  5
233
  8
KEE70
 10
-1.0835594584704991
 20
-0.4301131157946703
 30
0.0
  0
VERTEX
  5
234
  8
KEE70
 10
-1.1628571747620591
 20
-0.4624372135676298
 30
0.0
  0
VERTEX
  5
235
  8
KEE70
 10
-1.2379563252649739
 20
-0.5144822370998307
 30
0.0
  0
VERTEX
  5
236
  8
KEE70
 10
-1.301943452137333
 20
-0.5794134360963552
 30
0.0
  0
VERTEX
  5
237
  8
KEE70
 10
-1.3153926495427171
 20
-0.5962802113566648
 30
0.0
  0
SEQEND
  5
238
  8
KEE70
  0
POLYLINE
  5
44
  8
KEE70
 10
-1.3153926495427162
 20
-0.5962802113562442
 30
0.0
 66
     1
 70
     8
  0
VERTEX
  8
KEE70
  5
40D
 10
-1.31539
 20
-0.596280
 30
0.000000
  70
    32
  0
VERTEX
  8
KEE70
  5
40E
 10
-1.31181
 20
-0.593200
 30
0.000000
  70
    32
  0
VERTEX
  8
KEE70
  5
40F
 10
-1.30816
 20
-0.590156
 30
0.000000
  70
    32
  0
VERTEX
  8
KEE70
  5
410
 10
-1.30445
 20
-0.587148
 30
0.000000
  70
    32
  0
VERTEX
  8
KEE70
  5
411
 10
-1.30069
 20
-0.584177
 30
0.000000
  70
    32
  0
VERTEX
  8
KEE70
  5
412
 10
-1.29687
 20
-0.581242
 30
0.000000
  70
    32
  0
VERTEX
  8
KEE70
  5
413
 10
-1.29299
 20
-0.578346
 30
0.000000
  70
    32
  0
VERTEX
  8
KEE70
  5
414
 10
-1.28905
 20
-0.575488
 30
0.000000
  70
    32
  0
VERTEX
  8
KEE70
  5
415
 10
-1.28506
 20
-0.572669
 30
0.000000
  70
    32
  0
VERTEX
  8
KEE70
  5
416
 10
-1.28101
 20
-0.569889
 30
0.000000
  70
    32
  0
VERTEX
  8
KEE70
  5
417
 10
-1.27691
 20
-0.567150
 30
0.000000
  70
    32
  0
VERTEX
  8
KEE70
  5
418
 10
-1.27275
 20
-0.564451
 30
0.000000
  70
    32
  0
VERTEX
  8
KEE70
  5
419
 10
-1.26854
 20
-0.561793
 30
0.000000
  70
    32
  0
VERTEX
  8
KEE70
  5
41A
 10
-1.26429
 20
-0.559176
 30
0.000000
  70
    32
  0
VERTEX
  8
KEE70
  5
41B
 10
-1.25998
 20
-0.556602
 30
0.000000
  70
    32
  0
VERTEX
  8
KEE70
  5
41C
 10
-1.25561
 20
-0.554070
 30
0.000000
  70
    32
  0
VERTEX
  8
KEE70
  5
41D
 10
-1.25120
 20
-0.551582
 30
0.000000
  70
    32
  0
VERTEX
  8
KEE70
  5
41E
 10
-1.24675
 20
-0.549137
 30
0.000000
  70
    32
  0
VERTEX
  8
KEE70
  5
41F
 10
-1.24224
 20
-0.546735
 30
0.000000
  70
    32
  0
VERTEX
  8
KEE70
  5
420
 10
-1.23769
 20
-0.544379
 30
0.000000
  70
    32
  0
VERTEX
  8
KEE70
  5
421
 10
-1.23309
 20
-0.542067
 30
0.000000
  70
    32
  0
VERTEX
  8
KEE70
  5
422
 10
-1.22845
 20
-0.539801
 30
0.000000
  70
    32
  0
VERTEX
  8
KEE70
  5
423
 10
-1.22376
 20
-0.537580
 30
0.000000
  70
    32
  0
VERTEX
  8
KEE70
  5
424
 10
-1.21903
 20
-0.535406
 30
0.000000
  70
    32
  0
VERTEX
  8
KEE70
  5
425
 10
-1.21426
 20
-0.533279
 30
0.000000
  70
    32
  0
VERTEX
  8
KEE70
  5
426
 10
-1.20944
 20
-0.531198
 30
0.000000
  70
    32
  0
VERTEX
  8
KEE70
  5
427
 10
-1.20459
 20
-0.529165
 30
0.000000
  70
    32
  0
VERTEX
  8
KEE70
  5
428
 10
-1.19969
 20
-0.527180
 30
0.000000
  70
    32
  0
VERTEX
  8
KEE70
  5
429
 10
-1.19476
 20
-0.525243
 30
0.000000
  70
    32
  0
VERTEX
  8
KEE70
  5
42A
 10
-1.18979
 20
-0.523355
 30
0.000000
  70
    32
  0
VERTEX
  8
KEE70
  5
42B
 10
-1.18478
 20
-0.521515
 30
0.000000
  70
    32
  0
VERTEX
  8
KEE70
  5
42C
 10
-1.17974
 20
-0.519725
 30
0.000000
  70
    32
  0
VERTEX
  8
KEE70
  5
42D
 10
-1.17466
 20
-0.517985
 30
0.000000
  70
    32
  0
VERTEX
  8
KEE70
  5
42E
 10
-1.16955
 20
-0.516295
 30
0.000000
  70
    32
  0
VERTEX
  8
KEE70
  5
42F
 10
-1.16441
 20
-0.514655
 30
0.000000
  70
    32
  0
VERTEX
  8
KEE70
  5
430
 10
-1.15923
 20
-0.513066
 30
0.000000
  70
    32
  0
VERTEX
  8
KEE70
  5
431
 10
-1.15403
 20
-0.511528
 30
0.000000
  70
    32
  0
VERTEX
  8
KEE70
  5
432
 10
-1.14879
 20
-0.510041
 30
0.000000
  70
    32
  0
VERTEX
  8
KEE70
  5
433
 10
-1.14353
 20
-0.508605
 30
0.000000
  70
    32
  0
VERTEX
  8
KEE70
  5
434
 10
-1.13824
 20
-0.507222
 30
0.000000
  70
    32
  0
VERTEX
  8
KEE70
  5
435
 10
-1.13292
 20
-0.505890
 30
0.000000
  70
    32
  0
VERTEX
  8
KEE70
  5
436
 10
-1.12757
 20
-0.504611
 30
0.000000
  70
    32
  0
VERTEX
  8
KEE70
  5
437
 10
-1.12220
 20
-0.503385
 30
0.000000
  70
    32
  0
VERTEX
  8
KEE70
  5
438
 10
-1.11681
 20
-0.502211
 30
0.000000
  70
    32
  0
VERTEX
  8
KEE70
  5
439
 10
-1.11140
 20
-0.501090
 30
0.000000
  70
    32
  0
VERTEX
  8
KEE70
  5
43A
 10
-1.10596
 20
-0.500023
 30
0.000000
  70
    32
  0
VERTEX
  8
KEE70
  5
43B
 10
-1.10050
 20
-0.499009
 30
0.000000
  70
    32
  0
VERTEX
  8
KEE70
  5
43C
 10
-1.09503
 20
-0.498049
 30
0.000000
  70
    32
  0
VERTEX
  8
KEE70
  5
43D
 10
-1.08953
 20
-0.497143
 30
0.000000
  70
    32
  0
VERTEX
  8
KEE70
  5
43E
 10
-1.08402
 20
-0.496291
 30
0.000000
  70
    32
  0
VERTEX
  8
KEE70
  5
43F
 10
-1.07849
 20
-0.495493
 30
0.000000
  70
    32
  0
VERTEX
  8
KEE70
  5
440
 10
-1.07295
 20
-0.494749
 30
0.000000
  70
    32
  0
VERTEX
  8
KEE70
  5
441
 10
-1.06739
 20
-0.494060
 30
0.000000
  70
    32
  0
VERTEX
  8
KEE70
  5
442
 10
-1.06182
 20
-0.493425
 30
0.000000
  70
    32
  0
VERTEX
  8
KEE70
  5
443
 10
-1.05624
 20
-0.492846
 30
0.000000
  70
    32
  0
VERTEX
  8
KEE70
  5
444
 10
-1.05065
 20
-0.492321
 30
0.000000
  70
    32
  0
VERTEX
  8
KEE70
  5
445
 10
-1.04504
 20
-0.491851
 30
0.000000
  70
    32
  0
VERTEX
  8
KEE70
  5
446
 10
-1.03943
 20
-0.491436
 30
0.000000
  70
    32
  0
VERTEX
  8
KEE70
  5
447
 10
-1.03381
 20
-0.491076
 30
0.000000
  70
    32
  0
VERTEX
  8
KEE70
  5
448
 10
-1.02819
 20
-0.490772
 30
0.000000
  70
    32
  0
VERTEX
  8
KEE70
  5
449
 10
-1.02256
 20
-0.490523
 30
0.000000
  70
    32
  0
VERTEX
  8
KEE70
  5
44A
 10
-1.01692
 20
-0.490329
 30
0.000000
  70
    32
  0
VERTEX
  8
KEE70
  5
44B
 10
-1.01128
 20
-0.490190
 30
0.000000
  70
    32
  0
VERTEX
  8
KEE70
  5
44C
 10
-1.00564
 20
-0.490107
 30
0.000000
  70
    32
  0
VERTEX
  8
KEE70
  5
44D
 10
-1.00000
 20
-0.490080
 30
0.000000
  70
    32
  0
VERTEX
  8
KEE70
  5
44E
 10
-0.994358
 20
-0.490107
 30
0.000000
  70
    32
  0
VERTEX
  8
KEE70
  5
44F
 10
-0.988717
 20
-0.490190
 30
0.000000
  70
    32
  0
VERTEX
  8
KEE70
  5
450
 10
-0.983078
 20
-0.490329
 30
0.000000
  70
    32
  0
VERTEX
  8
KEE70
  5
451
 10
-0.977443
 20
-0.490523
 30
0.000000
  70
    32
  0
VERTEX
  8
KEE70
  5
452
 10
-0.971812
 20
-0.490772
 30
0.000000
  70
    32
  0
VERTEX
  8
KEE70
  5
453
 10
-0.966186
 20
-0.491076
 30
0.000000
  70
    32
  0
VERTEX
  8
KEE70
  5
454
 10
-0.960567
 20
-0.491436
 30
0.000000
  70
    32
  0
VERTEX
  8
KEE70
  5
455
 10
-0.954956
 20
-0.491851
 30
0.000000
  70
    32
  0
VERTEX
  8
KEE70
  5
456
 10
-0.949353
 20
-0.492321
 30
0.000000
  70
    32
  0
VERTEX
  8
KEE70
  5
457
 10
-0.943760
 20
-0.492846
 30
0.000000
  70
    32
  0
VERTEX
  8
KEE70
  5
458
 10
-0.938177
 20
-0.493425
 30
0.000000
  70
    32
  0
VERTEX
  8
KEE70
  5
459
 10
-0.932607
 20
-0.494060
 30
0.000000
  70
    32
  0
VERTEX
  8
KEE70
  5
45A
 10
-0.927050
 20
-0.494749
 30
0.000000
  70
    32
  0
VERTEX
  8
KEE70
  5
45B
 10
-0.921507
 20
-0.495493
 30
0.000000
  70
    32
  0
VERTEX
  8
KEE70
  5
45C
 10
-0.915979
 20
-0.496291
 30
0.000000
  70
    32
  0
VERTEX
  8
KEE70
  5
45D
 10
-0.910467
 20
-0.497143
 30
0.000000
  70
    32
  0
VERTEX
  8
KEE70
  5
45E
 10
-0.904972
 20
-0.498049
 30
0.000000
  70
    32
  0
VERTEX
  8
KEE70
  5
45F
 10
-0.899496
 20
-0.499009
 30
0.000000
  70
    32
  0
VERTEX
  8
KEE70
  5
460
 10
-0.894039
 20
-0.500023
 30
0.000000
  70
    32
  0
VERTEX
  8
KEE70
  5
461
 10
-0.888602
 20
-0.501090
 30
0.000000
  70
    32
  0
VERTEX
  8
KEE70
  5
462
 10
-0.883187
 20
-0.502211
 30
0.000000
  70
    32
  0
VERTEX
  8
KEE70
  5
463
 10
-0.877795
 20
-0.503385
 30
0.000000
  70
    32
  0
VERTEX
  8
KEE70
  5
464
 10
-0.872426
 20
-0.504611
 30
0.000000
  70
    32
  0
VERTEX
  8
KEE70
  5
465
 10
-0.867082
 20
-0.505890
 30
0.000000
  70
    32
  0
VERTEX
  8
KEE70
  5
466
 10
-0.861763
 20
-0.507222
 30
0.000000
  70
    32
  0
VERTEX
  8
KEE70
  5
467
 10
-0.856471
 20
-0.508605
 30
0.000000
  70
    32
  0
VERTEX
  8
KEE70
  5
468
 10
-0.851207
 20
-0.510041
 30
0.000000
  70
    32
  0
VERTEX
  8
KEE70
  5
469
 10
-0.845971
 20
-0.511528
 30
0.000000
  70
    32
  0
VERTEX
  8
KEE70
  5
46A
 10
-0.840766
 20
-0.513066
 30
0.000000
  70
    32
  0
VERTEX
  8
KEE70
  5
46B
 10
-0.835590
 20
-0.514655
 30
0.000000
  70
    32
  0
VERTEX
  8
KEE70
  5
46C
 10
-0.830447
 20
-0.516295
 30
0.000000
  70
    32
  0
VERTEX
  8
KEE70
  5
46D
 10
-0.825336
 20
-0.517985
 30
0.000000
  70
    32
  0
VERTEX
  8
KEE70
  5
46E
 10
-0.820259
 20
-0.519725
 30
0.000000
  70
    32
  0
VERTEX
  8
KEE70
  5
46F
 10
-0.815217
 20
-0.521515
 30
0.000000
  70
    32
  0
VERTEX
  8
KEE70
  5
470
 10
-0.810210
 20
-0.523355
 30
0.000000
  70
    32
  0
VERTEX
  8
KEE70
  5
471
 10
-0.805240
 20
-0.525243
 30
0.000000
  70
    32
  0
VERTEX
  8
KEE70
  5
472
 10
-0.800307
 20
-0.527180
 30
0.000000
  70
    32
  0
VERTEX
  8
KEE70
  5
473
 10
-0.795413
 20
-0.529165
 30
0.000000
  70
    32
  0
VERTEX
  8
KEE70
  5
474
 10
-0.790559
 20
-0.531198
 30
0.000000
  70
    32
  0
VERTEX
  8
KEE70
  5
475
 10
-0.785745
 20
-0.533279
 30
0.000000
  70
    32
  0
VERTEX
  8
KEE70
  5
476
 10
-0.780972
 20
-0.535406
 30
0.000000
  70
    32
  0
VERTEX
  8
KEE70
  5
477
 10
-0.776241
 20
-0.537580
 30
0.000000
  70
    32
  0
VERTEX
  8
KEE70
  5
478
 10
-0.771554
 20
-0.539801
 30
0.000000
  70
    32
  0
VERTEX
  8
KEE70
  5
479
 10
-0.766910
 20
-0.542067
 30
0.000000
  70
    32
  0
VERTEX
  8
KEE70
  5
47A
 10
-0.762312
 20
-0.544379
 30
0.000000
  70
    32
  0
VERTEX
  8
KEE70
  5
47B
 10
-0.757759
 20
-0.546735
 30
0.000000
  70
    32
  0
VERTEX
  8
KEE70
  5
47C
 10
-0.753253
 20
-0.549137
 30
0.000000
  70
    32
  0
VERTEX
  8
KEE70
  5
47D
 10
-0.748795
 20
-0.551582
 30
0.000000
  70
    32
  0
VERTEX
  8
KEE70
  5
47E
 10
-0.744385
 20
-0.554070
 30
0.000000
  70
    32
  0
VERTEX
  8
KEE70
  5
47F
 10
-0.740025
 20
-0.556602
 30
0.000000
  70
    32
  0
VERTEX
  8
KEE70
  5
480
 10
-0.735714
 20
-0.559176
 30
0.000000
  70
    32
  0
VERTEX
  8
KEE70
  5
481
 10
-0.731455
 20
-0.561793
 30
0.000000
  70
    32
  0
VERTEX
  8
KEE70
  5
482
 10
-0.727248
 20
-0.564451
 30
0.000000
  70
    32
  0
VERTEX
  8
KEE70
  5
483
 10
-0.723093
 20
-0.567150
 30
0.000000
  70
    32
  0
VERTEX
  8
KEE70
  5
484
 10
-0.718991
 20
-0.569889
 30
0.000000
  70
    32
  0
VERTEX
  8
KEE70
  5
485
 10
-0.714944
 20
-0.572669
 30
0.000000
  70
    32
  0
VERTEX
  8
KEE70
  5
486
 10
-0.710951
 20
-0.575488
 30
0.000000
  70
    32
  0
VERTEX
  8
KEE70
  5
487
 10
-0.707015
 20
-0.578346
 30
0.000000
  70
    32
  0
VERTEX
  8
KEE70
  5
488
 10
-0.703134
 20
-0.581242
 30
0.000000
  70
    32
  0
VERTEX
  8
KEE70
  5
489
 10
-0.699312
 20
-0.584177
 30
0.000000
  70
    32
  0
VERTEX
  8
KEE70
  5
48A
 10
-0.695547
 20
-0.587148
 30
0.000000
  70
    32
  0
VERTEX
  8
KEE70
  5
48B
 10
-0.691841
 20
-0.590156
 30
0.000000
  70
    32
  0
VERTEX
  8
KEE70
  5
48C
 10
-0.688194
 20
-0.593200
 30
0.000000
  70
    32
  0
VERTEX
  8
KEE70
  5
48D
 10
-0.684607
 20
-0.596280
 30
0.000000
  70
    32
  0
SEQEND
  8
KEE70
  5
48E
  0
POLYLINE
  5
45
  8
KEE70
 66
     1
 10
0.0
 20
0.0
 30
0.0
  0
VERTEX
  5
239
  8
KEE70
 10
-1.0
 20
-0.1687122907302365
 30
0.0
  0
VERTEX
  5
23A
  8
KEE70
 10
-1.0
 20
-0.1879816333995459
 30
0.0
  0
VERTEX
  5
23B
  8
KEE70
 10
-1.0
 20
-0.2373175120187234
 30
0.0
  0
VERTEX
  5
23C
  8
KEE70
 10
-1.0
 20
-0.2868383384192175
 30
0.0
  0
VERTEX
  5
23D
  8
KEE70
 10
-1.0
 20
-0.3318109888797442
 30
0.0
  0
VERTEX
  5
23E
  8
KEE70
 10
-1.0
 20
-0.3736479639066488
 30
0.0
  0
VERTEX
  5
23F
  8
KEE70
 10
-1.0
 20
-0.4187772233199088
 30
0.0
  0
SEQEND
  5
240
  8
KEE70
  0
POLYLINE
  5
46
  8
KEE70
 66
     1
 10
0.0
 20
0.0
 30
0.0
  0
VERTEX
  5
241
  8
KEE70
 10
-1.0
 20
-0.4187772233199088
 30
0.0
  0
VERTEX
  5
242
  8
KEE70
 10
-0.9164405415295036
 20
-0.4301131157946703
 30
0.0
  0
VERTEX
  5
243
  8
KEE70
 10
-0.8371428252379438
 20
-0.4624372135676289
 30
0.0
  0
VERTEX
  5
244
  8
KEE70
 10
-0.762043674735029
 20
-0.5144822370998307
 30
0.0
  0
VERTEX
  5
245
  8
KEE70
 10
-0.6980565478626702
 20
-0.5794134360963552
 30
0.0
  0
VERTEX
  5
246
  8
KEE70
 10
-0.6846073504572843
 20
-0.5962802113566648
 30
0.0
  0
SEQEND
  5
247
  8
KEE70
  0
POLYLINE
  5
47
  8
KEE70
 66
     1
 10
0.0
 20
0.0
 30
0.0
  0
VERTEX
  5
248
  8
KEE70
 10
-0.5858114591379647
 20
-0.7773417190199689
 30
0.0
  0
VERTEX
  5
249
  8
KEE70
 10
-0.5912724965059369
 20
-0.7340651313377649
 30
0.0
  0
VERTEX
  5
24A
  8
KEE70
 10
-0.6103915136679845
 20
-0.6857433432447087
 30
0.0
  0
VERTEX
  5
24B
  8
KEE70
 10
-0.6411367328512334
 20
-0.6405770730143621
 30
0.0
  0
VERTEX
  5
24C
  8
KEE70
 10
-0.6846073504572843
 20
-0.5962802113566648
 30
0.0
  0
SEQEND
  5
24D
  8
KEE70
  0
POLYLINE
  5
48
  8
KEE70
 10
-0.6846073504572842
 20
-0.9584032266823197
 30
0.0
 66
     1
 70
     8
  0
VERTEX
  8
KEE70
  5
48F
 10
-0.684607
 20
-0.958403
 30
0.000000
  70
    32
  0
VERTEX
  8
KEE70
  5
490
 10
-0.685763
 20
-0.959405
 30
0.000000
  70
    32
  0
VERTEX
  8
KEE70
  5
491
 10
-0.686925
 20
-0.960403
 30
0.000000
  70
    32
  0
VERTEX
  8
KEE70
  5
492
 10
-0.688093
 20
-0.961398
 30
0.000000
  70
    32
  0
VERTEX
  8
KEE70
  5
493
 10
-0.689268
 20
-0.962389
 30
0.000000
  70
    32
  0
VERTEX
  8
KEE70
  5
494
 10
-0.690449
 20
-0.963376
 30
0.000000
  70
    32
  0
VERTEX
  8
KEE70
  5
495
 10
-0.691636
 20
-0.964359
 30
0.000000
  70
    32
  0
VERTEX
  8
KEE70
  5
496
 10
-0.692830
 20
-0.965338
 30
0.000000
  70
    32
  0
VERTEX
  8
KEE70
  5
497
 10
-0.694029
 20
-0.966314
 30
0.000000
  70
    32
  0
VERTEX
  8
KEE70
  5
498
 10
-0.695235
 20
-0.967286
 30
0.000000
  70
    32
  0
VERTEX
  8
KEE70
  5
499
 10
-0.696447
 20
-0.968254
 30
0.000000
  70
    32
  0
VERTEX
  8
KEE70
  5
49A
 10
-0.697666
 20
-0.969218
 30
0.000000
  70
    32
  0
VERTEX
  8
KEE70
  5
49B
 10
-0.698890
 20
-0.970178
 30
0.000000
  70
    32
  0
VERTEX
  8
KEE70
  5
49C
 10
-0.700120
 20
-0.971134
 30
0.000000
  70
    32
  0
VERTEX
  8
KEE70
  5
49D
 10
-0.701357
 20
-0.972087
 30
0.000000
  70
    32
  0
VERTEX
  8
KEE70
  5
49E
 10
-0.702599
 20
-0.973035
 30
0.000000
  70
    32
  0
VERTEX
  8
KEE70
  5
49F
 10
-0.703848
 20
-0.973980
 30
0.000000
  70
    32
  0
VERTEX
  8
KEE70
  5
4A0
 10
-0.705103
 20
-0.974920
 30
0.000000
  70
    32
  0
VERTEX
  8
KEE70
  5
4A1
 10
-0.706363
 20
-0.975857
 30
0.000000
  70
    32
  0
VERTEX
  8
KEE70
  5
4A2
 10
-0.707630
 20
-0.976789
 30
0.000000
  70
    32
  0
VERTEX
  8
KEE70
  5
4A3
 10
-0.708902
 20
-0.977718
 30
0.000000
  70
    32
  0
VERTEX
  8
KEE70
  5
4A4
 10
-0.710180
 20
-0.978642
 30
0.000000
  70
    32
  0
VERTEX
  8
KEE70
  5
4A5
 10
-0.711465
 20
-0.979562
 30
0.000000
  70
    32
  0
VERTEX
  8
KEE70
  5
4A6
 10
-0.712755
 20
-0.980479
 30
0.000000
  70
    32
  0
VERTEX
  8
KEE70
  5
4A7
 10
-0.714050
 20
-0.981391
 30
0.000000
  70
    32
  0
VERTEX
  8
KEE70
  5
4A8
 10
-0.715352
 20
-0.982299
 30
0.000000
  70
    32
  0
VERTEX
  8
KEE70
  5
4A9
 10
-0.716660
 20
-0.983202
 30
0.000000
  70
    32
  0
VERTEX
  8
KEE70
  5
4AA
 10
-0.717973
 20
-0.984102
 30
0.000000
  70
    32
  0
VERTEX
  8
KEE70
  5
4AB
 10
-0.719292
 20
-0.984997
 30
0.000000
  70
    32
  0
VERTEX
  8
KEE70
  5
4AC
 10
-0.720616
 20
-0.985889
 30
0.000000
  70
    32
  0
VERTEX
  8
KEE70
  5
4AD
 10
-0.721946
 20
-0.986776
 30
0.000000
  70
    32
  0
VERTEX
  8
KEE70
  5
4AE
 10
-0.723282
 20
-0.987659
 30
0.000000
  70
    32
  0
VERTEX
  8
KEE70
  5
4AF
 10
-0.724624
 20
-0.988537
 30
0.000000
  70
    32
  0
VERTEX
  8
KEE70
  5
4B0
 10
-0.725971
 20
-0.989411
 30
0.000000
  70
    32
  0
VERTEX
  8
KEE70
  5
4B1
 10
-0.727323
 20
-0.990281
 30
0.000000
  70
    32
  0
VERTEX
  8
KEE70
  5
4B2
 10
-0.728681
 20
-0.991147
 30
0.000000
  70
    32
  0
VERTEX
  8
KEE70
  5
4B3
 10
-0.730045
 20
-0.992008
 30
0.000000
  70
    32
  0
VERTEX
  8
KEE70
  5
4B4
 10
-0.731414
 20
-0.992865
 30
0.000000
  70
    32
  0
VERTEX
  8
KEE70
  5
4B5
 10
-0.732789
 20
-0.993718
 30
0.000000
  70
    32
  0
VERTEX
  8
KEE70
  5
4B6
 10
-0.734168
 20
-0.994566
 30
0.000000
  70
    32
  0
VERTEX
  8
KEE70
  5
4B7
 10
-0.735554
 20
-0.995410
 30
0.000000
  70
    32
  0
VERTEX
  8
KEE70
  5
4B8
 10
-0.736944
 20
-0.996249
 30
0.000000
  70
    32
  0
VERTEX
  8
KEE70
  5
4B9
 10
-0.738340
 20
-0.997084
 30
0.000000
  70
    32
  0
VERTEX
  8
KEE70
  5
4BA
 10
-0.739742
 20
-0.997914
 30
0.000000
  70
    32
  0
VERTEX
  8
KEE70
  5
4BB
 10
-0.741148
 20
-0.998741
 30
0.000000
  70
    32
  0
VERTEX
  8
KEE70
  5
4BC
 10
-0.742560
 20
-0.999562
 30
0.000000
  70
    32
  0
VERTEX
  8
KEE70
  5
4BD
 10
-0.743977
 20
-1.00038
 30
0.000000
  70
    32
  0
VERTEX
  8
KEE70
  5
4BE
 10
-0.745399
 20
-1.00119
 30
0.000000
  70
    32
  0
VERTEX
  8
KEE70
  5
4BF
 10
-0.746827
 20
-1.00200
 30
0.000000
  70
    32
  0
VERTEX
  8
KEE70
  5
4C0
 10
-0.748259
 20
-1.00280
 30
0.000000
  70
    32
  0
VERTEX
  8
KEE70
  5
4C1
 10
-0.749697
 20
-1.00360
 30
0.000000
  70
    32
  0
VERTEX
  8
KEE70
  5
4C2
 10
-0.751139
 20
-1.00440
 30
0.000000
  70
    32
  0
VERTEX
  8
KEE70
  5
4C3
 10
-0.752587
 20
-1.00519
 30
0.000000
  70
    32
  0
VERTEX
  8
KEE70
  5
4C4
 10
-0.754040
 20
-1.00597
 30
0.000000
  70
    32
  0
VERTEX
  8
KEE70
  5
4C5
 10
-0.755498
 20
-1.00675
 30
0.000000
  70
    32
  0
VERTEX
  8
KEE70
  5
4C6
 10
-0.756960
 20
-1.00753
 30
0.000000
  70
    32
  0
VERTEX
  8
KEE70
  5
4C7
 10
-0.758428
 20
-1.00830
 30
0.000000
  70
    32
  0
VERTEX
  8
KEE70
  5
4C8
 10
-0.759900
 20
-1.00906
 30
0.000000
  70
    32
  0
VERTEX
  8
KEE70
  5
4C9
 10
-0.761378
 20
-1.00983
 30
0.000000
  70
    32
  0
VERTEX
  8
KEE70
  5
4CA
 10
-0.762860
 20
-1.01058
 30
0.000000
  70
    32
  0
VERTEX
  8
KEE70
  5
4CB
 10
-0.764347
 20
-1.01134
 30
0.000000
  70
    32
  0
VERTEX
  8
KEE70
  5
4CC
 10
-0.765838
 20
-1.01208
 30
0.000000
  70
    32
  0
VERTEX
  8
KEE70
  5
4CD
 10
-0.767335
 20
-1.01283
 30
0.000000
  70
    32
  0
VERTEX
  8
KEE70
  5
4CE
 10
-0.768836
 20
-1.01356
 30
0.000000
  70
    32
  0
VERTEX
  8
KEE70
  5
4CF
 10
-0.770342
 20
-1.01430
 30
0.000000
  70
    32
  0
VERTEX
  8
KEE70
  5
4D0
 10
-0.771853
 20
-1.01503
 30
0.000000
  70
    32
  0
VERTEX
  8
KEE70
  5
4D1
 10
-0.773368
 20
-1.01575
 30
0.000000
  70
    32
  0
VERTEX
  8
KEE70
  5
4D2
 10
-0.774887
 20
-1.01647
 30
0.000000
  70
    32
  0
VERTEX
  8
KEE70
  5
4D3
 10
-0.776412
 20
-1.01718
 30
0.000000
  70
    32
  0
VERTEX
  8
KEE70
  5
4D4
 10
-0.777941
 20
-1.01789
 30
0.000000
  70
    32
  0
VERTEX
  8
KEE70
  5
4D5
 10
-0.779474
 20
-1.01860
 30
0.000000
  70
    32
  0
VERTEX
  8
KEE70
  5
4D6
 10
-0.781012
 20
-1.01930
 30
0.000000
  70
    32
  0
VERTEX
  8
KEE70
  5
4D7
 10
-0.782554
 20
-1.01999
 30
0.000000
  70
    32
  0
VERTEX
  8
KEE70
  5
4D8
 10
-0.784101
 20
-1.02068
 30
0.000000
  70
    32
  0
VERTEX
  8
KEE70
  5
4D9
 10
-0.785652
 20
-1.02136
 30
0.000000
  70
    32
  0
VERTEX
  8
KEE70
  5
4DA
 10
-0.787207
 20
-1.02204
 30
0.000000
  70
    32
  0
VERTEX
  8
KEE70
  5
4DB
 10
-0.788767
 20
-1.02272
 30
0.000000
  70
    32
  0
VERTEX
  8
KEE70
  5
4DC
 10
-0.790331
 20
-1.02339
 30
0.000000
  70
    32
  0
VERTEX
  8
KEE70
  5
4DD
 10
-0.791899
 20
-1.02405
 30
0.000000
  70
    32
  0
VERTEX
  8
KEE70
  5
4DE
 10
-0.793471
 20
-1.02471
 30
0.000000
  70
    32
  0
VERTEX
  8
KEE70
  5
4DF
 10
-0.795048
 20
-1.02537
 30
0.000000
  70
    32
  0
VERTEX
  8
KEE70
  5
4E0
 10
-0.796629
 20
-1.02602
 30
0.000000
  70
    32
  0
VERTEX
  8
KEE70
  5
4E1
 10
-0.798213
 20
-1.02666
 30
0.000000
  70
    32
  0
VERTEX
  8
KEE70
  5
4E2
 10
-0.799802
 20
-1.02730
 30
0.000000
  70
    32
  0
VERTEX
  8
KEE70
  5
4E3
 10
-0.801395
 20
-1.02794
 30
0.000000
  70
    32
  0
VERTEX
  8
KEE70
  5
4E4
 10
-0.802992
 20
-1.02857
 30
0.000000
  70
    32
  0
VERTEX
  8
KEE70
  5
4E5
 10
-0.804593
 20
-1.02919
 30
0.000000
  70
    32
  0
VERTEX
  8
KEE70
  5
4E6
 10
-0.806198
 20
-1.02981
 30
0.000000
  70
    32
  0
VERTEX
  8
KEE70
  5
4E7
 10
-0.807807
 20
-1.03042
 30
0.000000
  70
    32
  0
VERTEX
  8
KEE70
  5
4E8
 10
-0.809420
 20
-1.03103
 30
0.000000
  70
    32
  0
VERTEX
  8
KEE70
  5
4E9
 10
-0.811037
 20
-1.03164
 30
0.000000
  70
    32
  0
VERTEX
  8
KEE70
  5
4EA
 10
-0.812657
 20
-1.03224
 30
0.000000
  70
    32
  0
VERTEX
  8
KEE70
  5
4EB
 10
-0.814281
 20
-1.03283
 30
0.000000
  70
    32
  0
VERTEX
  8
KEE70
  5
4EC
 10
-0.815910
 20
-1.03342
 30
0.000000
  70
    32
  0
VERTEX
  8
KEE70
  5
4ED
 10
-0.817541
 20
-1.03400
 30
0.000000
  70
    32
  0
VERTEX
  8
KEE70
  5
4EE
 10
-0.819177
 20
-1.03458
 30
0.000000
  70
    32
  0
VERTEX
  8
KEE70
  5
4EF
 10
-0.820816
 20
-1.03515
 30
0.000000
  70
    32
  0
VERTEX
  8
KEE70
  5
4F0
 10
-0.822459
 20
-1.03572
 30
0.000000
  70
    32
  0
VERTEX
  8
KEE70
  5
4F1
 10
-0.824105
 20
-1.03628
 30
0.000000
  70
    32
  0
VERTEX
  8
KEE70
  5
4F2
 10
-0.825755
 20
-1.03684
 30
0.000000
  70
    32
  0
VERTEX
  8
KEE70
  5
4F3
 10
-0.827408
 20
-1.03739
 30
0.000000
  70
    32
  0
VERTEX
  8
KEE70
  5
4F4
 10
-0.829065
 20
-1.03794
 30
0.000000
  70
    32
  0
VERTEX
  8
KEE70
  5
4F5
 10
-0.830726
 20
-1.03848
 30
0.000000
  70
    32
  0
VERTEX
  8
KEE70
  5
4F6
 10
-0.832390
 20
-1.03901
 30
0.000000
  70
    32
  0
VERTEX
  8
KEE70
  5
4F7
 10
-0.834057
 20
-1.03955
 30
0.000000
  70
    32
  0
VERTEX
  8
KEE70
  5
4F8
 10
-0.835727
 20
-1.04007
 30
0.000000
  70
    32
  0
VERTEX
  8
KEE70
  5
4F9
 10
-0.837401
 20
-1.04059
 30
0.000000
  70
    32
  0
VERTEX
  8
KEE70
  5
4FA
 10
-0.839078
 20
-1.04111
 30
0.000000
  70
    32
  0
VERTEX
  8
KEE70
  5
4FB
 10
-0.840759
 20
-1.04162
 30
0.000000
  70
    32
  0
VERTEX
  8
KEE70
  5
4FC
 10
-0.842443
 20
-1.04212
 30
0.000000
  70
    32
  0
VERTEX
  8
KEE70
  5
4FD
 10
-0.844130
 20
-1.04262
 30
0.000000
  70
    32
  0
VERTEX
  8
KEE70
  5
4FE
 10
-0.845820
 20
-1.04311
 30
0.000000
  70
    32
  0
VERTEX
  8
KEE70
  5
4FF
 10
-0.847513
 20
-1.04360
 30
0.000000
  70
    32
  0
VERTEX
  8
KEE70
  5
500
 10
-0.849209
 20
-1.04408
 30
0.000000
  70
    32
  0
VERTEX
  8
KEE70
  5
501
 10
-0.850908
 20
-1.04456
 30
0.000000
  70
    32
  0
VERTEX
  8
KEE70
  5
502
 10
-0.852611
 20
-1.04503
 30
0.000000
  70
    32
  0
VERTEX
  8
KEE70
  5
503
 10
-0.854316
 20
-1.04550
 30
0.000000
  70
    32
  0
VERTEX
  8
KEE70
  5
504
 10
-0.856024
 20
-1.04596
 30
0.000000
  70
    32
  0
VERTEX
  8
KEE70
  5
505
 10
-0.857735
 20
-1.04641
 30
0.000000
  70
    32
  0
VERTEX
  8
KEE70
  5
506
 10
-0.859449
 20
-1.04686
 30
0.000000
  70
    32
  0
VERTEX
  8
KEE70
  5
507
 10
-0.861166
 20
-1.04731
 30
0.000000
  70
    32
  0
VERTEX
  8
KEE70
  5
508
 10
-0.862886
 20
-1.04775
 30
0.000000
  70
    32
  0
VERTEX
  8
KEE70
  5
509
 10
-0.864609
 20
-1.04818
 30
0.000000
  70
    32
  0
VERTEX
  8
KEE70
  5
50A
 10
-0.866334
 20
-1.04861
 30
0.000000
  70
    32
  0
VERTEX
  8
KEE70
  5
50B
 10
-0.868062
 20
-1.04903
 30
0.000000
  70
    32
  0
VERTEX
  8
KEE70
  5
50C
 10
-0.869792
 20
-1.04945
 30
0.000000
  70
    32
  0
VERTEX
  8
KEE70
  5
50D
 10
-0.871526
 20
-1.04986
 30
0.000000
  70
    32
  0
VERTEX
  8
KEE70
  5
50E
 10
-0.873262
 20
-1.05027
 30
0.000000
  70
    32
  0
VERTEX
  8
KEE70
  5
50F
 10
-0.875000
 20
-1.05067
 30
0.000000
  70
    32
  0
SEQEND
  8
KEE70
  5
510
  0
POLYLINE
  5
49
  8
KEE70
 66
     1
 10
0.0
 20
0.0
 30
0.0
  0
VERTEX
  5
24E
  8
KEE70
 10
-0.3700000000044206
 20
-0.6457363799039335
 30
0.0
  0
VERTEX
  5
24F
  8
KEE70
 10
-0.3779174920371631
 20
-0.6464179575999447
 30
0.0
  0
VERTEX
  5
250
  8
KEE70
 10
-0.424426540347497
 20
-0.6542168923719478
 30
0.0
  0
VERTEX
  5
251
  8
KEE70
 10
-0.4664767369700229
 20
-0.6675259754754217
 30
0.0
  0
VERTEX
  5
252
  8
KEE70
 10
-0.5043592416039786
 20
-0.6860650998447389
 30
0.0
  0
VERTEX
  5
253
  8
KEE70
 10
-0.5346448868082661
 20
-0.7073888001446838
 30
0.0
  0
VERTEX
  5
254
  8
KEE70
 10
-0.5593515242819401
 20
-0.7320485118131943
 30
0.0
  0
VERTEX
  5
255
  8
KEE70
 10
-0.5821996923851139
 20
-0.7684240099854325
 30
0.0
  0
VERTEX
  5
256
  8
KEE70
 10
-0.5858114591379647
 20
-0.7773417190199689
 30
0.0
  0
SEQEND
  5
257
  8
KEE70
  0
POLYLINE
  5
4A
  8
KEE70
 66
     1
 10
0.0
 20
0.0
 30
0.0
  0
VERTEX
  5
258
  8
KEE70
 10
-0.5858114591379647
 20
-0.7773417190185948
 30
0.0
  0
VERTEX
  5
259
  8
KEE70
 10
-0.5912724965059369
 20
-0.8206183067007977
 30
0.0
  0
VERTEX
  5
25A
  8
KEE70
 10
-0.6103915136679845
 20
-0.8689400947938548
 30
0.0
  0
VERTEX
  5
25B
  8
KEE70
 10
-0.6411367328512334
 20
-0.9141063650242005
 30
0.0
  0
VERTEX
  5
25C
  8
KEE70
 10
-0.6846073504572843
 20
-0.9584032266827398
 30
0.0
  0
SEQEND
  5
25D
  8
KEE70
  0
POLYLINE
  5
4B
  8
KEE70
 66
     1
 10
0.0
 20
0.0
 30
0.0
  0
VERTEX
  5
25E
  8
KEE70
 10
-0.8750000001038458
 20
-0.9909452445218175
 30
0.0
  0
VERTEX
  5
25F
  8
KEE70
 10
-0.8371428252379438
 20
-0.9887766537172698
 30
0.0
  0
VERTEX
  5
260
  8
KEE70
 10
-0.762043674735029
 20
-0.9801341452165877
 30
0.0
  0
VERTEX
  5
261
  8
KEE70
 10
-0.6980565478626702
 20
-0.963781005517578
 30
0.0
  0
VERTEX
  5
262
  8
KEE70
 10
-0.6846073504572843
 20
-0.9584032266827398
 30
0.0
  0
SEQEND
  5
263
  8
KEE70
  0
POLYLINE
  5
4C
  8
KEE70
 66
     1
 10
0.0
 20
0.0
 30
0.0
  0
VERTEX
  5
264
  8
KEE70
 10
-0.875
 20
-0.9154000998360967
 30
0.0
  0
VERTEX
  5
265
  8
KEE70
 10
-0.875
 20
-0.9215169654145363
 30
0.0
  0
VERTEX
  5
266
  8
KEE70
 10
-0.8750000000000355
 20
-0.9277432327090844
 30
0.0
  0
SEQEND
  5
267
  8
KEE70
  0
LINE
  5
4D
  8
KEE70
 10
-2.0000000000000009
 20
1.3184136008177241
 30
0.0
 11
-2.0000000000000009
 21
0.9815863991822384
 31
0.0
  0
LINE
  5
4E
  8
KEE70
 10
-2.0000000000000009
 20
0.9815863991822508
 30
0.0
 11
-2.0000000000000009
 21
-0.9815863991822745
 31
0.0
  0
POLYLINE
  5
4F
  8
KEE70
 66
     1
 10
0.0
 20
0.0
 30
0.0
  0
VERTEX
  5
268
  8
KEE70
 10
-1.65625
 20
-0.6447591975468026
 30
0.0
  0
VERTEX
  5
269
  8
KEE70
 10
-1.650767165056839
 20
-0.6920783163487682
 30
0.0
  0
VERTEX
  5
26A
  8
KEE70
 10
-1.635580608987377
 20
-0.7341132877016509
 30
0.0
  0
VERTEX
  5
26B
  8
KEE70
 10
-1.5779025918991549
 20
-0.8050614514958498
 30
0.0
  0
VERTEX
  5
26C
  8
KEE70
 10
-1.4877548072987681
 20
-0.8587512444597704
 30
0.0
  0
VERTEX
  5
26D
  8
KEE70
 10
-1.384390987226245
 20
-0.8927284570363891
 30
0.0
  0
VERTEX
  5
26E
  8
KEE70
 10
-1.2630769746156341
 20
-0.9151663843463699
 30
0.0
  0
VERTEX
  5
26F
  8
KEE70
 10
-1.1349806640663651
 20
-0.9271776577946821
 30
0.0
  0
VERTEX
  5
270
  8
KEE70
 10
-1.124999999999964
 20
-0.9277432327090853
 30
0.0
  0
SEQEND
  5
271
  8
KEE70
  0
POLYLINE
  5
50
  8
KEE70
 66
     1
 10
0.0
 20
0.0
 30
0.0
  0
VERTEX
  5
272
  8
KEE70
 10
-1.65625
 20
-0.6447591975468044
 30
0.0
  0
VERTEX
  5
273
  8
KEE70
 10
-1.650767165056839
 20
-0.5944585074829512
 30
0.0
  0
VERTEX
  5
274
  8
KEE70
 10
-1.635580608987377
 20
-0.5442891531404248
 30
0.0
  0
VERTEX
  5
275
  8
KEE70
 10
-1.5779025918991549
 20
-0.4438333448856238
 30
0.0
  0
VERTEX
  5
276
  8
KEE70
 10
-1.4877548072987681
 20
-0.3487250465739153
 30
0.0
  0
VERTEX
  5
277
  8
KEE70
 10
-1.384390987226245
 20
-0.2748442621166305
 30
0.0
  0
VERTEX
  5
278
  8
KEE70
 10
-1.2630769746156341
 20
-0.2167544349170383
 30
0.0
  0
VERTEX
  5
279
  8
KEE70
 10
-1.1349806640663651
 20
-0.1811286627958166
 30
0.0
  0
VERTEX
  5
27A
  8
KEE70
 10
-1.0
 20
-0.1687122907302365
 30
0.0
  0
SEQEND
  5
27B
  8
KEE70
  0
POLYLINE
  5
51
  8
KEE70
 66
     1
 10
0.0
 20
0.0
 30
0.0
  0
VERTEX
  5
27C
  8
KEE70
 10
-0.3700000011377966
 20
-0.5309957498880502
 30
0.0
  0
VERTEX
  5
27D
  8
KEE70
 10
-0.4220974081008464
 20
-0.4438333448856238
 30
0.0
  0
VERTEX
  5
27E
  8
KEE70
 10
-0.5122451927012364
 20
-0.3487250465739153
 30
0.0
  0
VERTEX
  5
27F
  8
KEE70
 10
-0.6156090127737599
 20
-0.2748442621166305
 30
0.0
  0
VERTEX
  5
280
  8
KEE70
 10
-0.7369230253843712
 20
-0.2167544349170374
 30
0.0
  0
VERTEX
  5
281
  8
KEE70
 10
-0.8650193359336384
 20
-0.1811286627958166
 30
0.0
  0
VERTEX
  5
282
  8
KEE70
 10
-1.0
 20
-0.1687122907302365
 30
0.0
  0
SEQEND
  5
283
  8
KEE70
  0
LINE
  5
52
  8
KEE70
 10
-0.3700000000000045
 20
-0.5309957498880502
 30
0.0
 11
-0.3700000000000045
 21
-0.7444536185221545
 31
0.0
  0
POLYLINE
  5
53
  8
KEE70
 66
     1
 10
0.0
 20
0.0
 30
0.0
  0
VERTEX
  5
284
  8
KEE70
 10
-0.3700000011377966
 20
-0.7444536185221545
 30
0.0
  0
VERTEX
  5
285
  8
KEE70
 10
-0.4220974081008464
 20
-0.8050614514958498
 30
0.0
  0
VERTEX
  5
286
  8
KEE70
 10
-0.5122451927012364
 20
-0.8587512444597704
 30
0.0
  0
VERTEX
  5
287
  8
KEE70
 10
-0.6156090127737599
 20
-0.8927284570363891
 30
0.0
  0
VERTEX
  5
288
  8
KEE70
 10
-0.7369230253843712
 20
-0.9151663843463699
 30
0.0
  0
VERTEX
  5
289
  8
KEE70
 10
-0.8650193359336384
 20
-0.9271776577946821
 30
0.0
  0
VERTEX
  5
28A
  8
KEE70
 10
-0.8750000000000355
 20
-0.9277432327090844
 30
0.0
  0
SEQEND
  5
28B
  8
KEE70
  0
LINE
  5
54
  8
KEE70
 10
-0.875
 20
-0.9277432327090853
 30
0.0
 11
-0.875
 21
-0.954083615214456
 31
0.0
  0
LINE
  5
55
  8
KEE70
 10
-0.875
 20
-0.9747727356996417
 30
0.0
 11
-0.4375
 21
-0.9747727356996417
 31
0.0
  0
LINE
  5
56
  8
KEE70
 10
-0.4375
 20
-0.9747727356996417
 30
0.0
 11
-0.4375
 21
-0.9815863991822739
 31
0.0
  0
LINE
  5
57
  8
KEE70
 10
-0.4375
 20
-0.9815863991822739
 30
0.0
 11
-0.875
 21
-0.9815863991822739
 31
0.0
  0
LINE
  5
58
  8
KEE70
 10
-0.875
 20
-0.9540836152144564
 30
0.0
 11
-1.125
 21
-0.9540836152144564
 31
0.0
  0
LINE
  5
59
  8
KEE70
 10
-1.125
 20
-0.9815863991822739
 30
0.0
 11
-1.5625
 21
-0.9815863991822739
 31
0.0
  0
LINE
  5
5A
  8
KEE70
 10
-1.5625
 20
-0.9815863991822739
 30
0.0
 11
-1.5625
 21
-0.9747727356996414
 31
0.0
  0
LINE
  5
5B
  8
KEE70
 10
-1.5625
 20
-0.9747727356996417
 30
0.0
 11
-1.125
 21
-0.9747727356996417
 31
0.0
  0
LINE
  5
5C
  8
KEE70
 10
-1.125
 20
-0.9540836152144564
 30
0.0
 11
-1.125
 21
-0.9277432327090853
 31
-0.0000000000000001
  0
LINE
  5
5D
  8
KEE70
 10
0.0
 20
-0.9815863991822739
 30
0.0
 11
0.0
 21
0.9815863991822739
 31
0.0
  0
LINE
  5
5E
  8
KEE70
 10
0.0
 20
0.9815863991822624
 30
0.0
 11
0.0
 21
1.318413600817725
 31
0.0
  0
LINE
  5
61
  8
KEE70
 10
-5.8397469801784867
 20
-2.1440863991822741
 30
0.0
 11
-5.7147469801784867
 21
-2.1440863991822741
 31
0.0
  0
ARC
  5
62
  8
KEE70
 10
-5.023660928539547
 20
-1.614117762900086
 30
0.0
 40
0.5
 50
135.00000000000011
 51
225.0
  0
LINE
  5
63
  8
KEE70
 10
-5.377214319132821
 20
-1.96767115349336
 30
0.0
 11
-5.013299076308452
 21
-2.3315863991822741
 31
0.0
  0
ARC
  5
64
  8
KEE70
 10
-6.5897469801784867
 20
-1.765990257669745
 30
0.0
 40
0.4999999999999996
 50
315.00000000000011
 51
0.0000000000000127
  0
LINE
  5
65
  8
KEE70
 10
-6.0897469801784867
 20
-1.765990257669745
 30
0.0
 11
-6.0897469801784867
 21
-0.9540836152144564
 31
0.0
  0
LINE
  5
66
  8
KEE70
 10
-6.448236340504466
 20
-2.3315863991822741
 30
0.0
 11
-6.2361935895852119
 21
-2.1195436482630181
 31
0.0
  0
LINE
  5
67
  8
KEE70
 10
-3.7147469801784871
 20
-2.5815863991822741
 30
-0.0000000000000001
 11
-3.7147469801784871
 21
-2.3315863991822741
 31
-0.0000000000000001
  0
LINE
  5
68
  8
KEE70
 10
-7.9647469801784867
 20
-2.5815863991822741
 30
0.0
 11
-3.7147469801784871
 21
-2.5815863991822741
 31
0.0
  0
LINE
  5
69
  8
KEE70
 10
-7.9647469801784867
 20
-2.5815863991822741
 30
0.0
 11
-7.9647469801784867
 21
-2.3315863991822741
 31
0.0
  0
LINE
  5
6A
  8
KEE70
 10
-3.7147469801784871
 20
-2.3315863991822741
 30
-0.0000000000000001
 11
-7.9647469801784867
 21
-2.3315863991822741
 31
-0.0000000000000001
  0
LINE
  5
6B
  8
KEE70
 10
-5.8397469801784867
 20
-0.9815863991822739
 30
0.0
 11
-5.8397469801784867
 21
-2.1440863991822741
 31
0.0
  0
LINE
  5
6C
  8
KEE70
 10
-5.8397469801784867
 20
-2.1440863991822741
 30
0.0
 11
-5.8397469801784867
 21
-2.3315863991822741
 31
0.0
  0
LINE
  5
6D
  8
KEE70
 10
-5.7147469801784867
 20
-2.3315863991822741
 30
0.0
 11
-5.7147469801784867
 21
-2.1440863991822741
 31
0.0
  0
LINE
  5
6E
  8
KEE70
 10
-5.7147469801784867
 20
-2.1440863991822741
 30
0.0
 11
-5.7147469801784867
 21
-0.9747727356996417
 31
0.0
  0
POLYLINE
  5
6F
  8
KEE70
 66
     1
 10
0.0
 20
0.0
 30
0.0
  0
VERTEX
  5
28C
  8
KEE70
 10
-5.114962530720681
 20
-0.9983125868816689
 30
0.0
  0
VERTEX
  5
28D
  8
KEE70
 10
-5.1103014403294722
 20
-0.9936514965435488
 30
0.0
  0
VERTEX
  5
28E
  8
KEE70
 10
-5.0965148083200731
 20
-0.9798648646911756
 30
0.0
  0
SEQEND
  5
28F
  8
KEE70
  0
LINE
  5
70
  8
KEE70
 10
-5.1673175319689131
 20
-1.0506675875335889
 30
0.0
 11
-5.377214319132821
 21
-1.260564372306813
 31
0.0
  0
CIRCLE
  5
71
  8
KEE70
 10
5.8397469801784867
 20
0.1684136008177264
 30
0.0
 40
1.0
210
0.0
220
0.0
230
-1.0
  0
LINE
  5
72
  8
KEE70
 10
-4.893991660340963
 20
-0.7773417190187663
 30
-0.0000000000000001
 11
-4.7129301526784131
 21
-0.5962802113562163
 31
0.0
  0
POLYLINE
  5
73
  8
KEE70
 66
     1
 10
0.0
 20
0.0
 30
0.0
  0
VERTEX
  5
290
  8
KEE70
 10
-5.0265741818139587
 20
-0.6447591975468044
 30
0.0
  0
VERTEX
  5
291
  8
KEE70
 10
-5.0255969993979859
 20
-0.6457363799627763
 30
0.0
  0
SEQEND
  5
292
  8
KEE70
  0
LINE
  5
74
  8
KEE70
 10
-4.7129301526784424
 20
-0.5962802113562438
 30
0.0
 11
-4.6067295304844471
 21
-0.4900795891622485
 31
-0.0000000000000001
  0
POLYLINE
  5
75
  8
KEE70
 66
     1
 10
0.0
 20
0.0
 30
0.0
  0
VERTEX
  5
293
  8
KEE70
 10
-4.74027159016378
 20
-0.1687122907302365
 30
0.0
  0
VERTEX
  5
294
  8
KEE70
 10
-4.745349361188949
 20
-0.1879816333995459
 30
0.0
  0
VERTEX
  5
295
  8
KEE70
 10
-4.7512112137667826
 20
-0.2373175120187234
 30
0.0
  0
VERTEX
  5
296
  8
KEE70
 10
-4.7472014771940643
 20
-0.2868383384192175
 30
0.0
  0
VERTEX
  5
297
  8
KEE70
 10
-4.7345662359308633
 20
-0.3318109888797442
 30
0.0
  0
VERTEX
  5
298
  8
KEE70
 10
-4.7137850874586968
 20
-0.3736479639066488
 30
0.0
  0
VERTEX
  5
299
  8
KEE70
 10
-4.6780318963267851
 20
-0.4187772233199088
 30
0.0
  0
SEQEND
  5
29A
  8
KEE70
  0
POLYLINE
  5
76
  8
KEE70
 66
     1
 10
0.0
 20
0.0
 30
0.0
  0
VERTEX
  5
29B
  8
KEE70
 10
-4.6780318963267851
 20
-0.4187772233199088
 30
0.0
  0
VERTEX
  5
29C
  8
KEE70
 10
-4.678980315856724
 20
-0.4301131157946703
 30
0.0
  0
VERTEX
  5
29D
  8
KEE70
 10
-4.6825567256434901
 20
-0.4624372135676289
 30
0.0
  0
VERTEX
  5
29E
  8
KEE70
 10
-4.6911992341441708
 20
-0.5144822370998307
 30
0.0
  0
VERTEX
  5
29F
  8
KEE70
 10
-4.7075523738431828
 20
-0.5794134360963552
 30
0.0
  0
VERTEX
  5
2A0
  8
KEE70
 10
-4.7129301526780214
 20
-0.5962802113566648
 30
0.0
  0
SEQEND
  5
2A1
  8
KEE70
  0
POLYLINE
  5
77
  8
KEE70
 66
     1
 10
0.0
 20
0.0
 30
0.0
  0
VERTEX
  5
2A2
  8
KEE70
 10
-4.8939916603421656
 20
-0.7773417190199689
 30
0.0
  0
VERTEX
  5
2A3
  8
KEE70
 10
-4.8507150726599617
 20
-0.7340651313377649
 30
0.0
  0
VERTEX
  5
2A4
  8
KEE70
 10
-4.8023932845669073
 20
-0.6857433432447087
 30
0.0
  0
VERTEX
  5
2A5
  8
KEE70
 10
-4.7572270143365598
 20
-0.6405770730143621
 30
0.0
  0
VERTEX
  5
2A6
  8
KEE70
 10
-4.7129301526780214
 20
-0.5962802113566648
 30
0.0
  0
SEQEND
  5
2A7
  8
KEE70
  0
POLYLINE
  5
78
  8
KEE70
 66
     1
 10
0.0
 20
0.0
 30
0.0
  0
VERTEX
  5
2A8
  8
KEE70
 10
-4.926879760838605
 20
-0.5309957498880502
 30
0.0
  0
VERTEX
  5
2A9
  8
KEE70
 10
-5.0255969994568277
 20
-0.6457363799039335
 30
0.0
  0
SEQEND
  5
2AA
  8
KEE70
  0
LINE
  5
79
  8
KEE70
 10
-5.1673175304123511
 20
-1.050667589090152
 30
0.0
 11
-5.0750531680045166
 21
-0.9584032266823188
 31
0.0
  0
LINE
  5
7A
  8
KEE70
 10
-5.1673175304123511
 20
-1.0506675890901529
 30
0.0
 11
-5.2270398750281766
 21
-0.990945244474326
 31
0.0
  0
POLYLINE
  5
7B
  8
KEE70
 66
     1
 10
0.0
 20
0.0
 30
0.0
  0
VERTEX
  5
2AB
  8
KEE70
 10
-5.0255969994568277
 20
-0.6457363799039335
 30
0.0
  0
VERTEX
  5
2AC
  8
KEE70
 10
-5.140337629472711
 20
-0.7444536185221545
 30
0.0
  0
SEQEND
  5
2AD
  8
KEE70
  0
POLYLINE
  5
7C
  8
KEE70
 66
     1
 10
0.0
 20
0.0
 30
0.0
  0
VERTEX
  5
2AE
  8
KEE70
 10
-5.0255969994568277
 20
-0.6457363799039335
 30
0.0
  0
VERTEX
  5
2AF
  8
KEE70
 10
-5.0249154217608156
 20
-0.6464179575999447
 30
0.0
  0
VERTEX
  5
2B0
  8
KEE70
 10
-5.0171164869888134
 20
-0.6542168923719478
 30
0.0
  0
VERTEX
  5
2B1
  8
KEE70
 10
-5.0038074038853386
 20
-0.6675259754754217
 30
0.0
  0
VERTEX
  5
2B2
  8
KEE70
 10
-4.9852682795160224
 20
-0.6860650998447389
 30
0.0
  0
VERTEX
  5
2B3
  8
KEE70
 10
-4.9639445792160766
 20
-0.7073888001446838
 30
0.0
  0
VERTEX
  5
2B4
  8
KEE70
 10
-4.9392848675475678
 20
-0.7320485118131943
 30
0.0
  0
VERTEX
  5
2B5
  8
KEE70
 10
-4.9029093693753287
 20
-0.7684240099854325
 30
0.0
  0
VERTEX
  5
2B6
  8
KEE70
 10
-4.8939916603421656
 20
-0.7773417190199689
 30
0.0
  0
SEQEND
  5
2B7
  8
KEE70
  0
POLYLINE
  5
7D
  8
KEE70
 66
     1
 10
0.0
 20
0.0
 30
0.0
  0
VERTEX
  5
2B8
  8
KEE70
 10
-4.8939916603407907
 20
-0.7773417190185948
 30
0.0
  0
VERTEX
  5
2B9
  8
KEE70
 10
-4.9372682480229946
 20
-0.8206183067007977
 30
0.0
  0
VERTEX
  5
2BA
  8
KEE70
 10
-4.9855900361160517
 20
-0.8689400947938548
 30
0.0
  0
VERTEX
  5
2BB
  8
KEE70
 10
-5.0307563063463991
 20
-0.9141063650242005
 30
0.0
  0
VERTEX
  5
2BC
  8
KEE70
 10
-5.0750531680040956
 20
-0.9584032266827398
 30
0.0
  0
SEQEND
  5
2BD
  8
KEE70
  0
POLYLINE
  5
7E
  8
KEE70
 66
     1
 10
0.0
 20
0.0
 30
0.0
  0
VERTEX
  5
2BE
  8
KEE70
 10
-5.2270398750756701
 20
-0.9909452445218175
 30
0.0
  0
VERTEX
  5
2BF
  8
KEE70
 10
-5.2088961657931314
 20
-0.9887766537172698
 30
0.0
  0
VERTEX
  5
2C0
  8
KEE70
 10
-5.1568511422609307
 20
-0.9801341452165877
 30
0.0
  0
VERTEX
  5
2C1
  8
KEE70
 10
-5.091919943264406
 20
-0.963781005517578
 30
0.0
  0
VERTEX
  5
2C2
  8
KEE70
 10
-5.0750531680040956
 20
-0.9584032266827398
 30
0.0
  0
SEQEND
  5
2C3
  8
KEE70
  0
POLYLINE
  5
7F
  8
KEE70
 66
     1
 10
0.0
 20
0.0
 30
0.0
  0
VERTEX
  5
2C4
  8
KEE70
 10
-5.2270398750756701
 20
-0.9909452445218175
 30
0.0
  0
VERTEX
  5
2C5
  8
KEE70
 10
-5.2524215064548034
 20
-0.9687854408162849
 30
0.0
  0
VERTEX
  5
2C6
  8
KEE70
 10
-5.2892045904637541
 20
-0.9454386106271481
 30
0.0
  0
VERTEX
  5
2C7
  8
KEE70
 10
-5.3293837149111676
 20
-0.9285405585201207
 30
0.0
  0
VERTEX
  5
2C8
  8
KEE70
 10
-5.3999184068828958
 20
-0.9156762276046679
 30
0.0
  0
VERTEX
  5
2C9
  8
KEE70
 10
-5.4686988786189641
 20
-0.9215169654145363
 30
0.0
  0
VERTEX
  5
2CA
  8
KEE70
 10
-5.4919824099409862
 20
-0.9277432327090844
 30
0.0
  0
SEQEND
  5
2CB
  8
KEE70
  0
CIRCLE
  5
80
  8
KEE70
 10
-5.8397469801784867
 20
0.1684136008177264
 30
0.0
 40
1.149999999999999
  0
LINE
  5
83
  8
KEE70
  6
HIDDEN
 10
-7.6209969801784867
 20
-2.3315863991822741
 30
0.0000000000000001
 11
-7.6209969801784867
 21
-2.5815863991822741
 31
0.0000000000000001
  0
LINE
  5
84
  8
KEE70
  6
HIDDEN
 10
-7.3084969801784867
 20
-2.5815863991822741
 30
-0.0000000000000002
 11
-7.3084969801784867
 21
-2.3315863991822741
 31
-0.0000000000000002
  0
LINE
  5
85
  8
KEE70
  6
HIDDEN
 10
-4.0584969801784849
 20
-2.5815863991822741
 30
-0.0000000000000001
 11
-4.0584969801784867
 21
-2.3315863991822741
 31
-0.0000000000000001
  0
LINE
  5
86
  8
KEE70
  6
HIDDEN
 10
-4.3709969801784867
 20
-2.3315863991822741
 30
0.0000000000000002
 11
-4.3709969801784867
 21
-2.5815863991822741
 31
0.0000000000000002
  0
LINE
  5
87
  8
KEE70
 10
-4.6067295304844453
 20
-0.4900795891622485
 30
0.0
 11
-4.6780318963267851
 21
-0.4187772233199079
 31
0.0
  0
LINE
  5
88
  8
KEE70
 10
-4.673020791220682
 20
-0.5563708498984843
 30
-0.0000000000000001
 11
-4.695421034776988
 21
-0.5339706063421792
 31
-0.0000000000000001
  0
LINE
  5
89
  8
KEE70
  6
HIDDEN
 10
-4.695421034776988
 20
-0.5339706063421792
 30
-0.0000000000000001
 11
-4.8362022327560954
 21
-0.3931894083630718
 31
-0.0000000000000001
  0
LINE
  5
8A
  8
KEE70
 10
-4.8362022327560954
 20
-0.3931894083630709
 30
0.0
 11
-4.9470828216762932
 21
-0.2823088194428722
 31
0.0
  0
LINE
  5
8B
  8
KEE70
  6
HIDDEN
 10
-5.3890245599178854
 20
-0.7242505576844645
 30
0.0000000000000001
 11
-5.114962530720681
 21
-0.9983125868816685
 31
0.0000000000000001
  0
LINE
  5
8C
  8
KEE70
  6
HIDDEN
 10
-1.15625
 20
-2.3315863991822741
 30
-0.0000000000000001
 11
-1.15625
 21
-2.5815863991822741
 31
-0.0000000000000001
  0
LINE
  5
8D
  8
KEE70
  6
HIDDEN
 10
-0.84375
 20
-2.5815863991822741
 30
0.0000000000000001
 11
-0.84375
 21
-2.3315863991822741
 31
0.0000000000000001
  0
LINE
  5
8E
  8
KEE70
 10
0.0
 20
1.3184136008177241
 30
0.0
 11
-2.0
 21
1.3184136008177241
 31
0.0
  0
LINE
  5
8F
  8
KEE70
 10
-0.4375
 20
-0.9815863991822739
 30
0.0
 11
-0.0000000000000036
 21
-0.9815863991822739
 31
0.0
  0
LINE
  5
90
  8
KEE70
 10
-2.0
 20
-0.9815863991822739
 30
0.0
 11
-1.5625
 21
-0.9815863991822739
 31
0.0
  0
POLYLINE
  5
91
  8
KEE70
 66
     1
 10
0.0
 20
0.0
 30
0.0
  0
VERTEX
  5
2CC
  8
KEE70
 10
-0.8749999666880513
 20
-0.9153988494131937
 30
0.0
  0
VERTEX
  5
2CD
  8
KEE70
 10
-0.8088873370439984
 20
-0.9086012234024548
 30
0.0
  0
VERTEX
  5
2CE
  8
KEE70
 10
-0.7481323463980232
 20
-0.8987920830531699
 30
0.0
  0
VERTEX
  5
2CF
  8
KEE70
 10
-0.6944086031639749
 20
-0.8859614563122999
 30
0.0
  0
VERTEX
  5
2D0
  8
KEE70
 10
-0.6510630700136773
 20
-0.8711781218484624
 30
0.0
  0
VERTEX
  5
2D1
  8
KEE70
 10
-0.6275293467728602
 20
-0.8601061602110933
 30
0.0
  0
VERTEX
  5
2D2
  8
KEE70
 10
-0.6083223542373517
 20
-0.8482093332285645
 30
0.0
  0
VERTEX
  5
2D3
  8
KEE70
 10
-0.5961987902367341
 20
-0.8363433377758494
 30
0.0
  0
VERTEX
  5
2D4
  8
KEE70
 10
-0.5951489949085556
 20
-0.8343026709729005
 30
0.0
  0
SEQEND
  5
2D5
  8
KEE70
  0
POLYLINE
  5
92
  8
KEE70
 66
     1
 10
0.0
 20
0.0
 30
0.0
  0
VERTEX
  5
2D6
  8
KEE70
 10
-1.125000033326454
 20
-0.9153988484813941
 30
0.0
  0
VERTEX
  5
2D7
  8
KEE70
 10
-1.1911259074087781
 20
-0.9085994875691447
 30
0.0
  0
VERTEX
  5
2D8
  8
KEE70
 10
-1.251891435329836
 20
-0.8987873996096472
 30
0.0
  0
VERTEX
  5
2D9
  8
KEE70
 10
-1.3056104591916851
 20
-0.8859559930712199
 30
0.0
  0
VERTEX
  5
2DA
  8
KEE70
 10
-1.348950675327856
 20
-0.8711724800052431
 30
0.0
  0
VERTEX
  5
2DB
  8
KEE70
 10
-1.372431252409098
 20
-0.8601243221571026
 30
0.0
  0
VERTEX
  5
2DC
  8
KEE70
 10
-1.3917077144519709
 20
-0.8481867544020929
 30
0.0
  0
VERTEX
  5
2DD
  8
KEE70
 10
-1.4038020562602069
 20
-0.8363418976944387
 30
0.0
  0
VERTEX
  5
2DE
  8
KEE70
 10
-1.404850857394125
 20
-0.8343026511167153
 30
0.0
  0
SEQEND
  5
2DF
  8
KEE70
  0
LINE
  5
93
  8
KEE70
  6
HIDDEN
 10
-2.0000000000000009
 20
-0.8315863991822736
 30
0.0
 11
0.0
 21
-0.8315863991822736
 31
0.0
  0
LINE
  5
94
  8
KEE70
  6
HIDDEN
 10
0.0
 20
1.1684136008177251
 30
0.0
 11
-2.0
 21
1.1684136008177259
 31
0.0
  0
LINE
  5
95
  8
KEE70
  6
HIDDEN
 10
-0.6875
 20
-0.7773417190192804
 30
-0.0000000000000002
 11
-0.6875
 21
-0.5386931803688208
 31
-0.0000000000000002
  0
LINE
  5
96
  8
KEE70
  6
HIDDEN
 10
-1.3125000000000011
 20
-0.5386931803688198
 30
0.0
 11
-1.3125000000000011
 21
-0.7773417190192795
 31
0.0
  0
LINE
  5
165
  8
DIMKEE
 10
-3.7147469801784871
 20
-2.6440863991822741
 30
0.5600000000000002
 11
-3.7147469801784871
 21
-4.0615987115406806
 31
0.5600000000000002
  0
LINE
  5
166
  8
DIMKEE
 10
-7.9647469801784867
 20
-2.6440863991822741
 30
0.5600000000000002
 11
-7.9647469801784867
 21
-4.0615987115406806
 31
0.5600000000000002
  0
LINE
  5
167
  8
DIMKEE
 10
-3.8397469801784871
 20
-3.8740987115406811
 30
0.5600000000000002
 11
-5.5309969801784851
 21
-3.8740987115406811
 31
0.5600000000000002
  0
LINE
  5
168
  8
DIMKEE
 10
-7.8397469801784867
 20
-3.8740987115406811
 30
0.5600000000000002
 11
-6.1484969801784848
 21
-3.8740987115406811
 31
0.5600000000000002
  0
INSERT
  5
169
  8
DIMKEE
  2
_DOT
 10
-3.7147469801784871
 20
-3.8740987115406811
 30
0.5600000000000002
 41
0.125
 42
0.125
 43
0.125
  0
INSERT
  5
16A
  8
DIMKEE
  2
_DOT
 10
-7.9647469801784867
 20
-3.8740987115406811
 30
0.5600000000000002
 41
0.125
 42
0.125
 43
0.125
 50
180.0
  0
INSERT
  5
16B
  8
0
  2
*U2
 10
0.0
 20
0.0
 30
0.0
  0
LINE
  5
16C
  8
DIMKEE
 10
-2.0000000000000009
 20
-2.6440863991822741
 30
0.5600000000000002
 11
-2.0000000000000009
 21
-4.0197079718560351
 31
0.5600000000000002
  0
LINE
  5
16D
  8
DIMKEE
 10
0.0
 20
-2.6440863991822741
 30
0.5600000000000002
 11
0.0
 21
-4.0197079718560351
 31
0.5600000000000002
  0
LINE
  5
16E
  8
DIMKEE
 10
-1.8750000000000011
 20
-3.8322079718560351
 30
0.5600000000000002
 11
-1.293124999999999
 21
-3.8322079718560351
 31
0.5600000000000002
  0
LINE
  5
16F
  8
DIMKEE
 10
-0.125
 20
-3.8322079718560351
 30
0.5600000000000002
 11
-0.7068750000000003
 21
-3.8322079718560351
 31
0.5600000000000002
  0
INSERT
  5
170
  8
DIMKEE
  2
_DOT
 10
-2.0000000000000009
 20
-3.8322079718560351
 30
0.5600000000000002
 41
0.125
 42
0.125
 43
0.125
 50
180.0
  0
INSERT
  5
171
  8
DIMKEE
  2
_DOT
 10
0.0
 20
-3.8322079718560351
 30
0.5600000000000002
 41
0.125
 42
0.125
 43
0.125
  0
INSERT
  5
172
  8
0
  2
*U3
 10
0.0
 20
0.0
 30
0.0
  0
LINE
  5
175
  8
DIMKEE
 10
-7.4647469801784867
 20
-2.6440863991822741
 30
0.5600000000000002
 11
-7.4647469801784867
 21
-3.5379645043423
 31
0.5600000000000002
  0
LINE
  5
176
  8
DIMKEE
 10
-4.2147469801784849
 20
-2.6440863991822741
 30
0.5600000000000002
 11
-4.2147469801784849
 21
-3.5379645043423
 31
0.5600000000000002
  0
LINE
  5
177
  8
DIMKEE
 10
-7.3397469801784867
 20
-3.3504645043423
 30
0.5600000000000002
 11
-6.1484969801784848
 21
-3.3504645043423
 31
0.5600000000000002
  0
LINE
  5
178
  8
DIMKEE
 10
-4.3397469801784849
 20
-3.3504645043423
 30
0.5600000000000002
 11
-5.5309969801784851
 21
-3.3504645043423
 31
0.5600000000000002
  0
INSERT
  5
179
  8
DIMKEE
  2
_DOT
 10
-7.4647469801784867
 20
-3.3504645043423
 30
0.5600000000000002
 41
0.125
 42
0.125
 43
0.125
 50
180.0
  0
INSERT
  5
17A
  8
DIMKEE
  2
_DOT
 10
-4.2147469801784849
 20
-3.3504645043423
 30
0.5600000000000002
 41
0.125
 42
0.125
 43
0.125
  0
INSERT
  5
17B
  8
0
  2
*U4
 10
0.0
 20
0.0
 30
0.0
  0
LINE
  5
17E
  8
DIMKEE
 10
-2.0625000000000009
 20
0.1684136008177264
 30
0.5600000000000002
 11
-2.994024991802215
 21
0.1684136008177264
 31
0.5600000000000002
  0
LINE
  5
17F
  8
DIMKEE
 10
-2.0625000000000009
 20
-2.5815863991822741
 30
0.5600000000000002
 11
-2.994024991802215
 21
-2.5815863991822741
 31
0.5600000000000002
  0
LINE
  5
180
  8
DIMKEE
 10
-2.806524991802215
 20
0.0434136008177264
 30
0.5600000000000002
 11
-2.806524991802215
 21
-0.8978363991822737
 31
0.5600000000000002
  0
LINE
  5
181
  8
DIMKEE
 10
-2.806524991802215
 20
-2.4565863991822741
 30
0.5600000000000002
 11
-2.806524991802215
 21
-1.515336399182273
 31
0.5600000000000002
  0
INSERT
  5
182
  8
DIMKEE
  2
_DOT
 10
-2.806524991802215
 20
0.1684136008177264
 30
0.5600000000000002
 41
0.125
 42
0.125
 43
0.125
 50
90.0
  0
INSERT
  5
183
  8
DIMKEE
  2
_DOT
 10
-2.806524991802215
 20
-2.5815863991822741
 30
0.5600000000000002
 41
0.125
 42
0.125
 43
0.125
 50
270.0
  0
INSERT
  5
184
  8
0
  2
*U5
 10
0.0
 20
0.0
 30
0.0
  0
INSERT
  5
1B1
  8
0
  2
*U6
 10
0.0
 20
0.0
 30
0.0
  0
INSERT
  5
1BA
  8
0
  2
*U7
 10
0.0
 20
0.0
 30
0.0
  0
INSERT
  5
1BB
  8
0
  2
*U8
 10
0.0
 20
0.0
 30
0.0
  0
INSERT
  5
1BC
  8
0
  2
*U9
 10
0.0
 20
0.0
 30
0.0
  0
VIEWPORT
  5
107
 67
     1
  8
0
 10
6.0
 20
4.5
 30
0.0
 40
12.0
 41
9.0
 68
    -1
 69
     1
1001
ACAD
1000
MVIEW
1002
{
1070
    16
1010
0.0
1020
0.0
1030
0.0
1010
0.0
1020
0.0
1030
1.0
1040
0.0
1040
9.0
1040
8.8361344537815114
1040
4.5
1040
50.0
1040
0.0
1040
0.0
1070
     0
1070
   100
1070
     1
1070
     1
1070
     0
1070
     0
1070
     0
1070
     0
1040
0.0
1040
0.0
1040
0.0
1040
0.5
1040
0.5
1040
0.5
1040
0.5
1070
     0
1002
{
1002
}
1002
}
  0
ENDSEC
  0
EOF
