  0
SECTION
  2
HEADER
  9
$ACADVER
  1
AC1009
  9
$INSBASE
 10
0.0
 20
0.0
 30
0.0
  9
$EXTMIN
 10
11.97665552825039
 20
3.0143020047544611
 30
0.0
  9
$EXTMAX
 10
18.989985279176501
 20
6.081408160651617
 30
0.0
  9
$LIMMIN
 10
0.0
 20
0.0
  9
$LIMMAX
 10
12.0
 20
9.0
  9
$ORTHOMODE
 70
     0
  9
$REGENMODE
 70
     1
  9
$FILLMODE
 70
     1
  9
$QTEXTMODE
 70
     0
  9
$MIRRTEXT
 70
     1
  9
$DRAGMODE
 70
     2
  9
$LTSCALE
 40
0.5
  9
$OSMODE
 70
   291
  9
$ATTMODE
 70
     1
  9
$TEXTSIZE
 40
0.1
  9
$TRACEWID
 40
0.05
  9
$TEXTSTYLE
  7
STD
  9
$CLAYER
  8
0
  9
$CELTYPE
  6
BYLAYER
  9
$CECOLOR
 62
   256
  9
$DIMSCALE
 40
0.7
  9
$DIMASZ
 40
0.18
  9
$DIMEXO
 40
0.0625
  9
$DIMDLI
 40
0.38
  9
$DIMRND
 40
0.0
  9
$DIMDLE
 40
0.0
  9
$DIMEXE
 40
0.18
  9
$DIMTP
 40
0.0
  9
$DIMTM
 40
0.0
  9
$DIMTXT
 40
0.18
  9
$DIMCEN
 40
0.09
  9
$DIMTSZ
 40
0.0
  9
$DIMTOL
 70
     0
  9
$DIMLIM
 70
     0
  9
$DIMTIH
 70
     1
  9
$DIMTOH
 70
     1
  9
$DIMSE1
 70
     0
  9
$DIMSE2
 70
     0
  9
$DIMTAD
 70
     0
  9
$DIMZIN
 70
     4
  9
$DIMBLK
  1

  9
$DIMASO
 70
     1
  9
$DIMSHO
 70
     1
  9
$DIMPOST
  1

  9
$DIMAPOST
  1

  9
$DIMALT
 70
     1
  9
$DIMALTD
 70
     1
  9
$DIMALTF
 40
25.399999999999999
  9
$DIMLFAC
 40
1.0
  9
$DIMTOFL
 70
     0
  9
$DIMTVP
 40
0.0
  9
$DIMTIX
 70
     0
  9
$DIMSOXD
 70
     0
  9
$DIMSAH
 70
     0
  9
$DIMBLK1
  1

  9
$DIMBLK2
  1

  9
$DIMSTYLE
  2
STANDARD
  9
$DIMCLRD
 70
     0
  9
$DIMCLRE
 70
     0
  9
$DIMCLRT
 70
     0
  9
$DIMTFAC
 40
1.0
  9
$DIMGAP
 40
0.09
  9
$LUNITS
 70
     2
  9
$LUPREC
 70
     2
  9
$SKETCHINC
 40
0.1
  9
$FILLETRAD
 40
0.0
  9
$AUNITS
 70
     0
  9
$AUPREC
 70
     1
  9
$MENU
  1
ROBS
  9
$ELEVATION
 40
0.0
  9
$PELEVATION
 40
0.0
  9
$THICKNESS
 40
0.0
  9
$LIMCHECK
 70
     0
  9
$BLIPMODE
 70
     0
  9
$CHAMFERA
 40
0.0
  9
$CHAMFERB
 40
0.0
  9
$SKPOLY
 70
     0
  9
$TDCREATE
 40
2449069.5054942118
  9
$TDUPDATE
 40
2452983.210561689
  9
$TDINDWG
 40
0.1300328704
  9
$TDUSRTIMER
 40
0.1300328704
  9
$USRTIMER
 70
     1
  9
$ANGBASE
 50
0.0
  9
$ANGDIR
 70
     0
  9
$PDMODE
 70
     0
  9
$PDSIZE
 40
0.0
  9
$PLINEWID
 40
0.0
  9
$COORDS
 70
     1
  9
$SPLFRAME
 70
     0
  9
$SPLINETYPE
 70
     6
  9
$SPLINESEGS
 70
     8
  9
$ATTDIA
 70
     0
  9
$ATTREQ
 70
     1
  9
$HANDLING
 70
 22529
  9
$HANDSEED
  5
9CB
  9
$SURFTAB1
 70
     6
  9
$SURFTAB2
 70
     6
  9
$SURFTYPE
 70
     6
  9
$SURFU
 70
     6
  9
$SURFV
 70
     6
  9
$UCSNAME
  2

  9
$UCSORG
 10
0.0
 20
0.0
 30
0.0
  9
$UCSXDIR
 10
1.0
 20
0.0
 30
0.0
  9
$UCSYDIR
 10
0.0
 20
1.0
 30
0.0
  9
$PUCSNAME
  2

  9
$PUCSORG
 10
0.0
 20
0.0
 30
0.0
  9
$PUCSXDIR
 10
1.0
 20
0.0
 30
0.0
  9
$PUCSYDIR
 10
0.0
 20
1.0
 30
0.0
  9
$USERI1
 70
     0
  9
$USERI2
 70
     0
  9
$USERI3
 70
     0
  9
$USERI4
 70
     0
  9
$USERI5
 70
     0
  9
$USERR1
 40
0.0
  9
$USERR2
 40
0.0
  9
$USERR3
 40
0.0
  9
$USERR4
 40
0.0
  9
$USERR5
 40
0.0
  9
$WORLDVIEW
 70
     1
  9
$SHADEDGE
 70
     3
  9
$SHADEDIF
 70
    70
  9
$TILEMODE
 70
     1
  9
$MAXACTVP
 70
    16
  9
$PLIMCHECK
 70
     0
  9
$PEXTMIN
 10
1.0000000000000000E+020
 20
1.0000000000000000E+020
 30
1.0000000000000000E+020
  9
$PEXTMAX
 10
-1.0000000000000000E+020
 20
-1.0000000000000000E+020
 30
-1.0000000000000000E+020
  9
$PLIMMIN
 10
0.0
 20
0.0
  9
$PLIMMAX
 10
12.0
 20
9.0
  9
$UNITMODE
 70
     0
  9
$VISRETAIN
 70
     0
  9
$PLINEGEN
 70
     0
  9
$PSLTSCALE
 70
     0
  0
ENDSEC
  0
SECTION
  2
TABLES
  0
TABLE
  2
VPORT
 70
     2
  0
VPORT
  2
*ACTIVE
 70
     0
 10
0.0
 20
0.0
 11
1.0
 21
1.0
 12
15.483589419744449
 22
4.7177616943720633
 13
0.0
 23
0.0
 14
1.0
 24
1.0
 15
0.0
 25
0.0
 16
0.0
 26
0.0
 36
1.0
 17
0.0
 27
0.0
 37
0.0
 40
5.008744746321879
 41
1.4077102803738311
 42
50.0
 43
0.0
 44
0.0
 50
0.0
 51
0.0
 71
     0
 72
   100
 73
     1
 74
     0
 75
     0
 76
     0
 77
     0
 78
     0
  0
ENDTAB
  0
TABLE
  2
LTYPE
 70
     4
  0
LTYPE
  2
CONTINUOUS
 70
     0
  3
Solid line
 72
    65
 73
     0
 40
0.0
  0
LTYPE
  2
CENTER
 70
     0
  3
____ _ ____ _ ____ _ ____ _ ____ _ ____ _ ____ 
 72
    65
 73
     4
 40
2.0
 49
1.25
 49
-0.25
 49
0.25
 49
-0.25
  0
LTYPE
  2
HIDDEN
 70
     0
  3
__ __ __ __ __ __ __ __ __ __ __ __ __ __ __ __
 72
    65
 73
     2
 40
0.375
 49
0.25
 49
-0.125
  0
LTYPE
  2
PHANTOM
 70
     0
  3
______  __  __  ______  __  __  ______  __  __ 
 72
    65
 73
     6
 40
2.5
 49
1.25
 49
-0.25
 49
0.25
 49
-0.25
 49
0.25
 49
-0.25
  0
ENDTAB
  0
TABLE
  2
LAYER
 70
     8
  0
LAYER
  2
0
 70
     0
 62
     7
  6
CONTINUOUS
  0
LAYER
  2
OBJ
 70
     0
 62
     3
  6
CONTINUOUS
  0
LAYER
  2
CENTER
 70
     0
 62
     2
  6
CENTER
  0
LAYER
  2
DIM
 70
     0
 62
     1
  6
CONTINUOUS
  0
LAYER
  2
HIDDEN
 70
     0
 62
     5
  6
HIDDEN
  0
LAYER
  2
PHANTOM
 70
     0
 62
     4
  6
PHANTOM
  0
LAYER
  2
DEFPOINTS
 70
     0
 62
     7
  6
CONTINUOUS
  0
LAYER
  2
PV-30
 70
     2
 62
     7
  6
CONTINUOUS
  0
ENDTAB
  0
TABLE
  2
STYLE
 70
    11
  0
STYLE
  2
STANDARD
 70
     0
 40
0.0
 41
1.0
 50
0.0
 71
     0
 42
0.2
  3
txt
  4

  0
STYLE
  2
CMP
 70
     0
 40
0.0
 41
1.0
 50
0.0
 71
     0
 42
0.2
  3
complex
  4

  0
STYLE
  2
IT
 70
     0
 40
0.0
 41
1.0
 50
0.0
 71
     0
 42
0.2
  3
italic
  4

  0
STYLE
  2
DIM
 70
     0
 40
0.0
 41
1.0
 50
0.0
 71
     0
 42
0.2
  3
txt
  4

  0
STYLE
  2
STDV
 70
     4
 40
0.0
 41
1.0
 50
0.0
 71
     0
 42
0.2
  3
txt
  4

  0
STYLE
  2
CMPV
 70
     4
 40
0.0
 41
1.0
 50
0.0
 71
     0
 42
0.2
  3
complex
  4

  0
STYLE
  2
SMPV
 70
     4
 40
0.0
 41
1.0
 50
0.0
 71
     0
 42
0.2
  3
txt
  4

  0
STYLE
  2
ITV
 70
     4
 40
0.0
 41
1.0
 50
0.0
 71
     0
 42
0.2
  3
italic
  4

  0
STYLE
  2
DIMV
 70
     4
 40
0.0
 41
1.0
 50
0.0
 71
     0
 42
0.2
  3
txt
  4

  0
STYLE
  2
STD
 70
     0
 40
0.0
 41
1.0
 50
0.0
 71
     0
 42
0.1
  3
txt
  4

  0
STYLE
  2
SMP
 70
     0
 40
0.0
 41
1.0
 50
0.0
 71
     0
 42
0.2
  3
simplex
  4

  0
ENDTAB
  0
TABLE
  2
VIEW
 70
     0
  0
ENDTAB
  0
TABLE
  2
UCS
 70
     0
  0
ENDTAB
  0
TABLE
  2
APPID
 70
     2
  0
APPID
  2
ACAD
 70
     0
  0
APPID
  2
DCO15
 70
     0
  0
ENDTAB
  0
TABLE
  2
DIMSTYLE
 70
     1
  0
DIMSTYLE
  2
STANDARD
 70
     0
  3

  4

  5

  6

  7

 40
1.0
 41
0.18
 42
0.0625
 43
0.38
 44
0.18
 45
0.0
 46
0.0
 47
0.0
 48
0.0
140
0.18
141
0.09
142
0.0
143
25.399999999999999
144
1.0
145
0.0
146
1.0
147
0.09
 71
     0
 72
     0
 73
     1
 74
     1
 75
     0
 76
     0
 77
     0
 78
     0
170
     0
171
     2
172
     0
173
     0
174
     0
175
     0
176
     0
177
     0
178
     0
  0
ENDTAB
  0
ENDSEC
  0
SECTION
  2
BLOCKS
  0
BLOCK
  8
0
  2
$MODEL_SPACE
 70
     0
 10
0.0
 20
0.0
 30
0.0
  3
$MODEL_SPACE
  1

  0
ENDBLK
  5
43
  8
0
  0
BLOCK
 67
     1
  8
0
  2
$PAPER_SPACE
 70
     0
 10
0.0
 20
0.0
 30
0.0
  3
$PAPER_SPACE
  1

  0
ENDBLK
  5
41
 67
     1
  8
0
  0
ENDSEC
  0
SECTION
  2
ENTITIES
  0
LINE
  5
107
  8
OBJ
 62
     7
 10
12.48011839447897
 20
3.4596717424428509
 30
0.0
 11
12.545896111774891
 21
3.4596717424428509
 31
0.0
  0
LINE
  5
108
  8
OBJ
 62
     7
 10
12.74347461851732
 20
4.0176533154403566
 30
0.0
 11
12.74347461851732
 21
3.3764958412228512
 31
0.0
  0
LINE
  5
109
  8
OBJ
 62
     7
 10
12.53672763651732
 20
4.0176533154403566
 30
0.0
 11
12.53672763651732
 21
3.3764958412228512
 31
0.0
  0
LINE
  5
10A
  8
OBJ
 62
     7
 10
12.764149316717321
 20
3.97129100482285
 30
0.0
 11
12.764149316717321
 21
3.8881151036028498
 31
0.0
  0
LINE
  5
10B
  8
OBJ
 62
     7
 10
12.516052938317319
 20
3.9712910048228509
 30
0.0
 11
12.516052938317319
 21
3.8881151036028512
 31
0.0
  0
LINE
  5
10C
  8
OBJ
 62
     7
 10
12.74347461851732
 20
4.0176533154403566
 30
0.0
 11
12.53672763651732
 21
4.0176533154403566
 31
0.0
  0
ARC
  5
10E
  8
OBJ
 62
     7
 10
12.329980654517319
 20
3.3558211430228511
 30
0.0
 40
0.103373491
 50
196.7302812783534
 51
328.18668260527397
  0
LINE
  5
10F
  8
OBJ
 62
     7
 10
12.11925776901732
 20
3.6977488440228501
 30
0.0
 11
12.23098291286794
 21
3.3260633576575311
 31
0.0
  0
LINE
  5
110
  8
OBJ
 62
     7
 10
12.456197876272819
 20
3.3631854925197109
 30
0.0
 11
12.417824365443851
 21
3.3013274636445509
 31
0.0
  0
LINE
  5
111
  8
OBJ
 62
     7
 10
12.38551747501964
 20
3.4070319453117879
 30
0.0
 11
12.347143964190661
 21
3.3451739164366292
 31
0.0
  0
ARC
  5
112
  8
OBJ
 62
     7
 10
12.329980654517319
 20
3.3558211430228511
 30
0.0
 40
0.02019758978
 50
196.7302812783534
 51
328.18668260527397
  0
LINE
  5
113
  8
OBJ
 62
     7
 10
12.198912874990601
 20
3.7216924159398692
 30
0.0
 11
12.31063801884121
 21
3.3500069295745489
 31
0.0
  0
LINE
  5
114
  8
OBJ
 62
     7
 10
12.198912874990601
 20
3.7216924159398692
 30
0.0
 11
12.11925776901732
 21
3.6977488440228501
 31
0.0
  0
LINE
  5
115
  8
OBJ
 62
     7
 10
12.894684780015011
 20
3.4070319453117879
 30
0.0
 11
12.93305829084399
 21
3.3451739164366292
 31
0.0
  0
ARC
  5
116
  8
OBJ
 62
     7
 10
12.95022160051732
 20
3.3558211430228511
 30
0.0
 40
0.103373491
 50
211.81331739472591
 51
343.26971872164648
  0
LINE
  5
117
  8
OBJ
 62
     7
 10
12.824004378761821
 20
3.36318549251971
 30
0.0
 11
12.8623778895908
 21
3.3013274636445509
 31
0.0
  0
LINE
  5
118
  8
OBJ
 62
     7
 10
13.06692145459237
 20
3.673893423022851
 30
0.0
 11
12.969564236193429
 21
3.3500069295745489
 31
0.0
  0
LINE
  5
119
  8
OBJ
 62
     7
 10
13.145178530033499
 20
3.645298904681546
 30
0.0
 11
13.04921934216671
 21
3.3260633576575311
 31
0.0
  0
LINE
  5
11A
  8
OBJ
 62
     7
 10
13.028704143606729
 20
3.5467526619398688
 30
0.0
 11
13.108359249579999
 21
3.5228090900228501
 31
0.0
  0
ARC
  5
11B
  8
OBJ
 62
     7
 10
12.95022160051732
 20
3.3558211430228511
 30
0.0
 40
0.02019758978
 50
211.81331739472591
 51
343.26971872164648
  0
ARC
  5
11C
  8
OBJ
 62
     7
 10
12.48011839447897
 20
3.3483464444428508
 30
0.0
 40
0.111325298
 50
90.0
 51
148.186682605274
  0
ARC
  5
11D
  8
OBJ
 62
     7
 10
12.800083860555681
 20
3.3483464444428499
 30
0.0
 40
0.111325298
 50
31.813317394725878
 51
90.0
  0
ARC
  5
11E
  8
OBJ
 62
     7
 10
12.800083860555681
 20
3.3483464444428499
 30
0.0
 40
0.02814939678
 50
31.813317394725878
 51
90.0
  0
LINE
  5
11F
  8
OBJ
 62
     7
 10
12.48011839447897
 20
3.3764958412228512
 30
0.0
 11
12.800083860555681
 21
3.3764958412228498
 31
0.0
  0
ARC
  5
120
  8
OBJ
 62
     7
 10
12.48011839447897
 20
3.3483464444428508
 30
0.0
 40
0.02814939678
 50
90.0
 51
148.186682605274
  0
ARC
  5
121
  8
OBJ
 62
     7
 10
12.800083860555681
 20
3.99944040160285
 30
0.0
 40
0.111325298
 50
270.0
 51
328.18668260527397
  0
ARC
  5
122
  8
OBJ
 62
     7
 10
12.95022160051732
 20
3.991965703022851
 30
0.0
 40
0.103373491
 50
16.73028127835348
 51
148.186682605274
  0
LINE
  5
123
  8
OBJ
 62
     7
 10
12.213280800442281
 20
3.673893423022851
 30
0.0
 11
12.31063801884121
 21
3.9977799164711518
 31
0.0
  0
LINE
  5
124
  8
OBJ
 62
     7
 10
12.135023725001149
 20
3.702487941364156
 30
0.0
 11
12.23098291286794
 21
4.0217234883881696
 31
0.0
  0
LINE
  5
125
  8
OBJ
 62
     7
 10
12.251498111427919
 20
3.8010341841058319
 30
0.0
 11
12.17184300545464
 21
3.8249777560228511
 31
0.0
  0
LINE
  5
126
  8
OBJ
 62
     7
 10
12.800083860555681
 20
3.97129100482285
 30
0.0
 11
12.74347461851732
 21
3.9712910048228509
 31
0.0
  0
LINE
  5
127
  8
OBJ
 62
     7
 10
12.800083860555681
 20
3.8881151036028498
 30
0.0
 11
12.74347461851732
 21
3.8881151036028498
 31
0.0
  0
ARC
  5
128
  8
OBJ
 62
     7
 10
12.329980654517319
 20
3.991965703022851
 30
0.0
 40
0.103373491
 50
31.813317394725932
 51
163.26971872164651
  0
LINE
  5
129
  8
OBJ
 62
     7
 10
12.38551747501964
 20
3.9407549007339129
 30
0.0
 11
12.347143964190661
 21
4.0026129296090733
 31
0.0
  0
ARC
  5
12A
  8
OBJ
 62
     7
 10
12.48011839447897
 20
3.9994404016028509
 30
0.0
 40
0.111325298
 50
211.81331739472591
 51
270.0
  0
ARC
  5
12B
  8
OBJ
 62
     7
 10
12.329980654517319
 20
3.991965703022851
 30
0.0
 40
0.02019758978
 50
31.813317394725932
 51
163.26971872164651
  0
LINE
  5
12C
  8
OBJ
 62
     7
 10
12.456197876272819
 20
3.9846013535259912
 30
0.0
 11
12.417824365443851
 21
4.0464593824011503
 31
0.0
  0
ARC
  5
12D
  8
OBJ
 62
     7
 10
12.48011839447897
 20
3.9994404016028509
 30
0.0
 40
0.02814939678
 50
211.81331739472591
 51
270.0
  0
LINE
  5
12E
  8
OBJ
 62
     7
 10
12.824004378761821
 20
3.9846013535259899
 30
0.0
 11
12.8623778895908
 21
4.0464593824011503
 31
0.0
  0
ARC
  5
12F
  8
OBJ
 62
     7
 10
12.800083860555681
 20
3.99944040160285
 30
0.0
 40
0.02814939678
 50
270.0
 51
328.18668260527397
  0
LINE
  5
130
  8
OBJ
 62
     7
 10
13.08128938004405
 20
3.626094430105832
 30
0.0
 11
12.969564236193429
 21
3.9977799164711518
 31
0.0
  0
LINE
  5
131
  8
OBJ
 62
     7
 10
13.160944486017319
 20
3.6500380020228511
 30
0.0
 11
13.04921934216671
 21
4.0217234883881696
 31
0.0
  0
LINE
  5
132
  8
OBJ
 62
     7
 10
13.08128938004405
 20
3.626094430105832
 30
0.0
 11
13.160944486017319
 21
3.6500380020228511
 31
0.0
  0
LINE
  5
133
  8
OBJ
 62
     7
 10
12.894684780015011
 20
3.9407549007339129
 30
0.0
 11
12.93305829084399
 21
4.0026129296090733
 31
0.0
  0
ARC
  5
134
  8
OBJ
 62
     7
 10
12.95022160051732
 20
3.991965703022851
 30
0.0
 40
0.02019758978
 50
16.73028127835348
 51
148.186682605274
  0
LINE
  5
135
  8
HIDDEN
 62
     7
 10
12.49100474626732
 20
3.8329295630228502
 30
0.0
 11
12.52281197426732
 21
3.8116187202628509
 31
0.0
  0
LINE
  5
136
  8
HIDDEN
 62
     7
 10
12.52281197426732
 20
3.8116187202628509
 30
0.0
 11
12.53672763651732
 21
3.8127319732428511
 31
0.0
  0
LINE
  5
137
  8
HIDDEN
 62
     7
 10
12.78919750876732
 20
3.8090741420228502
 30
0.0
 11
12.75739028076732
 21
3.8303849847828499
 31
0.0
  0
LINE
  5
138
  8
HIDDEN
 62
     7
 10
12.52281197426732
 20
3.81161872026285
 30
0.0
 11
12.53672763651732
 21
3.8127319732428502
 31
0.0
  0
LINE
  5
139
  8
OBJ
 62
     7
 10
12.52281197426732
 20
3.838416309852851
 30
0.0
 11
12.52281197426732
 21
3.11726693302285
 31
0.0
  0
LINE
  5
13A
  8
OBJ
 62
     7
 10
12.75739028076732
 20
3.8384163098528501
 30
0.0
 11
12.75739028076732
 21
3.11726693302285
 31
0.0
  0
LINE
  5
13B
  8
HIDDEN
 62
     7
 10
12.49100474626732
 20
3.7852187210228512
 30
0.0
 11
12.53672763651732
 21
3.7888765522428498
 31
0.0
  0
LINE
  5
13C
  8
HIDDEN
 62
     7
 10
12.52281197426732
 20
3.763907878262851
 30
0.0
 11
12.53672763651732
 21
3.7650211312428512
 31
0.0
  0
LINE
  5
13D
  8
HIDDEN
 62
     7
 10
12.52281197426732
 20
3.763907878262851
 30
0.0
 11
12.53672763651732
 21
3.7650211312428499
 31
0.0
  0
LINE
  5
13E
  8
HIDDEN
 62
     7
 10
12.49100474626732
 20
3.73750787902285
 30
0.0
 11
12.53672763651732
 21
3.7411657102428499
 31
0.0
  0
LINE
  5
13F
  8
HIDDEN
 62
     7
 10
12.52281197426732
 20
3.7161970362628511
 30
0.0
 11
12.53672763651732
 21
3.7173102892428509
 31
0.0
  0
LINE
  5
140
  8
HIDDEN
 62
     7
 10
12.52281197426732
 20
3.7161970362628498
 30
0.0
 11
12.53672763651732
 21
3.71731028924285
 31
0.0
  0
LINE
  5
141
  8
HIDDEN
 62
     7
 10
12.49100474626732
 20
3.689797037022851
 30
0.0
 11
12.53672763651732
 21
3.6934548682428501
 31
0.0
  0
LINE
  5
142
  8
HIDDEN
 62
     7
 10
12.52281197426732
 20
3.6684861942628508
 30
0.0
 11
12.53672763651732
 21
3.669599447242851
 31
0.0
  0
LINE
  5
143
  8
HIDDEN
 62
     7
 10
12.52281197426732
 20
3.6684861942628499
 30
0.0
 11
12.53672763651732
 21
3.6695994472428501
 31
0.0
  0
LINE
  5
144
  8
HIDDEN
 62
     7
 10
12.49100474626732
 20
3.6420861950228498
 30
0.0
 11
12.53672763651732
 21
3.6457440262428511
 31
0.0
  0
LINE
  5
145
  8
OBJ
 62
     7
 10
12.52281197426732
 20
3.6207753522628501
 30
0.0
 11
12.53672763651732
 21
3.6218886052428512
 31
0.0
  0
LINE
  5
146
  8
OBJ
 62
     7
 10
12.52281197426732
 20
3.6207753522628501
 30
0.0
 11
12.53672763651732
 21
3.6218886052428498
 31
0.0
  0
LINE
  5
147
  8
OBJ
 62
     7
 10
12.49100474626732
 20
3.5943753530228499
 30
0.0
 11
12.53672763651732
 21
3.5980331842428499
 31
0.0
  0
LINE
  5
148
  8
OBJ
 62
     7
 10
12.52281197426732
 20
3.5730645102628511
 30
0.0
 11
12.53672763651732
 21
3.57417776324285
 31
0.0
  0
LINE
  5
149
  8
OBJ
 62
     7
 10
12.52281197426732
 20
3.5730645102628502
 30
0.0
 11
12.53672763651732
 21
3.57417776324285
 31
0.0
  0
LINE
  5
14A
  8
OBJ
 62
     7
 10
12.49100474626732
 20
3.5466645110228501
 30
0.0
 11
12.53672763651732
 21
3.55032234224285
 31
0.0
  0
LINE
  5
14B
  8
OBJ
 62
     7
 10
12.52281197426732
 20
3.5253536682628499
 30
0.0
 11
12.53672763651732
 21
3.5264669212428501
 31
0.0
  0
LINE
  5
14C
  8
OBJ
 62
     7
 10
12.52281197426732
 20
3.5253536682628499
 30
0.0
 11
12.53672763651732
 21
3.5264669212428501
 31
0.0
  0
LINE
  5
14D
  8
HIDDEN
 62
     7
 10
12.49100474626732
 20
3.4989536690228502
 30
0.0
 11
12.53672763651732
 21
3.5026115002428502
 31
0.0
  0
LINE
  5
14E
  8
HIDDEN
 62
     7
 10
12.52281197426732
 20
3.47764282626285
 30
0.0
 11
12.53672763651732
 21
3.4787560792428511
 31
0.0
  0
LINE
  5
14F
  8
HIDDEN
 62
     7
 10
12.52281197426732
 20
3.47764282626285
 30
0.0
 11
12.53672763651732
 21
3.4787560792428498
 31
0.0
  0
LINE
  5
150
  8
HIDDEN
 62
     7
 10
12.49100474626732
 20
3.4512428270228499
 30
0.0
 11
12.53672763651732
 21
3.4549006582428499
 31
0.0
  0
LINE
  5
151
  8
HIDDEN
 62
     7
 10
12.52281197426732
 20
3.4299319842628511
 30
0.0
 11
12.53672763651732
 21
3.4310452372428499
 31
0.0
  0
LINE
  5
152
  8
HIDDEN
 62
     7
 10
12.52281197426732
 20
3.4299319842628502
 30
0.0
 11
12.53672763651732
 21
3.4310452372428499
 31
0.0
  0
LINE
  5
153
  8
HIDDEN
 62
     7
 10
12.49100474626732
 20
3.40353198502285
 30
0.0
 11
12.53672763651732
 21
3.40718981624285
 31
0.0
  0
LINE
  5
154
  8
HIDDEN
 62
     7
 10
12.52281197426732
 20
3.3822211422628499
 30
0.0
 11
12.53672763651732
 21
3.3833343952428501
 31
0.0
  0
LINE
  5
155
  8
HIDDEN
 62
     7
 10
12.52281197426732
 20
3.3822211422628499
 30
0.0
 11
12.53672763651732
 21
3.3833343952428501
 31
0.0
  0
LINE
  5
156
  8
OBJ
 62
     7
 10
12.49100474626732
 20
3.3558211430228511
 30
0.0
 11
12.78919750876732
 21
3.3796765640228501
 31
0.0
  0
LINE
  5
157
  8
HIDDEN
 62
     7
 10
12.52281197426732
 20
3.3345103002628509
 30
0.0
 11
12.75739028076732
 21
3.3532765647828509
 31
0.0
  0
LINE
  5
158
  8
OBJ
 62
     7
 10
12.52281197426732
 20
3.33451030026285
 30
0.0
 11
12.75739028076732
 21
3.35327656478285
 31
0.0
  0
LINE
  5
159
  8
OBJ
 62
     7
 10
12.49100474626732
 20
3.3081103010228499
 30
0.0
 11
12.78919750876732
 21
3.3319657220228498
 31
0.0
  0
LINE
  5
15A
  8
HIDDEN
 62
     7
 10
12.52281197426732
 20
3.286799458262851
 30
0.0
 11
12.75739028076732
 21
3.3055657227828501
 31
0.0
  0
LINE
  5
15B
  8
OBJ
 62
     7
 10
12.52281197426732
 20
3.286799458262851
 30
0.0
 11
12.75739028076732
 21
3.3055657227828501
 31
0.0
  0
LINE
  5
15C
  8
OBJ
 62
     7
 10
12.49100474626732
 20
3.26039945902285
 30
0.0
 11
12.78919750876732
 21
3.2842548800228499
 31
0.0
  0
LINE
  5
15D
  8
OBJ
 62
     7
 10
12.52281197426732
 20
3.2390886162628512
 30
0.0
 11
12.75739028076732
 21
3.2578548807828511
 31
0.0
  0
LINE
  5
15E
  8
OBJ
 62
     7
 10
12.52281197426732
 20
3.2390886162628498
 30
0.0
 11
12.75739028076732
 21
3.2578548807828498
 31
0.0
  0
LINE
  5
15F
  8
OBJ
 62
     7
 10
12.49100474626732
 20
3.212688617022851
 30
0.0
 11
12.78919750876732
 21
3.2365440380228501
 31
0.0
  0
LINE
  5
160
  8
OBJ
 62
     7
 10
12.52281197426732
 20
3.1913777742628509
 30
0.0
 11
12.75739028076732
 21
3.2101440387828508
 31
0.0
  0
LINE
  5
161
  8
OBJ
 62
     7
 10
12.52281197426732
 20
3.19137777426285
 30
0.0
 11
12.75739028076732
 21
3.2101440387828499
 31
0.0
  0
LINE
  5
162
  8
OBJ
 62
     7
 10
12.49100474626732
 20
3.1649777750228498
 30
0.0
 11
12.78919750876732
 21
3.1888331960228502
 31
0.0
  0
LINE
  5
164
  8
OBJ
 62
     7
 10
12.78919750876732
 20
3.11726693302285
 30
0.0
 11
12.49100474626732
 21
3.11726693302285
 31
0.0
  0
LINE
  5
165
  8
HIDDEN
 62
     7
 10
12.52281197426732
 20
3.286799458262851
 30
0.0
 11
12.49100474626732
 21
3.26039945902285
 31
0.0
  0
LINE
  5
166
  8
OBJ
 62
     7
 10
12.49100474626732
 20
3.1649777750228498
 30
0.0
 11
12.49100474626732
 21
3.11726693302285
 31
0.0
  0
LINE
  5
167
  8
OBJ
 62
     7
 10
12.49100474626732
 20
3.26039945902285
 30
0.0
 11
12.52281197426732
 21
3.2390886162628512
 31
0.0
  0
LINE
  5
168
  8
OBJ
 62
     7
 10
12.52281197426732
 20
3.2390886162628498
 30
0.0
 11
12.49100474626732
 21
3.2126886170228501
 31
0.0
  0
LINE
  5
169
  8
OBJ
 62
     7
 10
12.49100474626732
 20
3.2126886170228501
 30
0.0
 11
12.52281197426732
 21
3.1913777742628509
 31
0.0
  0
LINE
  5
16B
  8
OBJ
 62
     7
 10
12.52281197426732
 20
3.19137777426285
 30
0.0
 11
12.49100474626732
 21
3.1649777750228498
 31
0.0
  0
LINE
  5
16C
  8
OBJ
 62
     7
 10
12.49100474626732
 20
3.5466645110228501
 30
0.0
 11
12.52281197426732
 21
3.5253536682628499
 31
0.0
  0
LINE
  5
16D
  8
HIDDEN
 62
     7
 10
12.52281197426732
 20
3.4299319842628502
 30
0.0
 11
12.49100474626732
 21
3.40353198502285
 31
0.0
  0
LINE
  5
16E
  8
HIDDEN
 62
     7
 10
12.49100474626732
 20
3.40353198502285
 30
0.0
 11
12.52281197426732
 21
3.3822211422628499
 31
0.0
  0
LINE
  5
16F
  8
HIDDEN
 62
     7
 10
12.52281197426732
 20
3.3822211422628499
 30
0.0
 11
12.49100474626732
 21
3.3558211430228502
 31
0.0
  0
LINE
  5
170
  8
HIDDEN
 62
     7
 10
12.49100474626732
 20
3.3558211430228502
 30
0.0
 11
12.52281197426732
 21
3.3345103002628509
 31
0.0
  0
LINE
  5
171
  8
HIDDEN
 62
     7
 10
12.52281197426732
 20
3.33451030026285
 30
0.0
 11
12.49100474626732
 21
3.3081103010228499
 31
0.0
  0
LINE
  5
172
  8
HIDDEN
 62
     7
 10
12.49100474626732
 20
3.3081103010228499
 30
0.0
 11
12.52281197426732
 21
3.286799458262851
 31
0.0
  0
ARC
  5
173
  8
HIDDEN
 62
     7
 10
12.436310707666699
 20
3.48352716344285
 30
0.0
 40
0.023855421
 50
270.0
 51
0.0
  0
LINE
  5
174
  8
HIDDEN
 62
     7
 10
12.52281197426732
 20
3.5253536682628499
 30
0.0
 11
12.49100474626732
 21
3.4989536690228502
 31
0.0
  0
LINE
  5
175
  8
HIDDEN
 62
     7
 10
12.49100474626732
 20
3.4989536690228502
 30
0.0
 11
12.52281197426732
 21
3.47764282626285
 31
0.0
  0
LINE
  5
176
  8
HIDDEN
 62
     7
 10
12.52281197426732
 20
3.47764282626285
 30
0.0
 11
12.49100474626732
 21
3.4512428270228499
 31
0.0
  0
LINE
  5
177
  8
HIDDEN
 62
     7
 10
12.49100474626732
 20
3.4512428270228499
 30
0.0
 11
12.52281197426732
 21
3.4299319842628511
 31
0.0
  0
LINE
  5
178
  8
HIDDEN
 62
     7
 10
12.4601661286667
 20
3.5228090900228501
 30
0.0
 11
12.4601661286667
 21
3.48352716344285
 31
0.0
  0
LINE
  5
179
  8
HIDDEN
 62
     7
 10
12.49100474626732
 20
3.6897970370228501
 30
0.0
 11
12.52281197426732
 21
3.6684861942628508
 31
0.0
  0
LINE
  5
17A
  8
HIDDEN
 62
     7
 10
12.52281197426732
 20
3.6684861942628499
 30
0.0
 11
12.49100474626732
 21
3.6420861950228498
 31
0.0
  0
LINE
  5
17B
  8
OBJ
 62
     7
 10
12.49100474626732
 20
3.6420861950228498
 30
0.0
 11
12.52281197426732
 21
3.6207753522628501
 31
0.0
  0
LINE
  5
17C
  8
OBJ
 62
     7
 10
12.52281197426732
 20
3.6207753522628501
 30
0.0
 11
12.49100474626732
 21
3.5943753530228499
 31
0.0
  0
LINE
  5
17D
  8
OBJ
 62
     7
 10
12.49100474626732
 20
3.5943753530228499
 30
0.0
 11
12.52281197426732
 21
3.5730645102628511
 31
0.0
  0
LINE
  5
17E
  8
OBJ
 62
     7
 10
12.52281197426732
 20
3.5730645102628502
 30
0.0
 11
12.49100474626732
 21
3.5466645110228501
 31
0.0
  0
LINE
  5
17F
  8
HIDDEN
 62
     7
 10
12.52281197426732
 20
3.81161872026285
 30
0.0
 11
12.49100474626732
 21
3.7852187210228498
 31
0.0
  0
LINE
  5
180
  8
HIDDEN
 62
     7
 10
12.49100474626732
 20
3.7852187210228498
 30
0.0
 11
12.52281197426732
 21
3.763907878262851
 31
0.0
  0
LINE
  5
181
  8
HIDDEN
 62
     7
 10
12.52281197426732
 20
3.763907878262851
 30
0.0
 11
12.49100474626732
 21
3.73750787902285
 31
0.0
  0
LINE
  5
182
  8
HIDDEN
 62
     7
 10
12.49100474626732
 20
3.73750787902285
 30
0.0
 11
12.52281197426732
 21
3.7161970362628511
 31
0.0
  0
LINE
  5
183
  8
HIDDEN
 62
     7
 10
12.52281197426732
 20
3.7161970362628498
 30
0.0
 11
12.49100474626732
 21
3.6897970370228501
 31
0.0
  0
LINE
  5
184
  8
HIDDEN
 62
     7
 10
12.75739028076732
 20
3.2578548807828498
 30
0.0
 11
12.78919750876732
 21
3.2842548800228499
 31
0.0
  0
LINE
  5
185
  8
OBJ
 62
     7
 10
12.78919750876732
 20
3.1888331960228502
 30
0.0
 11
12.78919750876732
 21
3.11726693302285
 31
0.0
  0
LINE
  5
186
  8
OBJ
 62
     7
 10
12.75739028076732
 20
3.2101440387828499
 30
0.0
 11
12.78919750876732
 21
3.2365440380228501
 31
0.0
  0
LINE
  5
187
  8
OBJ
 62
     7
 10
12.78919750876732
 20
3.2365440380228501
 30
0.0
 11
12.75739028076732
 21
3.2578548807828498
 31
0.0
  0
LINE
  5
188
  8
OBJ
 62
     7
 10
12.78919750876732
 20
3.1888331960228502
 30
0.0
 11
12.75739028076732
 21
3.2101440387828499
 31
0.0
  0
LINE
  5
18A
  8
OBJ
 62
     7
 10
12.75739028076732
 20
3.5441199327828499
 30
0.0
 11
12.78919750876732
 21
3.57051993202285
 31
0.0
  0
LINE
  5
18B
  8
HIDDEN
 62
     7
 10
12.75739028076732
 20
3.4009874067828498
 30
0.0
 11
12.78919750876732
 21
3.42738740602285
 31
0.0
  0
LINE
  5
18C
  8
HIDDEN
 62
     7
 10
12.75739028076732
 20
3.35327656478285
 30
0.0
 11
12.78919750876732
 21
3.3796765640228501
 31
0.0
  0
LINE
  5
18D
  8
HIDDEN
 62
     7
 10
12.78919750876732
 20
3.3796765640228501
 30
0.0
 11
12.75739028076732
 21
3.4009874067828498
 31
0.0
  0
LINE
  5
18E
  8
HIDDEN
 62
     7
 10
12.75739028076732
 20
3.3055657227828501
 30
0.0
 11
12.78919750876732
 21
3.3319657220228498
 31
0.0
  0
LINE
  5
18F
  8
HIDDEN
 62
     7
 10
12.78919750876732
 20
3.3319657220228498
 30
0.0
 11
12.75739028076732
 21
3.35327656478285
 31
0.0
  0
LINE
  5
190
  8
HIDDEN
 62
     7
 10
12.78919750876732
 20
3.2842548800228499
 30
0.0
 11
12.75739028076732
 21
3.3055657227828501
 31
0.0
  0
ARC
  5
191
  8
HIDDEN
 62
     7
 10
12.843891547367949
 20
3.4835271634428508
 30
0.0
 40
0.023855421
 50
180.0000000000006
 51
270.0
  0
LINE
  5
192
  8
HIDDEN
 62
     7
 10
12.75739028076732
 20
3.49640909078285
 30
0.0
 11
12.78919750876732
 21
3.5228090900228501
 31
0.0
  0
LINE
  5
193
  8
OBJ
 62
     7
 10
12.78919750876732
 20
3.5228090900228501
 30
0.0
 11
12.75739028076732
 21
3.5441199327828499
 31
0.0
  0
LINE
  5
194
  8
HIDDEN
 62
     7
 10
12.75739028076732
 20
3.4486982487828501
 30
0.0
 11
12.78919750876732
 21
3.4750982480228498
 31
0.0
  0
LINE
  5
195
  8
HIDDEN
 62
     7
 10
12.78919750876732
 20
3.4750982480228498
 30
0.0
 11
12.75739028076732
 21
3.49640909078285
 31
0.0
  0
LINE
  5
196
  8
HIDDEN
 62
     7
 10
12.78919750876732
 20
3.42738740602285
 30
0.0
 11
12.75739028076732
 21
3.4486982487828501
 31
0.0
  0
LINE
  5
197
  8
HIDDEN
 62
     7
 10
12.820036126367951
 20
3.5228090900228501
 30
0.0
 11
12.820036126367951
 21
3.48352716344285
 31
0.0
  0
LINE
  5
198
  8
HIDDEN
 62
     7
 10
12.78919750876732
 20
3.6659416160228502
 30
0.0
 11
12.75739028076732
 21
3.6872524587828499
 31
0.0
  0
LINE
  5
199
  8
OBJ
 62
     7
 10
12.75739028076732
 20
3.63954161678285
 30
0.0
 11
12.78919750876732
 21
3.6659416160228502
 31
0.0
  0
LINE
  5
19A
  8
OBJ
 62
     7
 10
12.75739028076732
 20
3.5918307747828502
 30
0.0
 11
12.78919750876732
 21
3.6182307740228499
 31
0.0
  0
LINE
  5
19B
  8
OBJ
 62
     7
 10
12.78919750876732
 20
3.6182307740228499
 30
0.0
 11
12.75739028076732
 21
3.63954161678285
 31
0.0
  0
LINE
  5
19C
  8
OBJ
 62
     7
 10
12.78919750876732
 20
3.57051993202285
 30
0.0
 11
12.75739028076732
 21
3.5918307747828502
 31
0.0
  0
LINE
  5
19D
  8
HIDDEN
 62
     7
 10
12.75739028076732
 20
3.7826741427828501
 30
0.0
 11
12.78919750876732
 21
3.8090741420228502
 31
0.0
  0
LINE
  5
19E
  8
HIDDEN
 62
     7
 10
12.75739028076732
 20
3.7349633007828502
 30
0.0
 11
12.78919750876732
 21
3.7613633000228499
 31
0.0
  0
LINE
  5
19F
  8
HIDDEN
 62
     7
 10
12.78919750876732
 20
3.7613633000228499
 30
0.0
 11
12.75739028076732
 21
3.7826741427828501
 31
0.0
  0
LINE
  5
1A0
  8
HIDDEN
 62
     7
 10
12.75739028076732
 20
3.6872524587828499
 30
0.0
 11
12.78919750876732
 21
3.71365245802285
 31
0.0
  0
LINE
  5
1A1
  8
HIDDEN
 62
     7
 10
12.78919750876732
 20
3.71365245802285
 30
0.0
 11
12.75739028076732
 21
3.7349633007828502
 31
0.0
  0
LINE
  5
1A2
  8
OBJ
 62
     7
 10
12.49100474626732
 20
3.838416309852851
 30
0.0
 11
12.516052938317319
 21
3.838416309852851
 31
0.0
  0
LINE
  5
1A3
  8
HIDDEN
 62
     7
 10
12.74347461851732
 20
3.8292717318028502
 30
0.0
 11
12.75739028076732
 21
3.8303849847828499
 31
0.0
  0
LINE
  5
1A4
  8
HIDDEN
 62
     7
 10
12.74347461851732
 20
3.8054163108028498
 30
0.0
 11
12.78919750876732
 21
3.8090741420228502
 31
0.0
  0
LINE
  5
1A5
  8
HIDDEN
 62
     7
 10
12.74347461851732
 20
3.7815608898028499
 30
0.0
 11
12.75739028076732
 21
3.7826741427828501
 31
0.0
  0
LINE
  5
1A6
  8
HIDDEN
 62
     7
 10
12.74347461851732
 20
3.7577054688028499
 30
0.0
 11
12.78919750876732
 21
3.7613633000228499
 31
0.0
  0
LINE
  5
1A7
  8
HIDDEN
 62
     7
 10
12.74347461851732
 20
3.73385004780285
 30
0.0
 11
12.75739028076732
 21
3.7349633007828502
 31
0.0
  0
LINE
  5
1A8
  8
HIDDEN
 62
     7
 10
12.74347461851732
 20
3.7099946268028501
 30
0.0
 11
12.78919750876732
 21
3.71365245802285
 31
0.0
  0
LINE
  5
1A9
  8
HIDDEN
 62
     7
 10
12.74347461851732
 20
3.6622837848028502
 30
0.0
 11
12.78919750876732
 21
3.6659416160228502
 31
0.0
  0
LINE
  5
1AA
  8
HIDDEN
 62
     7
 10
12.74347461851732
 20
3.6861392058028501
 30
0.0
 11
12.75739028076732
 21
3.6872524587828499
 31
0.0
  0
LINE
  5
1AB
  8
OBJ
 62
     7
 10
12.74347461851732
 20
3.6384283638028498
 30
0.0
 11
12.75739028076732
 21
3.63954161678285
 31
0.0
  0
LINE
  5
1AC
  8
OBJ
 62
     7
 10
12.74347461851732
 20
3.6145729428028499
 30
0.0
 11
12.78919750876732
 21
3.6182307740228499
 31
0.0
  0
LINE
  5
1AD
  8
OBJ
 62
     7
 10
12.74347461851732
 20
3.59071752180285
 30
0.0
 11
12.75739028076732
 21
3.5918307747828502
 31
0.0
  0
LINE
  5
1AE
  8
OBJ
 62
     7
 10
12.74347461851732
 20
3.56686210080285
 30
0.0
 11
12.78919750876732
 21
3.57051993202285
 31
0.0
  0
LINE
  5
1AF
  8
OBJ
 62
     7
 10
12.74347461851732
 20
3.5430066798028501
 30
0.0
 11
12.75739028076732
 21
3.5441199327828499
 31
0.0
  0
LINE
  5
1B0
  8
HIDDEN
 62
     7
 10
12.74347461851732
 20
3.5191512588028502
 30
0.0
 11
12.78919750876732
 21
3.5228090900228501
 31
0.0
  0
LINE
  5
1B1
  8
HIDDEN
 62
     7
 10
12.74347461851732
 20
3.4952958378028498
 30
0.0
 11
12.75739028076732
 21
3.49640909078285
 31
0.0
  0
LINE
  5
1B2
  8
HIDDEN
 62
     7
 10
12.74347461851732
 20
3.4714404168028499
 30
0.0
 11
12.78919750876732
 21
3.4750982480228498
 31
0.0
  0
LINE
  5
1B3
  8
HIDDEN
 62
     7
 10
12.74347461851732
 20
3.4475849958028499
 30
0.0
 11
12.75739028076732
 21
3.4486982487828501
 31
0.0
  0
LINE
  5
1B4
  8
HIDDEN
 62
     7
 10
12.74347461851732
 20
3.42372957480285
 30
0.0
 11
12.78919750876732
 21
3.42738740602285
 31
0.0
  0
LINE
  5
1B5
  8
HIDDEN
 62
     7
 10
12.74347461851732
 20
3.3998741538028501
 30
0.0
 11
12.75739028076732
 21
3.4009874067828498
 31
0.0
  0
LINE
  5
1B6
  8
OBJ
 62
     7
 10
12.53672763651732
 20
3.9712910048228518
 30
0.0
 11
12.48011839447897
 21
3.9712910048228509
 31
0.0
  0
LINE
  5
1B7
  8
OBJ
 62
     7
 10
12.53672763651732
 20
3.8881151036028512
 30
0.0
 11
12.48011839447897
 21
3.8881151036028512
 31
0.0
  0
LINE
  5
1B8
  8
OBJ
 62
     7
 10
12.764149316717321
 20
3.8384163098528501
 30
0.0
 11
12.78919750876732
 21
3.8384163098528501
 31
0.0
  0
LINE
  5
1B9
  8
OBJ
 62
     7
 10
12.74347461851732
 20
3.9958960585811041
 30
0.0
 11
12.53672763651732
 21
3.9958960585811041
 31
0.0
  0
LINE
  5
1BA
  8
HIDDEN
 62
     7
 10
12.74347461851732
 20
3.8292717318028511
 30
0.0
 11
12.75739028076732
 21
3.8303849847828508
 31
0.0
  0
LINE
  5
1BB
  8
HIDDEN
 62
     7
 10
12.74347461851732
 20
3.7815608898028512
 30
0.0
 11
12.75739028076732
 21
3.782674142782851
 31
0.0
  0
LINE
  5
1BC
  8
HIDDEN
 62
     7
 10
12.74347461851732
 20
3.73385004780285
 30
0.0
 11
12.75739028076732
 21
3.7349633007828511
 31
0.0
  0
LINE
  5
1BD
  8
HIDDEN
 62
     7
 10
12.74347461851732
 20
3.686139205802851
 30
0.0
 11
12.75739028076732
 21
3.6872524587828508
 31
0.0
  0
LINE
  5
1BE
  8
OBJ
 62
     7
 10
12.74347461851732
 20
3.6384283638028498
 30
0.0
 11
12.75739028076732
 21
3.63954161678285
 31
0.0
  0
LINE
  5
1BF
  8
OBJ
 62
     7
 10
12.74347461851732
 20
3.59071752180285
 30
0.0
 11
12.75739028076732
 21
3.5918307747828511
 31
0.0
  0
LINE
  5
1C0
  8
OBJ
 62
     7
 10
12.74347461851732
 20
3.543006679802851
 30
0.0
 11
12.75739028076732
 21
3.5441199327828512
 31
0.0
  0
LINE
  5
1C1
  8
HIDDEN
 62
     7
 10
12.74347461851732
 20
3.4952958378028511
 30
0.0
 11
12.75739028076732
 21
3.49640909078285
 31
0.0
  0
LINE
  5
1C2
  8
HIDDEN
 62
     7
 10
12.74347461851732
 20
3.4475849958028499
 30
0.0
 11
12.75739028076732
 21
3.448698248782851
 31
0.0
  0
LINE
  5
1C3
  8
HIDDEN
 62
     7
 10
12.74347461851732
 20
3.3998741538028501
 30
0.0
 11
12.75739028076732
 21
3.4009874067828498
 31
0.0
  0
LINE
  5
1C4
  8
OBJ
 62
     7
 10
12.4601661286667
 20
3.5228090900228501
 30
0.0
 11
12.52281197426732
 21
3.5228090900228501
 31
0.0
  0
LINE
  5
1C5
  8
OBJ
 62
     7
 10
12.75739028076732
 20
3.5228090900228501
 30
0.0
 11
12.820036126367951
 21
3.5228090900228501
 31
0.0
  0
LINE
  5
1C6
  8
OBJ
 62
     7
 10
12.589200030301649
 20
3.4596717424428509
 30
0.0
 11
12.66922364582479
 21
3.4596717424428509
 31
0.0
  0
LINE
  5
1C7
  8
OBJ
 62
     7
 10
12.73025431462567
 20
3.45967174244285
 30
0.0
 11
12.800083860555681
 21
3.45967174244285
 31
0.0
  0
LINE
  5
1CB
  8
HIDDEN
 62
     7
 10
12.53672763651732
 20
3.8836266887108102
 30
0.0
 11
12.49151725765936
 21
3.838416309852851
 31
0.0
  0
LINE
  5
1CC
  8
HIDDEN
 62
     7
 10
12.74347461851732
 20
3.8846517114948909
 30
0.0
 11
12.78971002015936
 21
3.8384163098528501
 31
0.0
  0
LINE
  5
1CD
  8
OBJ
 62
     7
 10
12.595959066251661
 20
3.8881151036028512
 30
0.0
 11
12.675982681774791
 21
3.8881151036028512
 31
0.0
  0
LINE
  5
1CE
  8
OBJ
 62
     7
 10
12.595959066251661
 20
3.9712910048228509
 30
0.0
 11
12.675982681774791
 21
3.9712910048228509
 31
0.0
  0
CIRCLE
  5
1EC
  8
PHANTOM
 62
     7
 10
12.63665550925039
 20
3.6743019857544641
 30
0.0
 40
0.6599999809999999
  0
CIRCLE
  5
1ED
  8
PHANTOM
 62
     7
 10
12.63665550925039
 20
3.6743019857544641
 30
0.0
 40
0.5486746829999999
  0
LINE
  5
1FA
  8
DIM
 62
     7
 10
12.798077191350391
 20
3.1499100061121772
 30
0.0
 11
12.798077191350391
 21
3.118909857726968
 31
0.0
  0
LINE
  5
1FB
  8
DIM
 62
     7
 10
12.47523382715039
 20
3.1499100061121772
 30
0.0
 11
12.47523382715039
 21
3.1157586967168829
 31
0.0
  0
LINE
  5
1FC
  8
DIM
 62
     7
 10
12.798077191350391
 20
3.066127910808043
 30
0.0
 11
12.798077191350391
 21
3.0343465064685948
 31
0.0
  0
LINE
  5
1FD
  8
DIM
 62
     7
 10
12.47523382715039
 20
3.0677034913130852
 30
0.0
 11
12.47523382715039
 21
3.0343465064685948
 31
0.0
  0
LINE
  5
28A
  8
PHANTOM
 62
     7
 10
14.114985279176491
 20
3.0143020047544651
 30
0.0
 11
17.114985279176501
 21
3.0143020047544651
 31
0.0
  0
LINE
  5
28B
  8
PHANTOM
 62
     7
 10
17.114985279176501
 20
3.0143020047544651
 30
0.0
 11
17.114985279176501
 21
4.3343020047544654
 31
0.0
  0
LINE
  5
28C
  8
PHANTOM
 62
     7
 10
17.114985279176501
 20
4.3343020047544654
 30
0.0
 11
14.114985279176491
 21
4.3343020047544654
 31
0.0
  0
ARC
  5
28E
  8
PHANTOM
 62
     7
 10
14.496412543252861
 20
4.0043020047544644
 30
0.0
 40
0.5043676811422201
 50
139.13457420337321
 51
220.86542579662671
  0
ARC
  5
28F
  8
PHANTOM
 62
     7
 10
14.496412543252861
 20
3.344302004754462
 30
0.0
 40
0.5043676811422201
 50
139.13457420337321
 51
220.86542579662671
  0
ARC
  5
290
  8
PHANTOM
 62
     7
 10
13.73355801510013
 20
3.344302004754462
 30
0.0
 40
0.5043676811422201
 50
319.13457420337318
 51
40.865425796626752
  0
LINE
  5
291
  8
OBJ
 62
     7
 10
18.989985279176501
 20
4.0961563574860804
 30
0.0
 11
18.989985279176501
 21
3.7761563574860801
 31
0.0
  0
LINE
  5
292
  8
OBJ
 62
     7
 10
18.989985279176501
 20
4.0961563574860804
 30
0.0
 11
15.239985279176491
 21
4.0961563574860786
 31
0.0
  0
LINE
  5
293
  8
PHANTOM
 62
     7
 10
17.114985279176501
 20
4.2013020047544654
 30
0.0
 11
14.032109024225941
 21
4.2013020047544654
 31
0.0
  0
LINE
  5
294
  8
PHANTOM
 62
     7
 10
14.19786153412705
 20
3.1473020047544642
 30
0.0
 11
17.114985279176501
 21
3.1473020047544651
 31
0.0
  0
LINE
  5
295
  8
OBJ
 62
     7
 10
15.239985279176491
 20
4.0961563574860786
 30
0.0
 11
15.239985279176491
 21
3.6561563574860791
 31
0.0
  0
LINE
  5
296
  8
OBJ
 62
     7
 10
17.114985279176501
 20
3.6561563574860791
 30
0.0
 11
15.239985279176491
 21
3.6561563574860791
 31
0.0
  0
LINE
  5
297
  8
OBJ
 62
     7
 10
18.989985279176501
 20
3.7761563574860801
 30
0.0
 11
17.114985279176501
 21
3.7761563574860801
 31
0.0
  0
LINE
  5
298
  8
OBJ
 62
     7
 10
17.114985279176501
 20
3.6561563574860791
 30
0.0
 11
17.114985279176501
 21
3.7761563574860801
 31
0.0
  0
LINE
  5
299
  8
HIDDEN
 62
     7
 10
18.989985279176501
 20
3.996156357486079
 30
0.0
 11
15.239985279176491
 21
3.996156357486079
 31
0.0
  0
LINE
  5
29A
  8
HIDDEN
 62
     7
 10
18.989985279176501
 20
3.996156357486079
 30
0.0
 11
15.239985279176491
 21
3.996156357486079
 31
0.0
  0
LINE
  5
29B
  8
OBJ
 62
     7
 10
17.114985279176501
 20
3.6561563574860791
 30
0.0
 11
15.239985279176491
 21
3.6561563574860791
 31
0.0
  0
LINE
  5
29C
  8
OBJ
 62
     7
 10
18.989985279176501
 20
4.0961563574860804
 30
0.0
 11
15.239985279176491
 21
4.0961563574860786
 31
0.0
  0
LINE
  5
29D
  8
OBJ
 62
     7
 10
15.239985279176491
 20
4.0961563574860786
 30
0.0
 11
15.239985279176491
 21
3.6561563574860791
 31
0.0
  0
LINE
  5
29E
  8
OBJ
 62
     7
 10
18.989985279176501
 20
3.7761563574860801
 30
0.0
 11
17.114985279176501
 21
3.7761563574860801
 31
0.0
  0
LINE
  5
29F
  8
OBJ
 62
     7
 10
18.989985279176501
 20
4.0961563574860804
 30
0.0
 11
18.989985279176501
 21
3.7761563574860801
 31
0.0
  0
LINE
  5
2A0
  8
OBJ
 62
     7
 10
17.114985279176501
 20
3.6561563574860791
 30
0.0
 11
17.114985279176501
 21
3.7761563574860801
 31
0.0
  0
LINE
  5
2A1
  8
HIDDEN
 62
     7
 10
15.239985279176491
 20
3.3524476520228501
 30
0.0
 11
18.989985279176501
 21
3.3524476520228501
 31
0.0
  0
LINE
  5
2A2
  8
OBJ
 62
     7
 10
17.114985279176501
 20
3.69244765202285
 30
0.0
 11
18.989985279176501
 21
3.69244765202285
 31
0.0
  0
LINE
  5
2A3
  8
OBJ
 62
     7
 10
15.239985279176491
 20
3.25244765202285
 30
0.0
 11
18.989985279176501
 21
3.25244765202285
 31
0.0
  0
LINE
  5
2A4
  8
OBJ
 62
     7
 10
15.239985279176491
 20
3.25244765202285
 30
0.0
 11
18.989985279176501
 21
3.25244765202285
 31
0.0
  0
LINE
  5
2A5
  8
OBJ
 62
     7
 10
17.114985279176501
 20
3.69244765202285
 30
0.0
 11
18.989985279176501
 21
3.69244765202285
 31
0.0
  0
LINE
  5
2A6
  8
HIDDEN
 62
     7
 10
15.239985279176491
 20
3.3524476520228501
 30
0.0
 11
18.989985279176501
 21
3.3524476520228501
 31
0.0
  0
LINE
  5
2A7
  8
OBJ
 62
     7
 10
15.239985279176491
 20
3.5724476520228499
 30
0.0
 11
17.114985279176501
 21
3.5724476520228499
 31
0.0
  0
LINE
  5
2A8
  8
OBJ
 62
     7
 10
15.239985279176491
 20
3.5724476520228499
 30
0.0
 11
17.114985279176501
 21
3.5724476520228499
 31
0.0
  0
LINE
  5
2A9
  8
OBJ
 62
     7
 10
15.239985279176491
 20
3.25244765202285
 30
0.0
 11
15.239985279176491
 21
3.5724476520228499
 31
0.0
  0
LINE
  5
2AA
  8
OBJ
 62
     7
 10
15.239985279176491
 20
3.25244765202285
 30
0.0
 11
15.239985279176491
 21
3.5724476520228499
 31
0.0
  0
LINE
  5
2AB
  8
OBJ
 62
     7
 10
17.114985279176501
 20
3.69244765202285
 30
0.0
 11
17.114985279176501
 21
3.5724476520228499
 31
0.0
  0
LINE
  5
2AC
  8
OBJ
 62
     7
 10
17.114985279176501
 20
3.69244765202285
 30
0.0
 11
17.114985279176501
 21
3.5724476520228499
 31
0.0
  0
LINE
  5
2AD
  8
OBJ
 62
     7
 10
18.989985279176501
 20
3.25244765202285
 30
0.0
 11
18.989985279176501
 21
3.69244765202285
 31
0.0
  0
LINE
  5
2AE
  8
OBJ
 62
     7
 10
18.989985279176501
 20
3.25244765202285
 30
0.0
 11
18.989985279176501
 21
3.69244765202285
 31
0.0
  0
LINE
  5
2B0
  8
DIM
 62
     7
 10
16.5735635970765
 20
3.0599947981498898
 30
0.0
 11
16.5735635970765
 21
3.0266378133053999
 31
0.0
  0
LINE
  5
2B1
  8
DIM
 62
     7
 10
16.896406961276501
 20
3.0584192176448481
 30
0.0
 11
16.896406961276501
 21
3.0266378133053999
 31
0.0
  0
LINE
  5
2B4
  8
HIDDEN
 62
     7
 10
16.635057406443419
 20
3.8836266887108102
 30
0.0
 11
16.589847027585471
 21
3.838416309852851
 31
0.0
  0
LINE
  5
2B5
  8
HIDDEN
 62
     7
 10
16.841804388443421
 20
3.8846517114948909
 30
0.0
 11
16.888039790085472
 21
3.8384163098528501
 31
0.0
  0
LINE
  5
2B6
  8
OBJ
 62
     7
 10
16.862479086643422
 20
3.8384163098528501
 30
0.0
 11
16.88752727869343
 21
3.8384163098528501
 31
0.0
  0
LINE
  5
2B7
  8
HIDDEN
 62
     7
 10
16.855720050693431
 20
3.7826741427828501
 30
0.0
 11
16.88752727869343
 21
3.8090741420228502
 31
0.0
  0
LINE
  5
2B8
  8
HIDDEN
 62
     7
 10
16.855720050693431
 20
3.7349633007828502
 30
0.0
 11
16.88752727869343
 21
3.7613633000228499
 31
0.0
  0
LINE
  5
2B9
  8
HIDDEN
 62
     7
 10
16.88752727869343
 20
3.7613633000228499
 30
0.0
 11
16.855720050693431
 21
3.7826741427828501
 31
0.0
  0
LINE
  5
2BA
  8
HIDDEN
 62
     7
 10
16.855720050693431
 20
3.6872524587828499
 30
0.0
 11
16.88752727869343
 21
3.71365245802285
 31
0.0
  0
LINE
  5
2BB
  8
HIDDEN
 62
     7
 10
16.88752727869343
 20
3.71365245802285
 30
0.0
 11
16.855720050693431
 21
3.7349633007828502
 31
0.0
  0
LINE
  5
2BC
  8
HIDDEN
 62
     7
 10
16.855720050693431
 20
3.5441199327828499
 30
0.0
 11
16.88752727869343
 21
3.57051993202285
 31
0.0
  0
LINE
  5
2BD
  8
HIDDEN
 62
     7
 10
16.88752727869343
 20
3.5228090900228501
 30
0.0
 11
16.855720050693431
 21
3.5441199327828499
 31
0.0
  0
LINE
  5
2BE
  8
OBJ
 62
     7
 10
16.855720050693431
 20
3.63954161678285
 30
0.0
 11
16.88752727869343
 21
3.6659416160228502
 31
0.0
  0
LINE
  5
2BF
  8
OBJ
 62
     7
 10
16.855720050693431
 20
3.5918307747828502
 30
0.0
 11
16.88752727869343
 21
3.6182307740228499
 31
0.0
  0
LINE
  5
2C0
  8
OBJ
 62
     7
 10
16.88752727869343
 20
3.6182307740228499
 30
0.0
 11
16.855720050693431
 21
3.63954161678285
 31
0.0
  0
LINE
  5
2C1
  8
OBJ
 62
     7
 10
16.88752727869343
 20
3.57051993202285
 30
0.0
 11
16.855720050693431
 21
3.5918307747828502
 31
0.0
  0
LINE
  5
2C2
  8
HIDDEN
 62
     7
 10
16.855720050693431
 20
3.5228090900228501
 30
0.0
 11
16.918365896294048
 21
3.5228090900228501
 31
0.0
  0
LINE
  5
2C3
  8
HIDDEN
 62
     7
 10
16.88752727869343
 20
3.6659416160228502
 30
0.0
 11
16.855720050693431
 21
3.6872524587828499
 31
0.0
  0
LINE
  5
2C4
  8
HIDDEN
 62
     7
 10
16.855720050693431
 20
3.4009874067828498
 30
0.0
 11
16.88752727869343
 21
3.42738740602285
 31
0.0
  0
LINE
  5
2C5
  8
HIDDEN
 62
     7
 10
16.88752727869343
 20
3.3796765640228501
 30
0.0
 11
16.855720050693431
 21
3.4009874067828498
 31
0.0
  0
LINE
  5
2C6
  8
HIDDEN
 62
     7
 10
16.855720050693431
 20
3.4486982487828501
 30
0.0
 11
16.88752727869343
 21
3.4750982480228498
 31
0.0
  0
LINE
  5
2C7
  8
HIDDEN
 62
     7
 10
16.88752727869343
 20
3.4750982480228498
 30
0.0
 11
16.855720050693431
 21
3.49640909078285
 31
0.0
  0
LINE
  5
2C8
  8
HIDDEN
 62
     7
 10
16.88752727869343
 20
3.42738740602285
 30
0.0
 11
16.855720050693431
 21
3.4486982487828501
 31
0.0
  0
LINE
  5
2C9
  8
HIDDEN
 62
     7
 10
16.855720050693431
 20
3.2578548807828498
 30
0.0
 11
16.88752727869343
 21
3.2842548800228499
 31
0.0
  0
LINE
  5
2CA
  8
OBJ
 62
     7
 10
16.88752727869343
 20
3.2365440380228501
 30
0.0
 11
16.855720050693431
 21
3.2578548807828498
 31
0.0
  0
LINE
  5
2CB
  8
HIDDEN
 62
     7
 10
16.855720050693431
 20
3.3055657227828501
 30
0.0
 11
16.88752727869343
 21
3.3319657220228498
 31
0.0
  0
LINE
  5
2CC
  8
HIDDEN
 62
     7
 10
16.88752727869343
 20
3.3319657220228498
 30
0.0
 11
16.855720050693431
 21
3.35327656478285
 31
0.0
  0
LINE
  5
2CD
  8
HIDDEN
 62
     7
 10
16.88752727869343
 20
3.2842548800228499
 30
0.0
 11
16.855720050693431
 21
3.3055657227828501
 31
0.0
  0
LINE
  5
2CE
  8
HIDDEN
 62
     7
 10
16.855720050693431
 20
3.35327656478285
 30
0.0
 11
16.88752727869343
 21
3.3796765640228501
 31
0.0
  0
LINE
  5
2CF
  8
HIDDEN
 62
     7
 10
16.855720050693431
 20
3.49640909078285
 30
0.0
 11
16.88752727869343
 21
3.5228090900228501
 31
0.0
  0
LINE
  5
2D0
  8
HIDDEN
 62
     7
 10
16.578448164405071
 20
3.3764958412228512
 30
0.0
 11
16.89841363048178
 21
3.3764958412228498
 31
0.0
  0
LINE
  5
2DE
  8
HIDDEN
 62
     7
 10
16.88752727869343
 20
3.8090741420228502
 30
0.0
 11
16.855720050693431
 21
3.8303849847828499
 31
0.0
  0
LINE
  5
2DF
  8
OBJ
 62
     7
 10
16.88752727869343
 20
3.1888331960228502
 30
0.0
 11
16.855720050693431
 21
3.2101440387828499
 31
0.0
  0
LINE
  5
2E1
  8
OBJ
 62
     7
 10
16.589334516193428
 20
3.1649777750228498
 30
0.0
 11
16.88752727869343
 21
3.1888331960228502
 31
0.0
  0
LINE
  5
2E2
  8
OBJ
 62
     7
 10
16.88752727869343
 20
3.11726693302285
 30
0.0
 11
16.589334516193428
 21
3.11726693302285
 31
0.0
  0
LINE
  5
2E3
  8
OBJ
 62
     7
 10
16.589334516193428
 20
3.212688617022851
 30
0.0
 11
16.88752727869343
 21
3.2365440380228501
 31
0.0
  0
LINE
  5
2E4
  8
OBJ
 62
     7
 10
16.855720050693431
 20
3.2101440387828499
 30
0.0
 11
16.88752727869343
 21
3.2365440380228501
 31
0.0
  0
LINE
  5
2E5
  8
HIDDEN
 62
     7
 10
16.589334516193428
 20
3.4989536690228502
 30
0.0
 11
16.62114174419343
 21
3.47764282626285
 31
0.0
  0
ARC
  5
2E6
  8
HIDDEN
 62
     7
 10
16.534640477592799
 20
3.48352716344285
 30
0.0
 40
0.023855421
 50
270.0
 51
0.0
  0
LINE
  5
2EA
  8
HIDDEN
 62
     7
 10
16.62114174419343
 20
3.47764282626285
 30
0.0
 11
16.635057406443419
 21
3.4787560792428511
 31
0.0
  0
LINE
  5
2EB
  8
HIDDEN
 62
     7
 10
16.62114174419343
 20
3.47764282626285
 30
0.0
 11
16.635057406443419
 21
3.4787560792428498
 31
0.0
  0
LINE
  5
2ED
  8
HIDDEN
 62
     7
 10
16.62114174419343
 20
3.4299319842628511
 30
0.0
 11
16.635057406443419
 21
3.4310452372428499
 31
0.0
  0
LINE
  5
2EE
  8
HIDDEN
 62
     7
 10
16.62114174419343
 20
3.4299319842628502
 30
0.0
 11
16.635057406443419
 21
3.4310452372428499
 31
0.0
  0
LINE
  5
2F0
  8
HIDDEN
 62
     7
 10
16.62114174419343
 20
3.3822211422628499
 30
0.0
 11
16.635057406443419
 21
3.3833343952428501
 31
0.0
  0
LINE
  5
2F1
  8
HIDDEN
 62
     7
 10
16.62114174419343
 20
3.3822211422628499
 30
0.0
 11
16.635057406443419
 21
3.3833343952428501
 31
0.0
  0
LINE
  5
2F6
  8
OBJ
 62
     7
 10
16.62114174419343
 20
3.2390886162628512
 30
0.0
 11
16.855720050693431
 21
3.2578548807828511
 31
0.0
  0
LINE
  5
2F7
  8
OBJ
 62
     7
 10
16.62114174419343
 20
3.2390886162628498
 30
0.0
 11
16.855720050693431
 21
3.2578548807828498
 31
0.0
  0
LINE
  5
2F8
  8
OBJ
 62
     7
 10
16.62114174419343
 20
3.1913777742628509
 30
0.0
 11
16.855720050693431
 21
3.2101440387828508
 31
0.0
  0
LINE
  5
2F9
  8
OBJ
 62
     7
 10
16.62114174419343
 20
3.19137777426285
 30
0.0
 11
16.855720050693431
 21
3.2101440387828499
 31
0.0
  0
LINE
  5
2FB
  8
HIDDEN
 62
     7
 10
16.589334516193428
 20
3.3081103010228499
 30
0.0
 11
16.62114174419343
 21
3.286799458262851
 31
0.0
  0
LINE
  5
2FC
  8
HIDDEN
 62
     7
 10
16.62114174419343
 20
3.286799458262851
 30
0.0
 11
16.589334516193428
 21
3.26039945902285
 31
0.0
  0
LINE
  5
2FD
  8
OBJ
 62
     7
 10
16.589334516193428
 20
3.26039945902285
 30
0.0
 11
16.62114174419343
 21
3.2390886162628512
 31
0.0
  0
LINE
  5
2FE
  8
OBJ
 62
     7
 10
16.589334516193428
 20
3.1649777750228498
 30
0.0
 11
16.589334516193428
 21
3.11726693302285
 31
0.0
  0
LINE
  5
2FF
  8
OBJ
 62
     7
 10
16.589334516193428
 20
3.2126886170228501
 30
0.0
 11
16.62114174419343
 21
3.1913777742628509
 31
0.0
  0
LINE
  5
301
  8
OBJ
 62
     7
 10
16.62114174419343
 20
3.19137777426285
 30
0.0
 11
16.589334516193428
 21
3.1649777750228498
 31
0.0
  0
LINE
  5
302
  8
DIM
 62
     7
 10
16.5735635970765
 20
3.1422013129489819
 30
0.0
 11
16.5735635970765
 21
3.108050003553688
 31
0.0
  0
LINE
  5
303
  8
OBJ
 62
     7
 10
16.62114174419343
 20
3.2390886162628498
 30
0.0
 11
16.589334516193428
 21
3.2126886170228501
 31
0.0
  0
LINE
  5
304
  8
HIDDEN
 62
     7
 10
16.62114174419343
 20
3.4299319842628502
 30
0.0
 11
16.589334516193428
 21
3.40353198502285
 31
0.0
  0
LINE
  5
305
  8
HIDDEN
 62
     7
 10
16.589334516193428
 20
3.40353198502285
 30
0.0
 11
16.62114174419343
 21
3.3822211422628499
 31
0.0
  0
LINE
  5
306
  8
HIDDEN
 62
     7
 10
16.62114174419343
 20
3.47764282626285
 30
0.0
 11
16.589334516193428
 21
3.4512428270228499
 31
0.0
  0
LINE
  5
307
  8
HIDDEN
 62
     7
 10
16.589334516193428
 20
3.4512428270228499
 30
0.0
 11
16.62114174419343
 21
3.4299319842628511
 31
0.0
  0
LINE
  5
308
  8
HIDDEN
 62
     7
 10
16.589334516193428
 20
3.3558211430228502
 30
0.0
 11
16.62114174419343
 21
3.3345103002628509
 31
0.0
  0
LINE
  5
309
  8
HIDDEN
 62
     7
 10
16.62114174419343
 20
3.33451030026285
 30
0.0
 11
16.589334516193428
 21
3.3081103010228499
 31
0.0
  0
ARC
  5
30B
  8
HIDDEN
 62
     7
 10
16.578448164405071
 20
3.3483464444428508
 30
0.0
 40
0.02814939678
 50
90.0
 51
171.62251148219221
  0
LINE
  5
30C
  8
HIDDEN
 62
     7
 10
16.62114174419343
 20
3.3822211422628499
 30
0.0
 11
16.589334516193428
 21
3.3558211430228502
 31
0.0
  0
LINE
  5
30D
  8
HIDDEN
 62
     7
 10
15.239985279176491
 20
3.4596717424428509
 30
0.0
 11
18.989985279176501
 21
3.4596717424428509
 31
0.0
  0
LINE
  5
30E
  8
HIDDEN
 62
     7
 10
16.841804388443421
 20
3.4475849958028499
 30
0.0
 11
16.855720050693431
 21
3.4486982487828501
 31
0.0
  0
LINE
  5
30F
  8
HIDDEN
 62
     7
 10
16.841804388443421
 20
3.3998741538028501
 30
0.0
 11
16.855720050693431
 21
3.4009874067828498
 31
0.0
  0
LINE
  5
310
  8
HIDDEN
 62
     7
 10
16.841804388443421
 20
3.4475849958028499
 30
0.0
 11
16.855720050693431
 21
3.448698248782851
 31
0.0
  0
LINE
  5
311
  8
HIDDEN
 62
     7
 10
16.841804388443421
 20
3.3998741538028501
 30
0.0
 11
16.855720050693431
 21
3.4009874067828498
 31
0.0
  0
LINE
  5
312
  8
HIDDEN
 62
     7
 10
16.62114174419343
 20
3.8116187202628509
 30
0.0
 11
16.635057406443419
 21
3.8127319732428511
 31
0.0
  0
LINE
  5
313
  8
HIDDEN
 62
     7
 10
16.62114174419343
 20
3.81161872026285
 30
0.0
 11
16.635057406443419
 21
3.8127319732428502
 31
0.0
  0
LINE
  5
315
  8
HIDDEN
 62
     7
 10
16.62114174419343
 20
3.763907878262851
 30
0.0
 11
16.635057406443419
 21
3.7650211312428512
 31
0.0
  0
LINE
  5
316
  8
HIDDEN
 62
     7
 10
16.62114174419343
 20
3.763907878262851
 30
0.0
 11
16.635057406443419
 21
3.7650211312428499
 31
0.0
  0
LINE
  5
318
  8
HIDDEN
 62
     7
 10
16.62114174419343
 20
3.7161970362628511
 30
0.0
 11
16.635057406443419
 21
3.7173102892428509
 31
0.0
  0
LINE
  5
319
  8
HIDDEN
 62
     7
 10
16.62114174419343
 20
3.7161970362628498
 30
0.0
 11
16.635057406443419
 21
3.71731028924285
 31
0.0
  0
LINE
  5
31B
  8
HIDDEN
 62
     7
 10
16.62114174419343
 20
3.6684861942628508
 30
0.0
 11
16.635057406443419
 21
3.669599447242851
 31
0.0
  0
LINE
  5
31C
  8
HIDDEN
 62
     7
 10
16.62114174419343
 20
3.6684861942628499
 30
0.0
 11
16.635057406443419
 21
3.6695994472428501
 31
0.0
  0
LINE
  5
31D
  8
HIDDEN
 62
     7
 10
16.589334516193428
 20
3.6420861950228498
 30
0.0
 11
16.765211546983771
 21
3.6561563574860791
 31
0.0
  0
LINE
  5
31E
  8
OBJ
 62
     7
 10
16.62114174419343
 20
3.6207753522628501
 30
0.0
 11
16.635057406443419
 21
3.6218886052428512
 31
0.0
  0
LINE
  5
31F
  8
OBJ
 62
     7
 10
16.62114174419343
 20
3.6207753522628501
 30
0.0
 11
16.855720050693421
 21
3.6395416167828518
 31
0.0
  0
LINE
  5
320
  8
OBJ
 62
     7
 10
16.589334516193428
 20
3.5943753530228499
 30
0.0
 11
16.88752727869343
 21
3.6182307740228499
 31
0.0
  0
LINE
  5
321
  8
OBJ
 62
     7
 10
16.62114174419343
 20
3.5730645102628511
 30
0.0
 11
16.635057406443419
 21
3.57417776324285
 31
0.0
  0
LINE
  5
322
  8
OBJ
 62
     7
 10
16.62114174419343
 20
3.5730645102628502
 30
0.0
 11
16.855720050693431
 21
3.5918307747828542
 31
0.0
  0
LINE
  5
324
  8
HIDDEN
 62
     7
 10
16.62114174419343
 20
3.5253536682628499
 30
0.0
 11
16.635057406443419
 21
3.5264669212428501
 31
0.0
  0
LINE
  5
325
  8
HIDDEN
 62
     7
 10
16.62114174419343
 20
3.5253536682628499
 30
0.0
 11
16.635057406443419
 21
3.5264669212428501
 31
0.0
  0
LINE
  5
327
  8
HIDDEN
 62
     7
 10
16.589334516193428
 20
3.6897970370228501
 30
0.0
 11
16.62114174419343
 21
3.6684861942628508
 31
0.0
  0
LINE
  5
328
  8
HIDDEN
 62
     7
 10
16.589334516193428
 20
3.5466645110228501
 30
0.0
 11
16.62114174419343
 21
3.5253536682628499
 31
0.0
  0
LINE
  5
329
  8
HIDDEN
 62
     7
 10
16.62114174419343
 20
3.6684861942628499
 30
0.0
 11
16.589334516193428
 21
3.6420861950228498
 31
0.0
  0
LINE
  5
32A
  8
OBJ
 62
     7
 10
16.589334516193428
 20
3.6420861950228498
 30
0.0
 11
16.62114174419343
 21
3.6207753522628501
 31
0.0
  0
LINE
  5
32B
  8
OBJ
 62
     7
 10
16.62114174419343
 20
3.6207753522628501
 30
0.0
 11
16.589334516193428
 21
3.5943753530228499
 31
0.0
  0
LINE
  5
32C
  8
OBJ
 62
     7
 10
16.589334516193428
 20
3.5943753530228499
 30
0.0
 11
16.62114174419343
 21
3.5730645102628511
 31
0.0
  0
LINE
  5
32D
  8
HIDDEN
 62
     7
 10
16.62114174419343
 20
3.5730645102628502
 30
0.0
 11
16.589334516193428
 21
3.5466645110228501
 31
0.0
  0
LINE
  5
32E
  8
HIDDEN
 62
     7
 10
16.558495898592799
 20
3.5228090900228501
 30
0.0
 11
16.62114174419343
 21
3.5228090900228501
 31
0.0
  0
LINE
  5
32F
  8
HIDDEN
 62
     7
 10
16.62114174419343
 20
3.5253536682628499
 30
0.0
 11
16.589334516193428
 21
3.4989536690228502
 31
0.0
  0
LINE
  5
330
  8
HIDDEN
 62
     7
 10
16.558495898592799
 20
3.5228090900228501
 30
0.0
 11
16.558495898592799
 21
3.48352716344285
 31
0.0
  0
LINE
  5
331
  8
OBJ
 62
     7
 10
16.589334516193428
 20
3.838416309852851
 30
0.0
 11
16.614382708243419
 21
3.838416309852851
 31
0.0
  0
LINE
  5
332
  8
HIDDEN
 62
     7
 10
16.62114174419343
 20
3.81161872026285
 30
0.0
 11
16.589334516193428
 21
3.7852187210228498
 31
0.0
  0
LINE
  5
333
  8
HIDDEN
 62
     7
 10
16.589334516193428
 20
3.7852187210228498
 30
0.0
 11
16.62114174419343
 21
3.763907878262851
 31
0.0
  0
LINE
  5
334
  8
HIDDEN
 62
     7
 10
16.62114174419343
 20
3.763907878262851
 30
0.0
 11
16.589334516193428
 21
3.73750787902285
 31
0.0
  0
LINE
  5
335
  8
HIDDEN
 62
     7
 10
16.589334516193428
 20
3.73750787902285
 30
0.0
 11
16.62114174419343
 21
3.7161970362628511
 31
0.0
  0
LINE
  5
336
  8
HIDDEN
 62
     7
 10
16.62114174419343
 20
3.7161970362628498
 30
0.0
 11
16.589334516193428
 21
3.6897970370228501
 31
0.0
  0
LINE
  5
337
  8
HIDDEN
 62
     7
 10
16.589334516193428
 20
3.8329295630228502
 30
0.0
 11
16.62114174419343
 21
3.8116187202628509
 31
0.0
  0
LINE
  5
338
  8
OBJ
 62
     7
 10
16.841804388443421
 20
3.6384283638028498
 30
0.0
 11
16.855720050693431
 21
3.63954161678285
 31
0.0
  0
LINE
  5
339
  8
OBJ
 62
     7
 10
16.841804388443421
 20
3.59071752180285
 30
0.0
 11
16.855720050693431
 21
3.5918307747828502
 31
0.0
  0
LINE
  5
33A
  8
HIDDEN
 62
     7
 10
16.841804388443421
 20
3.5430066798028501
 30
0.0
 11
16.855720050693431
 21
3.5441199327828499
 31
0.0
  0
LINE
  5
33B
  8
HIDDEN
 62
     7
 10
16.841804388443421
 20
3.4952958378028498
 30
0.0
 11
16.855720050693431
 21
3.49640909078285
 31
0.0
  0
LINE
  5
33C
  8
OBJ
 62
     7
 10
16.841804388443421
 20
3.6384283638028498
 30
0.0
 11
16.855720050693431
 21
3.63954161678285
 31
0.0
  0
LINE
  5
33D
  8
OBJ
 62
     7
 10
16.841804388443421
 20
3.59071752180285
 30
0.0
 11
16.855720050693431
 21
3.5918307747828511
 31
0.0
  0
LINE
  5
33E
  8
HIDDEN
 62
     7
 10
16.841804388443421
 20
3.543006679802851
 30
0.0
 11
16.855720050693431
 21
3.5441199327828512
 31
0.0
  0
LINE
  5
33F
  8
HIDDEN
 62
     7
 10
16.841804388443421
 20
3.4952958378028511
 30
0.0
 11
16.855720050693431
 21
3.49640909078285
 31
0.0
  0
LINE
  5
340
  8
HIDDEN
 62
     7
 10
16.841804388443421
 20
3.8292717318028502
 30
0.0
 11
16.855720050693431
 21
3.8303849847828499
 31
0.0
  0
LINE
  5
341
  8
HIDDEN
 62
     7
 10
16.841804388443421
 20
3.8292717318028511
 30
0.0
 11
16.855720050693431
 21
3.8303849847828508
 31
0.0
  0
LINE
  5
342
  8
HIDDEN
 62
     7
 10
16.841804388443421
 20
3.7815608898028499
 30
0.0
 11
16.855720050693431
 21
3.7826741427828501
 31
0.0
  0
LINE
  5
343
  8
HIDDEN
 62
     7
 10
16.841804388443421
 20
3.73385004780285
 30
0.0
 11
16.855720050693431
 21
3.7349633007828502
 31
0.0
  0
LINE
  5
344
  8
HIDDEN
 62
     7
 10
16.841804388443421
 20
3.6861392058028501
 30
0.0
 11
16.855720050693431
 21
3.6872524587828499
 31
0.0
  0
LINE
  5
345
  8
HIDDEN
 62
     7
 10
16.841804388443421
 20
3.7815608898028512
 30
0.0
 11
16.855720050693431
 21
3.782674142782851
 31
0.0
  0
LINE
  5
346
  8
HIDDEN
 62
     7
 10
16.841804388443421
 20
3.73385004780285
 30
0.0
 11
16.855720050693431
 21
3.7349633007828511
 31
0.0
  0
LINE
  5
347
  8
HIDDEN
 62
     7
 10
16.841804388443421
 20
3.686139205802851
 30
0.0
 11
16.855720050693431
 21
3.6872524587828508
 31
0.0
  0
ARC
  5
348
  8
HIDDEN
 62
     7
 10
16.942221317294049
 20
3.4835271634428508
 30
0.0
 40
0.023855421
 50
180.0000000000006
 51
270.0
  0
LINE
  5
349
  8
OBJ
 62
     7
 10
16.88752727869343
 20
3.1888331960228502
 30
0.0
 11
16.88752727869343
 21
3.11726693302285
 31
0.0
  0
LINE
  5
34A
  8
DIM
 62
     7
 10
16.896406961276501
 20
3.1422013129489819
 30
0.0
 11
16.896406961276501
 21
3.1112011645637732
 31
0.0
  0
ARC
  5
34B
  8
HIDDEN
 62
     7
 10
16.89841363048178
 20
3.3483464444428499
 30
0.0
 40
0.02814939678
 50
8.3774885178273735
 51
90.0
  0
LINE
  5
34C
  8
HIDDEN
 62
     7
 10
16.918365896294048
 20
3.5228090900228501
 30
0.0
 11
16.918365896294048
 21
3.48352716344285
 31
0.0
  0
LINE
  5
35A
  8
HIDDEN
 62
     7
 10
15.239985279176491
 20
3.8889322670660791
 30
0.0
 11
18.989985279176501
 21
3.8889322670660791
 31
0.0
  0
LINE
  5
35B
  8
HIDDEN
 62
     7
 10
18.319985279176489
 20
3.3524476520228501
 30
0.0
 11
18.319985279176489
 21
3.4596717424428509
 31
0.0
  0
LINE
  5
35E
  8
HIDDEN
 62
     7
 10
15.239985279176491
 20
3.9889322670660792
 30
0.0
 11
18.989985279176501
 21
3.9889322670660792
 31
0.0
  0
LINE
  5
35F
  8
HIDDEN
 62
     7
 10
15.239985279176491
 20
3.3596717424428508
 30
0.0
 11
18.989985279176501
 21
3.3596717424428508
 31
0.0
  0
LINE
  5
360
  8
HIDDEN
 62
     7
 10
18.510682880251139
 20
3.853020470817047
 30
0.0
 11
18.593098989775811
 21
3.3118311105160281
 31
0.0
  0
LINE
  5
361
  8
HIDDEN
 62
     7
 10
18.411822660037721
 20
3.8379653434726921
 30
0.0
 11
18.494238769562401
 21
3.2967759831716719
 31
0.0
  0
LINE
  5
362
  8
HIDDEN
 62
     7
 10
18.494238769562401
 20
3.2967759831716719
 30
0.0
 11
18.593098989775811
 21
3.3118311105160281
 31
0.0
  0
ARC
  5
363
  8
HIDDEN
 62
     7
 10
18.352506527909679
 20
3.828932267066079
 30
0.0
 40
0.06
 50
8.6588750028902091
 51
90.0
  0
ARC
  5
364
  8
HIDDEN
 62
     7
 10
18.352506527909679
 20
3.828932267066079
 30
0.0
 40
0.16
 50
8.6588750028902091
 51
90.0
  0
ARC
  5
365
  8
HIDDEN
 62
     7
 10
15.877464030443321
 20
3.828932267066079
 30
0.0
 40
0.16
 50
90.0
 51
171.3411249971098
  0
ARC
  5
366
  8
HIDDEN
 62
     7
 10
15.877464030443321
 20
3.828932267066079
 30
0.0
 40
0.06
 50
90.0
 51
171.3411249971098
  0
LINE
  5
367
  8
HIDDEN
 62
     7
 10
15.81814789831526
 20
3.8379653434726921
 30
0.0
 11
15.73573178879059
 21
3.2967759831716719
 31
0.0
  0
LINE
  5
368
  8
HIDDEN
 62
     7
 10
15.719287678101839
 20
3.853020470817047
 30
0.0
 11
15.636871568577179
 21
3.3118311105160281
 31
0.0
  0
LINE
  5
369
  8
HIDDEN
 62
     7
 10
15.73573178879059
 20
3.2967759831716719
 30
0.0
 11
15.636871568577179
 21
3.3118311105160281
 31
0.0
  0
LINE
  5
36A
  8
HIDDEN
 62
     7
 10
15.909985279176491
 20
3.3524476520228501
 30
0.0
 11
15.909985279176491
 21
3.4596717424428509
 31
0.0
  0
LINE
  5
383
  8
OBJ
 62
     7
 10
15.239985279176491
 20
5.1414081606516167
 30
0.0
 11
18.989985279176491
 21
5.1414081606516167
 31
0.0
  0
LINE
  5
384
  8
OBJ
 62
     7
 10
18.989985279176491
 20
5.1414081606516167
 30
0.0
 11
18.989985279176491
 21
5.5514081606516168
 31
0.0
  0
LINE
  5
385
  8
OBJ
 62
     7
 10
18.989985279176491
 20
6.081408160651617
 30
0.0
 11
15.239985279176491
 21
6.081408160651617
 31
0.0
  0
LINE
  5
386
  8
OBJ
 62
     7
 10
15.239985279176491
 20
6.081408160651617
 30
0.0
 11
15.239985279176491
 21
5.671408160651616
 31
0.0
  0
LINE
  5
387
  8
OBJ
 62
     7
 10
17.114985279176491
 20
5.1414081606516167
 30
0.0
 11
17.114985279176491
 21
5.1814081606516176
 31
0.0
  0
LINE
  5
389
  8
OBJ
 62
     7
 10
15.239985279176491
 20
5.671408160651616
 30
0.0
 11
15.739985279176491
 21
5.671408160651616
 31
0.0
  0
LINE
  5
38A
  8
OBJ
 62
     7
 10
15.239985279176491
 20
5.5514081606516168
 30
0.0
 11
15.739985279176491
 21
5.5514081606516168
 31
0.0
  0
LINE
  5
38B
  8
HIDDEN
 62
     7
 10
18.989985279176491
 20
5.9814081606516183
 30
0.0
 11
15.239985279176491
 21
5.9814081606516183
 31
0.0
  0
LINE
  5
38C
  8
HIDDEN
 62
     7
 10
15.239985279176491
 20
5.2414081606516172
 30
0.0
 11
18.989985279176491
 21
5.2414081606516172
 31
0.0
  0
LINE
  5
38D
  8
OBJ
 62
     7
 10
17.114985279176491
 20
6.041408160651617
 30
0.0
 11
15.239985279176491
 21
6.041408160651617
 31
0.0
  0
LINE
  5
38E
  8
OBJ
 62
     7
 10
17.114985279176491
 20
5.1814081606516176
 30
0.0
 11
18.989985279176491
 21
5.1814081606516167
 31
0.0
  0
LINE
  5
390
  8
OBJ
 62
     7
 10
17.114985279176491
 20
6.041408160651617
 30
0.0
 11
17.114985279176491
 21
6.081408160651617
 31
0.0
  0
CIRCLE
  5
392
  8
HIDDEN
 62
     7
 10
16.734985279176492
 20
5.6114081606516173
 30
0.0
 40
0.156
  0
CIRCLE
  5
393
  8
HIDDEN
 62
     7
 10
16.734985279176492
 20
5.6114081606516173
 30
0.0
 40
0.126
  0
LINE
  5
394
  8
OBJ
 62
     7
 10
18.489985279176491
 20
5.5514081606516168
 30
0.0
 11
18.489985279176491
 21
5.671408160651616
 31
0.0
  0
LINE
  5
395
  8
OBJ
 62
     7
 10
15.739985279176491
 20
5.671408160651616
 30
0.0
 11
15.739985279176491
 21
5.5514081606516168
 31
0.0
  0
LINE
  5
396
  8
OBJ
 62
     7
 10
18.489985279176491
 20
5.671408160651616
 30
0.0
 11
18.989985279176491
 21
5.671408160651616
 31
0.0
  0
LINE
  5
397
  8
OBJ
 62
     7
 10
18.489985279176491
 20
5.5514081606516168
 30
0.0
 11
18.989985279176491
 21
5.5514081606516168
 31
0.0
  0
LINE
  5
398
  8
HIDDEN
 62
     7
 10
15.739985279176491
 20
5.671408160651616
 30
0.0
 11
18.489985279176491
 21
5.671408160651616
 31
0.0
  0
LINE
  5
399
  8
HIDDEN
 62
     7
 10
15.739985279176491
 20
5.5514081606516168
 30
0.0
 11
18.489985279176491
 21
5.5514081606516168
 31
0.0
  0
LINE
  5
39A
  8
OBJ
 62
     7
 10
15.239985279176491
 20
5.5514081606516168
 30
0.0
 11
15.239985279176491
 21
5.1414081606516167
 31
0.0
  0
LINE
  5
39B
  8
OBJ
 62
     7
 10
18.989985279176491
 20
5.671408160651616
 30
0.0
 11
18.989985279176491
 21
6.081408160651617
 31
0.0
  0
LINE
  5
39C
  8
OBJ
 62
     7
 10
18.589985279176489
 20
5.5514081606516168
 30
0.0
 11
18.589985279176489
 21
5.671408160651616
 31
0.0
  0
LINE
  5
39D
  8
OBJ
 62
     7
 10
15.639985279176489
 20
5.671408160651616
 30
0.0
 11
15.639985279176489
 21
5.5514081606516168
 31
0.0
  0
LINE
  5
421
  8
OBJ
 62
     7
 10
17.342443279659559
 20
3.11726693302285
 30
0.0
 11
17.64063604215956
 21
3.11726693302285
 31
0.0
  0
CIRCLE
  5
494
  8
HIDDEN
 62
     7
 10
17.49498527917649
 20
5.6114081606516173
 30
0.0
 40
0.126
  0
CIRCLE
  5
495
  8
HIDDEN
 62
     7
 10
17.49498527917649
 20
5.6114081606516173
 30
0.0
 40
0.156
  0
LINE
  5
4CA
  8
OBJ
 62
     7
 10
17.64063604215956
 20
3.2365440380228501
 30
0.0
 11
17.608828814159558
 21
3.2578548807828498
 31
0.0
  0
LINE
  5
4CB
  8
OBJ
 62
     7
 10
17.342443279659559
 20
3.26039945902285
 30
0.0
 11
17.374250507659561
 21
3.2390886162628512
 31
0.0
  0
LINE
  5
4CC
  8
OBJ
 62
     7
 10
17.374250507659561
 20
3.2390886162628498
 30
0.0
 11
17.608828814159558
 21
3.2578548807828498
 31
0.0
  0
LINE
  5
4CD
  8
OBJ
 62
     7
 10
17.374250507659561
 20
3.2390886162628512
 30
0.0
 11
17.608828814159558
 21
3.2578548807828511
 31
0.0
  0
LINE
  5
4CF
  8
OBJ
 62
     7
 10
17.374250507659561
 20
3.19137777426285
 30
0.0
 11
17.608828814159558
 21
3.2101440387828499
 31
0.0
  0
LINE
  5
4D0
  8
OBJ
 62
     7
 10
17.374250507659561
 20
3.1913777742628509
 30
0.0
 11
17.608828814159558
 21
3.2101440387828508
 31
0.0
  0
LINE
  5
4D1
  8
OBJ
 62
     7
 10
17.342443279659559
 20
3.212688617022851
 30
0.0
 11
17.64063604215956
 21
3.2365440380228501
 31
0.0
  0
LINE
  5
4D2
  8
OBJ
 62
     7
 10
17.342443279659559
 20
3.1649777750228498
 30
0.0
 11
17.64063604215956
 21
3.1888331960228502
 31
0.0
  0
LINE
  5
4D3
  8
OBJ
 62
     7
 10
17.374250507659561
 20
3.2390886162628498
 30
0.0
 11
17.342443279659559
 21
3.2126886170228501
 31
0.0
  0
LINE
  5
4D4
  8
OBJ
 62
     7
 10
17.374250507659561
 20
3.19137777426285
 30
0.0
 11
17.342443279659559
 21
3.1649777750228498
 31
0.0
  0
LINE
  5
4D6
  8
OBJ
 62
     7
 10
17.342443279659559
 20
3.2126886170228501
 30
0.0
 11
17.374250507659561
 21
3.1913777742628509
 31
0.0
  0
LINE
  5
4D7
  8
OBJ
 62
     7
 10
17.608828814159558
 20
3.2101440387828499
 30
0.0
 11
17.64063604215956
 21
3.2365440380228501
 31
0.0
  0
LINE
  5
4D9
  8
OBJ
 62
     7
 10
17.64063604215956
 20
3.1888331960228502
 30
0.0
 11
17.608828814159558
 21
3.2101440387828499
 31
0.0
  0
LINE
  5
4DB
  8
OBJ
 62
     7
 10
17.374250507659561
 20
3.7161970362628498
 30
0.0
 11
17.608828814159569
 21
3.7349633007828542
 31
0.0
  0
LINE
  5
4DC
  8
OBJ
 62
     7
 10
17.342443279659559
 20
3.73750787902285
 30
0.0
 11
17.64063604215956
 21
3.7613633000228499
 31
0.0
  0
LINE
  5
4DD
  8
OBJ
 62
     7
 10
17.374250507659561
 20
3.7639078782628501
 30
0.0
 11
17.52735649794991
 21
3.7761563574860788
 31
0.0
  0
LINE
  5
4DE
  8
HIDDEN
 62
     7
 10
17.331556927871208
 20
3.3764958412228512
 30
0.0
 11
17.651522393947921
 21
3.3764958412228498
 31
0.0
  0
LINE
  5
4DF
  8
HIDDEN
 62
     7
 10
17.374250507659561
 20
3.6684861942628499
 30
0.0
 11
17.342443279659559
 21
3.6420861950228498
 31
0.0
  0
LINE
  5
4E0
  8
HIDDEN
 62
     7
 10
17.342443279659559
 20
3.4512428270228499
 30
0.0
 11
17.374250507659561
 21
3.4299319842628511
 31
0.0
  0
LINE
  5
4E1
  8
HIDDEN
 62
     7
 10
17.374250507659561
 20
3.3822211422628499
 30
0.0
 11
17.342443279659559
 21
3.3558211430228502
 31
0.0
  0
LINE
  5
4E2
  8
HIDDEN
 62
     7
 10
17.342443279659559
 20
3.3558211430228502
 30
0.0
 11
17.374250507659561
 21
3.3345103002628509
 31
0.0
  0
LINE
  5
4E3
  8
HIDDEN
 62
     7
 10
17.342443279659559
 20
3.40353198502285
 30
0.0
 11
17.374250507659561
 21
3.3822211422628499
 31
0.0
  0
LINE
  5
4E4
  8
HIDDEN
 62
     7
 10
17.374250507659561
 20
3.4299319842628502
 30
0.0
 11
17.342443279659559
 21
3.40353198502285
 31
0.0
  0
LINE
  5
4E5
  8
HIDDEN
 62
     7
 10
17.374250507659561
 20
3.3822211422628499
 30
0.0
 11
17.38816616990956
 21
3.3833343952428501
 31
0.0
  0
LINE
  5
4E6
  8
HIDDEN
 62
     7
 10
17.374250507659561
 20
3.3822211422628499
 30
0.0
 11
17.38816616990956
 21
3.3833343952428501
 31
0.0
  0
LINE
  5
4E7
  8
HIDDEN
 62
     7
 10
17.374250507659561
 20
3.4299319842628502
 30
0.0
 11
17.38816616990956
 21
3.4310452372428499
 31
0.0
  0
LINE
  5
4E8
  8
HIDDEN
 62
     7
 10
17.374250507659561
 20
3.4299319842628511
 30
0.0
 11
17.38816616990956
 21
3.4310452372428499
 31
0.0
  0
LINE
  5
4E9
  8
HIDDEN
 62
     7
 10
17.374250507659561
 20
3.33451030026285
 30
0.0
 11
17.342443279659559
 21
3.3081103010228499
 31
0.0
  0
ARC
  5
4EA
  8
HIDDEN
 62
     7
 10
17.331556927871208
 20
3.3483464444428508
 30
0.0
 40
0.02814939678
 50
90.0
 51
171.62251148219221
  0
LINE
  5
4EB
  8
HIDDEN
 62
     7
 10
17.374250507659561
 20
3.286799458262851
 30
0.0
 11
17.342443279659559
 21
3.26039945902285
 31
0.0
  0
LINE
  5
4EC
  8
HIDDEN
 62
     7
 10
17.342443279659559
 20
3.3081103010228499
 30
0.0
 11
17.374250507659561
 21
3.286799458262851
 31
0.0
  0
LINE
  5
4ED
  8
HIDDEN
 62
     7
 10
17.374250507659561
 20
3.5730645102628502
 30
0.0
 11
17.342443279659559
 21
3.5466645110228501
 31
0.0
  0
LINE
  5
4EE
  8
OBJ
 62
     7
 10
17.342443279659559
 20
3.5943753530228499
 30
0.0
 11
17.374250507659561
 21
3.5730645102628511
 31
0.0
  0
LINE
  5
4EF
  8
OBJ
 62
     7
 10
17.374250507659561
 20
3.6207753522628501
 30
0.0
 11
17.342443279659559
 21
3.5943753530228499
 31
0.0
  0
LINE
  5
4F0
  8
OBJ
 62
     7
 10
17.342443279659559
 20
3.6420861950228498
 30
0.0
 11
17.374250507659561
 21
3.6207753522628501
 31
0.0
  0
LINE
  5
4F1
  8
HIDDEN
 62
     7
 10
17.342443279659559
 20
3.5466645110228501
 30
0.0
 11
17.374250507659561
 21
3.5253536682628499
 31
0.0
  0
LINE
  5
4F2
  8
HIDDEN
 62
     7
 10
17.374250507659561
 20
3.5253536682628499
 30
0.0
 11
17.38816616990956
 21
3.5264669212428501
 31
0.0
  0
LINE
  5
4F3
  8
HIDDEN
 62
     7
 10
17.374250507659561
 20
3.5253536682628499
 30
0.0
 11
17.38816616990956
 21
3.5264669212428501
 31
0.0
  0
LINE
  5
4F4
  8
OBJ
 62
     7
 10
17.374250507659561
 20
3.5730645102628511
 30
0.0
 11
17.38816616990956
 21
3.57417776324285
 31
0.0
  0
LINE
  5
4F5
  8
OBJ
 62
     7
 10
17.374250507659561
 20
3.6207753522628501
 30
0.0
 11
17.38816616990956
 21
3.6218886052428512
 31
0.0
  0
LINE
  5
4F6
  8
HIDDEN
 62
     7
 10
17.31160466205894
 20
3.5228090900228501
 30
0.0
 11
17.374250507659561
 21
3.5228090900228501
 31
0.0
  0
LINE
  5
4F7
  8
HIDDEN
 62
     7
 10
17.31160466205894
 20
3.5228090900228501
 30
0.0
 11
17.31160466205894
 21
3.48352716344285
 31
0.0
  0
LINE
  5
4F8
  8
HIDDEN
 62
     7
 10
17.374250507659561
 20
3.5253536682628499
 30
0.0
 11
17.342443279659559
 21
3.4989536690228502
 31
0.0
  0
LINE
  5
4F9
  8
HIDDEN
 62
     7
 10
17.374250507659561
 20
3.47764282626285
 30
0.0
 11
17.342443279659559
 21
3.4512428270228499
 31
0.0
  0
LINE
  5
4FA
  8
HIDDEN
 62
     7
 10
17.374250507659561
 20
3.47764282626285
 30
0.0
 11
17.38816616990956
 21
3.4787560792428498
 31
0.0
  0
LINE
  5
4FB
  8
HIDDEN
 62
     7
 10
17.374250507659561
 20
3.47764282626285
 30
0.0
 11
17.38816616990956
 21
3.4787560792428511
 31
0.0
  0
LINE
  5
4FC
  8
HIDDEN
 62
     7
 10
17.342443279659559
 20
3.4989536690228502
 30
0.0
 11
17.374250507659561
 21
3.47764282626285
 31
0.0
  0
LINE
  5
4FD
  8
HIDDEN
 62
     7
 10
17.342443279659559
 20
3.8329295630228502
 30
0.0
 11
17.374250507659561
 21
3.8116187202628509
 31
0.0
  0
LINE
  5
4FE
  8
HIDDEN
 62
     7
 10
17.342443279659559
 20
3.73750787902285
 30
0.0
 11
17.374250507659561
 21
3.7161970362628511
 31
0.0
  0
LINE
  5
4FF
  8
HIDDEN
 62
     7
 10
17.374250507659561
 20
3.763907878262851
 30
0.0
 11
17.342443279659559
 21
3.73750787902285
 31
0.0
  0
LINE
  5
500
  8
HIDDEN
 62
     7
 10
17.342443279659559
 20
3.7852187210228498
 30
0.0
 11
17.374250507659561
 21
3.763907878262851
 31
0.0
  0
LINE
  5
501
  8
HIDDEN
 62
     7
 10
17.374250507659561
 20
3.81161872026285
 30
0.0
 11
17.342443279659559
 21
3.7852187210228498
 31
0.0
  0
LINE
  5
502
  8
HIDDEN
 62
     7
 10
17.374250507659561
 20
3.7161970362628498
 30
0.0
 11
17.38816616990956
 21
3.71731028924285
 31
0.0
  0
LINE
  5
503
  8
HIDDEN
 62
     7
 10
17.374250507659561
 20
3.7161970362628511
 30
0.0
 11
17.38816616990956
 21
3.7173102892428509
 31
0.0
  0
LINE
  5
504
  8
HIDDEN
 62
     7
 10
17.374250507659561
 20
3.763907878262851
 30
0.0
 11
17.38816616990956
 21
3.7650211312428499
 31
0.0
  0
LINE
  5
505
  8
HIDDEN
 62
     7
 10
17.374250507659561
 20
3.763907878262851
 30
0.0
 11
17.38816616990956
 21
3.7650211312428512
 31
0.0
  0
LINE
  5
506
  8
HIDDEN
 62
     7
 10
17.374250507659561
 20
3.81161872026285
 30
0.0
 11
17.38816616990956
 21
3.8127319732428502
 31
0.0
  0
LINE
  5
507
  8
HIDDEN
 62
     7
 10
17.374250507659561
 20
3.8116187202628509
 30
0.0
 11
17.38816616990956
 21
3.8127319732428511
 31
0.0
  0
LINE
  5
508
  8
HIDDEN
 62
     7
 10
17.374250507659561
 20
3.7161970362628498
 30
0.0
 11
17.342443279659559
 21
3.6897970370228501
 31
0.0
  0
LINE
  5
509
  8
HIDDEN
 62
     7
 10
17.374250507659561
 20
3.6684861942628499
 30
0.0
 11
17.38816616990956
 21
3.6695994472428501
 31
0.0
  0
LINE
  5
50A
  8
HIDDEN
 62
     7
 10
17.374250507659561
 20
3.6684861942628508
 30
0.0
 11
17.38816616990956
 21
3.669599447242851
 31
0.0
  0
LINE
  5
50B
  8
HIDDEN
 62
     7
 10
17.342443279659559
 20
3.6897970370228501
 30
0.0
 11
17.374250507659561
 21
3.6684861942628508
 31
0.0
  0
LINE
  5
50C
  8
OBJ
 62
     7
 10
17.342443279659559
 20
3.838416309852851
 30
0.0
 11
17.36749147170956
 21
3.838416309852851
 31
0.0
  0
LINE
  5
50D
  8
HIDDEN
 62
     7
 10
17.38816616990956
 20
3.8836266887108102
 30
0.0
 11
17.342955791051601
 21
3.838416309852851
 31
0.0
  0
LINE
  5
50E
  8
OBJ
 62
     7
 10
17.608828814159558
 20
3.63954161678285
 30
0.0
 11
17.64063604215956
 21
3.6659416160228502
 31
0.0
  0
ARC
  5
50F
  8
HIDDEN
 62
     7
 10
17.69533008076019
 20
3.4835271634428508
 30
0.0
 40
0.023855421
 50
180.0000000000006
 51
270.0
  0
ARC
  5
510
  8
HIDDEN
 62
     7
 10
17.651522393947921
 20
3.3483464444428499
 30
0.0
 40
0.02814939678
 50
8.3774885178273735
 51
90.0
  0
LINE
  5
511
  8
HIDDEN
 62
     7
 10
17.608828814159558
 20
3.4486982487828501
 30
0.0
 11
17.64063604215956
 21
3.4750982480228498
 31
0.0
  0
LINE
  5
512
  8
HIDDEN
 62
     7
 10
17.594913151909559
 20
3.3998741538028501
 30
0.0
 11
17.608828814159558
 21
3.4009874067828498
 31
0.0
  0
LINE
  5
513
  8
HIDDEN
 62
     7
 10
17.594913151909559
 20
3.4475849958028499
 30
0.0
 11
17.608828814159558
 21
3.448698248782851
 31
0.0
  0
LINE
  5
514
  8
HIDDEN
 62
     7
 10
17.594913151909559
 20
3.3998741538028501
 30
0.0
 11
17.608828814159558
 21
3.4009874067828498
 31
0.0
  0
LINE
  5
515
  8
HIDDEN
 62
     7
 10
17.594913151909559
 20
3.4475849958028499
 30
0.0
 11
17.608828814159558
 21
3.4486982487828501
 31
0.0
  0
LINE
  5
516
  8
HIDDEN
 62
     7
 10
17.608828814159558
 20
3.35327656478285
 30
0.0
 11
17.64063604215956
 21
3.3796765640228501
 31
0.0
  0
LINE
  5
517
  8
HIDDEN
 62
     7
 10
17.64063604215956
 20
3.3319657220228498
 30
0.0
 11
17.608828814159558
 21
3.35327656478285
 31
0.0
  0
LINE
  5
518
  8
HIDDEN
 62
     7
 10
17.64063604215956
 20
3.42738740602285
 30
0.0
 11
17.608828814159558
 21
3.4486982487828501
 31
0.0
  0
LINE
  5
519
  8
HIDDEN
 62
     7
 10
17.64063604215956
 20
3.3796765640228501
 30
0.0
 11
17.608828814159558
 21
3.4009874067828498
 31
0.0
  0
LINE
  5
51A
  8
HIDDEN
 62
     7
 10
17.608828814159558
 20
3.4009874067828498
 30
0.0
 11
17.64063604215956
 21
3.42738740602285
 31
0.0
  0
LINE
  5
51B
  8
HIDDEN
 62
     7
 10
17.608828814159558
 20
3.3055657227828501
 30
0.0
 11
17.64063604215956
 21
3.3319657220228498
 31
0.0
  0
LINE
  5
51C
  8
HIDDEN
 62
     7
 10
17.608828814159558
 20
3.2578548807828498
 30
0.0
 11
17.64063604215956
 21
3.2842548800228499
 31
0.0
  0
LINE
  5
51D
  8
HIDDEN
 62
     7
 10
17.64063604215956
 20
3.2842548800228499
 30
0.0
 11
17.608828814159558
 21
3.3055657227828501
 31
0.0
  0
LINE
  5
51E
  8
HIDDEN
 62
     7
 10
17.594913151909559
 20
3.543006679802851
 30
0.0
 11
17.608828814159558
 21
3.5441199327828512
 31
0.0
  0
LINE
  5
51F
  8
OBJ
 62
     7
 10
17.594913151909559
 20
3.59071752180285
 30
0.0
 11
17.608828814159558
 21
3.5918307747828511
 31
0.0
  0
LINE
  5
520
  8
OBJ
 62
     7
 10
17.594913151909559
 20
3.6384283638028498
 30
0.0
 11
17.608828814159558
 21
3.63954161678285
 31
0.0
  0
LINE
  5
521
  8
HIDDEN
 62
     7
 10
17.594913151909559
 20
3.5430066798028501
 30
0.0
 11
17.608828814159558
 21
3.5441199327828499
 31
0.0
  0
LINE
  5
522
  8
OBJ
 62
     7
 10
17.594913151909559
 20
3.59071752180285
 30
0.0
 11
17.608828814159558
 21
3.5918307747828502
 31
0.0
  0
LINE
  5
523
  8
OBJ
 62
     7
 10
17.594913151909559
 20
3.6384283638028498
 30
0.0
 11
17.608828814159558
 21
3.63954161678285
 31
0.0
  0
LINE
  5
524
  8
HIDDEN
 62
     7
 10
17.608828814159558
 20
3.5228090900228501
 30
0.0
 11
17.671474659760189
 21
3.5228090900228501
 31
0.0
  0
LINE
  5
525
  8
OBJ
 62
     7
 10
17.64063604215956
 20
3.57051993202285
 30
0.0
 11
17.608828814159558
 21
3.5918307747828502
 31
0.0
  0
LINE
  5
526
  8
OBJ
 62
     7
 10
17.64063604215956
 20
3.6182307740228499
 30
0.0
 11
17.608828814159558
 21
3.63954161678285
 31
0.0
  0
LINE
  5
527
  8
OBJ
 62
     7
 10
17.608828814159558
 20
3.5918307747828502
 30
0.0
 11
17.64063604215956
 21
3.6182307740228499
 31
0.0
  0
LINE
  5
528
  8
HIDDEN
 62
     7
 10
17.64063604215956
 20
3.5228090900228501
 30
0.0
 11
17.608828814159558
 21
3.5441199327828499
 31
0.0
  0
LINE
  5
529
  8
HIDDEN
 62
     7
 10
17.608828814159558
 20
3.5441199327828499
 30
0.0
 11
17.64063604215956
 21
3.57051993202285
 31
0.0
  0
LINE
  5
52A
  8
HIDDEN
 62
     7
 10
17.594913151909559
 20
3.4952958378028511
 30
0.0
 11
17.608828814159558
 21
3.49640909078285
 31
0.0
  0
LINE
  5
52B
  8
HIDDEN
 62
     7
 10
17.594913151909559
 20
3.4952958378028498
 30
0.0
 11
17.608828814159558
 21
3.49640909078285
 31
0.0
  0
LINE
  5
52C
  8
HIDDEN
 62
     7
 10
17.671474659760189
 20
3.5228090900228501
 30
0.0
 11
17.671474659760189
 21
3.48352716344285
 31
0.0
  0
LINE
  5
52D
  8
HIDDEN
 62
     7
 10
17.608828814159558
 20
3.49640909078285
 30
0.0
 11
17.64063604215956
 21
3.5228090900228501
 31
0.0
  0
LINE
  5
52E
  8
HIDDEN
 62
     7
 10
17.64063604215956
 20
3.4750982480228498
 30
0.0
 11
17.608828814159558
 21
3.49640909078285
 31
0.0
  0
LINE
  5
52F
  8
HIDDEN
 62
     7
 10
17.594913151909559
 20
3.73385004780285
 30
0.0
 11
17.608828814159558
 21
3.7349633007828511
 31
0.0
  0
LINE
  5
530
  8
HIDDEN
 62
     7
 10
17.594913151909559
 20
3.7815608898028512
 30
0.0
 11
17.608828814159558
 21
3.782674142782851
 31
0.0
  0
LINE
  5
531
  8
HIDDEN
 62
     7
 10
17.594913151909559
 20
3.73385004780285
 30
0.0
 11
17.608828814159558
 21
3.7349633007828502
 31
0.0
  0
LINE
  5
532
  8
HIDDEN
 62
     7
 10
17.594913151909559
 20
3.7815608898028499
 30
0.0
 11
17.608828814159558
 21
3.7826741427828501
 31
0.0
  0
LINE
  5
533
  8
HIDDEN
 62
     7
 10
17.594913151909559
 20
3.8292717318028511
 30
0.0
 11
17.608828814159558
 21
3.8303849847828508
 31
0.0
  0
LINE
  5
534
  8
HIDDEN
 62
     7
 10
17.594913151909559
 20
3.8292717318028502
 30
0.0
 11
17.608828814159558
 21
3.8303849847828499
 31
0.0
  0
LINE
  5
535
  8
HIDDEN
 62
     7
 10
17.64063604215956
 20
3.8090741420228502
 30
0.0
 11
17.608828814159558
 21
3.8303849847828499
 31
0.0
  0
LINE
  5
536
  8
HIDDEN
 62
     7
 10
17.64063604215956
 20
3.71365245802285
 30
0.0
 11
17.608828814159558
 21
3.7349633007828502
 31
0.0
  0
LINE
  5
537
  8
HIDDEN
 62
     7
 10
17.64063604215956
 20
3.7613633000228499
 30
0.0
 11
17.608828814159558
 21
3.7826741427828501
 31
0.0
  0
LINE
  5
538
  8
HIDDEN
 62
     7
 10
17.608828814159558
 20
3.7349633007828502
 30
0.0
 11
17.64063604215956
 21
3.7613633000228499
 31
0.0
  0
LINE
  5
539
  8
HIDDEN
 62
     7
 10
17.608828814159558
 20
3.7826741427828501
 30
0.0
 11
17.64063604215956
 21
3.8090741420228502
 31
0.0
  0
LINE
  5
53A
  8
HIDDEN
 62
     7
 10
17.594913151909559
 20
3.686139205802851
 30
0.0
 11
17.608828814159558
 21
3.6872524587828508
 31
0.0
  0
LINE
  5
53B
  8
HIDDEN
 62
     7
 10
17.594913151909559
 20
3.6861392058028501
 30
0.0
 11
17.608828814159558
 21
3.6872524587828499
 31
0.0
  0
LINE
  5
53C
  8
HIDDEN
 62
     7
 10
17.608828814159558
 20
3.6872524587828499
 30
0.0
 11
17.64063604215956
 21
3.71365245802285
 31
0.0
  0
LINE
  5
53D
  8
HIDDEN
 62
     7
 10
17.64063604215956
 20
3.6659416160228502
 30
0.0
 11
17.608828814159558
 21
3.6872524587828499
 31
0.0
  0
LINE
  5
53E
  8
OBJ
 62
     7
 10
17.615587850109559
 20
3.8384163098528501
 30
0.0
 11
17.64063604215956
 21
3.8384163098528501
 31
0.0
  0
LINE
  5
53F
  8
HIDDEN
 62
     7
 10
17.594913151909559
 20
3.8846517114948909
 30
0.0
 11
17.641148553551609
 21
3.8384163098528501
 31
0.0
  0
LINE
  5
540
  8
OBJ
 62
     7
 10
17.342443279659559
 20
3.1649777750228498
 30
0.0
 11
17.342443279659559
 21
3.11726693302285
 31
0.0
  0
LINE
  5
541
  8
OBJ
 62
     7
 10
17.64063604215956
 20
3.1888331960228502
 30
0.0
 11
17.64063604215956
 21
3.11726693302285
 31
0.0
  0
LINE
  5
542
  8
OBJ
 62
     7
 10
17.37557596715957
 20
3.6924476520228509
 30
0.0
 11
17.64063604215956
 21
3.71365245802285
 31
0.0
  0
ENDSEC
  0
EOF
