  0
SECTION
  2
HEADER
  9
$ACADVER
  1
AC1009
  9
$INSBASE
 10
0.0
 20
0.0
 30
0.0
  9
$EXTMIN
 10
4.9073271836653802
 20
3.0782740050605049
 30
0.0
  9
$EXTMAX
 10
7.594532291979581
 20
5.5025508408892811
 30
0.0
  9
$LIMMIN
 10
0.0
 20
0.0
  9
$LIMMAX
 10
12.0
 20
9.0
  9
$ORTHOMODE
 70
     1
  9
$REGENMODE
 70
     0
  9
$FILLMODE
 70
     1
  9
$QTEXTMODE
 70
     0
  9
$MIRRTEXT
 70
     0
  9
$DRAGMODE
 70
     2
  9
$LTSCALE
 40
1.0
  9
$OSMODE
 70
    55
  9
$ATTMODE
 70
     1
  9
$TEXTSIZE
 40
0.2
  9
$TRACEWID
 40
0.05
  9
$TEXTSTYLE
  7
STANDARD
  9
$CLAYER
  8
0
  9
$CELTYPE
  6
BYLAYER
  9
$CECOLOR
 62
   256
  9
$DIMSCALE
 40
1.0
  9
$DIMASZ
 40
0.125
  9
$DIMEXO
 40
0.0625
  9
$DIMDLI
 40
0.38
  9
$DIMRND
 40
0.0
  9
$DIMDLE
 40
0.0
  9
$DIMEXE
 40
0.18
  9
$DIMTP
 40
0.0
  9
$DIMTM
 40
0.0
  9
$DIMTXT
 40
0.09375
  9
$DIMCEN
 40
-0.125
  9
$DIMTSZ
 40
0.0
  9
$DIMTOL
 70
     0
  9
$DIMLIM
 70
     0
  9
$DIMTIH
 70
     0
  9
$DIMTOH
 70
     0
  9
$DIMSE1
 70
     0
  9
$DIMSE2
 70
     0
  9
$DIMTAD
 70
     0
  9
$DIMZIN
 70
     3
  9
$DIMBLK
  1

  9
$DIMASO
 70
     0
  9
$DIMSHO
 70
     1
  9
$DIMPOST
  1

  9
$DIMAPOST
  1

  9
$DIMALT
 70
     0
  9
$DIMALTD
 70
     2
  9
$DIMALTF
 40
25.399999999999999
  9
$DIMLFAC
 40
1.0
  9
$DIMTOFL
 70
     1
  9
$DIMTVP
 40
0.0
  9
$DIMTIX
 70
     0
  9
$DIMSOXD
 70
     0
  9
$DIMSAH
 70
     0
  9
$DIMBLK1
  1

  9
$DIMBLK2
  1

  9
$DIMSTYLE
  2
STANDARD
  9
$DIMCLRD
 70
     0
  9
$DIMCLRE
 70
     0
  9
$DIMCLRT
 70
     0
  9
$DIMTFAC
 40
1.0
  9
$DIMGAP
 40
0.09
  9
$LUNITS
 70
     4
  9
$LUPREC
 70
     4
  9
$SKETCHINC
 40
0.1
  9
$FILLETRAD
 40
0.025
  9
$AUNITS
 70
     0
  9
$AUPREC
 70
     4
  9
$MENU
  1
.
  9
$ELEVATION
 40
0.0
  9
$PELEVATION
 40
0.0
  9
$THICKNESS
 40
0.0
  9
$LIMCHECK
 70
     0
  9
$BLIPMODE
 70
     0
  9
$CHAMFERA
 40
0.125
  9
$CHAMFERB
 40
0.5
  9
$SKPOLY
 70
     0
  9
$TDCREATE
 40
2451086.9109346061
  9
$TDUPDATE
 40
2453913.553677558
  9
$TDINDWG
 40
0.1284667361
  9
$TDUSRTIMER
 40
0.1284667361
  9
$USRTIMER
 70
     1
  9
$ANGBASE
 50
0.0
  9
$ANGDIR
 70
     0
  9
$PDMODE
 70
    34
  9
$PDSIZE
 40
3.0
  9
$PLINEWID
 40
0.0
  9
$COORDS
 70
     1
  9
$SPLFRAME
 70
     0
  9
$SPLINETYPE
 70
     6
  9
$SPLINESEGS
 70
     8
  9
$ATTDIA
 70
     0
  9
$ATTREQ
 70
     1
  9
$HANDLING
 70
     1
  9
$HANDSEED
  5
B86
  9
$SURFTAB1
 70
     6
  9
$SURFTAB2
 70
     6
  9
$SURFTYPE
 70
     6
  9
$SURFU
 70
     6
  9
$SURFV
 70
     6
  9
$UCSNAME
  2

  9
$UCSORG
 10
0.0
 20
0.0
 30
0.0
  9
$UCSXDIR
 10
1.0
 20
0.0
 30
0.0
  9
$UCSYDIR
 10
0.0
 20
1.0
 30
0.0
  9
$PUCSNAME
  2

  9
$PUCSORG
 10
0.0
 20
0.0
 30
0.0
  9
$PUCSXDIR
 10
1.0
 20
0.0
 30
0.0
  9
$PUCSYDIR
 10
0.0
 20
1.0
 30
0.0
  9
$USERI1
 70
     0
  9
$USERI2
 70
     0
  9
$USERI3
 70
     0
  9
$USERI4
 70
     0
  9
$USERI5
 70
     0
  9
$USERR1
 40
0.0
  9
$USERR2
 40
0.0
  9
$USERR3
 40
0.0
  9
$USERR4
 40
0.0
  9
$USERR5
 40
0.0
  9
$WORLDVIEW
 70
     1
  9
$SHADEDGE
 70
     3
  9
$SHADEDIF
 70
    70
  9
$TILEMODE
 70
     1
  9
$MAXACTVP
 70
    48
  9
$PLIMCHECK
 70
     0
  9
$PEXTMIN
 10
4.063722233126108
 20
2.386084485156494
 30
0.0
  9
$PEXTMAX
 10
8.7737985332232622
 20
5.3160844851564937
 30
0.0
  9
$PLIMMIN
 10
-0.1579164520023376
 20
-0.2812499887361301
  9
$PLIMMAX
 10
10.84208330770177
 20
8.2187497709679782
  9
$UNITMODE
 70
     0
  9
$VISRETAIN
 70
     1
  9
$PLINEGEN
 70
     0
  9
$PSLTSCALE
 70
     1
  0
ENDSEC
  0
SECTION
  2
TABLES
  0
TABLE
  2
VPORT
 70
     2
  0
VPORT
  2
*ACTIVE
 70
     0
 10
0.0
 20
0.0
 11
1.0
 21
1.0
 12
1.018304758875888
 22
0.523259407722293
 13
0.0
 23
0.0
 14
0.5
 24
0.5
 15
0.5
 25
0.5
 16
0.0
 26
0.0
 36
1.0
 17
6.5012078336821073
 27
3.8510844851564938
 37
0.0
 40
3.405073783161785
 41
2.4795698924731182
 42
50.0
 43
0.0
 44
0.0
 50
0.0
 51
0.0
 71
     0
 72
   100
 73
     1
 74
     1
 75
     0
 76
     0
 77
     0
 78
     0
  0
ENDTAB
  0
TABLE
  2
LTYPE
 70
    18
  0
LTYPE
  2
CONTINUOUS
 70
     0
  3
Solid line
 72
    65
 73
     0
 40
0.0
  0
LTYPE
  2
HIDDEN
 70
     0
  3
Hidden __ __ __ __ __ __ __ __ __ __ __ __ __ _
 72
    65
 73
     2
 40
0.375
 49
0.25
 49
-0.125
  0
LTYPE
  2
PHANTOM2
 70
     0
  3
Phantom (.5x) ___ _ _ ___ _ _ ___ _ _ ___ _ _
 72
    65
 73
     6
 40
1.25
 49
0.625
 49
-0.125
 49
0.125
 49
-0.125
 49
0.125
 49
-0.125
  0
LTYPE
  2
CENTER
 70
     0
  3
Center ____ _ ____ _ ____ _ ____ _ ____ _ ____
 72
    65
 73
     4
 40
2.0
 49
1.25
 49
-0.25
 49
0.25
 49
-0.25
  0
LTYPE
  2
ASULTYPE
 70
     0
  3
Solid line
 72
    65
 73
     2
 40
3.0
 49
2.5
 49
0.5
  0
LTYPE
  2
ASVLTYPE
 70
     0
  3
__ __ __ __ __ __ __ __ __ __ __ __ __ __ __ __ __ __ __ __ __
 72
    65
 73
     2
 40
0.75
 49
0.5
 49
-0.25
  0
LTYPE
  2
AM_ISO02W050
 70
     0
  3
__ __ __ __ __ __ __ __ __ __ __ __ __ __ __
 72
    65
 73
     2
 40
7.5
 49
6.0
 49
-1.5
  0
LTYPE
  2
AM_ISO08W050
 70
     0
  3
____ . ____ . ____ . ____ . ____ . ____ . ____
 72
    65
 73
     4
 40
18.0
 49
12.0
 49
-1.5
 49
3.0
 49
-1.5
  0
LTYPE
  2
AM_ISO09W050
 70
     0
  3
_____ . . _____ . . _____ . . ____ .. ____
 72
    65
 73
     6
 40
22.5
 49
12.0
 49
-1.5
 49
3.0
 49
-1.5
 49
3.0
 49
-1.5
  0
LTYPE
  2
AMCONSTR
 70
     0
  3
_______________________
 72
    65
 73
     2
 40
9999.0
 49
9999.0
 49
0.0
  0
LTYPE
  2
AM_ISO08W050X2
 70
     0
  3
__ . __ . __ . __ . __ . __
 72
    65
 73
     4
 40
9.0
 49
6.0
 49
-0.75
 49
1.5
 49
-0.75
  0
LTYPE
  2
AM_ISO02W050X2
 70
     0
  3
 _ _ _ _ _ _ _ _ _ _ _ _
 72
    65
 73
     2
 40
3.75
 49
3.0
 49
-0.75
  0
LTYPE
  2
AMZIGZAG
 70
     0
  3
/\/-/\/-/\/-/\/-/\/-/\/
 72
    65
 73
     2
 40
11.0001
 49
0.0001
 49
-11.0
  0
LTYPE
  2
CENTER2
 70
     0
  3
Center (.5x) ___ _ ___ _ ___ _ ___ _ ___ _ ___
 72
    65
 73
     4
 40
1.125
 49
0.75
 49
-0.125
 49
0.125
 49
-0.125
  0
LTYPE
  2
HIDDEN2
 70
     0
  3
Hidden (.5x) _ _ _ _ _ _ _ _ _ _ _ _ _ _ _ _ _
 72
    65
 73
     2
 40
0.1875
 49
0.125
 49
-0.0625
  0
LTYPE
  2
AMZIGZAG2
 70
     0
  3
/\/-/\/-/\/-/\/-/\/-/\/
 72
    65
 73
     2
 40
0.4401
 49
0.0001
 49
-0.4400000000000001
  0
LTYPE
  2
ACANSTGB
 70
     0
  3
__ . . __ . .
 72
    65
 73
     6
 40
0.35433070866
 49
0.15748031496
 49
-0.03937007874
 49
0.03937007874
 49
-0.03937007874
 49
0.03937007874
 49
-0.03937007874
  0
LTYPE
  2
ACANSTGL
 70
     0
  3
_ _ _ _ _
 72
    65
 73
     2
 40
0.11811023622
 49
0.07874015748
 49
-0.03937007874
  0
ENDTAB
  0
TABLE
  2
LAYER
 70
     4
  0
LAYER
  2
0
 70
     0
 62
     7
  6
CONTINUOUS
  0
LAYER
  2
AM_VIS
 70
     0
 62
     7
  6
CONTINUOUS
  0
LAYER
  2
AM_HID
 70
     0
 62
     7
  6
HIDDEN
  0
LAYER
  2
KEE10
 70
     0
 62
     7
  6
CONTINUOUS
  0
ENDTAB
  0
TABLE
  2
STYLE
 70
     5
  0
STYLE
  2
STANDARD
 70
     0
 40
0.0
 41
1.0
 50
0.0
 71
     0
 42
0.2
  3
txt
  4

  0
STYLE
  2

 70
     1
 40
0.0
 41
1.0
 50
0.0
 71
     0
 42
0.2
  3
ltypeshp.shx
  4

  0
STYLE
  2
ACANSTS
 70
     0
 40
1.0
 41
1.0
 50
0.0
 71
     0
 42
0.2
  3
romans.shx
  4

  0
STYLE
  2
ACANSGDT
 70
     0
 40
0.0
 41
1.0
 50
0.0
 71
     0
 42
0.2
  3
amgdtans.shx
  4

  0
STYLE
  2
ACANSTSB
 70
     0
 40
1.0
 41
1.0
 50
0.0
 71
     0
 42
0.2
  3
romans.shx
  4

  0
ENDTAB
  0
TABLE
  2
VIEW
 70
     0
  0
ENDTAB
  0
TABLE
  2
UCS
 70
     0
  0
ENDTAB
  0
TABLE
  2
APPID
 70
    13
  0
APPID
  2
ACAD
 70
     0
  0
APPID
  2
GENIUS_GENDIM_13
 70
     0
  0
APPID
  2
GENIUS_GENDTOL_13
 70
     0
  0
APPID
  2
GENIUS_GE3DTOL_13
 70
     0
  0
APPID
  2
MCAD_NO_VIS
 70
     0
  0
APPID
  2
ACAD_TEMP_GRAPHIC
 70
     0
  0
APPID
  2
AD_DRAW
 70
     0
  0
APPID
  2
ACATTRIBSERVICES
 70
     0
  0
APPID
  2
ASURF_PCURVE_APPNAME
 70
     0
  0
APPID
  2
AMG_3D2D_5_0
 70
     0
  0
APPID
  2
DESIGNERASSEMBLIES
 70
     0
  0
APPID
  2
ACADM_DIM_EDIT
 70
     0
  0
APPID
  2
AMDT_DM_ADJ
 70
     0
  0
ENDTAB
  0
TABLE
  2
DIMSTYLE
 70
     7
  0
DIMSTYLE
  2
STANDARD
 70
     0
  3

  4

  5

  6

  7

 40
1.0
 41
0.18
 42
0.0625
 43
0.38
 44
0.18
 45
0.0
 46
0.0
 47
0.0
 48
0.0
140
0.18
141
0.09
142
0.0
143
25.399999999999999
144
1.0
145
0.0
146
1.0
147
0.09
 71
     0
 72
     0
 73
     1
 74
     1
 75
     0
 76
     0
 77
     0
 78
     0
170
     0
171
     2
172
     0
173
     0
174
     0
175
     0
176
     0
177
     0
178
     0
  0
DIMSTYLE
  2
AM_ANSI
 70
     0
  3

  4
mm
  5

  6

  7

 40
1.0
 41
0.1
 42
0.05
 43
0.5
 44
0.1
 45
0.0
 46
0.0
 47
0.1
 48
0.1
140
0.12
141
0.0
142
0.0
143
25.399999999999999
144
1.0
145
0.0
146
0.71
147
0.06
 71
     0
 72
     0
 73
     1
 74
     1
 75
     0
 76
     0
 77
     0
 78
     7
170
     0
171
     2
172
     0
173
     0
174
     0
175
     0
176
   256
177
   256
178
     2
  0
DIMSTYLE
  2
AM_ANSI$3
 70
     0
  3

  4
mm
  5

  6

  7

 40
1.0
 41
0.1
 42
0.05
 43
0.5
 44
0.1
 45
0.0
 46
0.0
 47
0.1
 48
0.1
140
0.12
141
0.0
142
0.0
143
25.399999999999999
144
1.0
145
0.0
146
0.71
147
0.06
 71
     0
 72
     0
 73
     1
 74
     1
 75
     0
 76
     0
 77
     0
 78
     7
170
     0
171
     2
172
     0
173
     0
174
     0
175
     0
176
   256
177
   256
178
     2
  0
DIMSTYLE
  2
AM_ANSI$4
 70
     0
  3

  4
mm
  5

  6

  7

 40
1.0
 41
0.1
 42
0.05
 43
0.5
 44
0.1
 45
0.0
 46
0.0
 47
0.1
 48
0.1
140
0.12
141
0.0
142
0.0
143
25.399999999999999
144
1.0
145
0.0
146
0.71
147
0.06
 71
     0
 72
     0
 73
     1
 74
     1
 75
     0
 76
     0
 77
     0
 78
     7
170
     0
171
     2
172
     0
173
     0
174
     0
175
     0
176
   256
177
   256
178
     2
  0
DIMSTYLE
  2
AM_ANSI$7
 70
     0
  3

  4
mm
  5

  6

  7

 40
1.0
 41
0.1
 42
0.05
 43
0.5
 44
0.1
 45
0.0
 46
0.0
 47
0.1
 48
0.1
140
0.24
141
0.0
142
0.0
143
25.399999999999999
144
1.0
145
0.0
146
0.71
147
0.06
 71
     0
 72
     0
 73
     1
 74
     1
 75
     0
 76
     0
 77
     0
 78
     7
170
     0
171
     2
172
     0
173
     0
174
     0
175
     0
176
   256
177
   256
178
     2
  0
DIMSTYLE
  2
AM_ANSI$SF
 70
     0
  3

  4
mm
  5

  6

  7

 40
1.0
 41
0.1
 42
0.05
 43
0.5
 44
0.1
 45
0.0
 46
0.0
 47
0.1
 48
0.1
140
0.12
141
0.0
142
0.0
143
25.399999999999999
144
1.0
145
0.0
146
0.71
147
0.06
 71
     0
 72
     0
 73
     1
 74
     1
 75
     1
 76
     1
 77
     0
 78
     7
170
     0
171
     2
172
     0
173
     0
174
     0
175
     0
176
   256
177
   256
178
     2
  0
DIMSTYLE
  2
AM_ANSI$SH
 70
     0
  3

  4
mm
  5

  6
GENAXEH
  7

 40
1.0
 41
0.1
 42
0.05
 43
0.5
 44
0.1
 45
0.0
 46
0.0
 47
0.1
 48
0.1
140
0.12
141
0.0
142
0.0
143
25.399999999999999
144
1.0
145
0.0
146
0.71
147
0.06
 71
     0
 72
     0
 73
     1
 74
     1
 75
     1
 76
     1
 77
     0
 78
     7
170
     0
171
     2
172
     0
173
     1
174
     0
175
     0
176
   256
177
   256
178
     2
  0
ENDTAB
  0
ENDSEC
  0
SECTION
  2
BLOCKS
  0
BLOCK
  8
0
  2
$MODEL_SPACE
 70
     0
 10
0.0
 20
0.0
 30
0.0
  3
$MODEL_SPACE
  1

  0
ENDBLK
  5
A
  8
0
  0
BLOCK
 67
     1
  8
0
  2
$PAPER_SPACE
 70
     0
 10
0.0
 20
0.0
 30
0.0
  3
$PAPER_SPACE
  1

  0
ENDBLK
  5
F
 67
     1
  8
0
  0
BLOCK
  8
0
  2
*U0
 70
     1
 10
0.0
 20
0.0
 30
0.0
  3
*U0
  1

  0
ENDBLK
  5
114
  8
0
  0
BLOCK
  8
0
  2
GENAXEH
 70
     0
 10
0.0
 20
0.0
 30
0.0
  3
GENAXEH
  1

  0
LINE
  5
152
  8
0
 10
-1.0
 20
0.0
 30
0.0
 11
1.0
 21
0.0
 31
0.0
  0
ENDBLK
  5
154
  8
0
  0
BLOCK
  8
0
  2
_DOT
 70
     0
 10
0.0
 20
0.0
 30
0.0
  3
_DOT
  1

  0
POLYLINE
  5
15B
  8
0
  6
BYBLOCK
 62
     0
 66
     1
 10
0.0
 20
0.0
 30
0.0
 70
     1
 40
0.5
 41
0.5
  0
VERTEX
  5
15C
  8
0
  6
BYBLOCK
 62
     0
 10
-0.25
 20
0.0
 30
0.0
 42
1.0
  0
VERTEX
  5
15D
  8
0
  6
BYBLOCK
 62
     0
 10
0.25
 20
0.0
 30
0.0
 42
1.0
  0
SEQEND
  5
15E
  8
0
  6
BYBLOCK
 62
     0
  0
LINE
  5
15F
  8
0
  6
BYBLOCK
 62
     0
 10
-0.5
 20
0.0
 30
0.0
 11
-1.0
 21
0.0
 31
0.0
  0
ENDBLK
  5
161
  8
0
  0
BLOCK
  8
0
  2
2D
 70
     0
 10
0.0
 20
0.0
 30
0.0
  3
2D
  1

  0
INSERT
  5
165
  8
0
  2
*U4
 10
0.0
 20
0.0
 30
0.0
  0
INSERT
  5
166
  8
0
  2
*U5
 10
0.0
 20
0.0
 30
0.0
  0
INSERT
  5
167
  8
0
  2
*U6
 10
0.0
 20
0.0
 30
0.0
  0
ENDBLK
  5
169
  8
0
  0
BLOCK
  8
0
  2
*U4
 70
     1
 10
0.0
 20
0.0
 30
0.0
  3
*U4
  1

  0
TEXT
  5
1E7
  8
KEE10
 10
-0.167740653382606
 20
0.7944046258072062
 30
0.0
 40
0.140625
  1
KEE
  0
ENDBLK
  5
1E9
  8
0
  0
BLOCK
  8
0
  2
*U5
 70
     1
 10
0.0
 20
0.0
 30
0.0
  3
*U5
  1

  0
TEXT
  5
1EB
  8
KEE10
 10
-0.308365653382606
 20
0.4858688129746218
 30
0.0
 40
0.140625
  1
KLAMP
  0
ENDBLK
  5
1ED
  8
0
  0
BLOCK
  8
0
  2
*U6
 70
     1
 10
0.0
 20
0.0
 30
0.0
  3
*U6
  1

  0
TEXT
  5
1EF
  8
KEE10
 10
-0.202896903382606
 20
0.2018753139112972
 30
0.0
 40
0.140625
  1
10-8
  0
ENDBLK
  5
1F1
  8
0
  0
BLOCK
  8
0
  2
*U7
 70
     1
 10
0.0
 20
0.0
 30
0.0
  3
*U7
  1

  0
TEXT
  5
1F3
  8
KEE10
 10
6.4553793474979786
 20
3.9997348163843731
 30
0.0
 40
0.10125
  1
KEE
  0
ENDBLK
  5
1F5
  8
0
  0
BLOCK
  8
0
  2
*U8
 70
     1
 10
0.0
 20
0.0
 30
0.0
  3
*U8
  1

  0
TEXT
  5
1F7
  8
KEE10
 10
6.3541293474979792
 20
3.7775890311449118
 30
0.0
 40
0.10125
  1
KLAMP
  0
ENDBLK
  5
1F9
  8
0
  0
BLOCK
  8
0
  2
*U9
 70
     1
 10
0.0
 20
0.0
 30
0.0
  3
*U9
  1

  0
TEXT
  5
1FB
  8
0
 10
6.449315776791801
 20
5.3392008408892799
 30
0.0
 40
0.0675
  1
1-13/16"
  0
ENDBLK
  5
1FD
  8
0
  0
ENDSEC
  0
SECTION
  2
ENTITIES
  0
LINE
  5
25
  8
AM_HID
 10
6.0389694832633909
 20
4.2136442267198717
 30
0.0
 11
5.89815413149371
 21
4.0728288749501909
 31
0.0
  0
LINE
  5
28
  8
AM_VIS
 10
5.89815413149371
 20
4.0728288749501917
 30
0.0
 11
5.739055105726738
 21
3.9137298491832211
 31
0.0
  0
LINE
  5
2A
  8
AM_HID
 10
6.0389694832633909
 20
3.6138154716465678
 30
0.0
 11
5.8981541314937127
 21
3.754630823416246
 31
0.0
  0
LINE
  5
2B
  8
AM_VIS
 10
5.8981541314937127
 20
3.754630823416246
 30
0.0
 11
5.739055105726738
 21
3.9137298491832211
 31
0.0
  0
LINE
  5
2C
  8
AM_VIS
 10
6.5490551057267377
 20
3.103729849183221
 30
0.0
 11
6.5670551057267383
 21
3.0857298491832208
 31
0.0
  0
LINE
  5
2D
  8
AM_VIS
 10
7.5870764478568651
 20
3.913729849255033
 30
0.0
 11
7.5870764478568651
 21
3.6223665747817209
 31
0.0
  0
ARC
  5
2E
  8
AM_VIS
 10
7.2634586739374916
 20
3.9210560519451669
 30
0.0
 40
0.2931716780518771
 50
319.17511856382902
 51
358.56772828478501
  0
ARC
  5
2F
  8
AM_VIS
 10
7.255224227472393
 20
3.9221205616193728
 30
0.0
 40
0.2954374076912718
 50
181.62821010577991
 51
220.7056843904823
  0
POLYLINE
  8
AM_VIS
  5
1FE
  66
     1
 10
0.000000
 20
0.000000
 30
0.000000
  70
     8
  0
VERTEX
  8
AM_VIS
  5
1FF
 10
5.92342
 20
3.68665
 30
0.000000
  70
    32
  0
VERTEX
  8
AM_VIS
  5
200
 10
5.92263
 20
3.68601
 30
0.000000
  70
    32
  0
VERTEX
  8
AM_VIS
  5
201
 10
5.92183
 20
3.68537
 30
0.000000
  70
    32
  0
VERTEX
  8
AM_VIS
  5
202
 10
5.92104
 20
3.68473
 30
0.000000
  70
    32
  0
VERTEX
  8
AM_VIS
  5
203
 10
5.92024
 20
3.68410
 30
0.000000
  70
    32
  0
VERTEX
  8
AM_VIS
  5
204
 10
5.91945
 20
3.68347
 30
0.000000
  70
    32
  0
VERTEX
  8
AM_VIS
  5
205
 10
5.91865
 20
3.68284
 30
0.000000
  70
    32
  0
VERTEX
  8
AM_VIS
  5
206
 10
5.91785
 20
3.68221
 30
0.000000
  70
    32
  0
VERTEX
  8
AM_VIS
  5
207
 10
5.91704
 20
3.68159
 30
0.000000
  70
    32
  0
VERTEX
  8
AM_VIS
  5
208
 10
5.91624
 20
3.68096
 30
0.000000
  70
    32
  0
VERTEX
  8
AM_VIS
  5
209
 10
5.91543
 20
3.68034
 30
0.000000
  70
    32
  0
VERTEX
  8
AM_VIS
  5
20A
 10
5.91463
 20
3.67973
 30
0.000000
  70
    32
  0
VERTEX
  8
AM_VIS
  5
20B
 10
5.91382
 20
3.67911
 30
0.000000
  70
    32
  0
VERTEX
  8
AM_VIS
  5
20C
 10
5.91301
 20
3.67850
 30
0.000000
  70
    32
  0
VERTEX
  8
AM_VIS
  5
20D
 10
5.91220
 20
3.67789
 30
0.000000
  70
    32
  0
VERTEX
  8
AM_VIS
  5
20E
 10
5.91138
 20
3.67728
 30
0.000000
  70
    32
  0
VERTEX
  8
AM_VIS
  5
20F
 10
5.91057
 20
3.67667
 30
0.000000
  70
    32
  0
VERTEX
  8
AM_VIS
  5
210
 10
5.90975
 20
3.67607
 30
0.000000
  70
    32
  0
VERTEX
  8
AM_VIS
  5
211
 10
5.90894
 20
3.67547
 30
0.000000
  70
    32
  0
VERTEX
  8
AM_VIS
  5
212
 10
5.90812
 20
3.67487
 30
0.000000
  70
    32
  0
VERTEX
  8
AM_VIS
  5
213
 10
5.90730
 20
3.67427
 30
0.000000
  70
    32
  0
VERTEX
  8
AM_VIS
  5
214
 10
5.90648
 20
3.67368
 30
0.000000
  70
    32
  0
VERTEX
  8
AM_VIS
  5
215
 10
5.90565
 20
3.67309
 30
0.000000
  70
    32
  0
VERTEX
  8
AM_VIS
  5
216
 10
5.90483
 20
3.67250
 30
0.000000
  70
    32
  0
VERTEX
  8
AM_VIS
  5
217
 10
5.90400
 20
3.67191
 30
0.000000
  70
    32
  0
VERTEX
  8
AM_VIS
  5
218
 10
5.90317
 20
3.67133
 30
0.000000
  70
    32
  0
VERTEX
  8
AM_VIS
  5
219
 10
5.90235
 20
3.67075
 30
0.000000
  70
    32
  0
VERTEX
  8
AM_VIS
  5
21A
 10
5.90152
 20
3.67017
 30
0.000000
  70
    32
  0
VERTEX
  8
AM_VIS
  5
21B
 10
5.90068
 20
3.66959
 30
0.000000
  70
    32
  0
VERTEX
  8
AM_VIS
  5
21C
 10
5.89985
 20
3.66902
 30
0.000000
  70
    32
  0
VERTEX
  8
AM_VIS
  5
21D
 10
5.89902
 20
3.66845
 30
0.000000
  70
    32
  0
VERTEX
  8
AM_VIS
  5
21E
 10
5.89818
 20
3.66788
 30
0.000000
  70
    32
  0
VERTEX
  8
AM_VIS
  5
21F
 10
5.89734
 20
3.66731
 30
0.000000
  70
    32
  0
VERTEX
  8
AM_VIS
  5
220
 10
5.89650
 20
3.66674
 30
0.000000
  70
    32
  0
VERTEX
  8
AM_VIS
  5
221
 10
5.89566
 20
3.66618
 30
0.000000
  70
    32
  0
VERTEX
  8
AM_VIS
  5
222
 10
5.89481
 20
3.66562
 30
0.000000
  70
    32
  0
VERTEX
  8
AM_VIS
  5
223
 10
5.89397
 20
3.66506
 30
0.000000
  70
    32
  0
VERTEX
  8
AM_VIS
  5
224
 10
5.89312
 20
3.66450
 30
0.000000
  70
    32
  0
VERTEX
  8
AM_VIS
  5
225
 10
5.89227
 20
3.66395
 30
0.000000
  70
    32
  0
VERTEX
  8
AM_VIS
  5
226
 10
5.89142
 20
3.66340
 30
0.000000
  70
    32
  0
VERTEX
  8
AM_VIS
  5
227
 10
5.89056
 20
3.66285
 30
0.000000
  70
    32
  0
VERTEX
  8
AM_VIS
  5
228
 10
5.88971
 20
3.66230
 30
0.000000
  70
    32
  0
VERTEX
  8
AM_VIS
  5
229
 10
5.88885
 20
3.66176
 30
0.000000
  70
    32
  0
VERTEX
  8
AM_VIS
  5
22A
 10
5.88799
 20
3.66121
 30
0.000000
  70
    32
  0
VERTEX
  8
AM_VIS
  5
22B
 10
5.88713
 20
3.66067
 30
0.000000
  70
    32
  0
VERTEX
  8
AM_VIS
  5
22C
 10
5.88627
 20
3.66014
 30
0.000000
  70
    32
  0
VERTEX
  8
AM_VIS
  5
22D
 10
5.88540
 20
3.65960
 30
0.000000
  70
    32
  0
VERTEX
  8
AM_VIS
  5
22E
 10
5.88454
 20
3.65907
 30
0.000000
  70
    32
  0
VERTEX
  8
AM_VIS
  5
22F
 10
5.88367
 20
3.65854
 30
0.000000
  70
    32
  0
VERTEX
  8
AM_VIS
  5
230
 10
5.88280
 20
3.65801
 30
0.000000
  70
    32
  0
VERTEX
  8
AM_VIS
  5
231
 10
5.88193
 20
3.65748
 30
0.000000
  70
    32
  0
VERTEX
  8
AM_VIS
  5
232
 10
5.88105
 20
3.65696
 30
0.000000
  70
    32
  0
VERTEX
  8
AM_VIS
  5
233
 10
5.88018
 20
3.65644
 30
0.000000
  70
    32
  0
VERTEX
  8
AM_VIS
  5
234
 10
5.87930
 20
3.65592
 30
0.000000
  70
    32
  0
VERTEX
  8
AM_VIS
  5
235
 10
5.87842
 20
3.65541
 30
0.000000
  70
    32
  0
VERTEX
  8
AM_VIS
  5
236
 10
5.87754
 20
3.65489
 30
0.000000
  70
    32
  0
VERTEX
  8
AM_VIS
  5
237
 10
5.87666
 20
3.65438
 30
0.000000
  70
    32
  0
VERTEX
  8
AM_VIS
  5
238
 10
5.87577
 20
3.65388
 30
0.000000
  70
    32
  0
VERTEX
  8
AM_VIS
  5
239
 10
5.87489
 20
3.65337
 30
0.000000
  70
    32
  0
VERTEX
  8
AM_VIS
  5
23A
 10
5.87400
 20
3.65287
 30
0.000000
  70
    32
  0
VERTEX
  8
AM_VIS
  5
23B
 10
5.87311
 20
3.65237
 30
0.000000
  70
    32
  0
VERTEX
  8
AM_VIS
  5
23C
 10
5.87222
 20
3.65187
 30
0.000000
  70
    32
  0
VERTEX
  8
AM_VIS
  5
23D
 10
5.87133
 20
3.65138
 30
0.000000
  70
    32
  0
VERTEX
  8
AM_VIS
  5
23E
 10
5.87043
 20
3.65089
 30
0.000000
  70
    32
  0
VERTEX
  8
AM_VIS
  5
23F
 10
5.86953
 20
3.65040
 30
0.000000
  70
    32
  0
VERTEX
  8
AM_VIS
  5
240
 10
5.86864
 20
3.64991
 30
0.000000
  70
    32
  0
VERTEX
  8
AM_VIS
  5
241
 10
5.86774
 20
3.64943
 30
0.000000
  70
    32
  0
VERTEX
  8
AM_VIS
  5
242
 10
5.86684
 20
3.64894
 30
0.000000
  70
    32
  0
VERTEX
  8
AM_VIS
  5
243
 10
5.86593
 20
3.64847
 30
0.000000
  70
    32
  0
VERTEX
  8
AM_VIS
  5
244
 10
5.86503
 20
3.64799
 30
0.000000
  70
    32
  0
VERTEX
  8
AM_VIS
  5
245
 10
5.86412
 20
3.64752
 30
0.000000
  70
    32
  0
VERTEX
  8
AM_VIS
  5
246
 10
5.86321
 20
3.64705
 30
0.000000
  70
    32
  0
VERTEX
  8
AM_VIS
  5
247
 10
5.86230
 20
3.64658
 30
0.000000
  70
    32
  0
VERTEX
  8
AM_VIS
  5
248
 10
5.86139
 20
3.64612
 30
0.000000
  70
    32
  0
VERTEX
  8
AM_VIS
  5
249
 10
5.86048
 20
3.64566
 30
0.000000
  70
    32
  0
VERTEX
  8
AM_VIS
  5
24A
 10
5.85956
 20
3.64520
 30
0.000000
  70
    32
  0
VERTEX
  8
AM_VIS
  5
24B
 10
5.85865
 20
3.64474
 30
0.000000
  70
    32
  0
VERTEX
  8
AM_VIS
  5
24C
 10
5.85773
 20
3.64429
 30
0.000000
  70
    32
  0
VERTEX
  8
AM_VIS
  5
24D
 10
5.85681
 20
3.64384
 30
0.000000
  70
    32
  0
VERTEX
  8
AM_VIS
  5
24E
 10
5.85589
 20
3.64339
 30
0.000000
  70
    32
  0
VERTEX
  8
AM_VIS
  5
24F
 10
5.85496
 20
3.64295
 30
0.000000
  70
    32
  0
VERTEX
  8
AM_VIS
  5
250
 10
5.85404
 20
3.64251
 30
0.000000
  70
    32
  0
VERTEX
  8
AM_VIS
  5
251
 10
5.85311
 20
3.64207
 30
0.000000
  70
    32
  0
VERTEX
  8
AM_VIS
  5
252
 10
5.85219
 20
3.64163
 30
0.000000
  70
    32
  0
VERTEX
  8
AM_VIS
  5
253
 10
5.85126
 20
3.64120
 30
0.000000
  70
    32
  0
VERTEX
  8
AM_VIS
  5
254
 10
5.85033
 20
3.64077
 30
0.000000
  70
    32
  0
VERTEX
  8
AM_VIS
  5
255
 10
5.84939
 20
3.64035
 30
0.000000
  70
    32
  0
VERTEX
  8
AM_VIS
  5
256
 10
5.84846
 20
3.63992
 30
0.000000
  70
    32
  0
VERTEX
  8
AM_VIS
  5
257
 10
5.84752
 20
3.63950
 30
0.000000
  70
    32
  0
VERTEX
  8
AM_VIS
  5
258
 10
5.84658
 20
3.63909
 30
0.000000
  70
    32
  0
VERTEX
  8
AM_VIS
  5
259
 10
5.84565
 20
3.63867
 30
0.000000
  70
    32
  0
VERTEX
  8
AM_VIS
  5
25A
 10
5.84470
 20
3.63826
 30
0.000000
  70
    32
  0
VERTEX
  8
AM_VIS
  5
25B
 10
5.84376
 20
3.63785
 30
0.000000
  70
    32
  0
VERTEX
  8
AM_VIS
  5
25C
 10
5.84282
 20
3.63745
 30
0.000000
  70
    32
  0
VERTEX
  8
AM_VIS
  5
25D
 10
5.84187
 20
3.63705
 30
0.000000
  70
    32
  0
VERTEX
  8
AM_VIS
  5
25E
 10
5.84093
 20
3.63665
 30
0.000000
  70
    32
  0
VERTEX
  8
AM_VIS
  5
25F
 10
5.83998
 20
3.63625
 30
0.000000
  70
    32
  0
VERTEX
  8
AM_VIS
  5
260
 10
5.83903
 20
3.63586
 30
0.000000
  70
    32
  0
VERTEX
  8
AM_VIS
  5
261
 10
5.83808
 20
3.63547
 30
0.000000
  70
    32
  0
VERTEX
  8
AM_VIS
  5
262
 10
5.83712
 20
3.63509
 30
0.000000
  70
    32
  0
VERTEX
  8
AM_VIS
  5
263
 10
5.83617
 20
3.63471
 30
0.000000
  70
    32
  0
VERTEX
  8
AM_VIS
  5
264
 10
5.83521
 20
3.63433
 30
0.000000
  70
    32
  0
VERTEX
  8
AM_VIS
  5
265
 10
5.83425
 20
3.63395
 30
0.000000
  70
    32
  0
VERTEX
  8
AM_VIS
  5
266
 10
5.83329
 20
3.63358
 30
0.000000
  70
    32
  0
VERTEX
  8
AM_VIS
  5
267
 10
5.83233
 20
3.63321
 30
0.000000
  70
    32
  0
VERTEX
  8
AM_VIS
  5
268
 10
5.83137
 20
3.63285
 30
0.000000
  70
    32
  0
VERTEX
  8
AM_VIS
  5
269
 10
5.83041
 20
3.63248
 30
0.000000
  70
    32
  0
VERTEX
  8
AM_VIS
  5
26A
 10
5.82944
 20
3.63212
 30
0.000000
  70
    32
  0
VERTEX
  8
AM_VIS
  5
26B
 10
5.82848
 20
3.63177
 30
0.000000
  70
    32
  0
VERTEX
  8
AM_VIS
  5
26C
 10
5.82751
 20
3.63142
 30
0.000000
  70
    32
  0
VERTEX
  8
AM_VIS
  5
26D
 10
5.82654
 20
3.63107
 30
0.000000
  70
    32
  0
VERTEX
  8
AM_VIS
  5
26E
 10
5.82557
 20
3.63072
 30
0.000000
  70
    32
  0
VERTEX
  8
AM_VIS
  5
26F
 10
5.82459
 20
3.63038
 30
0.000000
  70
    32
  0
VERTEX
  8
AM_VIS
  5
270
 10
5.82362
 20
3.63004
 30
0.000000
  70
    32
  0
VERTEX
  8
AM_VIS
  5
271
 10
5.82264
 20
3.62971
 30
0.000000
  70
    32
  0
VERTEX
  8
AM_VIS
  5
272
 10
5.82167
 20
3.62938
 30
0.000000
  70
    32
  0
VERTEX
  8
AM_VIS
  5
273
 10
5.82069
 20
3.62905
 30
0.000000
  70
    32
  0
VERTEX
  8
AM_VIS
  5
274
 10
5.81971
 20
3.62872
 30
0.000000
  70
    32
  0
VERTEX
  8
AM_VIS
  5
275
 10
5.81873
 20
3.62840
 30
0.000000
  70
    32
  0
VERTEX
  8
AM_VIS
  5
276
 10
5.81774
 20
3.62809
 30
0.000000
  70
    32
  0
VERTEX
  8
AM_VIS
  5
277
 10
5.81676
 20
3.62777
 30
0.000000
  70
    32
  0
VERTEX
  8
AM_VIS
  5
278
 10
5.81577
 20
3.62746
 30
0.000000
  70
    32
  0
VERTEX
  8
AM_VIS
  5
279
 10
5.81479
 20
3.62716
 30
0.000000
  70
    32
  0
VERTEX
  8
AM_VIS
  5
27A
 10
5.81380
 20
3.62685
 30
0.000000
  70
    32
  0
VERTEX
  8
AM_VIS
  5
27B
 10
5.81281
 20
3.62655
 30
0.000000
  70
    32
  0
VERTEX
  8
AM_VIS
  5
27C
 10
5.81182
 20
3.62626
 30
0.000000
  70
    32
  0
VERTEX
  8
AM_VIS
  5
27D
 10
5.81083
 20
3.62596
 30
0.000000
  70
    32
  0
VERTEX
  8
AM_VIS
  5
27E
 10
5.80983
 20
3.62568
 30
0.000000
  70
    32
  0
VERTEX
  8
AM_VIS
  5
27F
 10
5.80884
 20
3.62539
 30
0.000000
  70
    32
  0
VERTEX
  8
AM_VIS
  5
280
 10
5.80784
 20
3.62511
 30
0.000000
  70
    32
  0
VERTEX
  8
AM_VIS
  5
281
 10
5.80684
 20
3.62483
 30
0.000000
  70
    32
  0
VERTEX
  8
AM_VIS
  5
282
 10
5.80584
 20
3.62456
 30
0.000000
  70
    32
  0
VERTEX
  8
AM_VIS
  5
283
 10
5.80484
 20
3.62429
 30
0.000000
  70
    32
  0
VERTEX
  8
AM_VIS
  5
284
 10
5.80384
 20
3.62402
 30
0.000000
  70
    32
  0
VERTEX
  8
AM_VIS
  5
285
 10
5.80283
 20
3.62376
 30
0.000000
  70
    32
  0
VERTEX
  8
AM_VIS
  5
286
 10
5.80183
 20
3.62350
 30
0.000000
  70
    32
  0
VERTEX
  8
AM_VIS
  5
287
 10
5.80082
 20
3.62325
 30
0.000000
  70
    32
  0
VERTEX
  8
AM_VIS
  5
288
 10
5.79981
 20
3.62300
 30
0.000000
  70
    32
  0
VERTEX
  8
AM_VIS
  5
289
 10
5.79881
 20
3.62275
 30
0.000000
  70
    32
  0
VERTEX
  8
AM_VIS
  5
28A
 10
5.79779
 20
3.62251
 30
0.000000
  70
    32
  0
VERTEX
  8
AM_VIS
  5
28B
 10
5.79678
 20
3.62227
 30
0.000000
  70
    32
  0
VERTEX
  8
AM_VIS
  5
28C
 10
5.79577
 20
3.62203
 30
0.000000
  70
    32
  0
VERTEX
  8
AM_VIS
  5
28D
 10
5.79476
 20
3.62180
 30
0.000000
  70
    32
  0
VERTEX
  8
AM_VIS
  5
28E
 10
5.79374
 20
3.62157
 30
0.000000
  70
    32
  0
VERTEX
  8
AM_VIS
  5
28F
 10
5.79272
 20
3.62135
 30
0.000000
  70
    32
  0
VERTEX
  8
AM_VIS
  5
290
 10
5.79170
 20
3.62113
 30
0.000000
  70
    32
  0
VERTEX
  8
AM_VIS
  5
291
 10
5.79068
 20
3.62091
 30
0.000000
  70
    32
  0
VERTEX
  8
AM_VIS
  5
292
 10
5.78966
 20
3.62070
 30
0.000000
  70
    32
  0
VERTEX
  8
AM_VIS
  5
293
 10
5.78864
 20
3.62049
 30
0.000000
  70
    32
  0
VERTEX
  8
AM_VIS
  5
294
 10
5.78762
 20
3.62029
 30
0.000000
  70
    32
  0
VERTEX
  8
AM_VIS
  5
295
 10
5.78660
 20
3.62009
 30
0.000000
  70
    32
  0
VERTEX
  8
AM_VIS
  5
296
 10
5.78558
 20
3.61990
 30
0.000000
  70
    32
  0
VERTEX
  8
AM_VIS
  5
297
 10
5.78455
 20
3.61971
 30
0.000000
  70
    32
  0
VERTEX
  8
AM_VIS
  5
298
 10
5.78353
 20
3.61952
 30
0.000000
  70
    32
  0
VERTEX
  8
AM_VIS
  5
299
 10
5.78251
 20
3.61934
 30
0.000000
  70
    32
  0
VERTEX
  8
AM_VIS
  5
29A
 10
5.78148
 20
3.61916
 30
0.000000
  70
    32
  0
VERTEX
  8
AM_VIS
  5
29B
 10
5.78046
 20
3.61898
 30
0.000000
  70
    32
  0
VERTEX
  8
AM_VIS
  5
29C
 10
5.77943
 20
3.61881
 30
0.000000
  70
    32
  0
VERTEX
  8
AM_VIS
  5
29D
 10
5.77841
 20
3.61865
 30
0.000000
  70
    32
  0
VERTEX
  8
AM_VIS
  5
29E
 10
5.77738
 20
3.61849
 30
0.000000
  70
    32
  0
VERTEX
  8
AM_VIS
  5
29F
 10
5.77636
 20
3.61833
 30
0.000000
  70
    32
  0
VERTEX
  8
AM_VIS
  5
2A0
 10
5.77533
 20
3.61818
 30
0.000000
  70
    32
  0
VERTEX
  8
AM_VIS
  5
2A1
 10
5.77430
 20
3.61803
 30
0.000000
  70
    32
  0
VERTEX
  8
AM_VIS
  5
2A2
 10
5.77328
 20
3.61788
 30
0.000000
  70
    32
  0
VERTEX
  8
AM_VIS
  5
2A3
 10
5.77225
 20
3.61774
 30
0.000000
  70
    32
  0
VERTEX
  8
AM_VIS
  5
2A4
 10
5.77122
 20
3.61761
 30
0.000000
  70
    32
  0
VERTEX
  8
AM_VIS
  5
2A5
 10
5.77019
 20
3.61748
 30
0.000000
  70
    32
  0
VERTEX
  8
AM_VIS
  5
2A6
 10
5.76916
 20
3.61735
 30
0.000000
  70
    32
  0
VERTEX
  8
AM_VIS
  5
2A7
 10
5.76814
 20
3.61723
 30
0.000000
  70
    32
  0
VERTEX
  8
AM_VIS
  5
2A8
 10
5.76711
 20
3.61711
 30
0.000000
  70
    32
  0
VERTEX
  8
AM_VIS
  5
2A9
 10
5.76608
 20
3.61699
 30
0.000000
  70
    32
  0
VERTEX
  8
AM_VIS
  5
2AA
 10
5.76505
 20
3.61688
 30
0.000000
  70
    32
  0
VERTEX
  8
AM_VIS
  5
2AB
 10
5.76402
 20
3.61677
 30
0.000000
  70
    32
  0
VERTEX
  8
AM_VIS
  5
2AC
 10
5.76299
 20
3.61667
 30
0.000000
  70
    32
  0
VERTEX
  8
AM_VIS
  5
2AD
 10
5.76195
 20
3.61657
 30
0.000000
  70
    32
  0
VERTEX
  8
AM_VIS
  5
2AE
 10
5.76092
 20
3.61648
 30
0.000000
  70
    32
  0
VERTEX
  8
AM_VIS
  5
2AF
 10
5.75989
 20
3.61639
 30
0.000000
  70
    32
  0
VERTEX
  8
AM_VIS
  5
2B0
 10
5.75886
 20
3.61631
 30
0.000000
  70
    32
  0
VERTEX
  8
AM_VIS
  5
2B1
 10
5.75783
 20
3.61623
 30
0.000000
  70
    32
  0
VERTEX
  8
AM_VIS
  5
2B2
 10
5.75679
 20
3.61615
 30
0.000000
  70
    32
  0
VERTEX
  8
AM_VIS
  5
2B3
 10
5.75576
 20
3.61608
 30
0.000000
  70
    32
  0
VERTEX
  8
AM_VIS
  5
2B4
 10
5.75473
 20
3.61601
 30
0.000000
  70
    32
  0
VERTEX
  8
AM_VIS
  5
2B5
 10
5.75369
 20
3.61595
 30
0.000000
  70
    32
  0
VERTEX
  8
AM_VIS
  5
2B6
 10
5.75266
 20
3.61589
 30
0.000000
  70
    32
  0
VERTEX
  8
AM_VIS
  5
2B7
 10
5.75162
 20
3.61583
 30
0.000000
  70
    32
  0
VERTEX
  8
AM_VIS
  5
2B8
 10
5.75059
 20
3.61578
 30
0.000000
  70
    32
  0
VERTEX
  8
AM_VIS
  5
2B9
 10
5.74955
 20
3.61574
 30
0.000000
  70
    32
  0
VERTEX
  8
AM_VIS
  5
2BA
 10
5.74852
 20
3.61569
 30
0.000000
  70
    32
  0
VERTEX
  8
AM_VIS
  5
2BB
 10
5.74748
 20
3.61566
 30
0.000000
  70
    32
  0
VERTEX
  8
AM_VIS
  5
2BC
 10
5.74645
 20
3.61562
 30
0.000000
  70
    32
  0
VERTEX
  8
AM_VIS
  5
2BD
 10
5.74541
 20
3.61560
 30
0.000000
  70
    32
  0
VERTEX
  8
AM_VIS
  5
2BE
 10
5.74437
 20
3.61557
 30
0.000000
  70
    32
  0
VERTEX
  8
AM_VIS
  5
2BF
 10
5.74334
 20
3.61555
 30
0.000000
  70
    32
  0
VERTEX
  8
AM_VIS
  5
2C0
 10
5.74230
 20
3.61554
 30
0.000000
  70
    32
  0
VERTEX
  8
AM_VIS
  5
2C1
 10
5.74126
 20
3.61552
 30
0.000000
  70
    32
  0
VERTEX
  8
AM_VIS
  5
2C2
 10
5.74022
 20
3.61552
 30
0.000000
  70
    32
  0
VERTEX
  8
AM_VIS
  5
2C3
 10
5.73918
 20
3.61551
 30
0.000000
  70
    32
  0
VERTEX
  8
AM_VIS
  5
2C4
 10
5.73815
 20
3.61552
 30
0.000000
  70
    32
  0
VERTEX
  8
AM_VIS
  5
2C5
 10
5.73711
 20
3.61552
 30
0.000000
  70
    32
  0
VERTEX
  8
AM_VIS
  5
2C6
 10
5.73607
 20
3.61553
 30
0.000000
  70
    32
  0
VERTEX
  8
AM_VIS
  5
2C7
 10
5.73503
 20
3.61555
 30
0.000000
  70
    32
  0
VERTEX
  8
AM_VIS
  5
2C8
 10
5.73399
 20
3.61557
 30
0.000000
  70
    32
  0
VERTEX
  8
AM_VIS
  5
2C9
 10
5.73295
 20
3.61559
 30
0.000000
  70
    32
  0
VERTEX
  8
AM_VIS
  5
2CA
 10
5.73191
 20
3.61562
 30
0.000000
  70
    32
  0
VERTEX
  8
AM_VIS
  5
2CB
 10
5.73087
 20
3.61565
 30
0.000000
  70
    32
  0
VERTEX
  8
AM_VIS
  5
2CC
 10
5.72983
 20
3.61569
 30
0.000000
  70
    32
  0
VERTEX
  8
AM_VIS
  5
2CD
 10
5.72878
 20
3.61573
 30
0.000000
  70
    32
  0
VERTEX
  8
AM_VIS
  5
2CE
 10
5.72774
 20
3.61577
 30
0.000000
  70
    32
  0
VERTEX
  8
AM_VIS
  5
2CF
 10
5.72670
 20
3.61582
 30
0.000000
  70
    32
  0
VERTEX
  8
AM_VIS
  5
2D0
 10
5.72566
 20
3.61588
 30
0.000000
  70
    32
  0
VERTEX
  8
AM_VIS
  5
2D1
 10
5.72462
 20
3.61594
 30
0.000000
  70
    32
  0
VERTEX
  8
AM_VIS
  5
2D2
 10
5.72357
 20
3.61600
 30
0.000000
  70
    32
  0
VERTEX
  8
AM_VIS
  5
2D3
 10
5.72253
 20
3.61607
 30
0.000000
  70
    32
  0
VERTEX
  8
AM_VIS
  5
2D4
 10
5.72149
 20
3.61614
 30
0.000000
  70
    32
  0
VERTEX
  8
AM_VIS
  5
2D5
 10
5.72044
 20
3.61621
 30
0.000000
  70
    32
  0
VERTEX
  8
AM_VIS
  5
2D6
 10
5.71940
 20
3.61630
 30
0.000000
  70
    32
  0
VERTEX
  8
AM_VIS
  5
2D7
 10
5.71836
 20
3.61638
 30
0.000000
  70
    32
  0
VERTEX
  8
AM_VIS
  5
2D8
 10
5.71731
 20
3.61647
 30
0.000000
  70
    32
  0
VERTEX
  8
AM_VIS
  5
2D9
 10
5.71627
 20
3.61656
 30
0.000000
  70
    32
  0
VERTEX
  8
AM_VIS
  5
2DA
 10
5.71522
 20
3.61666
 30
0.000000
  70
    32
  0
VERTEX
  8
AM_VIS
  5
2DB
 10
5.71418
 20
3.61677
 30
0.000000
  70
    32
  0
VERTEX
  8
AM_VIS
  5
2DC
 10
5.71313
 20
3.61687
 30
0.000000
  70
    32
  0
VERTEX
  8
AM_VIS
  5
2DD
 10
5.71209
 20
3.61699
 30
0.000000
  70
    32
  0
VERTEX
  8
AM_VIS
  5
2DE
 10
5.71104
 20
3.61710
 30
0.000000
  70
    32
  0
VERTEX
  8
AM_VIS
  5
2DF
 10
5.70999
 20
3.61722
 30
0.000000
  70
    32
  0
VERTEX
  8
AM_VIS
  5
2E0
 10
5.70895
 20
3.61735
 30
0.000000
  70
    32
  0
VERTEX
  8
AM_VIS
  5
2E1
 10
5.70790
 20
3.61748
 30
0.000000
  70
    32
  0
VERTEX
  8
AM_VIS
  5
2E2
 10
5.70685
 20
3.61761
 30
0.000000
  70
    32
  0
VERTEX
  8
AM_VIS
  5
2E3
 10
5.70581
 20
3.61775
 30
0.000000
  70
    32
  0
VERTEX
  8
AM_VIS
  5
2E4
 10
5.70476
 20
3.61789
 30
0.000000
  70
    32
  0
VERTEX
  8
AM_VIS
  5
2E5
 10
5.70371
 20
3.61804
 30
0.000000
  70
    32
  0
VERTEX
  8
AM_VIS
  5
2E6
 10
5.70266
 20
3.61819
 30
0.000000
  70
    32
  0
VERTEX
  8
AM_VIS
  5
2E7
 10
5.70162
 20
3.61835
 30
0.000000
  70
    32
  0
VERTEX
  8
AM_VIS
  5
2E8
 10
5.70057
 20
3.61851
 30
0.000000
  70
    32
  0
VERTEX
  8
AM_VIS
  5
2E9
 10
5.69952
 20
3.61868
 30
0.000000
  70
    32
  0
VERTEX
  8
AM_VIS
  5
2EA
 10
5.69847
 20
3.61885
 30
0.000000
  70
    32
  0
VERTEX
  8
AM_VIS
  5
2EB
 10
5.69742
 20
3.61902
 30
0.000000
  70
    32
  0
VERTEX
  8
AM_VIS
  5
2EC
 10
5.69637
 20
3.61920
 30
0.000000
  70
    32
  0
VERTEX
  8
AM_VIS
  5
2ED
 10
5.69532
 20
3.61939
 30
0.000000
  70
    32
  0
VERTEX
  8
AM_VIS
  5
2EE
 10
5.69427
 20
3.61958
 30
0.000000
  70
    32
  0
VERTEX
  8
AM_VIS
  5
2EF
 10
5.69322
 20
3.61977
 30
0.000000
  70
    32
  0
VERTEX
  8
AM_VIS
  5
2F0
 10
5.69217
 20
3.61997
 30
0.000000
  70
    32
  0
VERTEX
  8
AM_VIS
  5
2F1
 10
5.69112
 20
3.62017
 30
0.000000
  70
    32
  0
VERTEX
  8
AM_VIS
  5
2F2
 10
5.69007
 20
3.62037
 30
0.000000
  70
    32
  0
VERTEX
  8
AM_VIS
  5
2F3
 10
5.68902
 20
3.62059
 30
0.000000
  70
    32
  0
VERTEX
  8
AM_VIS
  5
2F4
 10
5.68797
 20
3.62080
 30
0.000000
  70
    32
  0
VERTEX
  8
AM_VIS
  5
2F5
 10
5.68692
 20
3.62102
 30
0.000000
  70
    32
  0
VERTEX
  8
AM_VIS
  5
2F6
 10
5.68588
 20
3.62124
 30
0.000000
  70
    32
  0
VERTEX
  8
AM_VIS
  5
2F7
 10
5.68483
 20
3.62147
 30
0.000000
  70
    32
  0
VERTEX
  8
AM_VIS
  5
2F8
 10
5.68378
 20
3.62170
 30
0.000000
  70
    32
  0
VERTEX
  8
AM_VIS
  5
2F9
 10
5.68274
 20
3.62194
 30
0.000000
  70
    32
  0
VERTEX
  8
AM_VIS
  5
2FA
 10
5.68169
 20
3.62218
 30
0.000000
  70
    32
  0
VERTEX
  8
AM_VIS
  5
2FB
 10
5.68065
 20
3.62243
 30
0.000000
  70
    32
  0
VERTEX
  8
AM_VIS
  5
2FC
 10
5.67961
 20
3.62268
 30
0.000000
  70
    32
  0
VERTEX
  8
AM_VIS
  5
2FD
 10
5.67857
 20
3.62293
 30
0.000000
  70
    32
  0
VERTEX
  8
AM_VIS
  5
2FE
 10
5.67753
 20
3.62319
 30
0.000000
  70
    32
  0
VERTEX
  8
AM_VIS
  5
2FF
 10
5.67649
 20
3.62345
 30
0.000000
  70
    32
  0
VERTEX
  8
AM_VIS
  5
300
 10
5.67545
 20
3.62372
 30
0.000000
  70
    32
  0
VERTEX
  8
AM_VIS
  5
301
 10
5.67441
 20
3.62399
 30
0.000000
  70
    32
  0
VERTEX
  8
AM_VIS
  5
302
 10
5.67338
 20
3.62427
 30
0.000000
  70
    32
  0
VERTEX
  8
AM_VIS
  5
303
 10
5.67234
 20
3.62454
 30
0.000000
  70
    32
  0
VERTEX
  8
AM_VIS
  5
304
 10
5.67131
 20
3.62483
 30
0.000000
  70
    32
  0
VERTEX
  8
AM_VIS
  5
305
 10
5.67027
 20
3.62512
 30
0.000000
  70
    32
  0
VERTEX
  8
AM_VIS
  5
306
 10
5.66924
 20
3.62541
 30
0.000000
  70
    32
  0
VERTEX
  8
AM_VIS
  5
307
 10
5.66821
 20
3.62570
 30
0.000000
  70
    32
  0
VERTEX
  8
AM_VIS
  5
308
 10
5.66718
 20
3.62600
 30
0.000000
  70
    32
  0
VERTEX
  8
AM_VIS
  5
309
 10
5.66615
 20
3.62631
 30
0.000000
  70
    32
  0
VERTEX
  8
AM_VIS
  5
30A
 10
5.66512
 20
3.62661
 30
0.000000
  70
    32
  0
VERTEX
  8
AM_VIS
  5
30B
 10
5.66409
 20
3.62693
 30
0.000000
  70
    32
  0
VERTEX
  8
AM_VIS
  5
30C
 10
5.66307
 20
3.62724
 30
0.000000
  70
    32
  0
VERTEX
  8
AM_VIS
  5
30D
 10
5.66204
 20
3.62756
 30
0.000000
  70
    32
  0
VERTEX
  8
AM_VIS
  5
30E
 10
5.66102
 20
3.62789
 30
0.000000
  70
    32
  0
VERTEX
  8
AM_VIS
  5
30F
 10
5.65999
 20
3.62821
 30
0.000000
  70
    32
  0
VERTEX
  8
AM_VIS
  5
310
 10
5.65897
 20
3.62855
 30
0.000000
  70
    32
  0
VERTEX
  8
AM_VIS
  5
311
 10
5.65795
 20
3.62888
 30
0.000000
  70
    32
  0
VERTEX
  8
AM_VIS
  5
312
 10
5.65693
 20
3.62922
 30
0.000000
  70
    32
  0
VERTEX
  8
AM_VIS
  5
313
 10
5.65591
 20
3.62957
 30
0.000000
  70
    32
  0
VERTEX
  8
AM_VIS
  5
314
 10
5.65489
 20
3.62991
 30
0.000000
  70
    32
  0
VERTEX
  8
AM_VIS
  5
315
 10
5.65388
 20
3.63027
 30
0.000000
  70
    32
  0
VERTEX
  8
AM_VIS
  5
316
 10
5.65286
 20
3.63062
 30
0.000000
  70
    32
  0
VERTEX
  8
AM_VIS
  5
317
 10
5.65185
 20
3.63098
 30
0.000000
  70
    32
  0
VERTEX
  8
AM_VIS
  5
318
 10
5.65083
 20
3.63135
 30
0.000000
  70
    32
  0
VERTEX
  8
AM_VIS
  5
319
 10
5.64982
 20
3.63171
 30
0.000000
  70
    32
  0
VERTEX
  8
AM_VIS
  5
31A
 10
5.64881
 20
3.63208
 30
0.000000
  70
    32
  0
VERTEX
  8
AM_VIS
  5
31B
 10
5.64780
 20
3.63246
 30
0.000000
  70
    32
  0
VERTEX
  8
AM_VIS
  5
31C
 10
5.64679
 20
3.63284
 30
0.000000
  70
    32
  0
VERTEX
  8
AM_VIS
  5
31D
 10
5.64578
 20
3.63322
 30
0.000000
  70
    32
  0
VERTEX
  8
AM_VIS
  5
31E
 10
5.64478
 20
3.63361
 30
0.000000
  70
    32
  0
VERTEX
  8
AM_VIS
  5
31F
 10
5.64377
 20
3.63400
 30
0.000000
  70
    32
  0
VERTEX
  8
AM_VIS
  5
320
 10
5.64277
 20
3.63439
 30
0.000000
  70
    32
  0
VERTEX
  8
AM_VIS
  5
321
 10
5.64176
 20
3.63479
 30
0.000000
  70
    32
  0
VERTEX
  8
AM_VIS
  5
322
 10
5.64076
 20
3.63519
 30
0.000000
  70
    32
  0
VERTEX
  8
AM_VIS
  5
323
 10
5.63976
 20
3.63560
 30
0.000000
  70
    32
  0
VERTEX
  8
AM_VIS
  5
324
 10
5.63876
 20
3.63601
 30
0.000000
  70
    32
  0
VERTEX
  8
AM_VIS
  5
325
 10
5.63777
 20
3.63642
 30
0.000000
  70
    32
  0
VERTEX
  8
AM_VIS
  5
326
 10
5.63677
 20
3.63684
 30
0.000000
  70
    32
  0
VERTEX
  8
AM_VIS
  5
327
 10
5.63577
 20
3.63726
 30
0.000000
  70
    32
  0
VERTEX
  8
AM_VIS
  5
328
 10
5.63478
 20
3.63768
 30
0.000000
  70
    32
  0
VERTEX
  8
AM_VIS
  5
329
 10
5.63379
 20
3.63811
 30
0.000000
  70
    32
  0
VERTEX
  8
AM_VIS
  5
32A
 10
5.63279
 20
3.63854
 30
0.000000
  70
    32
  0
VERTEX
  8
AM_VIS
  5
32B
 10
5.63180
 20
3.63898
 30
0.000000
  70
    32
  0
VERTEX
  8
AM_VIS
  5
32C
 10
5.63082
 20
3.63942
 30
0.000000
  70
    32
  0
VERTEX
  8
AM_VIS
  5
32D
 10
5.62983
 20
3.63986
 30
0.000000
  70
    32
  0
VERTEX
  8
AM_VIS
  5
32E
 10
5.62884
 20
3.64030
 30
0.000000
  70
    32
  0
VERTEX
  8
AM_VIS
  5
32F
 10
5.62786
 20
3.64075
 30
0.000000
  70
    32
  0
VERTEX
  8
AM_VIS
  5
330
 10
5.62687
 20
3.64121
 30
0.000000
  70
    32
  0
VERTEX
  8
AM_VIS
  5
331
 10
5.62589
 20
3.64166
 30
0.000000
  70
    32
  0
VERTEX
  8
AM_VIS
  5
332
 10
5.62491
 20
3.64212
 30
0.000000
  70
    32
  0
VERTEX
  8
AM_VIS
  5
333
 10
5.62393
 20
3.64259
 30
0.000000
  70
    32
  0
VERTEX
  8
AM_VIS
  5
334
 10
5.62295
 20
3.64305
 30
0.000000
  70
    32
  0
VERTEX
  8
AM_VIS
  5
335
 10
5.62197
 20
3.64352
 30
0.000000
  70
    32
  0
VERTEX
  8
AM_VIS
  5
336
 10
5.62100
 20
3.64400
 30
0.000000
  70
    32
  0
VERTEX
  8
AM_VIS
  5
337
 10
5.62002
 20
3.64448
 30
0.000000
  70
    32
  0
VERTEX
  8
AM_VIS
  5
338
 10
5.61905
 20
3.64496
 30
0.000000
  70
    32
  0
VERTEX
  8
AM_VIS
  5
339
 10
5.61808
 20
3.64544
 30
0.000000
  70
    32
  0
VERTEX
  8
AM_VIS
  5
33A
 10
5.61711
 20
3.64593
 30
0.000000
  70
    32
  0
VERTEX
  8
AM_VIS
  5
33B
 10
5.61614
 20
3.64642
 30
0.000000
  70
    32
  0
VERTEX
  8
AM_VIS
  5
33C
 10
5.61517
 20
3.64692
 30
0.000000
  70
    32
  0
VERTEX
  8
AM_VIS
  5
33D
 10
5.61421
 20
3.64742
 30
0.000000
  70
    32
  0
VERTEX
  8
AM_VIS
  5
33E
 10
5.61324
 20
3.64792
 30
0.000000
  70
    32
  0
VERTEX
  8
AM_VIS
  5
33F
 10
5.61228
 20
3.64842
 30
0.000000
  70
    32
  0
VERTEX
  8
AM_VIS
  5
340
 10
5.61132
 20
3.64893
 30
0.000000
  70
    32
  0
VERTEX
  8
AM_VIS
  5
341
 10
5.61036
 20
3.64944
 30
0.000000
  70
    32
  0
VERTEX
  8
AM_VIS
  5
342
 10
5.60940
 20
3.64996
 30
0.000000
  70
    32
  0
VERTEX
  8
AM_VIS
  5
343
 10
5.60844
 20
3.65048
 30
0.000000
  70
    32
  0
VERTEX
  8
AM_VIS
  5
344
 10
5.60749
 20
3.65100
 30
0.000000
  70
    32
  0
VERTEX
  8
AM_VIS
  5
345
 10
5.60653
 20
3.65152
 30
0.000000
  70
    32
  0
VERTEX
  8
AM_VIS
  5
346
 10
5.60558
 20
3.65205
 30
0.000000
  70
    32
  0
VERTEX
  8
AM_VIS
  5
347
 10
5.60463
 20
3.65259
 30
0.000000
  70
    32
  0
VERTEX
  8
AM_VIS
  5
348
 10
5.60368
 20
3.65312
 30
0.000000
  70
    32
  0
VERTEX
  8
AM_VIS
  5
349
 10
5.60273
 20
3.65366
 30
0.000000
  70
    32
  0
VERTEX
  8
AM_VIS
  5
34A
 10
5.60178
 20
3.65420
 30
0.000000
  70
    32
  0
VERTEX
  8
AM_VIS
  5
34B
 10
5.60084
 20
3.65474
 30
0.000000
  70
    32
  0
VERTEX
  8
AM_VIS
  5
34C
 10
5.59990
 20
3.65529
 30
0.000000
  70
    32
  0
VERTEX
  8
AM_VIS
  5
34D
 10
5.59895
 20
3.65584
 30
0.000000
  70
    32
  0
VERTEX
  8
AM_VIS
  5
34E
 10
5.59801
 20
3.65640
 30
0.000000
  70
    32
  0
VERTEX
  8
AM_VIS
  5
34F
 10
5.59708
 20
3.65696
 30
0.000000
  70
    32
  0
VERTEX
  8
AM_VIS
  5
350
 10
5.59614
 20
3.65752
 30
0.000000
  70
    32
  0
VERTEX
  8
AM_VIS
  5
351
 10
5.59520
 20
3.65808
 30
0.000000
  70
    32
  0
VERTEX
  8
AM_VIS
  5
352
 10
5.59427
 20
3.65865
 30
0.000000
  70
    32
  0
VERTEX
  8
AM_VIS
  5
353
 10
5.59334
 20
3.65922
 30
0.000000
  70
    32
  0
VERTEX
  8
AM_VIS
  5
354
 10
5.59241
 20
3.65979
 30
0.000000
  70
    32
  0
VERTEX
  8
AM_VIS
  5
355
 10
5.59148
 20
3.66037
 30
0.000000
  70
    32
  0
VERTEX
  8
AM_VIS
  5
356
 10
5.59055
 20
3.66095
 30
0.000000
  70
    32
  0
VERTEX
  8
AM_VIS
  5
357
 10
5.58962
 20
3.66153
 30
0.000000
  70
    32
  0
VERTEX
  8
AM_VIS
  5
358
 10
5.58870
 20
3.66211
 30
0.000000
  70
    32
  0
VERTEX
  8
AM_VIS
  5
359
 10
5.58778
 20
3.66270
 30
0.000000
  70
    32
  0
VERTEX
  8
AM_VIS
  5
35A
 10
5.58686
 20
3.66329
 30
0.000000
  70
    32
  0
VERTEX
  8
AM_VIS
  5
35B
 10
5.58594
 20
3.66389
 30
0.000000
  70
    32
  0
VERTEX
  8
AM_VIS
  5
35C
 10
5.58502
 20
3.66449
 30
0.000000
  70
    32
  0
VERTEX
  8
AM_VIS
  5
35D
 10
5.58410
 20
3.66509
 30
0.000000
  70
    32
  0
VERTEX
  8
AM_VIS
  5
35E
 10
5.58319
 20
3.66569
 30
0.000000
  70
    32
  0
VERTEX
  8
AM_VIS
  5
35F
 10
5.58228
 20
3.66630
 30
0.000000
  70
    32
  0
VERTEX
  8
AM_VIS
  5
360
 10
5.58137
 20
3.66691
 30
0.000000
  70
    32
  0
VERTEX
  8
AM_VIS
  5
361
 10
5.58046
 20
3.66752
 30
0.000000
  70
    32
  0
VERTEX
  8
AM_VIS
  5
362
 10
5.57955
 20
3.66814
 30
0.000000
  70
    32
  0
VERTEX
  8
AM_VIS
  5
363
 10
5.57864
 20
3.66875
 30
0.000000
  70
    32
  0
VERTEX
  8
AM_VIS
  5
364
 10
5.57774
 20
3.66938
 30
0.000000
  70
    32
  0
VERTEX
  8
AM_VIS
  5
365
 10
5.57683
 20
3.67000
 30
0.000000
  70
    32
  0
VERTEX
  8
AM_VIS
  5
366
 10
5.57593
 20
3.67063
 30
0.000000
  70
    32
  0
VERTEX
  8
AM_VIS
  5
367
 10
5.57503
 20
3.67126
 30
0.000000
  70
    32
  0
VERTEX
  8
AM_VIS
  5
368
 10
5.57413
 20
3.67190
 30
0.000000
  70
    32
  0
VERTEX
  8
AM_VIS
  5
369
 10
5.57323
 20
3.67253
 30
0.000000
  70
    32
  0
VERTEX
  8
AM_VIS
  5
36A
 10
5.57233
 20
3.67318
 30
0.000000
  70
    32
  0
VERTEX
  8
AM_VIS
  5
36B
 10
5.57144
 20
3.67382
 30
0.000000
  70
    32
  0
VERTEX
  8
AM_VIS
  5
36C
 10
5.57054
 20
3.67447
 30
0.000000
  70
    32
  0
VERTEX
  8
AM_VIS
  5
36D
 10
5.56965
 20
3.67512
 30
0.000000
  70
    32
  0
VERTEX
  8
AM_VIS
  5
36E
 10
5.56876
 20
3.67577
 30
0.000000
  70
    32
  0
VERTEX
  8
AM_VIS
  5
36F
 10
5.56787
 20
3.67643
 30
0.000000
  70
    32
  0
VERTEX
  8
AM_VIS
  5
370
 10
5.56698
 20
3.67709
 30
0.000000
  70
    32
  0
VERTEX
  8
AM_VIS
  5
371
 10
5.56609
 20
3.67775
 30
0.000000
  70
    32
  0
VERTEX
  8
AM_VIS
  5
372
 10
5.56521
 20
3.67842
 30
0.000000
  70
    32
  0
VERTEX
  8
AM_VIS
  5
373
 10
5.56432
 20
3.67909
 30
0.000000
  70
    32
  0
VERTEX
  8
AM_VIS
  5
374
 10
5.56344
 20
3.67976
 30
0.000000
  70
    32
  0
VERTEX
  8
AM_VIS
  5
375
 10
5.56256
 20
3.68043
 30
0.000000
  70
    32
  0
VERTEX
  8
AM_VIS
  5
376
 10
5.56168
 20
3.68111
 30
0.000000
  70
    32
  0
VERTEX
  8
AM_VIS
  5
377
 10
5.56080
 20
3.68179
 30
0.000000
  70
    32
  0
VERTEX
  8
AM_VIS
  5
378
 10
5.55992
 20
3.68248
 30
0.000000
  70
    32
  0
VERTEX
  8
AM_VIS
  5
379
 10
5.55905
 20
3.68317
 30
0.000000
  70
    32
  0
VERTEX
  8
AM_VIS
  5
37A
 10
5.55817
 20
3.68386
 30
0.000000
  70
    32
  0
VERTEX
  8
AM_VIS
  5
37B
 10
5.55730
 20
3.68455
 30
0.000000
  70
    32
  0
VERTEX
  8
AM_VIS
  5
37C
 10
5.55643
 20
3.68525
 30
0.000000
  70
    32
  0
VERTEX
  8
AM_VIS
  5
37D
 10
5.55556
 20
3.68595
 30
0.000000
  70
    32
  0
VERTEX
  8
AM_VIS
  5
37E
 10
5.55469
 20
3.68665
 30
0.000000
  70
    32
  0
SEQEND
  8
AM_VIS
  5
37F
  0
POLYLINE
  8
AM_VIS
  5
380
  66
     1
 10
0.000000
 20
0.000000
 30
0.000000
  70
     8
  0
VERTEX
  8
AM_VIS
  5
381
 10
6.03897
 20
3.61382
 30
0.000000
  70
    32
  0
VERTEX
  8
AM_VIS
  5
382
 10
6.03873
 20
3.61405
 30
0.000000
  70
    32
  0
VERTEX
  8
AM_VIS
  5
383
 10
6.03850
 20
3.61429
 30
0.000000
  70
    32
  0
VERTEX
  8
AM_VIS
  5
384
 10
6.03826
 20
3.61453
 30
0.000000
  70
    32
  0
VERTEX
  8
AM_VIS
  5
385
 10
6.03803
 20
3.61477
 30
0.000000
  70
    32
  0
VERTEX
  8
AM_VIS
  5
386
 10
6.03780
 20
3.61501
 30
0.000000
  70
    32
  0
VERTEX
  8
AM_VIS
  5
387
 10
6.03757
 20
3.61526
 30
0.000000
  70
    32
  0
VERTEX
  8
AM_VIS
  5
388
 10
6.03734
 20
3.61550
 30
0.000000
  70
    32
  0
VERTEX
  8
AM_VIS
  5
389
 10
6.03711
 20
3.61575
 30
0.000000
  70
    32
  0
VERTEX
  8
AM_VIS
  5
38A
 10
6.03688
 20
3.61599
 30
0.000000
  70
    32
  0
VERTEX
  8
AM_VIS
  5
38B
 10
6.03665
 20
3.61624
 30
0.000000
  70
    32
  0
VERTEX
  8
AM_VIS
  5
38C
 10
6.03642
 20
3.61649
 30
0.000000
  70
    32
  0
VERTEX
  8
AM_VIS
  5
38D
 10
6.03620
 20
3.61674
 30
0.000000
  70
    32
  0
VERTEX
  8
AM_VIS
  5
38E
 10
6.03598
 20
3.61699
 30
0.000000
  70
    32
  0
VERTEX
  8
AM_VIS
  5
38F
 10
6.03575
 20
3.61724
 30
0.000000
  70
    32
  0
VERTEX
  8
AM_VIS
  5
390
 10
6.03553
 20
3.61749
 30
0.000000
  70
    32
  0
VERTEX
  8
AM_VIS
  5
391
 10
6.03531
 20
3.61774
 30
0.000000
  70
    32
  0
VERTEX
  8
AM_VIS
  5
392
 10
6.03509
 20
3.61799
 30
0.000000
  70
    32
  0
VERTEX
  8
AM_VIS
  5
393
 10
6.03488
 20
3.61825
 30
0.000000
  70
    32
  0
VERTEX
  8
AM_VIS
  5
394
 10
6.03466
 20
3.61850
 30
0.000000
  70
    32
  0
VERTEX
  8
AM_VIS
  5
395
 10
6.03445
 20
3.61875
 30
0.000000
  70
    32
  0
VERTEX
  8
AM_VIS
  5
396
 10
6.03423
 20
3.61901
 30
0.000000
  70
    32
  0
VERTEX
  8
AM_VIS
  5
397
 10
6.03402
 20
3.61927
 30
0.000000
  70
    32
  0
VERTEX
  8
AM_VIS
  5
398
 10
6.03381
 20
3.61952
 30
0.000000
  70
    32
  0
VERTEX
  8
AM_VIS
  5
399
 10
6.03360
 20
3.61978
 30
0.000000
  70
    32
  0
VERTEX
  8
AM_VIS
  5
39A
 10
6.03339
 20
3.62004
 30
0.000000
  70
    32
  0
VERTEX
  8
AM_VIS
  5
39B
 10
6.03319
 20
3.62030
 30
0.000000
  70
    32
  0
VERTEX
  8
AM_VIS
  5
39C
 10
6.03298
 20
3.62056
 30
0.000000
  70
    32
  0
VERTEX
  8
AM_VIS
  5
39D
 10
6.03278
 20
3.62082
 30
0.000000
  70
    32
  0
VERTEX
  8
AM_VIS
  5
39E
 10
6.03257
 20
3.62108
 30
0.000000
  70
    32
  0
VERTEX
  8
AM_VIS
  5
39F
 10
6.03237
 20
3.62135
 30
0.000000
  70
    32
  0
VERTEX
  8
AM_VIS
  5
3A0
 10
6.03217
 20
3.62161
 30
0.000000
  70
    32
  0
VERTEX
  8
AM_VIS
  5
3A1
 10
6.03197
 20
3.62187
 30
0.000000
  70
    32
  0
VERTEX
  8
AM_VIS
  5
3A2
 10
6.03178
 20
3.62214
 30
0.000000
  70
    32
  0
VERTEX
  8
AM_VIS
  5
3A3
 10
6.03158
 20
3.62240
 30
0.000000
  70
    32
  0
VERTEX
  8
AM_VIS
  5
3A4
 10
6.03138
 20
3.62267
 30
0.000000
  70
    32
  0
VERTEX
  8
AM_VIS
  5
3A5
 10
6.03119
 20
3.62294
 30
0.000000
  70
    32
  0
VERTEX
  8
AM_VIS
  5
3A6
 10
6.03100
 20
3.62320
 30
0.000000
  70
    32
  0
VERTEX
  8
AM_VIS
  5
3A7
 10
6.03080
 20
3.62347
 30
0.000000
  70
    32
  0
VERTEX
  8
AM_VIS
  5
3A8
 10
6.03061
 20
3.62374
 30
0.000000
  70
    32
  0
VERTEX
  8
AM_VIS
  5
3A9
 10
6.03043
 20
3.62401
 30
0.000000
  70
    32
  0
VERTEX
  8
AM_VIS
  5
3AA
 10
6.03024
 20
3.62428
 30
0.000000
  70
    32
  0
VERTEX
  8
AM_VIS
  5
3AB
 10
6.03005
 20
3.62455
 30
0.000000
  70
    32
  0
VERTEX
  8
AM_VIS
  5
3AC
 10
6.02987
 20
3.62483
 30
0.000000
  70
    32
  0
VERTEX
  8
AM_VIS
  5
3AD
 10
6.02968
 20
3.62510
 30
0.000000
  70
    32
  0
VERTEX
  8
AM_VIS
  5
3AE
 10
6.02950
 20
3.62537
 30
0.000000
  70
    32
  0
VERTEX
  8
AM_VIS
  5
3AF
 10
6.02932
 20
3.62565
 30
0.000000
  70
    32
  0
VERTEX
  8
AM_VIS
  5
3B0
 10
6.02914
 20
3.62592
 30
0.000000
  70
    32
  0
VERTEX
  8
AM_VIS
  5
3B1
 10
6.02896
 20
3.62620
 30
0.000000
  70
    32
  0
VERTEX
  8
AM_VIS
  5
3B2
 10
6.02878
 20
3.62647
 30
0.000000
  70
    32
  0
VERTEX
  8
AM_VIS
  5
3B3
 10
6.02860
 20
3.62675
 30
0.000000
  70
    32
  0
VERTEX
  8
AM_VIS
  5
3B4
 10
6.02843
 20
3.62703
 30
0.000000
  70
    32
  0
VERTEX
  8
AM_VIS
  5
3B5
 10
6.02825
 20
3.62731
 30
0.000000
  70
    32
  0
VERTEX
  8
AM_VIS
  5
3B6
 10
6.02808
 20
3.62759
 30
0.000000
  70
    32
  0
VERTEX
  8
AM_VIS
  5
3B7
 10
6.02791
 20
3.62787
 30
0.000000
  70
    32
  0
VERTEX
  8
AM_VIS
  5
3B8
 10
6.02774
 20
3.62815
 30
0.000000
  70
    32
  0
VERTEX
  8
AM_VIS
  5
3B9
 10
6.02757
 20
3.62843
 30
0.000000
  70
    32
  0
VERTEX
  8
AM_VIS
  5
3BA
 10
6.02740
 20
3.62871
 30
0.000000
  70
    32
  0
VERTEX
  8
AM_VIS
  5
3BB
 10
6.02724
 20
3.62900
 30
0.000000
  70
    32
  0
VERTEX
  8
AM_VIS
  5
3BC
 10
6.02707
 20
3.62928
 30
0.000000
  70
    32
  0
VERTEX
  8
AM_VIS
  5
3BD
 10
6.02691
 20
3.62956
 30
0.000000
  70
    32
  0
VERTEX
  8
AM_VIS
  5
3BE
 10
6.02674
 20
3.62985
 30
0.000000
  70
    32
  0
VERTEX
  8
AM_VIS
  5
3BF
 10
6.02658
 20
3.63013
 30
0.000000
  70
    32
  0
VERTEX
  8
AM_VIS
  5
3C0
 10
6.02642
 20
3.63042
 30
0.000000
  70
    32
  0
VERTEX
  8
AM_VIS
  5
3C1
 10
6.02626
 20
3.63071
 30
0.000000
  70
    32
  0
VERTEX
  8
AM_VIS
  5
3C2
 10
6.02610
 20
3.63100
 30
0.000000
  70
    32
  0
VERTEX
  8
AM_VIS
  5
3C3
 10
6.02594
 20
3.63128
 30
0.000000
  70
    32
  0
VERTEX
  8
AM_VIS
  5
3C4
 10
6.02579
 20
3.63157
 30
0.000000
  70
    32
  0
VERTEX
  8
AM_VIS
  5
3C5
 10
6.02563
 20
3.63186
 30
0.000000
  70
    32
  0
VERTEX
  8
AM_VIS
  5
3C6
 10
6.02548
 20
3.63215
 30
0.000000
  70
    32
  0
VERTEX
  8
AM_VIS
  5
3C7
 10
6.02533
 20
3.63245
 30
0.000000
  70
    32
  0
VERTEX
  8
AM_VIS
  5
3C8
 10
6.02518
 20
3.63274
 30
0.000000
  70
    32
  0
VERTEX
  8
AM_VIS
  5
3C9
 10
6.02503
 20
3.63303
 30
0.000000
  70
    32
  0
VERTEX
  8
AM_VIS
  5
3CA
 10
6.02488
 20
3.63332
 30
0.000000
  70
    32
  0
VERTEX
  8
AM_VIS
  5
3CB
 10
6.02473
 20
3.63362
 30
0.000000
  70
    32
  0
VERTEX
  8
AM_VIS
  5
3CC
 10
6.02458
 20
3.63391
 30
0.000000
  70
    32
  0
VERTEX
  8
AM_VIS
  5
3CD
 10
6.02444
 20
3.63421
 30
0.000000
  70
    32
  0
VERTEX
  8
AM_VIS
  5
3CE
 10
6.02430
 20
3.63451
 30
0.000000
  70
    32
  0
VERTEX
  8
AM_VIS
  5
3CF
 10
6.02415
 20
3.63480
 30
0.000000
  70
    32
  0
VERTEX
  8
AM_VIS
  5
3D0
 10
6.02401
 20
3.63510
 30
0.000000
  70
    32
  0
VERTEX
  8
AM_VIS
  5
3D1
 10
6.02387
 20
3.63540
 30
0.000000
  70
    32
  0
VERTEX
  8
AM_VIS
  5
3D2
 10
6.02373
 20
3.63570
 30
0.000000
  70
    32
  0
VERTEX
  8
AM_VIS
  5
3D3
 10
6.02359
 20
3.63600
 30
0.000000
  70
    32
  0
VERTEX
  8
AM_VIS
  5
3D4
 10
6.02346
 20
3.63630
 30
0.000000
  70
    32
  0
VERTEX
  8
AM_VIS
  5
3D5
 10
6.02332
 20
3.63660
 30
0.000000
  70
    32
  0
VERTEX
  8
AM_VIS
  5
3D6
 10
6.02319
 20
3.63690
 30
0.000000
  70
    32
  0
VERTEX
  8
AM_VIS
  5
3D7
 10
6.02305
 20
3.63720
 30
0.000000
  70
    32
  0
VERTEX
  8
AM_VIS
  5
3D8
 10
6.02292
 20
3.63751
 30
0.000000
  70
    32
  0
VERTEX
  8
AM_VIS
  5
3D9
 10
6.02279
 20
3.63781
 30
0.000000
  70
    32
  0
VERTEX
  8
AM_VIS
  5
3DA
 10
6.02266
 20
3.63812
 30
0.000000
  70
    32
  0
VERTEX
  8
AM_VIS
  5
3DB
 10
6.02253
 20
3.63842
 30
0.000000
  70
    32
  0
VERTEX
  8
AM_VIS
  5
3DC
 10
6.02240
 20
3.63873
 30
0.000000
  70
    32
  0
VERTEX
  8
AM_VIS
  5
3DD
 10
6.02228
 20
3.63903
 30
0.000000
  70
    32
  0
VERTEX
  8
AM_VIS
  5
3DE
 10
6.02215
 20
3.63934
 30
0.000000
  70
    32
  0
VERTEX
  8
AM_VIS
  5
3DF
 10
6.02203
 20
3.63965
 30
0.000000
  70
    32
  0
VERTEX
  8
AM_VIS
  5
3E0
 10
6.02190
 20
3.63996
 30
0.000000
  70
    32
  0
VERTEX
  8
AM_VIS
  5
3E1
 10
6.02178
 20
3.64027
 30
0.000000
  70
    32
  0
VERTEX
  8
AM_VIS
  5
3E2
 10
6.02166
 20
3.64058
 30
0.000000
  70
    32
  0
VERTEX
  8
AM_VIS
  5
3E3
 10
6.02154
 20
3.64089
 30
0.000000
  70
    32
  0
VERTEX
  8
AM_VIS
  5
3E4
 10
6.02142
 20
3.64120
 30
0.000000
  70
    32
  0
VERTEX
  8
AM_VIS
  5
3E5
 10
6.02131
 20
3.64151
 30
0.000000
  70
    32
  0
VERTEX
  8
AM_VIS
  5
3E6
 10
6.02119
 20
3.64182
 30
0.000000
  70
    32
  0
VERTEX
  8
AM_VIS
  5
3E7
 10
6.02107
 20
3.64213
 30
0.000000
  70
    32
  0
VERTEX
  8
AM_VIS
  5
3E8
 10
6.02096
 20
3.64244
 30
0.000000
  70
    32
  0
VERTEX
  8
AM_VIS
  5
3E9
 10
6.02085
 20
3.64276
 30
0.000000
  70
    32
  0
VERTEX
  8
AM_VIS
  5
3EA
 10
6.02074
 20
3.64307
 30
0.000000
  70
    32
  0
VERTEX
  8
AM_VIS
  5
3EB
 10
6.02063
 20
3.64338
 30
0.000000
  70
    32
  0
VERTEX
  8
AM_VIS
  5
3EC
 10
6.02052
 20
3.64370
 30
0.000000
  70
    32
  0
VERTEX
  8
AM_VIS
  5
3ED
 10
6.02041
 20
3.64401
 30
0.000000
  70
    32
  0
VERTEX
  8
AM_VIS
  5
3EE
 10
6.02031
 20
3.64432
 30
0.000000
  70
    32
  0
VERTEX
  8
AM_VIS
  5
3EF
 10
6.02020
 20
3.64464
 30
0.000000
  70
    32
  0
VERTEX
  8
AM_VIS
  5
3F0
 10
6.02010
 20
3.64495
 30
0.000000
  70
    32
  0
VERTEX
  8
AM_VIS
  5
3F1
 10
6.01999
 20
3.64527
 30
0.000000
  70
    32
  0
VERTEX
  8
AM_VIS
  5
3F2
 10
6.01989
 20
3.64559
 30
0.000000
  70
    32
  0
VERTEX
  8
AM_VIS
  5
3F3
 10
6.01979
 20
3.64590
 30
0.000000
  70
    32
  0
VERTEX
  8
AM_VIS
  5
3F4
 10
6.01969
 20
3.64622
 30
0.000000
  70
    32
  0
VERTEX
  8
AM_VIS
  5
3F5
 10
6.01959
 20
3.64654
 30
0.000000
  70
    32
  0
VERTEX
  8
AM_VIS
  5
3F6
 10
6.01950
 20
3.64685
 30
0.000000
  70
    32
  0
VERTEX
  8
AM_VIS
  5
3F7
 10
6.01940
 20
3.64717
 30
0.000000
  70
    32
  0
VERTEX
  8
AM_VIS
  5
3F8
 10
6.01931
 20
3.64749
 30
0.000000
  70
    32
  0
VERTEX
  8
AM_VIS
  5
3F9
 10
6.01921
 20
3.64781
 30
0.000000
  70
    32
  0
VERTEX
  8
AM_VIS
  5
3FA
 10
6.01912
 20
3.64812
 30
0.000000
  70
    32
  0
VERTEX
  8
AM_VIS
  5
3FB
 10
6.01903
 20
3.64844
 30
0.000000
  70
    32
  0
VERTEX
  8
AM_VIS
  5
3FC
 10
6.01894
 20
3.64876
 30
0.000000
  70
    32
  0
VERTEX
  8
AM_VIS
  5
3FD
 10
6.01885
 20
3.64908
 30
0.000000
  70
    32
  0
VERTEX
  8
AM_VIS
  5
3FE
 10
6.01876
 20
3.64940
 30
0.000000
  70
    32
  0
VERTEX
  8
AM_VIS
  5
3FF
 10
6.01868
 20
3.64972
 30
0.000000
  70
    32
  0
VERTEX
  8
AM_VIS
  5
400
 10
6.01859
 20
3.65004
 30
0.000000
  70
    32
  0
VERTEX
  8
AM_VIS
  5
401
 10
6.01851
 20
3.65036
 30
0.000000
  70
    32
  0
VERTEX
  8
AM_VIS
  5
402
 10
6.01842
 20
3.65068
 30
0.000000
  70
    32
  0
VERTEX
  8
AM_VIS
  5
403
 10
6.01834
 20
3.65101
 30
0.000000
  70
    32
  0
VERTEX
  8
AM_VIS
  5
404
 10
6.01826
 20
3.65133
 30
0.000000
  70
    32
  0
VERTEX
  8
AM_VIS
  5
405
 10
6.01818
 20
3.65165
 30
0.000000
  70
    32
  0
VERTEX
  8
AM_VIS
  5
406
 10
6.01810
 20
3.65197
 30
0.000000
  70
    32
  0
VERTEX
  8
AM_VIS
  5
407
 10
6.01802
 20
3.65229
 30
0.000000
  70
    32
  0
VERTEX
  8
AM_VIS
  5
408
 10
6.01794
 20
3.65262
 30
0.000000
  70
    32
  0
VERTEX
  8
AM_VIS
  5
409
 10
6.01787
 20
3.65294
 30
0.000000
  70
    32
  0
VERTEX
  8
AM_VIS
  5
40A
 10
6.01779
 20
3.65326
 30
0.000000
  70
    32
  0
VERTEX
  8
AM_VIS
  5
40B
 10
6.01772
 20
3.65359
 30
0.000000
  70
    32
  0
VERTEX
  8
AM_VIS
  5
40C
 10
6.01764
 20
3.65391
 30
0.000000
  70
    32
  0
VERTEX
  8
AM_VIS
  5
40D
 10
6.01757
 20
3.65424
 30
0.000000
  70
    32
  0
VERTEX
  8
AM_VIS
  5
40E
 10
6.01750
 20
3.65456
 30
0.000000
  70
    32
  0
VERTEX
  8
AM_VIS
  5
40F
 10
6.01743
 20
3.65489
 30
0.000000
  70
    32
  0
VERTEX
  8
AM_VIS
  5
410
 10
6.01736
 20
3.65521
 30
0.000000
  70
    32
  0
VERTEX
  8
AM_VIS
  5
411
 10
6.01729
 20
3.65554
 30
0.000000
  70
    32
  0
VERTEX
  8
AM_VIS
  5
412
 10
6.01723
 20
3.65586
 30
0.000000
  70
    32
  0
VERTEX
  8
AM_VIS
  5
413
 10
6.01716
 20
3.65619
 30
0.000000
  70
    32
  0
VERTEX
  8
AM_VIS
  5
414
 10
6.01710
 20
3.65651
 30
0.000000
  70
    32
  0
VERTEX
  8
AM_VIS
  5
415
 10
6.01703
 20
3.65684
 30
0.000000
  70
    32
  0
VERTEX
  8
AM_VIS
  5
416
 10
6.01697
 20
3.65717
 30
0.000000
  70
    32
  0
VERTEX
  8
AM_VIS
  5
417
 10
6.01691
 20
3.65749
 30
0.000000
  70
    32
  0
VERTEX
  8
AM_VIS
  5
418
 10
6.01685
 20
3.65782
 30
0.000000
  70
    32
  0
VERTEX
  8
AM_VIS
  5
419
 10
6.01679
 20
3.65815
 30
0.000000
  70
    32
  0
VERTEX
  8
AM_VIS
  5
41A
 10
6.01673
 20
3.65847
 30
0.000000
  70
    32
  0
VERTEX
  8
AM_VIS
  5
41B
 10
6.01667
 20
3.65880
 30
0.000000
  70
    32
  0
VERTEX
  8
AM_VIS
  5
41C
 10
6.01661
 20
3.65913
 30
0.000000
  70
    32
  0
VERTEX
  8
AM_VIS
  5
41D
 10
6.01656
 20
3.65946
 30
0.000000
  70
    32
  0
VERTEX
  8
AM_VIS
  5
41E
 10
6.01650
 20
3.65979
 30
0.000000
  70
    32
  0
VERTEX
  8
AM_VIS
  5
41F
 10
6.01645
 20
3.66012
 30
0.000000
  70
    32
  0
VERTEX
  8
AM_VIS
  5
420
 10
6.01639
 20
3.66044
 30
0.000000
  70
    32
  0
VERTEX
  8
AM_VIS
  5
421
 10
6.01634
 20
3.66077
 30
0.000000
  70
    32
  0
VERTEX
  8
AM_VIS
  5
422
 10
6.01629
 20
3.66110
 30
0.000000
  70
    32
  0
VERTEX
  8
AM_VIS
  5
423
 10
6.01624
 20
3.66143
 30
0.000000
  70
    32
  0
VERTEX
  8
AM_VIS
  5
424
 10
6.01619
 20
3.66176
 30
0.000000
  70
    32
  0
VERTEX
  8
AM_VIS
  5
425
 10
6.01614
 20
3.66209
 30
0.000000
  70
    32
  0
VERTEX
  8
AM_VIS
  5
426
 10
6.01609
 20
3.66242
 30
0.000000
  70
    32
  0
VERTEX
  8
AM_VIS
  5
427
 10
6.01604
 20
3.66275
 30
0.000000
  70
    32
  0
VERTEX
  8
AM_VIS
  5
428
 10
6.01600
 20
3.66308
 30
0.000000
  70
    32
  0
VERTEX
  8
AM_VIS
  5
429
 10
6.01595
 20
3.66341
 30
0.000000
  70
    32
  0
VERTEX
  8
AM_VIS
  5
42A
 10
6.01591
 20
3.66374
 30
0.000000
  70
    32
  0
VERTEX
  8
AM_VIS
  5
42B
 10
6.01587
 20
3.66407
 30
0.000000
  70
    32
  0
VERTEX
  8
AM_VIS
  5
42C
 10
6.01582
 20
3.66440
 30
0.000000
  70
    32
  0
VERTEX
  8
AM_VIS
  5
42D
 10
6.01578
 20
3.66473
 30
0.000000
  70
    32
  0
VERTEX
  8
AM_VIS
  5
42E
 10
6.01574
 20
3.66507
 30
0.000000
  70
    32
  0
VERTEX
  8
AM_VIS
  5
42F
 10
6.01570
 20
3.66540
 30
0.000000
  70
    32
  0
VERTEX
  8
AM_VIS
  5
430
 10
6.01566
 20
3.66573
 30
0.000000
  70
    32
  0
VERTEX
  8
AM_VIS
  5
431
 10
6.01562
 20
3.66606
 30
0.000000
  70
    32
  0
VERTEX
  8
AM_VIS
  5
432
 10
6.01559
 20
3.66639
 30
0.000000
  70
    32
  0
VERTEX
  8
AM_VIS
  5
433
 10
6.01555
 20
3.66673
 30
0.000000
  70
    32
  0
VERTEX
  8
AM_VIS
  5
434
 10
6.01551
 20
3.66706
 30
0.000000
  70
    32
  0
VERTEX
  8
AM_VIS
  5
435
 10
6.01548
 20
3.66739
 30
0.000000
  70
    32
  0
VERTEX
  8
AM_VIS
  5
436
 10
6.01544
 20
3.66772
 30
0.000000
  70
    32
  0
VERTEX
  8
AM_VIS
  5
437
 10
6.01541
 20
3.66805
 30
0.000000
  70
    32
  0
VERTEX
  8
AM_VIS
  5
438
 10
6.01538
 20
3.66839
 30
0.000000
  70
    32
  0
VERTEX
  8
AM_VIS
  5
439
 10
6.01535
 20
3.66872
 30
0.000000
  70
    32
  0
VERTEX
  8
AM_VIS
  5
43A
 10
6.01532
 20
3.66905
 30
0.000000
  70
    32
  0
VERTEX
  8
AM_VIS
  5
43B
 10
6.01529
 20
3.66939
 30
0.000000
  70
    32
  0
VERTEX
  8
AM_VIS
  5
43C
 10
6.01526
 20
3.66972
 30
0.000000
  70
    32
  0
VERTEX
  8
AM_VIS
  5
43D
 10
6.01523
 20
3.67005
 30
0.000000
  70
    32
  0
VERTEX
  8
AM_VIS
  5
43E
 10
6.01520
 20
3.67039
 30
0.000000
  70
    32
  0
VERTEX
  8
AM_VIS
  5
43F
 10
6.01517
 20
3.67072
 30
0.000000
  70
    32
  0
VERTEX
  8
AM_VIS
  5
440
 10
6.01515
 20
3.67105
 30
0.000000
  70
    32
  0
VERTEX
  8
AM_VIS
  5
441
 10
6.01512
 20
3.67139
 30
0.000000
  70
    32
  0
VERTEX
  8
AM_VIS
  5
442
 10
6.01510
 20
3.67172
 30
0.000000
  70
    32
  0
VERTEX
  8
AM_VIS
  5
443
 10
6.01508
 20
3.67205
 30
0.000000
  70
    32
  0
VERTEX
  8
AM_VIS
  5
444
 10
6.01505
 20
3.67239
 30
0.000000
  70
    32
  0
VERTEX
  8
AM_VIS
  5
445
 10
6.01503
 20
3.67272
 30
0.000000
  70
    32
  0
VERTEX
  8
AM_VIS
  5
446
 10
6.01501
 20
3.67306
 30
0.000000
  70
    32
  0
VERTEX
  8
AM_VIS
  5
447
 10
6.01499
 20
3.67339
 30
0.000000
  70
    32
  0
VERTEX
  8
AM_VIS
  5
448
 10
6.01497
 20
3.67372
 30
0.000000
  70
    32
  0
VERTEX
  8
AM_VIS
  5
449
 10
6.01495
 20
3.67406
 30
0.000000
  70
    32
  0
VERTEX
  8
AM_VIS
  5
44A
 10
6.01493
 20
3.67439
 30
0.000000
  70
    32
  0
VERTEX
  8
AM_VIS
  5
44B
 10
6.01491
 20
3.67473
 30
0.000000
  70
    32
  0
VERTEX
  8
AM_VIS
  5
44C
 10
6.01490
 20
3.67506
 30
0.000000
  70
    32
  0
VERTEX
  8
AM_VIS
  5
44D
 10
6.01488
 20
3.67540
 30
0.000000
  70
    32
  0
VERTEX
  8
AM_VIS
  5
44E
 10
6.01486
 20
3.67573
 30
0.000000
  70
    32
  0
VERTEX
  8
AM_VIS
  5
44F
 10
6.01485
 20
3.67607
 30
0.000000
  70
    32
  0
VERTEX
  8
AM_VIS
  5
450
 10
6.01484
 20
3.67640
 30
0.000000
  70
    32
  0
VERTEX
  8
AM_VIS
  5
451
 10
6.01482
 20
3.67674
 30
0.000000
  70
    32
  0
VERTEX
  8
AM_VIS
  5
452
 10
6.01481
 20
3.67707
 30
0.000000
  70
    32
  0
VERTEX
  8
AM_VIS
  5
453
 10
6.01480
 20
3.67741
 30
0.000000
  70
    32
  0
VERTEX
  8
AM_VIS
  5
454
 10
6.01479
 20
3.67774
 30
0.000000
  70
    32
  0
VERTEX
  8
AM_VIS
  5
455
 10
6.01478
 20
3.67808
 30
0.000000
  70
    32
  0
VERTEX
  8
AM_VIS
  5
456
 10
6.01477
 20
3.67841
 30
0.000000
  70
    32
  0
VERTEX
  8
AM_VIS
  5
457
 10
6.01476
 20
3.67875
 30
0.000000
  70
    32
  0
VERTEX
  8
AM_VIS
  5
458
 10
6.01475
 20
3.67908
 30
0.000000
  70
    32
  0
VERTEX
  8
AM_VIS
  5
459
 10
6.01474
 20
3.67942
 30
0.000000
  70
    32
  0
VERTEX
  8
AM_VIS
  5
45A
 10
6.01473
 20
3.67975
 30
0.000000
  70
    32
  0
VERTEX
  8
AM_VIS
  5
45B
 10
6.01473
 20
3.68009
 30
0.000000
  70
    32
  0
VERTEX
  8
AM_VIS
  5
45C
 10
6.01472
 20
3.68042
 30
0.000000
  70
    32
  0
VERTEX
  8
AM_VIS
  5
45D
 10
6.01471
 20
3.68076
 30
0.000000
  70
    32
  0
VERTEX
  8
AM_VIS
  5
45E
 10
6.01471
 20
3.68110
 30
0.000000
  70
    32
  0
VERTEX
  8
AM_VIS
  5
45F
 10
6.01471
 20
3.68143
 30
0.000000
  70
    32
  0
VERTEX
  8
AM_VIS
  5
460
 10
6.01470
 20
3.68177
 30
0.000000
  70
    32
  0
VERTEX
  8
AM_VIS
  5
461
 10
6.01470
 20
3.68210
 30
0.000000
  70
    32
  0
VERTEX
  8
AM_VIS
  5
462
 10
6.01470
 20
3.68244
 30
0.000000
  70
    32
  0
VERTEX
  8
AM_VIS
  5
463
 10
6.01470
 20
3.68277
 30
0.000000
  70
    32
  0
VERTEX
  8
AM_VIS
  5
464
 10
6.01469
 20
3.68311
 30
0.000000
  70
    32
  0
VERTEX
  8
AM_VIS
  5
465
 10
6.01469
 20
3.68345
 30
0.000000
  70
    32
  0
VERTEX
  8
AM_VIS
  5
466
 10
6.01469
 20
3.68378
 30
0.000000
  70
    32
  0
VERTEX
  8
AM_VIS
  5
467
 10
6.01470
 20
3.68412
 30
0.000000
  70
    32
  0
VERTEX
  8
AM_VIS
  5
468
 10
6.01470
 20
3.68445
 30
0.000000
  70
    32
  0
VERTEX
  8
AM_VIS
  5
469
 10
6.01470
 20
3.68479
 30
0.000000
  70
    32
  0
VERTEX
  8
AM_VIS
  5
46A
 10
6.01470
 20
3.68513
 30
0.000000
  70
    32
  0
VERTEX
  8
AM_VIS
  5
46B
 10
6.01470
 20
3.68546
 30
0.000000
  70
    32
  0
VERTEX
  8
AM_VIS
  5
46C
 10
6.01471
 20
3.68580
 30
0.000000
  70
    32
  0
VERTEX
  8
AM_VIS
  5
46D
 10
6.01471
 20
3.68614
 30
0.000000
  70
    32
  0
VERTEX
  8
AM_VIS
  5
46E
 10
6.01472
 20
3.68647
 30
0.000000
  70
    32
  0
VERTEX
  8
AM_VIS
  5
46F
 10
6.01472
 20
3.68681
 30
0.000000
  70
    32
  0
VERTEX
  8
AM_VIS
  5
470
 10
6.01473
 20
3.68714
 30
0.000000
  70
    32
  0
VERTEX
  8
AM_VIS
  5
471
 10
6.01474
 20
3.68748
 30
0.000000
  70
    32
  0
VERTEX
  8
AM_VIS
  5
472
 10
6.01474
 20
3.68782
 30
0.000000
  70
    32
  0
VERTEX
  8
AM_VIS
  5
473
 10
6.01475
 20
3.68815
 30
0.000000
  70
    32
  0
VERTEX
  8
AM_VIS
  5
474
 10
6.01476
 20
3.68849
 30
0.000000
  70
    32
  0
VERTEX
  8
AM_VIS
  5
475
 10
6.01477
 20
3.68883
 30
0.000000
  70
    32
  0
VERTEX
  8
AM_VIS
  5
476
 10
6.01478
 20
3.68916
 30
0.000000
  70
    32
  0
VERTEX
  8
AM_VIS
  5
477
 10
6.01479
 20
3.68950
 30
0.000000
  70
    32
  0
VERTEX
  8
AM_VIS
  5
478
 10
6.01480
 20
3.68984
 30
0.000000
  70
    32
  0
VERTEX
  8
AM_VIS
  5
479
 10
6.01481
 20
3.69017
 30
0.000000
  70
    32
  0
VERTEX
  8
AM_VIS
  5
47A
 10
6.01482
 20
3.69051
 30
0.000000
  70
    32
  0
VERTEX
  8
AM_VIS
  5
47B
 10
6.01483
 20
3.69085
 30
0.000000
  70
    32
  0
VERTEX
  8
AM_VIS
  5
47C
 10
6.01485
 20
3.69118
 30
0.000000
  70
    32
  0
VERTEX
  8
AM_VIS
  5
47D
 10
6.01486
 20
3.69152
 30
0.000000
  70
    32
  0
VERTEX
  8
AM_VIS
  5
47E
 10
6.01487
 20
3.69186
 30
0.000000
  70
    32
  0
VERTEX
  8
AM_VIS
  5
47F
 10
6.01489
 20
3.69219
 30
0.000000
  70
    32
  0
VERTEX
  8
AM_VIS
  5
480
 10
6.01490
 20
3.69253
 30
0.000000
  70
    32
  0
VERTEX
  8
AM_VIS
  5
481
 10
6.01492
 20
3.69287
 30
0.000000
  70
    32
  0
VERTEX
  8
AM_VIS
  5
482
 10
6.01493
 20
3.69321
 30
0.000000
  70
    32
  0
VERTEX
  8
AM_VIS
  5
483
 10
6.01495
 20
3.69354
 30
0.000000
  70
    32
  0
VERTEX
  8
AM_VIS
  5
484
 10
6.01496
 20
3.69388
 30
0.000000
  70
    32
  0
VERTEX
  8
AM_VIS
  5
485
 10
6.01498
 20
3.69422
 30
0.000000
  70
    32
  0
VERTEX
  8
AM_VIS
  5
486
 10
6.01500
 20
3.69455
 30
0.000000
  70
    32
  0
VERTEX
  8
AM_VIS
  5
487
 10
6.01502
 20
3.69489
 30
0.000000
  70
    32
  0
VERTEX
  8
AM_VIS
  5
488
 10
6.01504
 20
3.69523
 30
0.000000
  70
    32
  0
VERTEX
  8
AM_VIS
  5
489
 10
6.01506
 20
3.69556
 30
0.000000
  70
    32
  0
VERTEX
  8
AM_VIS
  5
48A
 10
6.01507
 20
3.69590
 30
0.000000
  70
    32
  0
VERTEX
  8
AM_VIS
  5
48B
 10
6.01509
 20
3.69624
 30
0.000000
  70
    32
  0
VERTEX
  8
AM_VIS
  5
48C
 10
6.01511
 20
3.69658
 30
0.000000
  70
    32
  0
VERTEX
  8
AM_VIS
  5
48D
 10
6.01514
 20
3.69691
 30
0.000000
  70
    32
  0
VERTEX
  8
AM_VIS
  5
48E
 10
6.01516
 20
3.69725
 30
0.000000
  70
    32
  0
VERTEX
  8
AM_VIS
  5
48F
 10
6.01518
 20
3.69759
 30
0.000000
  70
    32
  0
VERTEX
  8
AM_VIS
  5
490
 10
6.01520
 20
3.69792
 30
0.000000
  70
    32
  0
VERTEX
  8
AM_VIS
  5
491
 10
6.01522
 20
3.69826
 30
0.000000
  70
    32
  0
VERTEX
  8
AM_VIS
  5
492
 10
6.01525
 20
3.69860
 30
0.000000
  70
    32
  0
VERTEX
  8
AM_VIS
  5
493
 10
6.01527
 20
3.69894
 30
0.000000
  70
    32
  0
VERTEX
  8
AM_VIS
  5
494
 10
6.01529
 20
3.69927
 30
0.000000
  70
    32
  0
VERTEX
  8
AM_VIS
  5
495
 10
6.01532
 20
3.69961
 30
0.000000
  70
    32
  0
VERTEX
  8
AM_VIS
  5
496
 10
6.01534
 20
3.69995
 30
0.000000
  70
    32
  0
VERTEX
  8
AM_VIS
  5
497
 10
6.01537
 20
3.70029
 30
0.000000
  70
    32
  0
VERTEX
  8
AM_VIS
  5
498
 10
6.01540
 20
3.70062
 30
0.000000
  70
    32
  0
VERTEX
  8
AM_VIS
  5
499
 10
6.01542
 20
3.70096
 30
0.000000
  70
    32
  0
VERTEX
  8
AM_VIS
  5
49A
 10
6.01545
 20
3.70130
 30
0.000000
  70
    32
  0
VERTEX
  8
AM_VIS
  5
49B
 10
6.01547
 20
3.70164
 30
0.000000
  70
    32
  0
VERTEX
  8
AM_VIS
  5
49C
 10
6.01550
 20
3.70198
 30
0.000000
  70
    32
  0
VERTEX
  8
AM_VIS
  5
49D
 10
6.01553
 20
3.70232
 30
0.000000
  70
    32
  0
VERTEX
  8
AM_VIS
  5
49E
 10
6.01556
 20
3.70265
 30
0.000000
  70
    32
  0
VERTEX
  8
AM_VIS
  5
49F
 10
6.01559
 20
3.70299
 30
0.000000
  70
    32
  0
VERTEX
  8
AM_VIS
  5
4A0
 10
6.01562
 20
3.70333
 30
0.000000
  70
    32
  0
VERTEX
  8
AM_VIS
  5
4A1
 10
6.01565
 20
3.70367
 30
0.000000
  70
    32
  0
VERTEX
  8
AM_VIS
  5
4A2
 10
6.01568
 20
3.70401
 30
0.000000
  70
    32
  0
VERTEX
  8
AM_VIS
  5
4A3
 10
6.01571
 20
3.70435
 30
0.000000
  70
    32
  0
VERTEX
  8
AM_VIS
  5
4A4
 10
6.01574
 20
3.70469
 30
0.000000
  70
    32
  0
VERTEX
  8
AM_VIS
  5
4A5
 10
6.01577
 20
3.70503
 30
0.000000
  70
    32
  0
VERTEX
  8
AM_VIS
  5
4A6
 10
6.01580
 20
3.70537
 30
0.000000
  70
    32
  0
VERTEX
  8
AM_VIS
  5
4A7
 10
6.01583
 20
3.70571
 30
0.000000
  70
    32
  0
VERTEX
  8
AM_VIS
  5
4A8
 10
6.01586
 20
3.70604
 30
0.000000
  70
    32
  0
VERTEX
  8
AM_VIS
  5
4A9
 10
6.01590
 20
3.70638
 30
0.000000
  70
    32
  0
VERTEX
  8
AM_VIS
  5
4AA
 10
6.01593
 20
3.70672
 30
0.000000
  70
    32
  0
VERTEX
  8
AM_VIS
  5
4AB
 10
6.01596
 20
3.70706
 30
0.000000
  70
    32
  0
VERTEX
  8
AM_VIS
  5
4AC
 10
6.01600
 20
3.70740
 30
0.000000
  70
    32
  0
VERTEX
  8
AM_VIS
  5
4AD
 10
6.01603
 20
3.70774
 30
0.000000
  70
    32
  0
VERTEX
  8
AM_VIS
  5
4AE
 10
6.01606
 20
3.70808
 30
0.000000
  70
    32
  0
VERTEX
  8
AM_VIS
  5
4AF
 10
6.01610
 20
3.70842
 30
0.000000
  70
    32
  0
VERTEX
  8
AM_VIS
  5
4B0
 10
6.01613
 20
3.70876
 30
0.000000
  70
    32
  0
VERTEX
  8
AM_VIS
  5
4B1
 10
6.01617
 20
3.70910
 30
0.000000
  70
    32
  0
VERTEX
  8
AM_VIS
  5
4B2
 10
6.01621
 20
3.70944
 30
0.000000
  70
    32
  0
VERTEX
  8
AM_VIS
  5
4B3
 10
6.01624
 20
3.70978
 30
0.000000
  70
    32
  0
VERTEX
  8
AM_VIS
  5
4B4
 10
6.01628
 20
3.71012
 30
0.000000
  70
    32
  0
VERTEX
  8
AM_VIS
  5
4B5
 10
6.01632
 20
3.71046
 30
0.000000
  70
    32
  0
VERTEX
  8
AM_VIS
  5
4B6
 10
6.01635
 20
3.71080
 30
0.000000
  70
    32
  0
VERTEX
  8
AM_VIS
  5
4B7
 10
6.01639
 20
3.71114
 30
0.000000
  70
    32
  0
VERTEX
  8
AM_VIS
  5
4B8
 10
6.01643
 20
3.71147
 30
0.000000
  70
    32
  0
VERTEX
  8
AM_VIS
  5
4B9
 10
6.01647
 20
3.71181
 30
0.000000
  70
    32
  0
VERTEX
  8
AM_VIS
  5
4BA
 10
6.01650
 20
3.71215
 30
0.000000
  70
    32
  0
VERTEX
  8
AM_VIS
  5
4BB
 10
6.01654
 20
3.71249
 30
0.000000
  70
    32
  0
VERTEX
  8
AM_VIS
  5
4BC
 10
6.01658
 20
3.71283
 30
0.000000
  70
    32
  0
VERTEX
  8
AM_VIS
  5
4BD
 10
6.01662
 20
3.71317
 30
0.000000
  70
    32
  0
VERTEX
  8
AM_VIS
  5
4BE
 10
6.01666
 20
3.71351
 30
0.000000
  70
    32
  0
VERTEX
  8
AM_VIS
  5
4BF
 10
6.01670
 20
3.71385
 30
0.000000
  70
    32
  0
VERTEX
  8
AM_VIS
  5
4C0
 10
6.01674
 20
3.71419
 30
0.000000
  70
    32
  0
VERTEX
  8
AM_VIS
  5
4C1
 10
6.01678
 20
3.71453
 30
0.000000
  70
    32
  0
VERTEX
  8
AM_VIS
  5
4C2
 10
6.01682
 20
3.71487
 30
0.000000
  70
    32
  0
VERTEX
  8
AM_VIS
  5
4C3
 10
6.01687
 20
3.71521
 30
0.000000
  70
    32
  0
VERTEX
  8
AM_VIS
  5
4C4
 10
6.01691
 20
3.71555
 30
0.000000
  70
    32
  0
VERTEX
  8
AM_VIS
  5
4C5
 10
6.01695
 20
3.71589
 30
0.000000
  70
    32
  0
VERTEX
  8
AM_VIS
  5
4C6
 10
6.01699
 20
3.71623
 30
0.000000
  70
    32
  0
VERTEX
  8
AM_VIS
  5
4C7
 10
6.01703
 20
3.71656
 30
0.000000
  70
    32
  0
VERTEX
  8
AM_VIS
  5
4C8
 10
6.01708
 20
3.71690
 30
0.000000
  70
    32
  0
VERTEX
  8
AM_VIS
  5
4C9
 10
6.01712
 20
3.71724
 30
0.000000
  70
    32
  0
VERTEX
  8
AM_VIS
  5
4CA
 10
6.01716
 20
3.71758
 30
0.000000
  70
    32
  0
VERTEX
  8
AM_VIS
  5
4CB
 10
6.01721
 20
3.71792
 30
0.000000
  70
    32
  0
VERTEX
  8
AM_VIS
  5
4CC
 10
6.01725
 20
3.71826
 30
0.000000
  70
    32
  0
VERTEX
  8
AM_VIS
  5
4CD
 10
6.01729
 20
3.71860
 30
0.000000
  70
    32
  0
VERTEX
  8
AM_VIS
  5
4CE
 10
6.01734
 20
3.71894
 30
0.000000
  70
    32
  0
VERTEX
  8
AM_VIS
  5
4CF
 10
6.01738
 20
3.71927
 30
0.000000
  70
    32
  0
VERTEX
  8
AM_VIS
  5
4D0
 10
6.01743
 20
3.71961
 30
0.000000
  70
    32
  0
VERTEX
  8
AM_VIS
  5
4D1
 10
6.01747
 20
3.71995
 30
0.000000
  70
    32
  0
VERTEX
  8
AM_VIS
  5
4D2
 10
6.01752
 20
3.72029
 30
0.000000
  70
    32
  0
VERTEX
  8
AM_VIS
  5
4D3
 10
6.01756
 20
3.72063
 30
0.000000
  70
    32
  0
VERTEX
  8
AM_VIS
  5
4D4
 10
6.01761
 20
3.72097
 30
0.000000
  70
    32
  0
VERTEX
  8
AM_VIS
  5
4D5
 10
6.01766
 20
3.72130
 30
0.000000
  70
    32
  0
VERTEX
  8
AM_VIS
  5
4D6
 10
6.01770
 20
3.72164
 30
0.000000
  70
    32
  0
VERTEX
  8
AM_VIS
  5
4D7
 10
6.01775
 20
3.72198
 30
0.000000
  70
    32
  0
VERTEX
  8
AM_VIS
  5
4D8
 10
6.01780
 20
3.72232
 30
0.000000
  70
    32
  0
VERTEX
  8
AM_VIS
  5
4D9
 10
6.01784
 20
3.72265
 30
0.000000
  70
    32
  0
VERTEX
  8
AM_VIS
  5
4DA
 10
6.01789
 20
3.72299
 30
0.000000
  70
    32
  0
VERTEX
  8
AM_VIS
  5
4DB
 10
6.01794
 20
3.72333
 30
0.000000
  70
    32
  0
VERTEX
  8
AM_VIS
  5
4DC
 10
6.01799
 20
3.72367
 30
0.000000
  70
    32
  0
VERTEX
  8
AM_VIS
  5
4DD
 10
6.01803
 20
3.72400
 30
0.000000
  70
    32
  0
VERTEX
  8
AM_VIS
  5
4DE
 10
6.01808
 20
3.72434
 30
0.000000
  70
    32
  0
VERTEX
  8
AM_VIS
  5
4DF
 10
6.01813
 20
3.72468
 30
0.000000
  70
    32
  0
VERTEX
  8
AM_VIS
  5
4E0
 10
6.01818
 20
3.72502
 30
0.000000
  70
    32
  0
VERTEX
  8
AM_VIS
  5
4E1
 10
6.01823
 20
3.72535
 30
0.000000
  70
    32
  0
VERTEX
  8
AM_VIS
  5
4E2
 10
6.01828
 20
3.72569
 30
0.000000
  70
    32
  0
VERTEX
  8
AM_VIS
  5
4E3
 10
6.01833
 20
3.72603
 30
0.000000
  70
    32
  0
VERTEX
  8
AM_VIS
  5
4E4
 10
6.01838
 20
3.72637
 30
0.000000
  70
    32
  0
VERTEX
  8
AM_VIS
  5
4E5
 10
6.01843
 20
3.72671
 30
0.000000
  70
    32
  0
VERTEX
  8
AM_VIS
  5
4E6
 10
6.01848
 20
3.72705
 30
0.000000
  70
    32
  0
VERTEX
  8
AM_VIS
  5
4E7
 10
6.01853
 20
3.72739
 30
0.000000
  70
    32
  0
VERTEX
  8
AM_VIS
  5
4E8
 10
6.01858
 20
3.72773
 30
0.000000
  70
    32
  0
VERTEX
  8
AM_VIS
  5
4E9
 10
6.01863
 20
3.72807
 30
0.000000
  70
    32
  0
VERTEX
  8
AM_VIS
  5
4EA
 10
6.01868
 20
3.72841
 30
0.000000
  70
    32
  0
VERTEX
  8
AM_VIS
  5
4EB
 10
6.01873
 20
3.72875
 30
0.000000
  70
    32
  0
VERTEX
  8
AM_VIS
  5
4EC
 10
6.01878
 20
3.72909
 30
0.000000
  70
    32
  0
VERTEX
  8
AM_VIS
  5
4ED
 10
6.01884
 20
3.72943
 30
0.000000
  70
    32
  0
VERTEX
  8
AM_VIS
  5
4EE
 10
6.01889
 20
3.72977
 30
0.000000
  70
    32
  0
VERTEX
  8
AM_VIS
  5
4EF
 10
6.01894
 20
3.73012
 30
0.000000
  70
    32
  0
VERTEX
  8
AM_VIS
  5
4F0
 10
6.01899
 20
3.73046
 30
0.000000
  70
    32
  0
VERTEX
  8
AM_VIS
  5
4F1
 10
6.01905
 20
3.73080
 30
0.000000
  70
    32
  0
VERTEX
  8
AM_VIS
  5
4F2
 10
6.01910
 20
3.73114
 30
0.000000
  70
    32
  0
VERTEX
  8
AM_VIS
  5
4F3
 10
6.01915
 20
3.73149
 30
0.000000
  70
    32
  0
VERTEX
  8
AM_VIS
  5
4F4
 10
6.01921
 20
3.73183
 30
0.000000
  70
    32
  0
VERTEX
  8
AM_VIS
  5
4F5
 10
6.01926
 20
3.73217
 30
0.000000
  70
    32
  0
VERTEX
  8
AM_VIS
  5
4F6
 10
6.01932
 20
3.73252
 30
0.000000
  70
    32
  0
VERTEX
  8
AM_VIS
  5
4F7
 10
6.01937
 20
3.73286
 30
0.000000
  70
    32
  0
VERTEX
  8
AM_VIS
  5
4F8
 10
6.01942
 20
3.73321
 30
0.000000
  70
    32
  0
VERTEX
  8
AM_VIS
  5
4F9
 10
6.01948
 20
3.73355
 30
0.000000
  70
    32
  0
VERTEX
  8
AM_VIS
  5
4FA
 10
6.01953
 20
3.73390
 30
0.000000
  70
    32
  0
VERTEX
  8
AM_VIS
  5
4FB
 10
6.01959
 20
3.73424
 30
0.000000
  70
    32
  0
VERTEX
  8
AM_VIS
  5
4FC
 10
6.01965
 20
3.73459
 30
0.000000
  70
    32
  0
VERTEX
  8
AM_VIS
  5
4FD
 10
6.01970
 20
3.73494
 30
0.000000
  70
    32
  0
VERTEX
  8
AM_VIS
  5
4FE
 10
6.01976
 20
3.73528
 30
0.000000
  70
    32
  0
VERTEX
  8
AM_VIS
  5
4FF
 10
6.01981
 20
3.73563
 30
0.000000
  70
    32
  0
VERTEX
  8
AM_VIS
  5
500
 10
6.01987
 20
3.73598
 30
0.000000
  70
    32
  0
VERTEX
  8
AM_VIS
  5
501
 10
6.01993
 20
3.73632
 30
0.000000
  70
    32
  0
VERTEX
  8
AM_VIS
  5
502
 10
6.01998
 20
3.73667
 30
0.000000
  70
    32
  0
VERTEX
  8
AM_VIS
  5
503
 10
6.02004
 20
3.73702
 30
0.000000
  70
    32
  0
VERTEX
  8
AM_VIS
  5
504
 10
6.02010
 20
3.73737
 30
0.000000
  70
    32
  0
VERTEX
  8
AM_VIS
  5
505
 10
6.02016
 20
3.73771
 30
0.000000
  70
    32
  0
VERTEX
  8
AM_VIS
  5
506
 10
6.02021
 20
3.73806
 30
0.000000
  70
    32
  0
VERTEX
  8
AM_VIS
  5
507
 10
6.02027
 20
3.73841
 30
0.000000
  70
    32
  0
VERTEX
  8
AM_VIS
  5
508
 10
6.02033
 20
3.73876
 30
0.000000
  70
    32
  0
VERTEX
  8
AM_VIS
  5
509
 10
6.02039
 20
3.73911
 30
0.000000
  70
    32
  0
VERTEX
  8
AM_VIS
  5
50A
 10
6.02045
 20
3.73946
 30
0.000000
  70
    32
  0
VERTEX
  8
AM_VIS
  5
50B
 10
6.02051
 20
3.73981
 30
0.000000
  70
    32
  0
VERTEX
  8
AM_VIS
  5
50C
 10
6.02056
 20
3.74016
 30
0.000000
  70
    32
  0
VERTEX
  8
AM_VIS
  5
50D
 10
6.02062
 20
3.74051
 30
0.000000
  70
    32
  0
VERTEX
  8
AM_VIS
  5
50E
 10
6.02068
 20
3.74086
 30
0.000000
  70
    32
  0
VERTEX
  8
AM_VIS
  5
50F
 10
6.02074
 20
3.74121
 30
0.000000
  70
    32
  0
VERTEX
  8
AM_VIS
  5
510
 10
6.02080
 20
3.74156
 30
0.000000
  70
    32
  0
VERTEX
  8
AM_VIS
  5
511
 10
6.02086
 20
3.74192
 30
0.000000
  70
    32
  0
VERTEX
  8
AM_VIS
  5
512
 10
6.02092
 20
3.74227
 30
0.000000
  70
    32
  0
VERTEX
  8
AM_VIS
  5
513
 10
6.02098
 20
3.74262
 30
0.000000
  70
    32
  0
VERTEX
  8
AM_VIS
  5
514
 10
6.02104
 20
3.74297
 30
0.000000
  70
    32
  0
VERTEX
  8
AM_VIS
  5
515
 10
6.02110
 20
3.74333
 30
0.000000
  70
    32
  0
VERTEX
  8
AM_VIS
  5
516
 10
6.02116
 20
3.74368
 30
0.000000
  70
    32
  0
VERTEX
  8
AM_VIS
  5
517
 10
6.02123
 20
3.74403
 30
0.000000
  70
    32
  0
VERTEX
  8
AM_VIS
  5
518
 10
6.02129
 20
3.74439
 30
0.000000
  70
    32
  0
VERTEX
  8
AM_VIS
  5
519
 10
6.02135
 20
3.74474
 30
0.000000
  70
    32
  0
VERTEX
  8
AM_VIS
  5
51A
 10
6.02141
 20
3.74509
 30
0.000000
  70
    32
  0
VERTEX
  8
AM_VIS
  5
51B
 10
6.02147
 20
3.74545
 30
0.000000
  70
    32
  0
VERTEX
  8
AM_VIS
  5
51C
 10
6.02153
 20
3.74580
 30
0.000000
  70
    32
  0
VERTEX
  8
AM_VIS
  5
51D
 10
6.02160
 20
3.74616
 30
0.000000
  70
    32
  0
VERTEX
  8
AM_VIS
  5
51E
 10
6.02166
 20
3.74651
 30
0.000000
  70
    32
  0
VERTEX
  8
AM_VIS
  5
51F
 10
6.02172
 20
3.74687
 30
0.000000
  70
    32
  0
VERTEX
  8
AM_VIS
  5
520
 10
6.02178
 20
3.74723
 30
0.000000
  70
    32
  0
VERTEX
  8
AM_VIS
  5
521
 10
6.02185
 20
3.74758
 30
0.000000
  70
    32
  0
VERTEX
  8
AM_VIS
  5
522
 10
6.02191
 20
3.74794
 30
0.000000
  70
    32
  0
VERTEX
  8
AM_VIS
  5
523
 10
6.02197
 20
3.74830
 30
0.000000
  70
    32
  0
VERTEX
  8
AM_VIS
  5
524
 10
6.02203
 20
3.74865
 30
0.000000
  70
    32
  0
VERTEX
  8
AM_VIS
  5
525
 10
6.02210
 20
3.74901
 30
0.000000
  70
    32
  0
VERTEX
  8
AM_VIS
  5
526
 10
6.02216
 20
3.74937
 30
0.000000
  70
    32
  0
VERTEX
  8
AM_VIS
  5
527
 10
6.02222
 20
3.74973
 30
0.000000
  70
    32
  0
VERTEX
  8
AM_VIS
  5
528
 10
6.02229
 20
3.75008
 30
0.000000
  70
    32
  0
VERTEX
  8
AM_VIS
  5
529
 10
6.02235
 20
3.75044
 30
0.000000
  70
    32
  0
VERTEX
  8
AM_VIS
  5
52A
 10
6.02242
 20
3.75080
 30
0.000000
  70
    32
  0
VERTEX
  8
AM_VIS
  5
52B
 10
6.02248
 20
3.75116
 30
0.000000
  70
    32
  0
VERTEX
  8
AM_VIS
  5
52C
 10
6.02255
 20
3.75152
 30
0.000000
  70
    32
  0
VERTEX
  8
AM_VIS
  5
52D
 10
6.02261
 20
3.75188
 30
0.000000
  70
    32
  0
VERTEX
  8
AM_VIS
  5
52E
 10
6.02267
 20
3.75224
 30
0.000000
  70
    32
  0
VERTEX
  8
AM_VIS
  5
52F
 10
6.02274
 20
3.75260
 30
0.000000
  70
    32
  0
VERTEX
  8
AM_VIS
  5
530
 10
6.02280
 20
3.75296
 30
0.000000
  70
    32
  0
VERTEX
  8
AM_VIS
  5
531
 10
6.02287
 20
3.75332
 30
0.000000
  70
    32
  0
VERTEX
  8
AM_VIS
  5
532
 10
6.02293
 20
3.75368
 30
0.000000
  70
    32
  0
VERTEX
  8
AM_VIS
  5
533
 10
6.02300
 20
3.75404
 30
0.000000
  70
    32
  0
VERTEX
  8
AM_VIS
  5
534
 10
6.02307
 20
3.75440
 30
0.000000
  70
    32
  0
VERTEX
  8
AM_VIS
  5
535
 10
6.02313
 20
3.75477
 30
0.000000
  70
    32
  0
VERTEX
  8
AM_VIS
  5
536
 10
6.02320
 20
3.75513
 30
0.000000
  70
    32
  0
VERTEX
  8
AM_VIS
  5
537
 10
6.02326
 20
3.75549
 30
0.000000
  70
    32
  0
VERTEX
  8
AM_VIS
  5
538
 10
6.02333
 20
3.75585
 30
0.000000
  70
    32
  0
VERTEX
  8
AM_VIS
  5
539
 10
6.02340
 20
3.75622
 30
0.000000
  70
    32
  0
VERTEX
  8
AM_VIS
  5
53A
 10
6.02346
 20
3.75658
 30
0.000000
  70
    32
  0
VERTEX
  8
AM_VIS
  5
53B
 10
6.02353
 20
3.75694
 30
0.000000
  70
    32
  0
VERTEX
  8
AM_VIS
  5
53C
 10
6.02359
 20
3.75731
 30
0.000000
  70
    32
  0
VERTEX
  8
AM_VIS
  5
53D
 10
6.02366
 20
3.75767
 30
0.000000
  70
    32
  0
VERTEX
  8
AM_VIS
  5
53E
 10
6.02373
 20
3.75804
 30
0.000000
  70
    32
  0
VERTEX
  8
AM_VIS
  5
53F
 10
6.02379
 20
3.75840
 30
0.000000
  70
    32
  0
VERTEX
  8
AM_VIS
  5
540
 10
6.02386
 20
3.75877
 30
0.000000
  70
    32
  0
VERTEX
  8
AM_VIS
  5
541
 10
6.02393
 20
3.75913
 30
0.000000
  70
    32
  0
VERTEX
  8
AM_VIS
  5
542
 10
6.02400
 20
3.75950
 30
0.000000
  70
    32
  0
VERTEX
  8
AM_VIS
  5
543
 10
6.02406
 20
3.75986
 30
0.000000
  70
    32
  0
VERTEX
  8
AM_VIS
  5
544
 10
6.02413
 20
3.76023
 30
0.000000
  70
    32
  0
VERTEX
  8
AM_VIS
  5
545
 10
6.02420
 20
3.76059
 30
0.000000
  70
    32
  0
VERTEX
  8
AM_VIS
  5
546
 10
6.02427
 20
3.76096
 30
0.000000
  70
    32
  0
VERTEX
  8
AM_VIS
  5
547
 10
6.02433
 20
3.76133
 30
0.000000
  70
    32
  0
VERTEX
  8
AM_VIS
  5
548
 10
6.02440
 20
3.76170
 30
0.000000
  70
    32
  0
VERTEX
  8
AM_VIS
  5
549
 10
6.02447
 20
3.76206
 30
0.000000
  70
    32
  0
VERTEX
  8
AM_VIS
  5
54A
 10
6.02454
 20
3.76243
 30
0.000000
  70
    32
  0
VERTEX
  8
AM_VIS
  5
54B
 10
6.02461
 20
3.76280
 30
0.000000
  70
    32
  0
VERTEX
  8
AM_VIS
  5
54C
 10
6.02467
 20
3.76317
 30
0.000000
  70
    32
  0
VERTEX
  8
AM_VIS
  5
54D
 10
6.02474
 20
3.76354
 30
0.000000
  70
    32
  0
VERTEX
  8
AM_VIS
  5
54E
 10
6.02481
 20
3.76390
 30
0.000000
  70
    32
  0
VERTEX
  8
AM_VIS
  5
54F
 10
6.02488
 20
3.76427
 30
0.000000
  70
    32
  0
VERTEX
  8
AM_VIS
  5
550
 10
6.02495
 20
3.76464
 30
0.000000
  70
    32
  0
VERTEX
  8
AM_VIS
  5
551
 10
6.02502
 20
3.76501
 30
0.000000
  70
    32
  0
VERTEX
  8
AM_VIS
  5
552
 10
6.02508
 20
3.76538
 30
0.000000
  70
    32
  0
VERTEX
  8
AM_VIS
  5
553
 10
6.02515
 20
3.76575
 30
0.000000
  70
    32
  0
VERTEX
  8
AM_VIS
  5
554
 10
6.02522
 20
3.76612
 30
0.000000
  70
    32
  0
VERTEX
  8
AM_VIS
  5
555
 10
6.02529
 20
3.76649
 30
0.000000
  70
    32
  0
VERTEX
  8
AM_VIS
  5
556
 10
6.02536
 20
3.76687
 30
0.000000
  70
    32
  0
VERTEX
  8
AM_VIS
  5
557
 10
6.02543
 20
3.76724
 30
0.000000
  70
    32
  0
VERTEX
  8
AM_VIS
  5
558
 10
6.02550
 20
3.76761
 30
0.000000
  70
    32
  0
VERTEX
  8
AM_VIS
  5
559
 10
6.02557
 20
3.76798
 30
0.000000
  70
    32
  0
VERTEX
  8
AM_VIS
  5
55A
 10
6.02564
 20
3.76835
 30
0.000000
  70
    32
  0
VERTEX
  8
AM_VIS
  5
55B
 10
6.02571
 20
3.76873
 30
0.000000
  70
    32
  0
VERTEX
  8
AM_VIS
  5
55C
 10
6.02578
 20
3.76910
 30
0.000000
  70
    32
  0
VERTEX
  8
AM_VIS
  5
55D
 10
6.02585
 20
3.76947
 30
0.000000
  70
    32
  0
VERTEX
  8
AM_VIS
  5
55E
 10
6.02592
 20
3.76985
 30
0.000000
  70
    32
  0
VERTEX
  8
AM_VIS
  5
55F
 10
6.02598
 20
3.77022
 30
0.000000
  70
    32
  0
VERTEX
  8
AM_VIS
  5
560
 10
6.02605
 20
3.77059
 30
0.000000
  70
    32
  0
VERTEX
  8
AM_VIS
  5
561
 10
6.02612
 20
3.77097
 30
0.000000
  70
    32
  0
VERTEX
  8
AM_VIS
  5
562
 10
6.02619
 20
3.77134
 30
0.000000
  70
    32
  0
VERTEX
  8
AM_VIS
  5
563
 10
6.02626
 20
3.77172
 30
0.000000
  70
    32
  0
VERTEX
  8
AM_VIS
  5
564
 10
6.02633
 20
3.77209
 30
0.000000
  70
    32
  0
VERTEX
  8
AM_VIS
  5
565
 10
6.02640
 20
3.77247
 30
0.000000
  70
    32
  0
VERTEX
  8
AM_VIS
  5
566
 10
6.02647
 20
3.77284
 30
0.000000
  70
    32
  0
VERTEX
  8
AM_VIS
  5
567
 10
6.02654
 20
3.77322
 30
0.000000
  70
    32
  0
VERTEX
  8
AM_VIS
  5
568
 10
6.02661
 20
3.77359
 30
0.000000
  70
    32
  0
VERTEX
  8
AM_VIS
  5
569
 10
6.02668
 20
3.77397
 30
0.000000
  70
    32
  0
VERTEX
  8
AM_VIS
  5
56A
 10
6.02675
 20
3.77435
 30
0.000000
  70
    32
  0
VERTEX
  8
AM_VIS
  5
56B
 10
6.02683
 20
3.77472
 30
0.000000
  70
    32
  0
VERTEX
  8
AM_VIS
  5
56C
 10
6.02690
 20
3.77510
 30
0.000000
  70
    32
  0
VERTEX
  8
AM_VIS
  5
56D
 10
6.02697
 20
3.77548
 30
0.000000
  70
    32
  0
VERTEX
  8
AM_VIS
  5
56E
 10
6.02704
 20
3.77586
 30
0.000000
  70
    32
  0
VERTEX
  8
AM_VIS
  5
56F
 10
6.02711
 20
3.77624
 30
0.000000
  70
    32
  0
VERTEX
  8
AM_VIS
  5
570
 10
6.02718
 20
3.77661
 30
0.000000
  70
    32
  0
VERTEX
  8
AM_VIS
  5
571
 10
6.02725
 20
3.77699
 30
0.000000
  70
    32
  0
VERTEX
  8
AM_VIS
  5
572
 10
6.02732
 20
3.77737
 30
0.000000
  70
    32
  0
VERTEX
  8
AM_VIS
  5
573
 10
6.02739
 20
3.77775
 30
0.000000
  70
    32
  0
VERTEX
  8
AM_VIS
  5
574
 10
6.02746
 20
3.77813
 30
0.000000
  70
    32
  0
VERTEX
  8
AM_VIS
  5
575
 10
6.02753
 20
3.77851
 30
0.000000
  70
    32
  0
VERTEX
  8
AM_VIS
  5
576
 10
6.02760
 20
3.77889
 30
0.000000
  70
    32
  0
VERTEX
  8
AM_VIS
  5
577
 10
6.02767
 20
3.77927
 30
0.000000
  70
    32
  0
VERTEX
  8
AM_VIS
  5
578
 10
6.02774
 20
3.77965
 30
0.000000
  70
    32
  0
VERTEX
  8
AM_VIS
  5
579
 10
6.02781
 20
3.78003
 30
0.000000
  70
    32
  0
VERTEX
  8
AM_VIS
  5
57A
 10
6.02788
 20
3.78041
 30
0.000000
  70
    32
  0
VERTEX
  8
AM_VIS
  5
57B
 10
6.02795
 20
3.78080
 30
0.000000
  70
    32
  0
VERTEX
  8
AM_VIS
  5
57C
 10
6.02802
 20
3.78118
 30
0.000000
  70
    32
  0
VERTEX
  8
AM_VIS
  5
57D
 10
6.02810
 20
3.78156
 30
0.000000
  70
    32
  0
VERTEX
  8
AM_VIS
  5
57E
 10
6.02817
 20
3.78194
 30
0.000000
  70
    32
  0
VERTEX
  8
AM_VIS
  5
57F
 10
6.02824
 20
3.78232
 30
0.000000
  70
    32
  0
VERTEX
  8
AM_VIS
  5
580
 10
6.02831
 20
3.78271
 30
0.000000
  70
    32
  0
VERTEX
  8
AM_VIS
  5
581
 10
6.02838
 20
3.78309
 30
0.000000
  70
    32
  0
VERTEX
  8
AM_VIS
  5
582
 10
6.02845
 20
3.78347
 30
0.000000
  70
    32
  0
VERTEX
  8
AM_VIS
  5
583
 10
6.02852
 20
3.78386
 30
0.000000
  70
    32
  0
VERTEX
  8
AM_VIS
  5
584
 10
6.02859
 20
3.78424
 30
0.000000
  70
    32
  0
VERTEX
  8
AM_VIS
  5
585
 10
6.02866
 20
3.78463
 30
0.000000
  70
    32
  0
VERTEX
  8
AM_VIS
  5
586
 10
6.02873
 20
3.78501
 30
0.000000
  70
    32
  0
VERTEX
  8
AM_VIS
  5
587
 10
6.02880
 20
3.78539
 30
0.000000
  70
    32
  0
VERTEX
  8
AM_VIS
  5
588
 10
6.02887
 20
3.78578
 30
0.000000
  70
    32
  0
VERTEX
  8
AM_VIS
  5
589
 10
6.02895
 20
3.78617
 30
0.000000
  70
    32
  0
VERTEX
  8
AM_VIS
  5
58A
 10
6.02902
 20
3.78655
 30
0.000000
  70
    32
  0
VERTEX
  8
AM_VIS
  5
58B
 10
6.02909
 20
3.78694
 30
0.000000
  70
    32
  0
VERTEX
  8
AM_VIS
  5
58C
 10
6.02916
 20
3.78732
 30
0.000000
  70
    32
  0
VERTEX
  8
AM_VIS
  5
58D
 10
6.02923
 20
3.78771
 30
0.000000
  70
    32
  0
VERTEX
  8
AM_VIS
  5
58E
 10
6.02930
 20
3.78810
 30
0.000000
  70
    32
  0
VERTEX
  8
AM_VIS
  5
58F
 10
6.02937
 20
3.78848
 30
0.000000
  70
    32
  0
VERTEX
  8
AM_VIS
  5
590
 10
6.02944
 20
3.78887
 30
0.000000
  70
    32
  0
VERTEX
  8
AM_VIS
  5
591
 10
6.02951
 20
3.78926
 30
0.000000
  70
    32
  0
VERTEX
  8
AM_VIS
  5
592
 10
6.02958
 20
3.78965
 30
0.000000
  70
    32
  0
VERTEX
  8
AM_VIS
  5
593
 10
6.02965
 20
3.79003
 30
0.000000
  70
    32
  0
VERTEX
  8
AM_VIS
  5
594
 10
6.02972
 20
3.79042
 30
0.000000
  70
    32
  0
VERTEX
  8
AM_VIS
  5
595
 10
6.02979
 20
3.79081
 30
0.000000
  70
    32
  0
VERTEX
  8
AM_VIS
  5
596
 10
6.02986
 20
3.79120
 30
0.000000
  70
    32
  0
VERTEX
  8
AM_VIS
  5
597
 10
6.02993
 20
3.79159
 30
0.000000
  70
    32
  0
VERTEX
  8
AM_VIS
  5
598
 10
6.03001
 20
3.79198
 30
0.000000
  70
    32
  0
VERTEX
  8
AM_VIS
  5
599
 10
6.03008
 20
3.79237
 30
0.000000
  70
    32
  0
VERTEX
  8
AM_VIS
  5
59A
 10
6.03015
 20
3.79276
 30
0.000000
  70
    32
  0
VERTEX
  8
AM_VIS
  5
59B
 10
6.03022
 20
3.79315
 30
0.000000
  70
    32
  0
VERTEX
  8
AM_VIS
  5
59C
 10
6.03029
 20
3.79354
 30
0.000000
  70
    32
  0
VERTEX
  8
AM_VIS
  5
59D
 10
6.03036
 20
3.79393
 30
0.000000
  70
    32
  0
VERTEX
  8
AM_VIS
  5
59E
 10
6.03043
 20
3.79432
 30
0.000000
  70
    32
  0
VERTEX
  8
AM_VIS
  5
59F
 10
6.03050
 20
3.79471
 30
0.000000
  70
    32
  0
VERTEX
  8
AM_VIS
  5
5A0
 10
6.03057
 20
3.79511
 30
0.000000
  70
    32
  0
VERTEX
  8
AM_VIS
  5
5A1
 10
6.03064
 20
3.79550
 30
0.000000
  70
    32
  0
VERTEX
  8
AM_VIS
  5
5A2
 10
6.03071
 20
3.79589
 30
0.000000
  70
    32
  0
VERTEX
  8
AM_VIS
  5
5A3
 10
6.03078
 20
3.79628
 30
0.000000
  70
    32
  0
VERTEX
  8
AM_VIS
  5
5A4
 10
6.03085
 20
3.79668
 30
0.000000
  70
    32
  0
VERTEX
  8
AM_VIS
  5
5A5
 10
6.03092
 20
3.79707
 30
0.000000
  70
    32
  0
VERTEX
  8
AM_VIS
  5
5A6
 10
6.03099
 20
3.79746
 30
0.000000
  70
    32
  0
VERTEX
  8
AM_VIS
  5
5A7
 10
6.03106
 20
3.79786
 30
0.000000
  70
    32
  0
VERTEX
  8
AM_VIS
  5
5A8
 10
6.03113
 20
3.79825
 30
0.000000
  70
    32
  0
VERTEX
  8
AM_VIS
  5
5A9
 10
6.03120
 20
3.79864
 30
0.000000
  70
    32
  0
VERTEX
  8
AM_VIS
  5
5AA
 10
6.03127
 20
3.79904
 30
0.000000
  70
    32
  0
VERTEX
  8
AM_VIS
  5
5AB
 10
6.03134
 20
3.79943
 30
0.000000
  70
    32
  0
VERTEX
  8
AM_VIS
  5
5AC
 10
6.03141
 20
3.79983
 30
0.000000
  70
    32
  0
VERTEX
  8
AM_VIS
  5
5AD
 10
6.03148
 20
3.80022
 30
0.000000
  70
    32
  0
VERTEX
  8
AM_VIS
  5
5AE
 10
6.03155
 20
3.80062
 30
0.000000
  70
    32
  0
VERTEX
  8
AM_VIS
  5
5AF
 10
6.03161
 20
3.80102
 30
0.000000
  70
    32
  0
VERTEX
  8
AM_VIS
  5
5B0
 10
6.03168
 20
3.80141
 30
0.000000
  70
    32
  0
VERTEX
  8
AM_VIS
  5
5B1
 10
6.03175
 20
3.80181
 30
0.000000
  70
    32
  0
VERTEX
  8
AM_VIS
  5
5B2
 10
6.03182
 20
3.80220
 30
0.000000
  70
    32
  0
VERTEX
  8
AM_VIS
  5
5B3
 10
6.03189
 20
3.80260
 30
0.000000
  70
    32
  0
VERTEX
  8
AM_VIS
  5
5B4
 10
6.03196
 20
3.80300
 30
0.000000
  70
    32
  0
VERTEX
  8
AM_VIS
  5
5B5
 10
6.03203
 20
3.80340
 30
0.000000
  70
    32
  0
VERTEX
  8
AM_VIS
  5
5B6
 10
6.03210
 20
3.80379
 30
0.000000
  70
    32
  0
VERTEX
  8
AM_VIS
  5
5B7
 10
6.03217
 20
3.80419
 30
0.000000
  70
    32
  0
VERTEX
  8
AM_VIS
  5
5B8
 10
6.03224
 20
3.80459
 30
0.000000
  70
    32
  0
VERTEX
  8
AM_VIS
  5
5B9
 10
6.03230
 20
3.80499
 30
0.000000
  70
    32
  0
VERTEX
  8
AM_VIS
  5
5BA
 10
6.03237
 20
3.80539
 30
0.000000
  70
    32
  0
VERTEX
  8
AM_VIS
  5
5BB
 10
6.03244
 20
3.80579
 30
0.000000
  70
    32
  0
VERTEX
  8
AM_VIS
  5
5BC
 10
6.03251
 20
3.80619
 30
0.000000
  70
    32
  0
VERTEX
  8
AM_VIS
  5
5BD
 10
6.03258
 20
3.80659
 30
0.000000
  70
    32
  0
VERTEX
  8
AM_VIS
  5
5BE
 10
6.03265
 20
3.80699
 30
0.000000
  70
    32
  0
VERTEX
  8
AM_VIS
  5
5BF
 10
6.03271
 20
3.80739
 30
0.000000
  70
    32
  0
VERTEX
  8
AM_VIS
  5
5C0
 10
6.03278
 20
3.80779
 30
0.000000
  70
    32
  0
VERTEX
  8
AM_VIS
  5
5C1
 10
6.03285
 20
3.80819
 30
0.000000
  70
    32
  0
VERTEX
  8
AM_VIS
  5
5C2
 10
6.03292
 20
3.80859
 30
0.000000
  70
    32
  0
VERTEX
  8
AM_VIS
  5
5C3
 10
6.03298
 20
3.80899
 30
0.000000
  70
    32
  0
VERTEX
  8
AM_VIS
  5
5C4
 10
6.03305
 20
3.80939
 30
0.000000
  70
    32
  0
VERTEX
  8
AM_VIS
  5
5C5
 10
6.03312
 20
3.80979
 30
0.000000
  70
    32
  0
VERTEX
  8
AM_VIS
  5
5C6
 10
6.03319
 20
3.81020
 30
0.000000
  70
    32
  0
VERTEX
  8
AM_VIS
  5
5C7
 10
6.03325
 20
3.81060
 30
0.000000
  70
    32
  0
VERTEX
  8
AM_VIS
  5
5C8
 10
6.03332
 20
3.81100
 30
0.000000
  70
    32
  0
VERTEX
  8
AM_VIS
  5
5C9
 10
6.03339
 20
3.81141
 30
0.000000
  70
    32
  0
VERTEX
  8
AM_VIS
  5
5CA
 10
6.03345
 20
3.81181
 30
0.000000
  70
    32
  0
VERTEX
  8
AM_VIS
  5
5CB
 10
6.03352
 20
3.81221
 30
0.000000
  70
    32
  0
VERTEX
  8
AM_VIS
  5
5CC
 10
6.03359
 20
3.81262
 30
0.000000
  70
    32
  0
VERTEX
  8
AM_VIS
  5
5CD
 10
6.03365
 20
3.81302
 30
0.000000
  70
    32
  0
VERTEX
  8
AM_VIS
  5
5CE
 10
6.03372
 20
3.81342
 30
0.000000
  70
    32
  0
VERTEX
  8
AM_VIS
  5
5CF
 10
6.03379
 20
3.81383
 30
0.000000
  70
    32
  0
VERTEX
  8
AM_VIS
  5
5D0
 10
6.03385
 20
3.81423
 30
0.000000
  70
    32
  0
VERTEX
  8
AM_VIS
  5
5D1
 10
6.03392
 20
3.81464
 30
0.000000
  70
    32
  0
VERTEX
  8
AM_VIS
  5
5D2
 10
6.03399
 20
3.81505
 30
0.000000
  70
    32
  0
VERTEX
  8
AM_VIS
  5
5D3
 10
6.03405
 20
3.81545
 30
0.000000
  70
    32
  0
VERTEX
  8
AM_VIS
  5
5D4
 10
6.03412
 20
3.81586
 30
0.000000
  70
    32
  0
VERTEX
  8
AM_VIS
  5
5D5
 10
6.03418
 20
3.81626
 30
0.000000
  70
    32
  0
VERTEX
  8
AM_VIS
  5
5D6
 10
6.03425
 20
3.81667
 30
0.000000
  70
    32
  0
VERTEX
  8
AM_VIS
  5
5D7
 10
6.03431
 20
3.81708
 30
0.000000
  70
    32
  0
VERTEX
  8
AM_VIS
  5
5D8
 10
6.03438
 20
3.81748
 30
0.000000
  70
    32
  0
VERTEX
  8
AM_VIS
  5
5D9
 10
6.03444
 20
3.81789
 30
0.000000
  70
    32
  0
VERTEX
  8
AM_VIS
  5
5DA
 10
6.03451
 20
3.81830
 30
0.000000
  70
    32
  0
VERTEX
  8
AM_VIS
  5
5DB
 10
6.03457
 20
3.81871
 30
0.000000
  70
    32
  0
VERTEX
  8
AM_VIS
  5
5DC
 10
6.03464
 20
3.81912
 30
0.000000
  70
    32
  0
VERTEX
  8
AM_VIS
  5
5DD
 10
6.03470
 20
3.81952
 30
0.000000
  70
    32
  0
VERTEX
  8
AM_VIS
  5
5DE
 10
6.03477
 20
3.81993
 30
0.000000
  70
    32
  0
VERTEX
  8
AM_VIS
  5
5DF
 10
6.03483
 20
3.82034
 30
0.000000
  70
    32
  0
VERTEX
  8
AM_VIS
  5
5E0
 10
6.03489
 20
3.82075
 30
0.000000
  70
    32
  0
VERTEX
  8
AM_VIS
  5
5E1
 10
6.03496
 20
3.82116
 30
0.000000
  70
    32
  0
VERTEX
  8
AM_VIS
  5
5E2
 10
6.03502
 20
3.82157
 30
0.000000
  70
    32
  0
VERTEX
  8
AM_VIS
  5
5E3
 10
6.03508
 20
3.82198
 30
0.000000
  70
    32
  0
VERTEX
  8
AM_VIS
  5
5E4
 10
6.03515
 20
3.82239
 30
0.000000
  70
    32
  0
VERTEX
  8
AM_VIS
  5
5E5
 10
6.03521
 20
3.82280
 30
0.000000
  70
    32
  0
VERTEX
  8
AM_VIS
  5
5E6
 10
6.03527
 20
3.82321
 30
0.000000
  70
    32
  0
VERTEX
  8
AM_VIS
  5
5E7
 10
6.03534
 20
3.82363
 30
0.000000
  70
    32
  0
VERTEX
  8
AM_VIS
  5
5E8
 10
6.03540
 20
3.82404
 30
0.000000
  70
    32
  0
VERTEX
  8
AM_VIS
  5
5E9
 10
6.03546
 20
3.82445
 30
0.000000
  70
    32
  0
VERTEX
  8
AM_VIS
  5
5EA
 10
6.03552
 20
3.82486
 30
0.000000
  70
    32
  0
VERTEX
  8
AM_VIS
  5
5EB
 10
6.03559
 20
3.82527
 30
0.000000
  70
    32
  0
VERTEX
  8
AM_VIS
  5
5EC
 10
6.03565
 20
3.82568
 30
0.000000
  70
    32
  0
VERTEX
  8
AM_VIS
  5
5ED
 10
6.03571
 20
3.82610
 30
0.000000
  70
    32
  0
VERTEX
  8
AM_VIS
  5
5EE
 10
6.03577
 20
3.82651
 30
0.000000
  70
    32
  0
VERTEX
  8
AM_VIS
  5
5EF
 10
6.03583
 20
3.82692
 30
0.000000
  70
    32
  0
VERTEX
  8
AM_VIS
  5
5F0
 10
6.03589
 20
3.82733
 30
0.000000
  70
    32
  0
VERTEX
  8
AM_VIS
  5
5F1
 10
6.03596
 20
3.82774
 30
0.000000
  70
    32
  0
VERTEX
  8
AM_VIS
  5
5F2
 10
6.03602
 20
3.82815
 30
0.000000
  70
    32
  0
VERTEX
  8
AM_VIS
  5
5F3
 10
6.03608
 20
3.82856
 30
0.000000
  70
    32
  0
VERTEX
  8
AM_VIS
  5
5F4
 10
6.03614
 20
3.82898
 30
0.000000
  70
    32
  0
VERTEX
  8
AM_VIS
  5
5F5
 10
6.03620
 20
3.82939
 30
0.000000
  70
    32
  0
VERTEX
  8
AM_VIS
  5
5F6
 10
6.03626
 20
3.82980
 30
0.000000
  70
    32
  0
VERTEX
  8
AM_VIS
  5
5F7
 10
6.03632
 20
3.83021
 30
0.000000
  70
    32
  0
VERTEX
  8
AM_VIS
  5
5F8
 10
6.03637
 20
3.83062
 30
0.000000
  70
    32
  0
VERTEX
  8
AM_VIS
  5
5F9
 10
6.03643
 20
3.83103
 30
0.000000
  70
    32
  0
VERTEX
  8
AM_VIS
  5
5FA
 10
6.03649
 20
3.83145
 30
0.000000
  70
    32
  0
VERTEX
  8
AM_VIS
  5
5FB
 10
6.03655
 20
3.83186
 30
0.000000
  70
    32
  0
VERTEX
  8
AM_VIS
  5
5FC
 10
6.03661
 20
3.83227
 30
0.000000
  70
    32
  0
VERTEX
  8
AM_VIS
  5
5FD
 10
6.03667
 20
3.83268
 30
0.000000
  70
    32
  0
VERTEX
  8
AM_VIS
  5
5FE
 10
6.03673
 20
3.83309
 30
0.000000
  70
    32
  0
VERTEX
  8
AM_VIS
  5
5FF
 10
6.03678
 20
3.83350
 30
0.000000
  70
    32
  0
VERTEX
  8
AM_VIS
  5
600
 10
6.03684
 20
3.83391
 30
0.000000
  70
    32
  0
VERTEX
  8
AM_VIS
  5
601
 10
6.03690
 20
3.83433
 30
0.000000
  70
    32
  0
VERTEX
  8
AM_VIS
  5
602
 10
6.03696
 20
3.83474
 30
0.000000
  70
    32
  0
VERTEX
  8
AM_VIS
  5
603
 10
6.03701
 20
3.83515
 30
0.000000
  70
    32
  0
VERTEX
  8
AM_VIS
  5
604
 10
6.03707
 20
3.83556
 30
0.000000
  70
    32
  0
VERTEX
  8
AM_VIS
  5
605
 10
6.03712
 20
3.83597
 30
0.000000
  70
    32
  0
VERTEX
  8
AM_VIS
  5
606
 10
6.03718
 20
3.83638
 30
0.000000
  70
    32
  0
VERTEX
  8
AM_VIS
  5
607
 10
6.03724
 20
3.83679
 30
0.000000
  70
    32
  0
VERTEX
  8
AM_VIS
  5
608
 10
6.03729
 20
3.83721
 30
0.000000
  70
    32
  0
VERTEX
  8
AM_VIS
  5
609
 10
6.03735
 20
3.83762
 30
0.000000
  70
    32
  0
VERTEX
  8
AM_VIS
  5
60A
 10
6.03740
 20
3.83803
 30
0.000000
  70
    32
  0
VERTEX
  8
AM_VIS
  5
60B
 10
6.03746
 20
3.83844
 30
0.000000
  70
    32
  0
VERTEX
  8
AM_VIS
  5
60C
 10
6.03751
 20
3.83885
 30
0.000000
  70
    32
  0
VERTEX
  8
AM_VIS
  5
60D
 10
6.03757
 20
3.83926
 30
0.000000
  70
    32
  0
VERTEX
  8
AM_VIS
  5
60E
 10
6.03762
 20
3.83967
 30
0.000000
  70
    32
  0
VERTEX
  8
AM_VIS
  5
60F
 10
6.03767
 20
3.84009
 30
0.000000
  70
    32
  0
VERTEX
  8
AM_VIS
  5
610
 10
6.03773
 20
3.84050
 30
0.000000
  70
    32
  0
VERTEX
  8
AM_VIS
  5
611
 10
6.03778
 20
3.84091
 30
0.000000
  70
    32
  0
VERTEX
  8
AM_VIS
  5
612
 10
6.03784
 20
3.84132
 30
0.000000
  70
    32
  0
VERTEX
  8
AM_VIS
  5
613
 10
6.03789
 20
3.84173
 30
0.000000
  70
    32
  0
VERTEX
  8
AM_VIS
  5
614
 10
6.03794
 20
3.84214
 30
0.000000
  70
    32
  0
VERTEX
  8
AM_VIS
  5
615
 10
6.03799
 20
3.84256
 30
0.000000
  70
    32
  0
VERTEX
  8
AM_VIS
  5
616
 10
6.03805
 20
3.84297
 30
0.000000
  70
    32
  0
VERTEX
  8
AM_VIS
  5
617
 10
6.03810
 20
3.84338
 30
0.000000
  70
    32
  0
VERTEX
  8
AM_VIS
  5
618
 10
6.03815
 20
3.84379
 30
0.000000
  70
    32
  0
VERTEX
  8
AM_VIS
  5
619
 10
6.03820
 20
3.84420
 30
0.000000
  70
    32
  0
VERTEX
  8
AM_VIS
  5
61A
 10
6.03825
 20
3.84461
 30
0.000000
  70
    32
  0
VERTEX
  8
AM_VIS
  5
61B
 10
6.03830
 20
3.84503
 30
0.000000
  70
    32
  0
VERTEX
  8
AM_VIS
  5
61C
 10
6.03835
 20
3.84544
 30
0.000000
  70
    32
  0
VERTEX
  8
AM_VIS
  5
61D
 10
6.03840
 20
3.84585
 30
0.000000
  70
    32
  0
VERTEX
  8
AM_VIS
  5
61E
 10
6.03845
 20
3.84626
 30
0.000000
  70
    32
  0
VERTEX
  8
AM_VIS
  5
61F
 10
6.03850
 20
3.84667
 30
0.000000
  70
    32
  0
VERTEX
  8
AM_VIS
  5
620
 10
6.03855
 20
3.84709
 30
0.000000
  70
    32
  0
VERTEX
  8
AM_VIS
  5
621
 10
6.03860
 20
3.84750
 30
0.000000
  70
    32
  0
VERTEX
  8
AM_VIS
  5
622
 10
6.03865
 20
3.84791
 30
0.000000
  70
    32
  0
VERTEX
  8
AM_VIS
  5
623
 10
6.03870
 20
3.84832
 30
0.000000
  70
    32
  0
VERTEX
  8
AM_VIS
  5
624
 10
6.03875
 20
3.84873
 30
0.000000
  70
    32
  0
VERTEX
  8
AM_VIS
  5
625
 10
6.03880
 20
3.84915
 30
0.000000
  70
    32
  0
VERTEX
  8
AM_VIS
  5
626
 10
6.03885
 20
3.84956
 30
0.000000
  70
    32
  0
VERTEX
  8
AM_VIS
  5
627
 10
6.03890
 20
3.84997
 30
0.000000
  70
    32
  0
VERTEX
  8
AM_VIS
  5
628
 10
6.03894
 20
3.85038
 30
0.000000
  70
    32
  0
VERTEX
  8
AM_VIS
  5
629
 10
6.03899
 20
3.85080
 30
0.000000
  70
    32
  0
VERTEX
  8
AM_VIS
  5
62A
 10
6.03904
 20
3.85121
 30
0.000000
  70
    32
  0
VERTEX
  8
AM_VIS
  5
62B
 10
6.03908
 20
3.85162
 30
0.000000
  70
    32
  0
VERTEX
  8
AM_VIS
  5
62C
 10
6.03913
 20
3.85203
 30
0.000000
  70
    32
  0
VERTEX
  8
AM_VIS
  5
62D
 10
6.03918
 20
3.85245
 30
0.000000
  70
    32
  0
VERTEX
  8
AM_VIS
  5
62E
 10
6.03922
 20
3.85286
 30
0.000000
  70
    32
  0
VERTEX
  8
AM_VIS
  5
62F
 10
6.03927
 20
3.85327
 30
0.000000
  70
    32
  0
VERTEX
  8
AM_VIS
  5
630
 10
6.03931
 20
3.85368
 30
0.000000
  70
    32
  0
VERTEX
  8
AM_VIS
  5
631
 10
6.03936
 20
3.85410
 30
0.000000
  70
    32
  0
VERTEX
  8
AM_VIS
  5
632
 10
6.03940
 20
3.85451
 30
0.000000
  70
    32
  0
VERTEX
  8
AM_VIS
  5
633
 10
6.03945
 20
3.85492
 30
0.000000
  70
    32
  0
VERTEX
  8
AM_VIS
  5
634
 10
6.03949
 20
3.85534
 30
0.000000
  70
    32
  0
VERTEX
  8
AM_VIS
  5
635
 10
6.03954
 20
3.85575
 30
0.000000
  70
    32
  0
VERTEX
  8
AM_VIS
  5
636
 10
6.03958
 20
3.85616
 30
0.000000
  70
    32
  0
VERTEX
  8
AM_VIS
  5
637
 10
6.03963
 20
3.85657
 30
0.000000
  70
    32
  0
VERTEX
  8
AM_VIS
  5
638
 10
6.03967
 20
3.85699
 30
0.000000
  70
    32
  0
VERTEX
  8
AM_VIS
  5
639
 10
6.03971
 20
3.85740
 30
0.000000
  70
    32
  0
VERTEX
  8
AM_VIS
  5
63A
 10
6.03975
 20
3.85781
 30
0.000000
  70
    32
  0
VERTEX
  8
AM_VIS
  5
63B
 10
6.03980
 20
3.85823
 30
0.000000
  70
    32
  0
VERTEX
  8
AM_VIS
  5
63C
 10
6.03984
 20
3.85864
 30
0.000000
  70
    32
  0
VERTEX
  8
AM_VIS
  5
63D
 10
6.03988
 20
3.85905
 30
0.000000
  70
    32
  0
VERTEX
  8
AM_VIS
  5
63E
 10
6.03992
 20
3.85947
 30
0.000000
  70
    32
  0
VERTEX
  8
AM_VIS
  5
63F
 10
6.03996
 20
3.85988
 30
0.000000
  70
    32
  0
VERTEX
  8
AM_VIS
  5
640
 10
6.04001
 20
3.86030
 30
0.000000
  70
    32
  0
VERTEX
  8
AM_VIS
  5
641
 10
6.04005
 20
3.86071
 30
0.000000
  70
    32
  0
VERTEX
  8
AM_VIS
  5
642
 10
6.04009
 20
3.86112
 30
0.000000
  70
    32
  0
VERTEX
  8
AM_VIS
  5
643
 10
6.04013
 20
3.86154
 30
0.000000
  70
    32
  0
VERTEX
  8
AM_VIS
  5
644
 10
6.04017
 20
3.86195
 30
0.000000
  70
    32
  0
VERTEX
  8
AM_VIS
  5
645
 10
6.04021
 20
3.86237
 30
0.000000
  70
    32
  0
VERTEX
  8
AM_VIS
  5
646
 10
6.04025
 20
3.86278
 30
0.000000
  70
    32
  0
VERTEX
  8
AM_VIS
  5
647
 10
6.04029
 20
3.86319
 30
0.000000
  70
    32
  0
VERTEX
  8
AM_VIS
  5
648
 10
6.04033
 20
3.86361
 30
0.000000
  70
    32
  0
VERTEX
  8
AM_VIS
  5
649
 10
6.04036
 20
3.86402
 30
0.000000
  70
    32
  0
VERTEX
  8
AM_VIS
  5
64A
 10
6.04040
 20
3.86444
 30
0.000000
  70
    32
  0
VERTEX
  8
AM_VIS
  5
64B
 10
6.04044
 20
3.86485
 30
0.000000
  70
    32
  0
VERTEX
  8
AM_VIS
  5
64C
 10
6.04048
 20
3.86527
 30
0.000000
  70
    32
  0
VERTEX
  8
AM_VIS
  5
64D
 10
6.04052
 20
3.86568
 30
0.000000
  70
    32
  0
VERTEX
  8
AM_VIS
  5
64E
 10
6.04055
 20
3.86610
 30
0.000000
  70
    32
  0
VERTEX
  8
AM_VIS
  5
64F
 10
6.04059
 20
3.86651
 30
0.000000
  70
    32
  0
VERTEX
  8
AM_VIS
  5
650
 10
6.04063
 20
3.86693
 30
0.000000
  70
    32
  0
VERTEX
  8
AM_VIS
  5
651
 10
6.04066
 20
3.86734
 30
0.000000
  70
    32
  0
VERTEX
  8
AM_VIS
  5
652
 10
6.04070
 20
3.86776
 30
0.000000
  70
    32
  0
VERTEX
  8
AM_VIS
  5
653
 10
6.04073
 20
3.86817
 30
0.000000
  70
    32
  0
VERTEX
  8
AM_VIS
  5
654
 10
6.04077
 20
3.86859
 30
0.000000
  70
    32
  0
VERTEX
  8
AM_VIS
  5
655
 10
6.04080
 20
3.86900
 30
0.000000
  70
    32
  0
VERTEX
  8
AM_VIS
  5
656
 10
6.04084
 20
3.86942
 30
0.000000
  70
    32
  0
VERTEX
  8
AM_VIS
  5
657
 10
6.04087
 20
3.86983
 30
0.000000
  70
    32
  0
VERTEX
  8
AM_VIS
  5
658
 10
6.04091
 20
3.87025
 30
0.000000
  70
    32
  0
VERTEX
  8
AM_VIS
  5
659
 10
6.04094
 20
3.87066
 30
0.000000
  70
    32
  0
VERTEX
  8
AM_VIS
  5
65A
 10
6.04098
 20
3.87108
 30
0.000000
  70
    32
  0
VERTEX
  8
AM_VIS
  5
65B
 10
6.04101
 20
3.87150
 30
0.000000
  70
    32
  0
VERTEX
  8
AM_VIS
  5
65C
 10
6.04104
 20
3.87191
 30
0.000000
  70
    32
  0
VERTEX
  8
AM_VIS
  5
65D
 10
6.04108
 20
3.87233
 30
0.000000
  70
    32
  0
VERTEX
  8
AM_VIS
  5
65E
 10
6.04111
 20
3.87274
 30
0.000000
  70
    32
  0
VERTEX
  8
AM_VIS
  5
65F
 10
6.04114
 20
3.87316
 30
0.000000
  70
    32
  0
VERTEX
  8
AM_VIS
  5
660
 10
6.04117
 20
3.87358
 30
0.000000
  70
    32
  0
VERTEX
  8
AM_VIS
  5
661
 10
6.04120
 20
3.87399
 30
0.000000
  70
    32
  0
VERTEX
  8
AM_VIS
  5
662
 10
6.04123
 20
3.87441
 30
0.000000
  70
    32
  0
VERTEX
  8
AM_VIS
  5
663
 10
6.04127
 20
3.87483
 30
0.000000
  70
    32
  0
VERTEX
  8
AM_VIS
  5
664
 10
6.04130
 20
3.87524
 30
0.000000
  70
    32
  0
VERTEX
  8
AM_VIS
  5
665
 10
6.04133
 20
3.87566
 30
0.000000
  70
    32
  0
VERTEX
  8
AM_VIS
  5
666
 10
6.04136
 20
3.87608
 30
0.000000
  70
    32
  0
VERTEX
  8
AM_VIS
  5
667
 10
6.04139
 20
3.87650
 30
0.000000
  70
    32
  0
VERTEX
  8
AM_VIS
  5
668
 10
6.04141
 20
3.87691
 30
0.000000
  70
    32
  0
VERTEX
  8
AM_VIS
  5
669
 10
6.04144
 20
3.87733
 30
0.000000
  70
    32
  0
VERTEX
  8
AM_VIS
  5
66A
 10
6.04147
 20
3.87775
 30
0.000000
  70
    32
  0
VERTEX
  8
AM_VIS
  5
66B
 10
6.04150
 20
3.87817
 30
0.000000
  70
    32
  0
VERTEX
  8
AM_VIS
  5
66C
 10
6.04153
 20
3.87858
 30
0.000000
  70
    32
  0
VERTEX
  8
AM_VIS
  5
66D
 10
6.04156
 20
3.87900
 30
0.000000
  70
    32
  0
VERTEX
  8
AM_VIS
  5
66E
 10
6.04158
 20
3.87942
 30
0.000000
  70
    32
  0
VERTEX
  8
AM_VIS
  5
66F
 10
6.04161
 20
3.87984
 30
0.000000
  70
    32
  0
VERTEX
  8
AM_VIS
  5
670
 10
6.04164
 20
3.88026
 30
0.000000
  70
    32
  0
VERTEX
  8
AM_VIS
  5
671
 10
6.04166
 20
3.88067
 30
0.000000
  70
    32
  0
VERTEX
  8
AM_VIS
  5
672
 10
6.04169
 20
3.88109
 30
0.000000
  70
    32
  0
VERTEX
  8
AM_VIS
  5
673
 10
6.04172
 20
3.88151
 30
0.000000
  70
    32
  0
VERTEX
  8
AM_VIS
  5
674
 10
6.04174
 20
3.88193
 30
0.000000
  70
    32
  0
VERTEX
  8
AM_VIS
  5
675
 10
6.04177
 20
3.88234
 30
0.000000
  70
    32
  0
VERTEX
  8
AM_VIS
  5
676
 10
6.04179
 20
3.88276
 30
0.000000
  70
    32
  0
VERTEX
  8
AM_VIS
  5
677
 10
6.04182
 20
3.88318
 30
0.000000
  70
    32
  0
VERTEX
  8
AM_VIS
  5
678
 10
6.04184
 20
3.88360
 30
0.000000
  70
    32
  0
VERTEX
  8
AM_VIS
  5
679
 10
6.04187
 20
3.88402
 30
0.000000
  70
    32
  0
VERTEX
  8
AM_VIS
  5
67A
 10
6.04189
 20
3.88443
 30
0.000000
  70
    32
  0
VERTEX
  8
AM_VIS
  5
67B
 10
6.04191
 20
3.88485
 30
0.000000
  70
    32
  0
VERTEX
  8
AM_VIS
  5
67C
 10
6.04194
 20
3.88527
 30
0.000000
  70
    32
  0
VERTEX
  8
AM_VIS
  5
67D
 10
6.04196
 20
3.88569
 30
0.000000
  70
    32
  0
VERTEX
  8
AM_VIS
  5
67E
 10
6.04198
 20
3.88611
 30
0.000000
  70
    32
  0
VERTEX
  8
AM_VIS
  5
67F
 10
6.04200
 20
3.88652
 30
0.000000
  70
    32
  0
VERTEX
  8
AM_VIS
  5
680
 10
6.04202
 20
3.88694
 30
0.000000
  70
    32
  0
VERTEX
  8
AM_VIS
  5
681
 10
6.04205
 20
3.88736
 30
0.000000
  70
    32
  0
VERTEX
  8
AM_VIS
  5
682
 10
6.04207
 20
3.88778
 30
0.000000
  70
    32
  0
VERTEX
  8
AM_VIS
  5
683
 10
6.04209
 20
3.88819
 30
0.000000
  70
    32
  0
VERTEX
  8
AM_VIS
  5
684
 10
6.04211
 20
3.88861
 30
0.000000
  70
    32
  0
VERTEX
  8
AM_VIS
  5
685
 10
6.04213
 20
3.88903
 30
0.000000
  70
    32
  0
VERTEX
  8
AM_VIS
  5
686
 10
6.04215
 20
3.88945
 30
0.000000
  70
    32
  0
VERTEX
  8
AM_VIS
  5
687
 10
6.04217
 20
3.88987
 30
0.000000
  70
    32
  0
VERTEX
  8
AM_VIS
  5
688
 10
6.04219
 20
3.89028
 30
0.000000
  70
    32
  0
VERTEX
  8
AM_VIS
  5
689
 10
6.04220
 20
3.89070
 30
0.000000
  70
    32
  0
VERTEX
  8
AM_VIS
  5
68A
 10
6.04222
 20
3.89112
 30
0.000000
  70
    32
  0
VERTEX
  8
AM_VIS
  5
68B
 10
6.04224
 20
3.89154
 30
0.000000
  70
    32
  0
VERTEX
  8
AM_VIS
  5
68C
 10
6.04226
 20
3.89196
 30
0.000000
  70
    32
  0
VERTEX
  8
AM_VIS
  5
68D
 10
6.04228
 20
3.89237
 30
0.000000
  70
    32
  0
VERTEX
  8
AM_VIS
  5
68E
 10
6.04229
 20
3.89279
 30
0.000000
  70
    32
  0
VERTEX
  8
AM_VIS
  5
68F
 10
6.04231
 20
3.89321
 30
0.000000
  70
    32
  0
VERTEX
  8
AM_VIS
  5
690
 10
6.04233
 20
3.89363
 30
0.000000
  70
    32
  0
VERTEX
  8
AM_VIS
  5
691
 10
6.04234
 20
3.89405
 30
0.000000
  70
    32
  0
VERTEX
  8
AM_VIS
  5
692
 10
6.04236
 20
3.89447
 30
0.000000
  70
    32
  0
VERTEX
  8
AM_VIS
  5
693
 10
6.04237
 20
3.89488
 30
0.000000
  70
    32
  0
VERTEX
  8
AM_VIS
  5
694
 10
6.04239
 20
3.89530
 30
0.000000
  70
    32
  0
VERTEX
  8
AM_VIS
  5
695
 10
6.04240
 20
3.89572
 30
0.000000
  70
    32
  0
VERTEX
  8
AM_VIS
  5
696
 10
6.04242
 20
3.89614
 30
0.000000
  70
    32
  0
VERTEX
  8
AM_VIS
  5
697
 10
6.04243
 20
3.89656
 30
0.000000
  70
    32
  0
VERTEX
  8
AM_VIS
  5
698
 10
6.04244
 20
3.89698
 30
0.000000
  70
    32
  0
VERTEX
  8
AM_VIS
  5
699
 10
6.04246
 20
3.89739
 30
0.000000
  70
    32
  0
VERTEX
  8
AM_VIS
  5
69A
 10
6.04247
 20
3.89781
 30
0.000000
  70
    32
  0
VERTEX
  8
AM_VIS
  5
69B
 10
6.04248
 20
3.89823
 30
0.000000
  70
    32
  0
VERTEX
  8
AM_VIS
  5
69C
 10
6.04250
 20
3.89865
 30
0.000000
  70
    32
  0
VERTEX
  8
AM_VIS
  5
69D
 10
6.04251
 20
3.89907
 30
0.000000
  70
    32
  0
VERTEX
  8
AM_VIS
  5
69E
 10
6.04252
 20
3.89949
 30
0.000000
  70
    32
  0
VERTEX
  8
AM_VIS
  5
69F
 10
6.04253
 20
3.89991
 30
0.000000
  70
    32
  0
VERTEX
  8
AM_VIS
  5
6A0
 10
6.04254
 20
3.90033
 30
0.000000
  70
    32
  0
VERTEX
  8
AM_VIS
  5
6A1
 10
6.04255
 20
3.90074
 30
0.000000
  70
    32
  0
VERTEX
  8
AM_VIS
  5
6A2
 10
6.04256
 20
3.90116
 30
0.000000
  70
    32
  0
VERTEX
  8
AM_VIS
  5
6A3
 10
6.04257
 20
3.90158
 30
0.000000
  70
    32
  0
VERTEX
  8
AM_VIS
  5
6A4
 10
6.04258
 20
3.90200
 30
0.000000
  70
    32
  0
VERTEX
  8
AM_VIS
  5
6A5
 10
6.04259
 20
3.90242
 30
0.000000
  70
    32
  0
VERTEX
  8
AM_VIS
  5
6A6
 10
6.04260
 20
3.90284
 30
0.000000
  70
    32
  0
VERTEX
  8
AM_VIS
  5
6A7
 10
6.04261
 20
3.90326
 30
0.000000
  70
    32
  0
VERTEX
  8
AM_VIS
  5
6A8
 10
6.04262
 20
3.90368
 30
0.000000
  70
    32
  0
VERTEX
  8
AM_VIS
  5
6A9
 10
6.04263
 20
3.90410
 30
0.000000
  70
    32
  0
VERTEX
  8
AM_VIS
  5
6AA
 10
6.04263
 20
3.90452
 30
0.000000
  70
    32
  0
VERTEX
  8
AM_VIS
  5
6AB
 10
6.04264
 20
3.90493
 30
0.000000
  70
    32
  0
VERTEX
  8
AM_VIS
  5
6AC
 10
6.04265
 20
3.90535
 30
0.000000
  70
    32
  0
VERTEX
  8
AM_VIS
  5
6AD
 10
6.04265
 20
3.90577
 30
0.000000
  70
    32
  0
VERTEX
  8
AM_VIS
  5
6AE
 10
6.04266
 20
3.90619
 30
0.000000
  70
    32
  0
VERTEX
  8
AM_VIS
  5
6AF
 10
6.04267
 20
3.90661
 30
0.000000
  70
    32
  0
VERTEX
  8
AM_VIS
  5
6B0
 10
6.04267
 20
3.90703
 30
0.000000
  70
    32
  0
VERTEX
  8
AM_VIS
  5
6B1
 10
6.04268
 20
3.90745
 30
0.000000
  70
    32
  0
VERTEX
  8
AM_VIS
  5
6B2
 10
6.04268
 20
3.90787
 30
0.000000
  70
    32
  0
VERTEX
  8
AM_VIS
  5
6B3
 10
6.04269
 20
3.90828
 30
0.000000
  70
    32
  0
VERTEX
  8
AM_VIS
  5
6B4
 10
6.04269
 20
3.90870
 30
0.000000
  70
    32
  0
VERTEX
  8
AM_VIS
  5
6B5
 10
6.04270
 20
3.90912
 30
0.000000
  70
    32
  0
VERTEX
  8
AM_VIS
  5
6B6
 10
6.04270
 20
3.90954
 30
0.000000
  70
    32
  0
VERTEX
  8
AM_VIS
  5
6B7
 10
6.04270
 20
3.90996
 30
0.000000
  70
    32
  0
VERTEX
  8
AM_VIS
  5
6B8
 10
6.04271
 20
3.91038
 30
0.000000
  70
    32
  0
VERTEX
  8
AM_VIS
  5
6B9
 10
6.04271
 20
3.91080
 30
0.000000
  70
    32
  0
VERTEX
  8
AM_VIS
  5
6BA
 10
6.04271
 20
3.91122
 30
0.000000
  70
    32
  0
VERTEX
  8
AM_VIS
  5
6BB
 10
6.04271
 20
3.91164
 30
0.000000
  70
    32
  0
VERTEX
  8
AM_VIS
  5
6BC
 10
6.04271
 20
3.91205
 30
0.000000
  70
    32
  0
VERTEX
  8
AM_VIS
  5
6BD
 10
6.04271
 20
3.91247
 30
0.000000
  70
    32
  0
VERTEX
  8
AM_VIS
  5
6BE
 10
6.04272
 20
3.91289
 30
0.000000
  70
    32
  0
VERTEX
  8
AM_VIS
  5
6BF
 10
6.04272
 20
3.91331
 30
0.000000
  70
    32
  0
VERTEX
  8
AM_VIS
  5
6C0
 10
6.04272
 20
3.91373
 30
0.000000
  70
    32
  0
SEQEND
  8
AM_VIS
  5
6C1
  0
LINE
  5
32
  8
AM_VIS
 10
6.038969483263422
 20
4.2136442267199019
 30
0.0
 11
6.5490551057267377
 21
4.7237298491832203
 31
0.0
  0
LINE
  5
33
  8
AM_VIS
 10
6.038969483263422
 20
3.613815471646538
 30
0.0
 11
6.5490551057267377
 21
3.103729849183221
 31
0.0
  0
POLYLINE
  8
AM_VIS
  5
6C2
  66
     1
 10
0.000000
 20
0.000000
 30
0.000000
  70
     8
  0
VERTEX
  8
AM_VIS
  5
6C3
 10
5.92342
 20
4.14081
 30
0.000000
  70
    32
  0
VERTEX
  8
AM_VIS
  5
6C4
 10
5.92263
 20
4.14145
 30
0.000000
  70
    32
  0
VERTEX
  8
AM_VIS
  5
6C5
 10
5.92183
 20
4.14209
 30
0.000000
  70
    32
  0
VERTEX
  8
AM_VIS
  5
6C6
 10
5.92104
 20
4.14273
 30
0.000000
  70
    32
  0
VERTEX
  8
AM_VIS
  5
6C7
 10
5.92024
 20
4.14336
 30
0.000000
  70
    32
  0
VERTEX
  8
AM_VIS
  5
6C8
 10
5.91945
 20
4.14399
 30
0.000000
  70
    32
  0
VERTEX
  8
AM_VIS
  5
6C9
 10
5.91865
 20
4.14462
 30
0.000000
  70
    32
  0
VERTEX
  8
AM_VIS
  5
6CA
 10
5.91785
 20
4.14525
 30
0.000000
  70
    32
  0
VERTEX
  8
AM_VIS
  5
6CB
 10
5.91704
 20
4.14587
 30
0.000000
  70
    32
  0
VERTEX
  8
AM_VIS
  5
6CC
 10
5.91624
 20
4.14650
 30
0.000000
  70
    32
  0
VERTEX
  8
AM_VIS
  5
6CD
 10
5.91543
 20
4.14712
 30
0.000000
  70
    32
  0
VERTEX
  8
AM_VIS
  5
6CE
 10
5.91463
 20
4.14773
 30
0.000000
  70
    32
  0
VERTEX
  8
AM_VIS
  5
6CF
 10
5.91382
 20
4.14835
 30
0.000000
  70
    32
  0
VERTEX
  8
AM_VIS
  5
6D0
 10
5.91301
 20
4.14896
 30
0.000000
  70
    32
  0
VERTEX
  8
AM_VIS
  5
6D1
 10
5.91220
 20
4.14957
 30
0.000000
  70
    32
  0
VERTEX
  8
AM_VIS
  5
6D2
 10
5.91138
 20
4.15018
 30
0.000000
  70
    32
  0
VERTEX
  8
AM_VIS
  5
6D3
 10
5.91057
 20
4.15079
 30
0.000000
  70
    32
  0
VERTEX
  8
AM_VIS
  5
6D4
 10
5.90975
 20
4.15139
 30
0.000000
  70
    32
  0
VERTEX
  8
AM_VIS
  5
6D5
 10
5.90894
 20
4.15199
 30
0.000000
  70
    32
  0
VERTEX
  8
AM_VIS
  5
6D6
 10
5.90812
 20
4.15259
 30
0.000000
  70
    32
  0
VERTEX
  8
AM_VIS
  5
6D7
 10
5.90730
 20
4.15319
 30
0.000000
  70
    32
  0
VERTEX
  8
AM_VIS
  5
6D8
 10
5.90648
 20
4.15378
 30
0.000000
  70
    32
  0
VERTEX
  8
AM_VIS
  5
6D9
 10
5.90565
 20
4.15437
 30
0.000000
  70
    32
  0
VERTEX
  8
AM_VIS
  5
6DA
 10
5.90483
 20
4.15496
 30
0.000000
  70
    32
  0
VERTEX
  8
AM_VIS
  5
6DB
 10
5.90400
 20
4.15555
 30
0.000000
  70
    32
  0
VERTEX
  8
AM_VIS
  5
6DC
 10
5.90317
 20
4.15613
 30
0.000000
  70
    32
  0
VERTEX
  8
AM_VIS
  5
6DD
 10
5.90235
 20
4.15671
 30
0.000000
  70
    32
  0
VERTEX
  8
AM_VIS
  5
6DE
 10
5.90152
 20
4.15729
 30
0.000000
  70
    32
  0
VERTEX
  8
AM_VIS
  5
6DF
 10
5.90068
 20
4.15787
 30
0.000000
  70
    32
  0
VERTEX
  8
AM_VIS
  5
6E0
 10
5.89985
 20
4.15844
 30
0.000000
  70
    32
  0
VERTEX
  8
AM_VIS
  5
6E1
 10
5.89902
 20
4.15901
 30
0.000000
  70
    32
  0
VERTEX
  8
AM_VIS
  5
6E2
 10
5.89818
 20
4.15958
 30
0.000000
  70
    32
  0
VERTEX
  8
AM_VIS
  5
6E3
 10
5.89734
 20
4.16015
 30
0.000000
  70
    32
  0
VERTEX
  8
AM_VIS
  5
6E4
 10
5.89650
 20
4.16072
 30
0.000000
  70
    32
  0
VERTEX
  8
AM_VIS
  5
6E5
 10
5.89566
 20
4.16128
 30
0.000000
  70
    32
  0
VERTEX
  8
AM_VIS
  5
6E6
 10
5.89481
 20
4.16184
 30
0.000000
  70
    32
  0
VERTEX
  8
AM_VIS
  5
6E7
 10
5.89397
 20
4.16240
 30
0.000000
  70
    32
  0
VERTEX
  8
AM_VIS
  5
6E8
 10
5.89312
 20
4.16296
 30
0.000000
  70
    32
  0
VERTEX
  8
AM_VIS
  5
6E9
 10
5.89227
 20
4.16351
 30
0.000000
  70
    32
  0
VERTEX
  8
AM_VIS
  5
6EA
 10
5.89142
 20
4.16406
 30
0.000000
  70
    32
  0
VERTEX
  8
AM_VIS
  5
6EB
 10
5.89056
 20
4.16461
 30
0.000000
  70
    32
  0
VERTEX
  8
AM_VIS
  5
6EC
 10
5.88971
 20
4.16516
 30
0.000000
  70
    32
  0
VERTEX
  8
AM_VIS
  5
6ED
 10
5.88885
 20
4.16570
 30
0.000000
  70
    32
  0
VERTEX
  8
AM_VIS
  5
6EE
 10
5.88799
 20
4.16625
 30
0.000000
  70
    32
  0
VERTEX
  8
AM_VIS
  5
6EF
 10
5.88713
 20
4.16679
 30
0.000000
  70
    32
  0
VERTEX
  8
AM_VIS
  5
6F0
 10
5.88627
 20
4.16732
 30
0.000000
  70
    32
  0
VERTEX
  8
AM_VIS
  5
6F1
 10
5.88540
 20
4.16786
 30
0.000000
  70
    32
  0
VERTEX
  8
AM_VIS
  5
6F2
 10
5.88454
 20
4.16839
 30
0.000000
  70
    32
  0
VERTEX
  8
AM_VIS
  5
6F3
 10
5.88367
 20
4.16892
 30
0.000000
  70
    32
  0
VERTEX
  8
AM_VIS
  5
6F4
 10
5.88280
 20
4.16945
 30
0.000000
  70
    32
  0
VERTEX
  8
AM_VIS
  5
6F5
 10
5.88193
 20
4.16998
 30
0.000000
  70
    32
  0
VERTEX
  8
AM_VIS
  5
6F6
 10
5.88105
 20
4.17050
 30
0.000000
  70
    32
  0
VERTEX
  8
AM_VIS
  5
6F7
 10
5.88018
 20
4.17102
 30
0.000000
  70
    32
  0
VERTEX
  8
AM_VIS
  5
6F8
 10
5.87930
 20
4.17154
 30
0.000000
  70
    32
  0
VERTEX
  8
AM_VIS
  5
6F9
 10
5.87842
 20
4.17205
 30
0.000000
  70
    32
  0
VERTEX
  8
AM_VIS
  5
6FA
 10
5.87754
 20
4.17256
 30
0.000000
  70
    32
  0
VERTEX
  8
AM_VIS
  5
6FB
 10
5.87666
 20
4.17308
 30
0.000000
  70
    32
  0
VERTEX
  8
AM_VIS
  5
6FC
 10
5.87577
 20
4.17358
 30
0.000000
  70
    32
  0
VERTEX
  8
AM_VIS
  5
6FD
 10
5.87489
 20
4.17409
 30
0.000000
  70
    32
  0
VERTEX
  8
AM_VIS
  5
6FE
 10
5.87400
 20
4.17459
 30
0.000000
  70
    32
  0
VERTEX
  8
AM_VIS
  5
6FF
 10
5.87311
 20
4.17509
 30
0.000000
  70
    32
  0
VERTEX
  8
AM_VIS
  5
700
 10
5.87222
 20
4.17559
 30
0.000000
  70
    32
  0
VERTEX
  8
AM_VIS
  5
701
 10
5.87133
 20
4.17608
 30
0.000000
  70
    32
  0
VERTEX
  8
AM_VIS
  5
702
 10
5.87043
 20
4.17657
 30
0.000000
  70
    32
  0
VERTEX
  8
AM_VIS
  5
703
 10
5.86953
 20
4.17706
 30
0.000000
  70
    32
  0
VERTEX
  8
AM_VIS
  5
704
 10
5.86864
 20
4.17755
 30
0.000000
  70
    32
  0
VERTEX
  8
AM_VIS
  5
705
 10
5.86774
 20
4.17803
 30
0.000000
  70
    32
  0
VERTEX
  8
AM_VIS
  5
706
 10
5.86684
 20
4.17851
 30
0.000000
  70
    32
  0
VERTEX
  8
AM_VIS
  5
707
 10
5.86593
 20
4.17899
 30
0.000000
  70
    32
  0
VERTEX
  8
AM_VIS
  5
708
 10
5.86503
 20
4.17947
 30
0.000000
  70
    32
  0
VERTEX
  8
AM_VIS
  5
709
 10
5.86412
 20
4.17994
 30
0.000000
  70
    32
  0
VERTEX
  8
AM_VIS
  5
70A
 10
5.86321
 20
4.18041
 30
0.000000
  70
    32
  0
VERTEX
  8
AM_VIS
  5
70B
 10
5.86230
 20
4.18088
 30
0.000000
  70
    32
  0
VERTEX
  8
AM_VIS
  5
70C
 10
5.86139
 20
4.18134
 30
0.000000
  70
    32
  0
VERTEX
  8
AM_VIS
  5
70D
 10
5.86048
 20
4.18180
 30
0.000000
  70
    32
  0
VERTEX
  8
AM_VIS
  5
70E
 10
5.85956
 20
4.18226
 30
0.000000
  70
    32
  0
VERTEX
  8
AM_VIS
  5
70F
 10
5.85865
 20
4.18272
 30
0.000000
  70
    32
  0
VERTEX
  8
AM_VIS
  5
710
 10
5.85773
 20
4.18317
 30
0.000000
  70
    32
  0
VERTEX
  8
AM_VIS
  5
711
 10
5.85681
 20
4.18362
 30
0.000000
  70
    32
  0
VERTEX
  8
AM_VIS
  5
712
 10
5.85589
 20
4.18407
 30
0.000000
  70
    32
  0
VERTEX
  8
AM_VIS
  5
713
 10
5.85496
 20
4.18451
 30
0.000000
  70
    32
  0
VERTEX
  8
AM_VIS
  5
714
 10
5.85404
 20
4.18495
 30
0.000000
  70
    32
  0
VERTEX
  8
AM_VIS
  5
715
 10
5.85311
 20
4.18539
 30
0.000000
  70
    32
  0
VERTEX
  8
AM_VIS
  5
716
 10
5.85219
 20
4.18583
 30
0.000000
  70
    32
  0
VERTEX
  8
AM_VIS
  5
717
 10
5.85126
 20
4.18626
 30
0.000000
  70
    32
  0
VERTEX
  8
AM_VIS
  5
718
 10
5.85033
 20
4.18669
 30
0.000000
  70
    32
  0
VERTEX
  8
AM_VIS
  5
719
 10
5.84939
 20
4.18711
 30
0.000000
  70
    32
  0
VERTEX
  8
AM_VIS
  5
71A
 10
5.84846
 20
4.18754
 30
0.000000
  70
    32
  0
VERTEX
  8
AM_VIS
  5
71B
 10
5.84752
 20
4.18796
 30
0.000000
  70
    32
  0
VERTEX
  8
AM_VIS
  5
71C
 10
5.84658
 20
4.18837
 30
0.000000
  70
    32
  0
VERTEX
  8
AM_VIS
  5
71D
 10
5.84565
 20
4.18879
 30
0.000000
  70
    32
  0
VERTEX
  8
AM_VIS
  5
71E
 10
5.84470
 20
4.18920
 30
0.000000
  70
    32
  0
VERTEX
  8
AM_VIS
  5
71F
 10
5.84376
 20
4.18961
 30
0.000000
  70
    32
  0
VERTEX
  8
AM_VIS
  5
720
 10
5.84282
 20
4.19001
 30
0.000000
  70
    32
  0
VERTEX
  8
AM_VIS
  5
721
 10
5.84187
 20
4.19041
 30
0.000000
  70
    32
  0
VERTEX
  8
AM_VIS
  5
722
 10
5.84093
 20
4.19081
 30
0.000000
  70
    32
  0
VERTEX
  8
AM_VIS
  5
723
 10
5.83998
 20
4.19121
 30
0.000000
  70
    32
  0
VERTEX
  8
AM_VIS
  5
724
 10
5.83903
 20
4.19160
 30
0.000000
  70
    32
  0
VERTEX
  8
AM_VIS
  5
725
 10
5.83808
 20
4.19199
 30
0.000000
  70
    32
  0
VERTEX
  8
AM_VIS
  5
726
 10
5.83712
 20
4.19237
 30
0.000000
  70
    32
  0
VERTEX
  8
AM_VIS
  5
727
 10
5.83617
 20
4.19275
 30
0.000000
  70
    32
  0
VERTEX
  8
AM_VIS
  5
728
 10
5.83521
 20
4.19313
 30
0.000000
  70
    32
  0
VERTEX
  8
AM_VIS
  5
729
 10
5.83425
 20
4.19351
 30
0.000000
  70
    32
  0
VERTEX
  8
AM_VIS
  5
72A
 10
5.83329
 20
4.19388
 30
0.000000
  70
    32
  0
VERTEX
  8
AM_VIS
  5
72B
 10
5.83233
 20
4.19425
 30
0.000000
  70
    32
  0
VERTEX
  8
AM_VIS
  5
72C
 10
5.83137
 20
4.19461
 30
0.000000
  70
    32
  0
VERTEX
  8
AM_VIS
  5
72D
 10
5.83041
 20
4.19498
 30
0.000000
  70
    32
  0
VERTEX
  8
AM_VIS
  5
72E
 10
5.82944
 20
4.19533
 30
0.000000
  70
    32
  0
VERTEX
  8
AM_VIS
  5
72F
 10
5.82848
 20
4.19569
 30
0.000000
  70
    32
  0
VERTEX
  8
AM_VIS
  5
730
 10
5.82751
 20
4.19604
 30
0.000000
  70
    32
  0
VERTEX
  8
AM_VIS
  5
731
 10
5.82654
 20
4.19639
 30
0.000000
  70
    32
  0
VERTEX
  8
AM_VIS
  5
732
 10
5.82557
 20
4.19674
 30
0.000000
  70
    32
  0
VERTEX
  8
AM_VIS
  5
733
 10
5.82459
 20
4.19708
 30
0.000000
  70
    32
  0
VERTEX
  8
AM_VIS
  5
734
 10
5.82362
 20
4.19742
 30
0.000000
  70
    32
  0
VERTEX
  8
AM_VIS
  5
735
 10
5.82264
 20
4.19775
 30
0.000000
  70
    32
  0
VERTEX
  8
AM_VIS
  5
736
 10
5.82167
 20
4.19808
 30
0.000000
  70
    32
  0
VERTEX
  8
AM_VIS
  5
737
 10
5.82069
 20
4.19841
 30
0.000000
  70
    32
  0
VERTEX
  8
AM_VIS
  5
738
 10
5.81971
 20
4.19874
 30
0.000000
  70
    32
  0
VERTEX
  8
AM_VIS
  5
739
 10
5.81873
 20
4.19906
 30
0.000000
  70
    32
  0
VERTEX
  8
AM_VIS
  5
73A
 10
5.81774
 20
4.19937
 30
0.000000
  70
    32
  0
VERTEX
  8
AM_VIS
  5
73B
 10
5.81676
 20
4.19969
 30
0.000000
  70
    32
  0
VERTEX
  8
AM_VIS
  5
73C
 10
5.81577
 20
4.20000
 30
0.000000
  70
    32
  0
VERTEX
  8
AM_VIS
  5
73D
 10
5.81479
 20
4.20030
 30
0.000000
  70
    32
  0
VERTEX
  8
AM_VIS
  5
73E
 10
5.81380
 20
4.20061
 30
0.000000
  70
    32
  0
VERTEX
  8
AM_VIS
  5
73F
 10
5.81281
 20
4.20091
 30
0.000000
  70
    32
  0
VERTEX
  8
AM_VIS
  5
740
 10
5.81182
 20
4.20120
 30
0.000000
  70
    32
  0
VERTEX
  8
AM_VIS
  5
741
 10
5.81083
 20
4.20149
 30
0.000000
  70
    32
  0
VERTEX
  8
AM_VIS
  5
742
 10
5.80983
 20
4.20178
 30
0.000000
  70
    32
  0
VERTEX
  8
AM_VIS
  5
743
 10
5.80884
 20
4.20207
 30
0.000000
  70
    32
  0
VERTEX
  8
AM_VIS
  5
744
 10
5.80784
 20
4.20235
 30
0.000000
  70
    32
  0
VERTEX
  8
AM_VIS
  5
745
 10
5.80684
 20
4.20263
 30
0.000000
  70
    32
  0
VERTEX
  8
AM_VIS
  5
746
 10
5.80584
 20
4.20290
 30
0.000000
  70
    32
  0
VERTEX
  8
AM_VIS
  5
747
 10
5.80484
 20
4.20317
 30
0.000000
  70
    32
  0
VERTEX
  8
AM_VIS
  5
748
 10
5.80384
 20
4.20344
 30
0.000000
  70
    32
  0
VERTEX
  8
AM_VIS
  5
749
 10
5.80283
 20
4.20370
 30
0.000000
  70
    32
  0
VERTEX
  8
AM_VIS
  5
74A
 10
5.80183
 20
4.20396
 30
0.000000
  70
    32
  0
VERTEX
  8
AM_VIS
  5
74B
 10
5.80082
 20
4.20421
 30
0.000000
  70
    32
  0
VERTEX
  8
AM_VIS
  5
74C
 10
5.79981
 20
4.20446
 30
0.000000
  70
    32
  0
VERTEX
  8
AM_VIS
  5
74D
 10
5.79881
 20
4.20471
 30
0.000000
  70
    32
  0
VERTEX
  8
AM_VIS
  5
74E
 10
5.79779
 20
4.20495
 30
0.000000
  70
    32
  0
VERTEX
  8
AM_VIS
  5
74F
 10
5.79678
 20
4.20519
 30
0.000000
  70
    32
  0
VERTEX
  8
AM_VIS
  5
750
 10
5.79577
 20
4.20543
 30
0.000000
  70
    32
  0
VERTEX
  8
AM_VIS
  5
751
 10
5.79476
 20
4.20566
 30
0.000000
  70
    32
  0
VERTEX
  8
AM_VIS
  5
752
 10
5.79374
 20
4.20589
 30
0.000000
  70
    32
  0
VERTEX
  8
AM_VIS
  5
753
 10
5.79272
 20
4.20611
 30
0.000000
  70
    32
  0
VERTEX
  8
AM_VIS
  5
754
 10
5.79170
 20
4.20633
 30
0.000000
  70
    32
  0
VERTEX
  8
AM_VIS
  5
755
 10
5.79068
 20
4.20655
 30
0.000000
  70
    32
  0
VERTEX
  8
AM_VIS
  5
756
 10
5.78966
 20
4.20676
 30
0.000000
  70
    32
  0
VERTEX
  8
AM_VIS
  5
757
 10
5.78864
 20
4.20696
 30
0.000000
  70
    32
  0
VERTEX
  8
AM_VIS
  5
758
 10
5.78762
 20
4.20717
 30
0.000000
  70
    32
  0
VERTEX
  8
AM_VIS
  5
759
 10
5.78660
 20
4.20737
 30
0.000000
  70
    32
  0
VERTEX
  8
AM_VIS
  5
75A
 10
5.78558
 20
4.20756
 30
0.000000
  70
    32
  0
VERTEX
  8
AM_VIS
  5
75B
 10
5.78455
 20
4.20775
 30
0.000000
  70
    32
  0
VERTEX
  8
AM_VIS
  5
75C
 10
5.78353
 20
4.20794
 30
0.000000
  70
    32
  0
VERTEX
  8
AM_VIS
  5
75D
 10
5.78251
 20
4.20812
 30
0.000000
  70
    32
  0
VERTEX
  8
AM_VIS
  5
75E
 10
5.78148
 20
4.20830
 30
0.000000
  70
    32
  0
VERTEX
  8
AM_VIS
  5
75F
 10
5.78046
 20
4.20847
 30
0.000000
  70
    32
  0
VERTEX
  8
AM_VIS
  5
760
 10
5.77943
 20
4.20864
 30
0.000000
  70
    32
  0
VERTEX
  8
AM_VIS
  5
761
 10
5.77841
 20
4.20881
 30
0.000000
  70
    32
  0
VERTEX
  8
AM_VIS
  5
762
 10
5.77738
 20
4.20897
 30
0.000000
  70
    32
  0
VERTEX
  8
AM_VIS
  5
763
 10
5.77636
 20
4.20913
 30
0.000000
  70
    32
  0
VERTEX
  8
AM_VIS
  5
764
 10
5.77533
 20
4.20928
 30
0.000000
  70
    32
  0
VERTEX
  8
AM_VIS
  5
765
 10
5.77430
 20
4.20943
 30
0.000000
  70
    32
  0
VERTEX
  8
AM_VIS
  5
766
 10
5.77328
 20
4.20958
 30
0.000000
  70
    32
  0
VERTEX
  8
AM_VIS
  5
767
 10
5.77225
 20
4.20972
 30
0.000000
  70
    32
  0
VERTEX
  8
AM_VIS
  5
768
 10
5.77122
 20
4.20985
 30
0.000000
  70
    32
  0
VERTEX
  8
AM_VIS
  5
769
 10
5.77019
 20
4.20998
 30
0.000000
  70
    32
  0
VERTEX
  8
AM_VIS
  5
76A
 10
5.76916
 20
4.21011
 30
0.000000
  70
    32
  0
VERTEX
  8
AM_VIS
  5
76B
 10
5.76814
 20
4.21023
 30
0.000000
  70
    32
  0
VERTEX
  8
AM_VIS
  5
76C
 10
5.76711
 20
4.21035
 30
0.000000
  70
    32
  0
VERTEX
  8
AM_VIS
  5
76D
 10
5.76608
 20
4.21047
 30
0.000000
  70
    32
  0
VERTEX
  8
AM_VIS
  5
76E
 10
5.76505
 20
4.21058
 30
0.000000
  70
    32
  0
VERTEX
  8
AM_VIS
  5
76F
 10
5.76402
 20
4.21069
 30
0.000000
  70
    32
  0
VERTEX
  8
AM_VIS
  5
770
 10
5.76299
 20
4.21079
 30
0.000000
  70
    32
  0
VERTEX
  8
AM_VIS
  5
771
 10
5.76195
 20
4.21088
 30
0.000000
  70
    32
  0
VERTEX
  8
AM_VIS
  5
772
 10
5.76092
 20
4.21098
 30
0.000000
  70
    32
  0
VERTEX
  8
AM_VIS
  5
773
 10
5.75989
 20
4.21107
 30
0.000000
  70
    32
  0
VERTEX
  8
AM_VIS
  5
774
 10
5.75886
 20
4.21115
 30
0.000000
  70
    32
  0
VERTEX
  8
AM_VIS
  5
775
 10
5.75783
 20
4.21123
 30
0.000000
  70
    32
  0
VERTEX
  8
AM_VIS
  5
776
 10
5.75679
 20
4.21131
 30
0.000000
  70
    32
  0
VERTEX
  8
AM_VIS
  5
777
 10
5.75576
 20
4.21138
 30
0.000000
  70
    32
  0
VERTEX
  8
AM_VIS
  5
778
 10
5.75473
 20
4.21145
 30
0.000000
  70
    32
  0
VERTEX
  8
AM_VIS
  5
779
 10
5.75369
 20
4.21151
 30
0.000000
  70
    32
  0
VERTEX
  8
AM_VIS
  5
77A
 10
5.75266
 20
4.21157
 30
0.000000
  70
    32
  0
VERTEX
  8
AM_VIS
  5
77B
 10
5.75162
 20
4.21163
 30
0.000000
  70
    32
  0
VERTEX
  8
AM_VIS
  5
77C
 10
5.75059
 20
4.21168
 30
0.000000
  70
    32
  0
VERTEX
  8
AM_VIS
  5
77D
 10
5.74955
 20
4.21172
 30
0.000000
  70
    32
  0
VERTEX
  8
AM_VIS
  5
77E
 10
5.74852
 20
4.21176
 30
0.000000
  70
    32
  0
VERTEX
  8
AM_VIS
  5
77F
 10
5.74748
 20
4.21180
 30
0.000000
  70
    32
  0
VERTEX
  8
AM_VIS
  5
780
 10
5.74645
 20
4.21184
 30
0.000000
  70
    32
  0
VERTEX
  8
AM_VIS
  5
781
 10
5.74541
 20
4.21186
 30
0.000000
  70
    32
  0
VERTEX
  8
AM_VIS
  5
782
 10
5.74437
 20
4.21189
 30
0.000000
  70
    32
  0
VERTEX
  8
AM_VIS
  5
783
 10
5.74334
 20
4.21191
 30
0.000000
  70
    32
  0
VERTEX
  8
AM_VIS
  5
784
 10
5.74230
 20
4.21192
 30
0.000000
  70
    32
  0
VERTEX
  8
AM_VIS
  5
785
 10
5.74126
 20
4.21194
 30
0.000000
  70
    32
  0
VERTEX
  8
AM_VIS
  5
786
 10
5.74022
 20
4.21194
 30
0.000000
  70
    32
  0
VERTEX
  8
AM_VIS
  5
787
 10
5.73918
 20
4.21195
 30
0.000000
  70
    32
  0
VERTEX
  8
AM_VIS
  5
788
 10
5.73815
 20
4.21194
 30
0.000000
  70
    32
  0
VERTEX
  8
AM_VIS
  5
789
 10
5.73711
 20
4.21194
 30
0.000000
  70
    32
  0
VERTEX
  8
AM_VIS
  5
78A
 10
5.73607
 20
4.21193
 30
0.000000
  70
    32
  0
VERTEX
  8
AM_VIS
  5
78B
 10
5.73503
 20
4.21191
 30
0.000000
  70
    32
  0
VERTEX
  8
AM_VIS
  5
78C
 10
5.73399
 20
4.21189
 30
0.000000
  70
    32
  0
VERTEX
  8
AM_VIS
  5
78D
 10
5.73295
 20
4.21187
 30
0.000000
  70
    32
  0
VERTEX
  8
AM_VIS
  5
78E
 10
5.73191
 20
4.21184
 30
0.000000
  70
    32
  0
VERTEX
  8
AM_VIS
  5
78F
 10
5.73087
 20
4.21181
 30
0.000000
  70
    32
  0
VERTEX
  8
AM_VIS
  5
790
 10
5.72983
 20
4.21177
 30
0.000000
  70
    32
  0
VERTEX
  8
AM_VIS
  5
791
 10
5.72878
 20
4.21173
 30
0.000000
  70
    32
  0
VERTEX
  8
AM_VIS
  5
792
 10
5.72774
 20
4.21169
 30
0.000000
  70
    32
  0
VERTEX
  8
AM_VIS
  5
793
 10
5.72670
 20
4.21164
 30
0.000000
  70
    32
  0
VERTEX
  8
AM_VIS
  5
794
 10
5.72566
 20
4.21158
 30
0.000000
  70
    32
  0
VERTEX
  8
AM_VIS
  5
795
 10
5.72462
 20
4.21152
 30
0.000000
  70
    32
  0
VERTEX
  8
AM_VIS
  5
796
 10
5.72357
 20
4.21146
 30
0.000000
  70
    32
  0
VERTEX
  8
AM_VIS
  5
797
 10
5.72253
 20
4.21139
 30
0.000000
  70
    32
  0
VERTEX
  8
AM_VIS
  5
798
 10
5.72149
 20
4.21132
 30
0.000000
  70
    32
  0
VERTEX
  8
AM_VIS
  5
799
 10
5.72044
 20
4.21125
 30
0.000000
  70
    32
  0
VERTEX
  8
AM_VIS
  5
79A
 10
5.71940
 20
4.21116
 30
0.000000
  70
    32
  0
VERTEX
  8
AM_VIS
  5
79B
 10
5.71836
 20
4.21108
 30
0.000000
  70
    32
  0
VERTEX
  8
AM_VIS
  5
79C
 10
5.71731
 20
4.21099
 30
0.000000
  70
    32
  0
VERTEX
  8
AM_VIS
  5
79D
 10
5.71627
 20
4.21090
 30
0.000000
  70
    32
  0
VERTEX
  8
AM_VIS
  5
79E
 10
5.71522
 20
4.21080
 30
0.000000
  70
    32
  0
VERTEX
  8
AM_VIS
  5
79F
 10
5.71418
 20
4.21069
 30
0.000000
  70
    32
  0
VERTEX
  8
AM_VIS
  5
7A0
 10
5.71313
 20
4.21059
 30
0.000000
  70
    32
  0
VERTEX
  8
AM_VIS
  5
7A1
 10
5.71209
 20
4.21047
 30
0.000000
  70
    32
  0
VERTEX
  8
AM_VIS
  5
7A2
 10
5.71104
 20
4.21036
 30
0.000000
  70
    32
  0
VERTEX
  8
AM_VIS
  5
7A3
 10
5.70999
 20
4.21024
 30
0.000000
  70
    32
  0
VERTEX
  8
AM_VIS
  5
7A4
 10
5.70895
 20
4.21011
 30
0.000000
  70
    32
  0
VERTEX
  8
AM_VIS
  5
7A5
 10
5.70790
 20
4.20998
 30
0.000000
  70
    32
  0
VERTEX
  8
AM_VIS
  5
7A6
 10
5.70685
 20
4.20985
 30
0.000000
  70
    32
  0
VERTEX
  8
AM_VIS
  5
7A7
 10
5.70581
 20
4.20971
 30
0.000000
  70
    32
  0
VERTEX
  8
AM_VIS
  5
7A8
 10
5.70476
 20
4.20957
 30
0.000000
  70
    32
  0
VERTEX
  8
AM_VIS
  5
7A9
 10
5.70371
 20
4.20942
 30
0.000000
  70
    32
  0
VERTEX
  8
AM_VIS
  5
7AA
 10
5.70266
 20
4.20926
 30
0.000000
  70
    32
  0
VERTEX
  8
AM_VIS
  5
7AB
 10
5.70162
 20
4.20911
 30
0.000000
  70
    32
  0
VERTEX
  8
AM_VIS
  5
7AC
 10
5.70057
 20
4.20895
 30
0.000000
  70
    32
  0
VERTEX
  8
AM_VIS
  5
7AD
 10
5.69952
 20
4.20878
 30
0.000000
  70
    32
  0
VERTEX
  8
AM_VIS
  5
7AE
 10
5.69847
 20
4.20861
 30
0.000000
  70
    32
  0
VERTEX
  8
AM_VIS
  5
7AF
 10
5.69742
 20
4.20844
 30
0.000000
  70
    32
  0
VERTEX
  8
AM_VIS
  5
7B0
 10
5.69637
 20
4.20826
 30
0.000000
  70
    32
  0
VERTEX
  8
AM_VIS
  5
7B1
 10
5.69532
 20
4.20807
 30
0.000000
  70
    32
  0
VERTEX
  8
AM_VIS
  5
7B2
 10
5.69427
 20
4.20788
 30
0.000000
  70
    32
  0
VERTEX
  8
AM_VIS
  5
7B3
 10
5.69322
 20
4.20769
 30
0.000000
  70
    32
  0
VERTEX
  8
AM_VIS
  5
7B4
 10
5.69217
 20
4.20749
 30
0.000000
  70
    32
  0
VERTEX
  8
AM_VIS
  5
7B5
 10
5.69112
 20
4.20729
 30
0.000000
  70
    32
  0
VERTEX
  8
AM_VIS
  5
7B6
 10
5.69007
 20
4.20709
 30
0.000000
  70
    32
  0
VERTEX
  8
AM_VIS
  5
7B7
 10
5.68902
 20
4.20687
 30
0.000000
  70
    32
  0
VERTEX
  8
AM_VIS
  5
7B8
 10
5.68797
 20
4.20666
 30
0.000000
  70
    32
  0
VERTEX
  8
AM_VIS
  5
7B9
 10
5.68692
 20
4.20644
 30
0.000000
  70
    32
  0
VERTEX
  8
AM_VIS
  5
7BA
 10
5.68588
 20
4.20622
 30
0.000000
  70
    32
  0
VERTEX
  8
AM_VIS
  5
7BB
 10
5.68483
 20
4.20599
 30
0.000000
  70
    32
  0
VERTEX
  8
AM_VIS
  5
7BC
 10
5.68378
 20
4.20575
 30
0.000000
  70
    32
  0
VERTEX
  8
AM_VIS
  5
7BD
 10
5.68274
 20
4.20552
 30
0.000000
  70
    32
  0
VERTEX
  8
AM_VIS
  5
7BE
 10
5.68169
 20
4.20528
 30
0.000000
  70
    32
  0
VERTEX
  8
AM_VIS
  5
7BF
 10
5.68065
 20
4.20503
 30
0.000000
  70
    32
  0
VERTEX
  8
AM_VIS
  5
7C0
 10
5.67961
 20
4.20478
 30
0.000000
  70
    32
  0
VERTEX
  8
AM_VIS
  5
7C1
 10
5.67857
 20
4.20453
 30
0.000000
  70
    32
  0
VERTEX
  8
AM_VIS
  5
7C2
 10
5.67753
 20
4.20427
 30
0.000000
  70
    32
  0
VERTEX
  8
AM_VIS
  5
7C3
 10
5.67649
 20
4.20401
 30
0.000000
  70
    32
  0
VERTEX
  8
AM_VIS
  5
7C4
 10
5.67545
 20
4.20374
 30
0.000000
  70
    32
  0
VERTEX
  8
AM_VIS
  5
7C5
 10
5.67441
 20
4.20347
 30
0.000000
  70
    32
  0
VERTEX
  8
AM_VIS
  5
7C6
 10
5.67338
 20
4.20319
 30
0.000000
  70
    32
  0
VERTEX
  8
AM_VIS
  5
7C7
 10
5.67234
 20
4.20292
 30
0.000000
  70
    32
  0
VERTEX
  8
AM_VIS
  5
7C8
 10
5.67131
 20
4.20263
 30
0.000000
  70
    32
  0
VERTEX
  8
AM_VIS
  5
7C9
 10
5.67027
 20
4.20234
 30
0.000000
  70
    32
  0
VERTEX
  8
AM_VIS
  5
7CA
 10
5.66924
 20
4.20205
 30
0.000000
  70
    32
  0
VERTEX
  8
AM_VIS
  5
7CB
 10
5.66821
 20
4.20176
 30
0.000000
  70
    32
  0
VERTEX
  8
AM_VIS
  5
7CC
 10
5.66718
 20
4.20146
 30
0.000000
  70
    32
  0
VERTEX
  8
AM_VIS
  5
7CD
 10
5.66615
 20
4.20115
 30
0.000000
  70
    32
  0
VERTEX
  8
AM_VIS
  5
7CE
 10
5.66512
 20
4.20085
 30
0.000000
  70
    32
  0
VERTEX
  8
AM_VIS
  5
7CF
 10
5.66409
 20
4.20053
 30
0.000000
  70
    32
  0
VERTEX
  8
AM_VIS
  5
7D0
 10
5.66307
 20
4.20022
 30
0.000000
  70
    32
  0
VERTEX
  8
AM_VIS
  5
7D1
 10
5.66204
 20
4.19990
 30
0.000000
  70
    32
  0
VERTEX
  8
AM_VIS
  5
7D2
 10
5.66102
 20
4.19957
 30
0.000000
  70
    32
  0
VERTEX
  8
AM_VIS
  5
7D3
 10
5.65999
 20
4.19925
 30
0.000000
  70
    32
  0
VERTEX
  8
AM_VIS
  5
7D4
 10
5.65897
 20
4.19891
 30
0.000000
  70
    32
  0
VERTEX
  8
AM_VIS
  5
7D5
 10
5.65795
 20
4.19858
 30
0.000000
  70
    32
  0
VERTEX
  8
AM_VIS
  5
7D6
 10
5.65693
 20
4.19824
 30
0.000000
  70
    32
  0
VERTEX
  8
AM_VIS
  5
7D7
 10
5.65591
 20
4.19789
 30
0.000000
  70
    32
  0
VERTEX
  8
AM_VIS
  5
7D8
 10
5.65489
 20
4.19754
 30
0.000000
  70
    32
  0
VERTEX
  8
AM_VIS
  5
7D9
 10
5.65388
 20
4.19719
 30
0.000000
  70
    32
  0
VERTEX
  8
AM_VIS
  5
7DA
 10
5.65286
 20
4.19684
 30
0.000000
  70
    32
  0
VERTEX
  8
AM_VIS
  5
7DB
 10
5.65185
 20
4.19648
 30
0.000000
  70
    32
  0
VERTEX
  8
AM_VIS
  5
7DC
 10
5.65083
 20
4.19611
 30
0.000000
  70
    32
  0
VERTEX
  8
AM_VIS
  5
7DD
 10
5.64982
 20
4.19575
 30
0.000000
  70
    32
  0
VERTEX
  8
AM_VIS
  5
7DE
 10
5.64881
 20
4.19537
 30
0.000000
  70
    32
  0
VERTEX
  8
AM_VIS
  5
7DF
 10
5.64780
 20
4.19500
 30
0.000000
  70
    32
  0
VERTEX
  8
AM_VIS
  5
7E0
 10
5.64679
 20
4.19462
 30
0.000000
  70
    32
  0
VERTEX
  8
AM_VIS
  5
7E1
 10
5.64578
 20
4.19424
 30
0.000000
  70
    32
  0
VERTEX
  8
AM_VIS
  5
7E2
 10
5.64478
 20
4.19385
 30
0.000000
  70
    32
  0
VERTEX
  8
AM_VIS
  5
7E3
 10
5.64377
 20
4.19346
 30
0.000000
  70
    32
  0
VERTEX
  8
AM_VIS
  5
7E4
 10
5.64277
 20
4.19307
 30
0.000000
  70
    32
  0
VERTEX
  8
AM_VIS
  5
7E5
 10
5.64176
 20
4.19267
 30
0.000000
  70
    32
  0
VERTEX
  8
AM_VIS
  5
7E6
 10
5.64076
 20
4.19227
 30
0.000000
  70
    32
  0
VERTEX
  8
AM_VIS
  5
7E7
 10
5.63976
 20
4.19186
 30
0.000000
  70
    32
  0
VERTEX
  8
AM_VIS
  5
7E8
 10
5.63876
 20
4.19145
 30
0.000000
  70
    32
  0
VERTEX
  8
AM_VIS
  5
7E9
 10
5.63777
 20
4.19104
 30
0.000000
  70
    32
  0
VERTEX
  8
AM_VIS
  5
7EA
 10
5.63677
 20
4.19062
 30
0.000000
  70
    32
  0
VERTEX
  8
AM_VIS
  5
7EB
 10
5.63577
 20
4.19020
 30
0.000000
  70
    32
  0
VERTEX
  8
AM_VIS
  5
7EC
 10
5.63478
 20
4.18978
 30
0.000000
  70
    32
  0
VERTEX
  8
AM_VIS
  5
7ED
 10
5.63379
 20
4.18935
 30
0.000000
  70
    32
  0
VERTEX
  8
AM_VIS
  5
7EE
 10
5.63279
 20
4.18892
 30
0.000000
  70
    32
  0
VERTEX
  8
AM_VIS
  5
7EF
 10
5.63180
 20
4.18848
 30
0.000000
  70
    32
  0
VERTEX
  8
AM_VIS
  5
7F0
 10
5.63082
 20
4.18804
 30
0.000000
  70
    32
  0
VERTEX
  8
AM_VIS
  5
7F1
 10
5.62983
 20
4.18760
 30
0.000000
  70
    32
  0
VERTEX
  8
AM_VIS
  5
7F2
 10
5.62884
 20
4.18716
 30
0.000000
  70
    32
  0
VERTEX
  8
AM_VIS
  5
7F3
 10
5.62786
 20
4.18671
 30
0.000000
  70
    32
  0
VERTEX
  8
AM_VIS
  5
7F4
 10
5.62687
 20
4.18625
 30
0.000000
  70
    32
  0
VERTEX
  8
AM_VIS
  5
7F5
 10
5.62589
 20
4.18580
 30
0.000000
  70
    32
  0
VERTEX
  8
AM_VIS
  5
7F6
 10
5.62491
 20
4.18534
 30
0.000000
  70
    32
  0
VERTEX
  8
AM_VIS
  5
7F7
 10
5.62393
 20
4.18487
 30
0.000000
  70
    32
  0
VERTEX
  8
AM_VIS
  5
7F8
 10
5.62295
 20
4.18441
 30
0.000000
  70
    32
  0
VERTEX
  8
AM_VIS
  5
7F9
 10
5.62197
 20
4.18393
 30
0.000000
  70
    32
  0
VERTEX
  8
AM_VIS
  5
7FA
 10
5.62100
 20
4.18346
 30
0.000000
  70
    32
  0
VERTEX
  8
AM_VIS
  5
7FB
 10
5.62002
 20
4.18298
 30
0.000000
  70
    32
  0
VERTEX
  8
AM_VIS
  5
7FC
 10
5.61905
 20
4.18250
 30
0.000000
  70
    32
  0
VERTEX
  8
AM_VIS
  5
7FD
 10
5.61808
 20
4.18202
 30
0.000000
  70
    32
  0
VERTEX
  8
AM_VIS
  5
7FE
 10
5.61711
 20
4.18153
 30
0.000000
  70
    32
  0
VERTEX
  8
AM_VIS
  5
7FF
 10
5.61614
 20
4.18104
 30
0.000000
  70
    32
  0
VERTEX
  8
AM_VIS
  5
800
 10
5.61517
 20
4.18054
 30
0.000000
  70
    32
  0
VERTEX
  8
AM_VIS
  5
801
 10
5.61421
 20
4.18004
 30
0.000000
  70
    32
  0
VERTEX
  8
AM_VIS
  5
802
 10
5.61324
 20
4.17954
 30
0.000000
  70
    32
  0
VERTEX
  8
AM_VIS
  5
803
 10
5.61228
 20
4.17904
 30
0.000000
  70
    32
  0
VERTEX
  8
AM_VIS
  5
804
 10
5.61132
 20
4.17853
 30
0.000000
  70
    32
  0
VERTEX
  8
AM_VIS
  5
805
 10
5.61036
 20
4.17802
 30
0.000000
  70
    32
  0
VERTEX
  8
AM_VIS
  5
806
 10
5.60940
 20
4.17750
 30
0.000000
  70
    32
  0
VERTEX
  8
AM_VIS
  5
807
 10
5.60844
 20
4.17698
 30
0.000000
  70
    32
  0
VERTEX
  8
AM_VIS
  5
808
 10
5.60749
 20
4.17646
 30
0.000000
  70
    32
  0
VERTEX
  8
AM_VIS
  5
809
 10
5.60653
 20
4.17593
 30
0.000000
  70
    32
  0
VERTEX
  8
AM_VIS
  5
80A
 10
5.60558
 20
4.17541
 30
0.000000
  70
    32
  0
VERTEX
  8
AM_VIS
  5
80B
 10
5.60463
 20
4.17487
 30
0.000000
  70
    32
  0
VERTEX
  8
AM_VIS
  5
80C
 10
5.60368
 20
4.17434
 30
0.000000
  70
    32
  0
VERTEX
  8
AM_VIS
  5
80D
 10
5.60273
 20
4.17380
 30
0.000000
  70
    32
  0
VERTEX
  8
AM_VIS
  5
80E
 10
5.60178
 20
4.17326
 30
0.000000
  70
    32
  0
VERTEX
  8
AM_VIS
  5
80F
 10
5.60084
 20
4.17271
 30
0.000000
  70
    32
  0
VERTEX
  8
AM_VIS
  5
810
 10
5.59990
 20
4.17217
 30
0.000000
  70
    32
  0
VERTEX
  8
AM_VIS
  5
811
 10
5.59895
 20
4.17162
 30
0.000000
  70
    32
  0
VERTEX
  8
AM_VIS
  5
812
 10
5.59801
 20
4.17106
 30
0.000000
  70
    32
  0
VERTEX
  8
AM_VIS
  5
813
 10
5.59708
 20
4.17050
 30
0.000000
  70
    32
  0
VERTEX
  8
AM_VIS
  5
814
 10
5.59614
 20
4.16994
 30
0.000000
  70
    32
  0
VERTEX
  8
AM_VIS
  5
815
 10
5.59520
 20
4.16938
 30
0.000000
  70
    32
  0
VERTEX
  8
AM_VIS
  5
816
 10
5.59427
 20
4.16881
 30
0.000000
  70
    32
  0
VERTEX
  8
AM_VIS
  5
817
 10
5.59334
 20
4.16824
 30
0.000000
  70
    32
  0
VERTEX
  8
AM_VIS
  5
818
 10
5.59241
 20
4.16767
 30
0.000000
  70
    32
  0
VERTEX
  8
AM_VIS
  5
819
 10
5.59148
 20
4.16709
 30
0.000000
  70
    32
  0
VERTEX
  8
AM_VIS
  5
81A
 10
5.59055
 20
4.16651
 30
0.000000
  70
    32
  0
VERTEX
  8
AM_VIS
  5
81B
 10
5.58962
 20
4.16593
 30
0.000000
  70
    32
  0
VERTEX
  8
AM_VIS
  5
81C
 10
5.58870
 20
4.16535
 30
0.000000
  70
    32
  0
VERTEX
  8
AM_VIS
  5
81D
 10
5.58778
 20
4.16476
 30
0.000000
  70
    32
  0
VERTEX
  8
AM_VIS
  5
81E
 10
5.58686
 20
4.16417
 30
0.000000
  70
    32
  0
VERTEX
  8
AM_VIS
  5
81F
 10
5.58594
 20
4.16357
 30
0.000000
  70
    32
  0
VERTEX
  8
AM_VIS
  5
820
 10
5.58502
 20
4.16297
 30
0.000000
  70
    32
  0
VERTEX
  8
AM_VIS
  5
821
 10
5.58410
 20
4.16237
 30
0.000000
  70
    32
  0
VERTEX
  8
AM_VIS
  5
822
 10
5.58319
 20
4.16177
 30
0.000000
  70
    32
  0
VERTEX
  8
AM_VIS
  5
823
 10
5.58228
 20
4.16116
 30
0.000000
  70
    32
  0
VERTEX
  8
AM_VIS
  5
824
 10
5.58137
 20
4.16055
 30
0.000000
  70
    32
  0
VERTEX
  8
AM_VIS
  5
825
 10
5.58046
 20
4.15994
 30
0.000000
  70
    32
  0
VERTEX
  8
AM_VIS
  5
826
 10
5.57955
 20
4.15932
 30
0.000000
  70
    32
  0
VERTEX
  8
AM_VIS
  5
827
 10
5.57864
 20
4.15871
 30
0.000000
  70
    32
  0
VERTEX
  8
AM_VIS
  5
828
 10
5.57774
 20
4.15808
 30
0.000000
  70
    32
  0
VERTEX
  8
AM_VIS
  5
829
 10
5.57683
 20
4.15746
 30
0.000000
  70
    32
  0
VERTEX
  8
AM_VIS
  5
82A
 10
5.57593
 20
4.15683
 30
0.000000
  70
    32
  0
VERTEX
  8
AM_VIS
  5
82B
 10
5.57503
 20
4.15620
 30
0.000000
  70
    32
  0
VERTEX
  8
AM_VIS
  5
82C
 10
5.57413
 20
4.15556
 30
0.000000
  70
    32
  0
VERTEX
  8
AM_VIS
  5
82D
 10
5.57323
 20
4.15493
 30
0.000000
  70
    32
  0
VERTEX
  8
AM_VIS
  5
82E
 10
5.57233
 20
4.15428
 30
0.000000
  70
    32
  0
VERTEX
  8
AM_VIS
  5
82F
 10
5.57144
 20
4.15364
 30
0.000000
  70
    32
  0
VERTEX
  8
AM_VIS
  5
830
 10
5.57054
 20
4.15299
 30
0.000000
  70
    32
  0
VERTEX
  8
AM_VIS
  5
831
 10
5.56965
 20
4.15234
 30
0.000000
  70
    32
  0
VERTEX
  8
AM_VIS
  5
832
 10
5.56876
 20
4.15169
 30
0.000000
  70
    32
  0
VERTEX
  8
AM_VIS
  5
833
 10
5.56787
 20
4.15103
 30
0.000000
  70
    32
  0
VERTEX
  8
AM_VIS
  5
834
 10
5.56698
 20
4.15037
 30
0.000000
  70
    32
  0
VERTEX
  8
AM_VIS
  5
835
 10
5.56609
 20
4.14971
 30
0.000000
  70
    32
  0
VERTEX
  8
AM_VIS
  5
836
 10
5.56521
 20
4.14904
 30
0.000000
  70
    32
  0
VERTEX
  8
AM_VIS
  5
837
 10
5.56432
 20
4.14837
 30
0.000000
  70
    32
  0
VERTEX
  8
AM_VIS
  5
838
 10
5.56344
 20
4.14770
 30
0.000000
  70
    32
  0
VERTEX
  8
AM_VIS
  5
839
 10
5.56256
 20
4.14702
 30
0.000000
  70
    32
  0
VERTEX
  8
AM_VIS
  5
83A
 10
5.56168
 20
4.14635
 30
0.000000
  70
    32
  0
VERTEX
  8
AM_VIS
  5
83B
 10
5.56080
 20
4.14567
 30
0.000000
  70
    32
  0
VERTEX
  8
AM_VIS
  5
83C
 10
5.55992
 20
4.14498
 30
0.000000
  70
    32
  0
VERTEX
  8
AM_VIS
  5
83D
 10
5.55905
 20
4.14429
 30
0.000000
  70
    32
  0
VERTEX
  8
AM_VIS
  5
83E
 10
5.55817
 20
4.14360
 30
0.000000
  70
    32
  0
VERTEX
  8
AM_VIS
  5
83F
 10
5.55730
 20
4.14291
 30
0.000000
  70
    32
  0
VERTEX
  8
AM_VIS
  5
840
 10
5.55643
 20
4.14221
 30
0.000000
  70
    32
  0
VERTEX
  8
AM_VIS
  5
841
 10
5.55556
 20
4.14151
 30
0.000000
  70
    32
  0
VERTEX
  8
AM_VIS
  5
842
 10
5.55469
 20
4.14081
 30
0.000000
  70
    32
  0
SEQEND
  8
AM_VIS
  5
843
  0
LINE
  5
35
  8
AM_VIS
 10
6.5490551057267377
 20
4.7237298491832203
 30
0.0
 11
6.5670551057267383
 21
4.74172984918322
 31
0.0
  0
POLYLINE
  8
AM_VIS
  5
844
  66
     1
 10
0.000000
 20
0.000000
 30
0.000000
  70
     8
  0
VERTEX
  8
AM_VIS
  5
845
 10
6.03897
 20
4.21364
 30
0.000000
  70
    32
  0
VERTEX
  8
AM_VIS
  5
846
 10
6.03873
 20
4.21341
 30
0.000000
  70
    32
  0
VERTEX
  8
AM_VIS
  5
847
 10
6.03850
 20
4.21317
 30
0.000000
  70
    32
  0
VERTEX
  8
AM_VIS
  5
848
 10
6.03826
 20
4.21293
 30
0.000000
  70
    32
  0
VERTEX
  8
AM_VIS
  5
849
 10
6.03803
 20
4.21269
 30
0.000000
  70
    32
  0
VERTEX
  8
AM_VIS
  5
84A
 10
6.03780
 20
4.21245
 30
0.000000
  70
    32
  0
VERTEX
  8
AM_VIS
  5
84B
 10
6.03757
 20
4.21220
 30
0.000000
  70
    32
  0
VERTEX
  8
AM_VIS
  5
84C
 10
6.03734
 20
4.21196
 30
0.000000
  70
    32
  0
VERTEX
  8
AM_VIS
  5
84D
 10
6.03711
 20
4.21171
 30
0.000000
  70
    32
  0
VERTEX
  8
AM_VIS
  5
84E
 10
6.03688
 20
4.21147
 30
0.000000
  70
    32
  0
VERTEX
  8
AM_VIS
  5
84F
 10
6.03665
 20
4.21122
 30
0.000000
  70
    32
  0
VERTEX
  8
AM_VIS
  5
850
 10
6.03642
 20
4.21097
 30
0.000000
  70
    32
  0
VERTEX
  8
AM_VIS
  5
851
 10
6.03620
 20
4.21072
 30
0.000000
  70
    32
  0
VERTEX
  8
AM_VIS
  5
852
 10
6.03598
 20
4.21047
 30
0.000000
  70
    32
  0
VERTEX
  8
AM_VIS
  5
853
 10
6.03575
 20
4.21022
 30
0.000000
  70
    32
  0
VERTEX
  8
AM_VIS
  5
854
 10
6.03553
 20
4.20997
 30
0.000000
  70
    32
  0
VERTEX
  8
AM_VIS
  5
855
 10
6.03531
 20
4.20972
 30
0.000000
  70
    32
  0
VERTEX
  8
AM_VIS
  5
856
 10
6.03509
 20
4.20947
 30
0.000000
  70
    32
  0
VERTEX
  8
AM_VIS
  5
857
 10
6.03488
 20
4.20921
 30
0.000000
  70
    32
  0
VERTEX
  8
AM_VIS
  5
858
 10
6.03466
 20
4.20896
 30
0.000000
  70
    32
  0
VERTEX
  8
AM_VIS
  5
859
 10
6.03445
 20
4.20871
 30
0.000000
  70
    32
  0
VERTEX
  8
AM_VIS
  5
85A
 10
6.03423
 20
4.20845
 30
0.000000
  70
    32
  0
VERTEX
  8
AM_VIS
  5
85B
 10
6.03402
 20
4.20819
 30
0.000000
  70
    32
  0
VERTEX
  8
AM_VIS
  5
85C
 10
6.03381
 20
4.20794
 30
0.000000
  70
    32
  0
VERTEX
  8
AM_VIS
  5
85D
 10
6.03360
 20
4.20768
 30
0.000000
  70
    32
  0
VERTEX
  8
AM_VIS
  5
85E
 10
6.03339
 20
4.20742
 30
0.000000
  70
    32
  0
VERTEX
  8
AM_VIS
  5
85F
 10
6.03319
 20
4.20716
 30
0.000000
  70
    32
  0
VERTEX
  8
AM_VIS
  5
860
 10
6.03298
 20
4.20690
 30
0.000000
  70
    32
  0
VERTEX
  8
AM_VIS
  5
861
 10
6.03278
 20
4.20664
 30
0.000000
  70
    32
  0
VERTEX
  8
AM_VIS
  5
862
 10
6.03257
 20
4.20638
 30
0.000000
  70
    32
  0
VERTEX
  8
AM_VIS
  5
863
 10
6.03237
 20
4.20611
 30
0.000000
  70
    32
  0
VERTEX
  8
AM_VIS
  5
864
 10
6.03217
 20
4.20585
 30
0.000000
  70
    32
  0
VERTEX
  8
AM_VIS
  5
865
 10
6.03197
 20
4.20559
 30
0.000000
  70
    32
  0
VERTEX
  8
AM_VIS
  5
866
 10
6.03178
 20
4.20532
 30
0.000000
  70
    32
  0
VERTEX
  8
AM_VIS
  5
867
 10
6.03158
 20
4.20506
 30
0.000000
  70
    32
  0
VERTEX
  8
AM_VIS
  5
868
 10
6.03138
 20
4.20479
 30
0.000000
  70
    32
  0
VERTEX
  8
AM_VIS
  5
869
 10
6.03119
 20
4.20452
 30
0.000000
  70
    32
  0
VERTEX
  8
AM_VIS
  5
86A
 10
6.03100
 20
4.20426
 30
0.000000
  70
    32
  0
VERTEX
  8
AM_VIS
  5
86B
 10
6.03080
 20
4.20399
 30
0.000000
  70
    32
  0
VERTEX
  8
AM_VIS
  5
86C
 10
6.03061
 20
4.20372
 30
0.000000
  70
    32
  0
VERTEX
  8
AM_VIS
  5
86D
 10
6.03043
 20
4.20345
 30
0.000000
  70
    32
  0
VERTEX
  8
AM_VIS
  5
86E
 10
6.03024
 20
4.20318
 30
0.000000
  70
    32
  0
VERTEX
  8
AM_VIS
  5
86F
 10
6.03005
 20
4.20291
 30
0.000000
  70
    32
  0
VERTEX
  8
AM_VIS
  5
870
 10
6.02987
 20
4.20263
 30
0.000000
  70
    32
  0
VERTEX
  8
AM_VIS
  5
871
 10
6.02968
 20
4.20236
 30
0.000000
  70
    32
  0
VERTEX
  8
AM_VIS
  5
872
 10
6.02950
 20
4.20209
 30
0.000000
  70
    32
  0
VERTEX
  8
AM_VIS
  5
873
 10
6.02932
 20
4.20181
 30
0.000000
  70
    32
  0
VERTEX
  8
AM_VIS
  5
874
 10
6.02914
 20
4.20154
 30
0.000000
  70
    32
  0
VERTEX
  8
AM_VIS
  5
875
 10
6.02896
 20
4.20126
 30
0.000000
  70
    32
  0
VERTEX
  8
AM_VIS
  5
876
 10
6.02878
 20
4.20099
 30
0.000000
  70
    32
  0
VERTEX
  8
AM_VIS
  5
877
 10
6.02860
 20
4.20071
 30
0.000000
  70
    32
  0
VERTEX
  8
AM_VIS
  5
878
 10
6.02843
 20
4.20043
 30
0.000000
  70
    32
  0
VERTEX
  8
AM_VIS
  5
879
 10
6.02825
 20
4.20015
 30
0.000000
  70
    32
  0
VERTEX
  8
AM_VIS
  5
87A
 10
6.02808
 20
4.19987
 30
0.000000
  70
    32
  0
VERTEX
  8
AM_VIS
  5
87B
 10
6.02791
 20
4.19959
 30
0.000000
  70
    32
  0
VERTEX
  8
AM_VIS
  5
87C
 10
6.02774
 20
4.19931
 30
0.000000
  70
    32
  0
VERTEX
  8
AM_VIS
  5
87D
 10
6.02757
 20
4.19903
 30
0.000000
  70
    32
  0
VERTEX
  8
AM_VIS
  5
87E
 10
6.02740
 20
4.19875
 30
0.000000
  70
    32
  0
VERTEX
  8
AM_VIS
  5
87F
 10
6.02724
 20
4.19846
 30
0.000000
  70
    32
  0
VERTEX
  8
AM_VIS
  5
880
 10
6.02707
 20
4.19818
 30
0.000000
  70
    32
  0
VERTEX
  8
AM_VIS
  5
881
 10
6.02691
 20
4.19790
 30
0.000000
  70
    32
  0
VERTEX
  8
AM_VIS
  5
882
 10
6.02674
 20
4.19761
 30
0.000000
  70
    32
  0
VERTEX
  8
AM_VIS
  5
883
 10
6.02658
 20
4.19733
 30
0.000000
  70
    32
  0
VERTEX
  8
AM_VIS
  5
884
 10
6.02642
 20
4.19704
 30
0.000000
  70
    32
  0
VERTEX
  8
AM_VIS
  5
885
 10
6.02626
 20
4.19675
 30
0.000000
  70
    32
  0
VERTEX
  8
AM_VIS
  5
886
 10
6.02610
 20
4.19646
 30
0.000000
  70
    32
  0
VERTEX
  8
AM_VIS
  5
887
 10
6.02594
 20
4.19618
 30
0.000000
  70
    32
  0
VERTEX
  8
AM_VIS
  5
888
 10
6.02579
 20
4.19589
 30
0.000000
  70
    32
  0
VERTEX
  8
AM_VIS
  5
889
 10
6.02563
 20
4.19560
 30
0.000000
  70
    32
  0
VERTEX
  8
AM_VIS
  5
88A
 10
6.02548
 20
4.19531
 30
0.000000
  70
    32
  0
VERTEX
  8
AM_VIS
  5
88B
 10
6.02533
 20
4.19501
 30
0.000000
  70
    32
  0
VERTEX
  8
AM_VIS
  5
88C
 10
6.02518
 20
4.19472
 30
0.000000
  70
    32
  0
VERTEX
  8
AM_VIS
  5
88D
 10
6.02503
 20
4.19443
 30
0.000000
  70
    32
  0
VERTEX
  8
AM_VIS
  5
88E
 10
6.02488
 20
4.19413
 30
0.000000
  70
    32
  0
VERTEX
  8
AM_VIS
  5
88F
 10
6.02473
 20
4.19384
 30
0.000000
  70
    32
  0
VERTEX
  8
AM_VIS
  5
890
 10
6.02458
 20
4.19355
 30
0.000000
  70
    32
  0
VERTEX
  8
AM_VIS
  5
891
 10
6.02444
 20
4.19325
 30
0.000000
  70
    32
  0
VERTEX
  8
AM_VIS
  5
892
 10
6.02430
 20
4.19295
 30
0.000000
  70
    32
  0
VERTEX
  8
AM_VIS
  5
893
 10
6.02415
 20
4.19266
 30
0.000000
  70
    32
  0
VERTEX
  8
AM_VIS
  5
894
 10
6.02401
 20
4.19236
 30
0.000000
  70
    32
  0
VERTEX
  8
AM_VIS
  5
895
 10
6.02387
 20
4.19206
 30
0.000000
  70
    32
  0
VERTEX
  8
AM_VIS
  5
896
 10
6.02373
 20
4.19176
 30
0.000000
  70
    32
  0
VERTEX
  8
AM_VIS
  5
897
 10
6.02359
 20
4.19146
 30
0.000000
  70
    32
  0
VERTEX
  8
AM_VIS
  5
898
 10
6.02346
 20
4.19116
 30
0.000000
  70
    32
  0
VERTEX
  8
AM_VIS
  5
899
 10
6.02332
 20
4.19086
 30
0.000000
  70
    32
  0
VERTEX
  8
AM_VIS
  5
89A
 10
6.02319
 20
4.19056
 30
0.000000
  70
    32
  0
VERTEX
  8
AM_VIS
  5
89B
 10
6.02305
 20
4.19026
 30
0.000000
  70
    32
  0
VERTEX
  8
AM_VIS
  5
89C
 10
6.02292
 20
4.18995
 30
0.000000
  70
    32
  0
VERTEX
  8
AM_VIS
  5
89D
 10
6.02279
 20
4.18965
 30
0.000000
  70
    32
  0
VERTEX
  8
AM_VIS
  5
89E
 10
6.02266
 20
4.18934
 30
0.000000
  70
    32
  0
VERTEX
  8
AM_VIS
  5
89F
 10
6.02253
 20
4.18904
 30
0.000000
  70
    32
  0
VERTEX
  8
AM_VIS
  5
8A0
 10
6.02240
 20
4.18873
 30
0.000000
  70
    32
  0
VERTEX
  8
AM_VIS
  5
8A1
 10
6.02228
 20
4.18843
 30
0.000000
  70
    32
  0
VERTEX
  8
AM_VIS
  5
8A2
 10
6.02215
 20
4.18812
 30
0.000000
  70
    32
  0
VERTEX
  8
AM_VIS
  5
8A3
 10
6.02203
 20
4.18781
 30
0.000000
  70
    32
  0
VERTEX
  8
AM_VIS
  5
8A4
 10
6.02190
 20
4.18750
 30
0.000000
  70
    32
  0
VERTEX
  8
AM_VIS
  5
8A5
 10
6.02178
 20
4.18719
 30
0.000000
  70
    32
  0
VERTEX
  8
AM_VIS
  5
8A6
 10
6.02166
 20
4.18688
 30
0.000000
  70
    32
  0
VERTEX
  8
AM_VIS
  5
8A7
 10
6.02154
 20
4.18657
 30
0.000000
  70
    32
  0
VERTEX
  8
AM_VIS
  5
8A8
 10
6.02142
 20
4.18626
 30
0.000000
  70
    32
  0
VERTEX
  8
AM_VIS
  5
8A9
 10
6.02131
 20
4.18595
 30
0.000000
  70
    32
  0
VERTEX
  8
AM_VIS
  5
8AA
 10
6.02119
 20
4.18564
 30
0.000000
  70
    32
  0
VERTEX
  8
AM_VIS
  5
8AB
 10
6.02107
 20
4.18533
 30
0.000000
  70
    32
  0
VERTEX
  8
AM_VIS
  5
8AC
 10
6.02096
 20
4.18502
 30
0.000000
  70
    32
  0
VERTEX
  8
AM_VIS
  5
8AD
 10
6.02085
 20
4.18470
 30
0.000000
  70
    32
  0
VERTEX
  8
AM_VIS
  5
8AE
 10
6.02074
 20
4.18439
 30
0.000000
  70
    32
  0
VERTEX
  8
AM_VIS
  5
8AF
 10
6.02063
 20
4.18408
 30
0.000000
  70
    32
  0
VERTEX
  8
AM_VIS
  5
8B0
 10
6.02052
 20
4.18376
 30
0.000000
  70
    32
  0
VERTEX
  8
AM_VIS
  5
8B1
 10
6.02041
 20
4.18345
 30
0.000000
  70
    32
  0
VERTEX
  8
AM_VIS
  5
8B2
 10
6.02031
 20
4.18314
 30
0.000000
  70
    32
  0
VERTEX
  8
AM_VIS
  5
8B3
 10
6.02020
 20
4.18282
 30
0.000000
  70
    32
  0
VERTEX
  8
AM_VIS
  5
8B4
 10
6.02010
 20
4.18251
 30
0.000000
  70
    32
  0
VERTEX
  8
AM_VIS
  5
8B5
 10
6.01999
 20
4.18219
 30
0.000000
  70
    32
  0
VERTEX
  8
AM_VIS
  5
8B6
 10
6.01989
 20
4.18187
 30
0.000000
  70
    32
  0
VERTEX
  8
AM_VIS
  5
8B7
 10
6.01979
 20
4.18156
 30
0.000000
  70
    32
  0
VERTEX
  8
AM_VIS
  5
8B8
 10
6.01969
 20
4.18124
 30
0.000000
  70
    32
  0
VERTEX
  8
AM_VIS
  5
8B9
 10
6.01959
 20
4.18092
 30
0.000000
  70
    32
  0
VERTEX
  8
AM_VIS
  5
8BA
 10
6.01950
 20
4.18061
 30
0.000000
  70
    32
  0
VERTEX
  8
AM_VIS
  5
8BB
 10
6.01940
 20
4.18029
 30
0.000000
  70
    32
  0
VERTEX
  8
AM_VIS
  5
8BC
 10
6.01931
 20
4.17997
 30
0.000000
  70
    32
  0
VERTEX
  8
AM_VIS
  5
8BD
 10
6.01921
 20
4.17965
 30
0.000000
  70
    32
  0
VERTEX
  8
AM_VIS
  5
8BE
 10
6.01912
 20
4.17933
 30
0.000000
  70
    32
  0
VERTEX
  8
AM_VIS
  5
8BF
 10
6.01903
 20
4.17902
 30
0.000000
  70
    32
  0
VERTEX
  8
AM_VIS
  5
8C0
 10
6.01894
 20
4.17870
 30
0.000000
  70
    32
  0
VERTEX
  8
AM_VIS
  5
8C1
 10
6.01885
 20
4.17838
 30
0.000000
  70
    32
  0
VERTEX
  8
AM_VIS
  5
8C2
 10
6.01876
 20
4.17806
 30
0.000000
  70
    32
  0
VERTEX
  8
AM_VIS
  5
8C3
 10
6.01868
 20
4.17774
 30
0.000000
  70
    32
  0
VERTEX
  8
AM_VIS
  5
8C4
 10
6.01859
 20
4.17742
 30
0.000000
  70
    32
  0
VERTEX
  8
AM_VIS
  5
8C5
 10
6.01851
 20
4.17710
 30
0.000000
  70
    32
  0
VERTEX
  8
AM_VIS
  5
8C6
 10
6.01842
 20
4.17677
 30
0.000000
  70
    32
  0
VERTEX
  8
AM_VIS
  5
8C7
 10
6.01834
 20
4.17645
 30
0.000000
  70
    32
  0
VERTEX
  8
AM_VIS
  5
8C8
 10
6.01826
 20
4.17613
 30
0.000000
  70
    32
  0
VERTEX
  8
AM_VIS
  5
8C9
 10
6.01818
 20
4.17581
 30
0.000000
  70
    32
  0
VERTEX
  8
AM_VIS
  5
8CA
 10
6.01810
 20
4.17549
 30
0.000000
  70
    32
  0
VERTEX
  8
AM_VIS
  5
8CB
 10
6.01802
 20
4.17516
 30
0.000000
  70
    32
  0
VERTEX
  8
AM_VIS
  5
8CC
 10
6.01794
 20
4.17484
 30
0.000000
  70
    32
  0
VERTEX
  8
AM_VIS
  5
8CD
 10
6.01787
 20
4.17452
 30
0.000000
  70
    32
  0
VERTEX
  8
AM_VIS
  5
8CE
 10
6.01779
 20
4.17420
 30
0.000000
  70
    32
  0
VERTEX
  8
AM_VIS
  5
8CF
 10
6.01772
 20
4.17387
 30
0.000000
  70
    32
  0
VERTEX
  8
AM_VIS
  5
8D0
 10
6.01764
 20
4.17355
 30
0.000000
  70
    32
  0
VERTEX
  8
AM_VIS
  5
8D1
 10
6.01757
 20
4.17322
 30
0.000000
  70
    32
  0
VERTEX
  8
AM_VIS
  5
8D2
 10
6.01750
 20
4.17290
 30
0.000000
  70
    32
  0
VERTEX
  8
AM_VIS
  5
8D3
 10
6.01743
 20
4.17257
 30
0.000000
  70
    32
  0
VERTEX
  8
AM_VIS
  5
8D4
 10
6.01736
 20
4.17225
 30
0.000000
  70
    32
  0
VERTEX
  8
AM_VIS
  5
8D5
 10
6.01729
 20
4.17192
 30
0.000000
  70
    32
  0
VERTEX
  8
AM_VIS
  5
8D6
 10
6.01723
 20
4.17160
 30
0.000000
  70
    32
  0
VERTEX
  8
AM_VIS
  5
8D7
 10
6.01716
 20
4.17127
 30
0.000000
  70
    32
  0
VERTEX
  8
AM_VIS
  5
8D8
 10
6.01710
 20
4.17095
 30
0.000000
  70
    32
  0
VERTEX
  8
AM_VIS
  5
8D9
 10
6.01703
 20
4.17062
 30
0.000000
  70
    32
  0
VERTEX
  8
AM_VIS
  5
8DA
 10
6.01697
 20
4.17029
 30
0.000000
  70
    32
  0
VERTEX
  8
AM_VIS
  5
8DB
 10
6.01691
 20
4.16997
 30
0.000000
  70
    32
  0
VERTEX
  8
AM_VIS
  5
8DC
 10
6.01685
 20
4.16964
 30
0.000000
  70
    32
  0
VERTEX
  8
AM_VIS
  5
8DD
 10
6.01679
 20
4.16931
 30
0.000000
  70
    32
  0
VERTEX
  8
AM_VIS
  5
8DE
 10
6.01673
 20
4.16899
 30
0.000000
  70
    32
  0
VERTEX
  8
AM_VIS
  5
8DF
 10
6.01667
 20
4.16866
 30
0.000000
  70
    32
  0
VERTEX
  8
AM_VIS
  5
8E0
 10
6.01661
 20
4.16833
 30
0.000000
  70
    32
  0
VERTEX
  8
AM_VIS
  5
8E1
 10
6.01656
 20
4.16800
 30
0.000000
  70
    32
  0
VERTEX
  8
AM_VIS
  5
8E2
 10
6.01650
 20
4.16767
 30
0.000000
  70
    32
  0
VERTEX
  8
AM_VIS
  5
8E3
 10
6.01645
 20
4.16734
 30
0.000000
  70
    32
  0
VERTEX
  8
AM_VIS
  5
8E4
 10
6.01639
 20
4.16702
 30
0.000000
  70
    32
  0
VERTEX
  8
AM_VIS
  5
8E5
 10
6.01634
 20
4.16669
 30
0.000000
  70
    32
  0
VERTEX
  8
AM_VIS
  5
8E6
 10
6.01629
 20
4.16636
 30
0.000000
  70
    32
  0
VERTEX
  8
AM_VIS
  5
8E7
 10
6.01624
 20
4.16603
 30
0.000000
  70
    32
  0
VERTEX
  8
AM_VIS
  5
8E8
 10
6.01619
 20
4.16570
 30
0.000000
  70
    32
  0
VERTEX
  8
AM_VIS
  5
8E9
 10
6.01614
 20
4.16537
 30
0.000000
  70
    32
  0
VERTEX
  8
AM_VIS
  5
8EA
 10
6.01609
 20
4.16504
 30
0.000000
  70
    32
  0
VERTEX
  8
AM_VIS
  5
8EB
 10
6.01604
 20
4.16471
 30
0.000000
  70
    32
  0
VERTEX
  8
AM_VIS
  5
8EC
 10
6.01600
 20
4.16438
 30
0.000000
  70
    32
  0
VERTEX
  8
AM_VIS
  5
8ED
 10
6.01595
 20
4.16405
 30
0.000000
  70
    32
  0
VERTEX
  8
AM_VIS
  5
8EE
 10
6.01591
 20
4.16372
 30
0.000000
  70
    32
  0
VERTEX
  8
AM_VIS
  5
8EF
 10
6.01587
 20
4.16339
 30
0.000000
  70
    32
  0
VERTEX
  8
AM_VIS
  5
8F0
 10
6.01582
 20
4.16306
 30
0.000000
  70
    32
  0
VERTEX
  8
AM_VIS
  5
8F1
 10
6.01578
 20
4.16272
 30
0.000000
  70
    32
  0
VERTEX
  8
AM_VIS
  5
8F2
 10
6.01574
 20
4.16239
 30
0.000000
  70
    32
  0
VERTEX
  8
AM_VIS
  5
8F3
 10
6.01570
 20
4.16206
 30
0.000000
  70
    32
  0
VERTEX
  8
AM_VIS
  5
8F4
 10
6.01566
 20
4.16173
 30
0.000000
  70
    32
  0
VERTEX
  8
AM_VIS
  5
8F5
 10
6.01562
 20
4.16140
 30
0.000000
  70
    32
  0
VERTEX
  8
AM_VIS
  5
8F6
 10
6.01559
 20
4.16107
 30
0.000000
  70
    32
  0
VERTEX
  8
AM_VIS
  5
8F7
 10
6.01555
 20
4.16073
 30
0.000000
  70
    32
  0
VERTEX
  8
AM_VIS
  5
8F8
 10
6.01551
 20
4.16040
 30
0.000000
  70
    32
  0
VERTEX
  8
AM_VIS
  5
8F9
 10
6.01548
 20
4.16007
 30
0.000000
  70
    32
  0
VERTEX
  8
AM_VIS
  5
8FA
 10
6.01544
 20
4.15974
 30
0.000000
  70
    32
  0
VERTEX
  8
AM_VIS
  5
8FB
 10
6.01541
 20
4.15940
 30
0.000000
  70
    32
  0
VERTEX
  8
AM_VIS
  5
8FC
 10
6.01538
 20
4.15907
 30
0.000000
  70
    32
  0
VERTEX
  8
AM_VIS
  5
8FD
 10
6.01535
 20
4.15874
 30
0.000000
  70
    32
  0
VERTEX
  8
AM_VIS
  5
8FE
 10
6.01532
 20
4.15841
 30
0.000000
  70
    32
  0
VERTEX
  8
AM_VIS
  5
8FF
 10
6.01529
 20
4.15807
 30
0.000000
  70
    32
  0
VERTEX
  8
AM_VIS
  5
900
 10
6.01526
 20
4.15774
 30
0.000000
  70
    32
  0
VERTEX
  8
AM_VIS
  5
901
 10
6.01523
 20
4.15741
 30
0.000000
  70
    32
  0
VERTEX
  8
AM_VIS
  5
902
 10
6.01520
 20
4.15707
 30
0.000000
  70
    32
  0
VERTEX
  8
AM_VIS
  5
903
 10
6.01517
 20
4.15674
 30
0.000000
  70
    32
  0
VERTEX
  8
AM_VIS
  5
904
 10
6.01515
 20
4.15641
 30
0.000000
  70
    32
  0
VERTEX
  8
AM_VIS
  5
905
 10
6.01512
 20
4.15607
 30
0.000000
  70
    32
  0
VERTEX
  8
AM_VIS
  5
906
 10
6.01510
 20
4.15574
 30
0.000000
  70
    32
  0
VERTEX
  8
AM_VIS
  5
907
 10
6.01508
 20
4.15541
 30
0.000000
  70
    32
  0
VERTEX
  8
AM_VIS
  5
908
 10
6.01505
 20
4.15507
 30
0.000000
  70
    32
  0
VERTEX
  8
AM_VIS
  5
909
 10
6.01503
 20
4.15474
 30
0.000000
  70
    32
  0
VERTEX
  8
AM_VIS
  5
90A
 10
6.01501
 20
4.15440
 30
0.000000
  70
    32
  0
VERTEX
  8
AM_VIS
  5
90B
 10
6.01499
 20
4.15407
 30
0.000000
  70
    32
  0
VERTEX
  8
AM_VIS
  5
90C
 10
6.01497
 20
4.15374
 30
0.000000
  70
    32
  0
VERTEX
  8
AM_VIS
  5
90D
 10
6.01495
 20
4.15340
 30
0.000000
  70
    32
  0
VERTEX
  8
AM_VIS
  5
90E
 10
6.01493
 20
4.15307
 30
0.000000
  70
    32
  0
VERTEX
  8
AM_VIS
  5
90F
 10
6.01491
 20
4.15273
 30
0.000000
  70
    32
  0
VERTEX
  8
AM_VIS
  5
910
 10
6.01490
 20
4.15240
 30
0.000000
  70
    32
  0
VERTEX
  8
AM_VIS
  5
911
 10
6.01488
 20
4.15206
 30
0.000000
  70
    32
  0
VERTEX
  8
AM_VIS
  5
912
 10
6.01486
 20
4.15173
 30
0.000000
  70
    32
  0
VERTEX
  8
AM_VIS
  5
913
 10
6.01485
 20
4.15139
 30
0.000000
  70
    32
  0
VERTEX
  8
AM_VIS
  5
914
 10
6.01484
 20
4.15106
 30
0.000000
  70
    32
  0
VERTEX
  8
AM_VIS
  5
915
 10
6.01482
 20
4.15072
 30
0.000000
  70
    32
  0
VERTEX
  8
AM_VIS
  5
916
 10
6.01481
 20
4.15039
 30
0.000000
  70
    32
  0
VERTEX
  8
AM_VIS
  5
917
 10
6.01480
 20
4.15005
 30
0.000000
  70
    32
  0
VERTEX
  8
AM_VIS
  5
918
 10
6.01479
 20
4.14972
 30
0.000000
  70
    32
  0
VERTEX
  8
AM_VIS
  5
919
 10
6.01478
 20
4.14938
 30
0.000000
  70
    32
  0
VERTEX
  8
AM_VIS
  5
91A
 10
6.01477
 20
4.14905
 30
0.000000
  70
    32
  0
VERTEX
  8
AM_VIS
  5
91B
 10
6.01476
 20
4.14871
 30
0.000000
  70
    32
  0
VERTEX
  8
AM_VIS
  5
91C
 10
6.01475
 20
4.14838
 30
0.000000
  70
    32
  0
VERTEX
  8
AM_VIS
  5
91D
 10
6.01474
 20
4.14804
 30
0.000000
  70
    32
  0
VERTEX
  8
AM_VIS
  5
91E
 10
6.01473
 20
4.14771
 30
0.000000
  70
    32
  0
VERTEX
  8
AM_VIS
  5
91F
 10
6.01473
 20
4.14737
 30
0.000000
  70
    32
  0
VERTEX
  8
AM_VIS
  5
920
 10
6.01472
 20
4.14704
 30
0.000000
  70
    32
  0
VERTEX
  8
AM_VIS
  5
921
 10
6.01471
 20
4.14670
 30
0.000000
  70
    32
  0
VERTEX
  8
AM_VIS
  5
922
 10
6.01471
 20
4.14636
 30
0.000000
  70
    32
  0
VERTEX
  8
AM_VIS
  5
923
 10
6.01471
 20
4.14603
 30
0.000000
  70
    32
  0
VERTEX
  8
AM_VIS
  5
924
 10
6.01470
 20
4.14569
 30
0.000000
  70
    32
  0
VERTEX
  8
AM_VIS
  5
925
 10
6.01470
 20
4.14536
 30
0.000000
  70
    32
  0
VERTEX
  8
AM_VIS
  5
926
 10
6.01470
 20
4.14502
 30
0.000000
  70
    32
  0
VERTEX
  8
AM_VIS
  5
927
 10
6.01470
 20
4.14469
 30
0.000000
  70
    32
  0
VERTEX
  8
AM_VIS
  5
928
 10
6.01469
 20
4.14435
 30
0.000000
  70
    32
  0
VERTEX
  8
AM_VIS
  5
929
 10
6.01469
 20
4.14401
 30
0.000000
  70
    32
  0
VERTEX
  8
AM_VIS
  5
92A
 10
6.01469
 20
4.14368
 30
0.000000
  70
    32
  0
VERTEX
  8
AM_VIS
  5
92B
 10
6.01470
 20
4.14334
 30
0.000000
  70
    32
  0
VERTEX
  8
AM_VIS
  5
92C
 10
6.01470
 20
4.14301
 30
0.000000
  70
    32
  0
VERTEX
  8
AM_VIS
  5
92D
 10
6.01470
 20
4.14267
 30
0.000000
  70
    32
  0
VERTEX
  8
AM_VIS
  5
92E
 10
6.01470
 20
4.14233
 30
0.000000
  70
    32
  0
VERTEX
  8
AM_VIS
  5
92F
 10
6.01470
 20
4.14200
 30
0.000000
  70
    32
  0
VERTEX
  8
AM_VIS
  5
930
 10
6.01471
 20
4.14166
 30
0.000000
  70
    32
  0
VERTEX
  8
AM_VIS
  5
931
 10
6.01471
 20
4.14132
 30
0.000000
  70
    32
  0
VERTEX
  8
AM_VIS
  5
932
 10
6.01472
 20
4.14099
 30
0.000000
  70
    32
  0
VERTEX
  8
AM_VIS
  5
933
 10
6.01472
 20
4.14065
 30
0.000000
  70
    32
  0
VERTEX
  8
AM_VIS
  5
934
 10
6.01473
 20
4.14032
 30
0.000000
  70
    32
  0
VERTEX
  8
AM_VIS
  5
935
 10
6.01474
 20
4.13998
 30
0.000000
  70
    32
  0
VERTEX
  8
AM_VIS
  5
936
 10
6.01474
 20
4.13964
 30
0.000000
  70
    32
  0
VERTEX
  8
AM_VIS
  5
937
 10
6.01475
 20
4.13931
 30
0.000000
  70
    32
  0
VERTEX
  8
AM_VIS
  5
938
 10
6.01476
 20
4.13897
 30
0.000000
  70
    32
  0
VERTEX
  8
AM_VIS
  5
939
 10
6.01477
 20
4.13863
 30
0.000000
  70
    32
  0
VERTEX
  8
AM_VIS
  5
93A
 10
6.01478
 20
4.13830
 30
0.000000
  70
    32
  0
VERTEX
  8
AM_VIS
  5
93B
 10
6.01479
 20
4.13796
 30
0.000000
  70
    32
  0
VERTEX
  8
AM_VIS
  5
93C
 10
6.01480
 20
4.13762
 30
0.000000
  70
    32
  0
VERTEX
  8
AM_VIS
  5
93D
 10
6.01481
 20
4.13729
 30
0.000000
  70
    32
  0
VERTEX
  8
AM_VIS
  5
93E
 10
6.01482
 20
4.13695
 30
0.000000
  70
    32
  0
VERTEX
  8
AM_VIS
  5
93F
 10
6.01483
 20
4.13661
 30
0.000000
  70
    32
  0
VERTEX
  8
AM_VIS
  5
940
 10
6.01485
 20
4.13628
 30
0.000000
  70
    32
  0
VERTEX
  8
AM_VIS
  5
941
 10
6.01486
 20
4.13594
 30
0.000000
  70
    32
  0
VERTEX
  8
AM_VIS
  5
942
 10
6.01487
 20
4.13560
 30
0.000000
  70
    32
  0
VERTEX
  8
AM_VIS
  5
943
 10
6.01489
 20
4.13527
 30
0.000000
  70
    32
  0
VERTEX
  8
AM_VIS
  5
944
 10
6.01490
 20
4.13493
 30
0.000000
  70
    32
  0
VERTEX
  8
AM_VIS
  5
945
 10
6.01492
 20
4.13459
 30
0.000000
  70
    32
  0
VERTEX
  8
AM_VIS
  5
946
 10
6.01493
 20
4.13425
 30
0.000000
  70
    32
  0
VERTEX
  8
AM_VIS
  5
947
 10
6.01495
 20
4.13392
 30
0.000000
  70
    32
  0
VERTEX
  8
AM_VIS
  5
948
 10
6.01496
 20
4.13358
 30
0.000000
  70
    32
  0
VERTEX
  8
AM_VIS
  5
949
 10
6.01498
 20
4.13324
 30
0.000000
  70
    32
  0
VERTEX
  8
AM_VIS
  5
94A
 10
6.01500
 20
4.13291
 30
0.000000
  70
    32
  0
VERTEX
  8
AM_VIS
  5
94B
 10
6.01502
 20
4.13257
 30
0.000000
  70
    32
  0
VERTEX
  8
AM_VIS
  5
94C
 10
6.01504
 20
4.13223
 30
0.000000
  70
    32
  0
VERTEX
  8
AM_VIS
  5
94D
 10
6.01506
 20
4.13190
 30
0.000000
  70
    32
  0
VERTEX
  8
AM_VIS
  5
94E
 10
6.01507
 20
4.13156
 30
0.000000
  70
    32
  0
VERTEX
  8
AM_VIS
  5
94F
 10
6.01509
 20
4.13122
 30
0.000000
  70
    32
  0
VERTEX
  8
AM_VIS
  5
950
 10
6.01511
 20
4.13088
 30
0.000000
  70
    32
  0
VERTEX
  8
AM_VIS
  5
951
 10
6.01514
 20
4.13055
 30
0.000000
  70
    32
  0
VERTEX
  8
AM_VIS
  5
952
 10
6.01516
 20
4.13021
 30
0.000000
  70
    32
  0
VERTEX
  8
AM_VIS
  5
953
 10
6.01518
 20
4.12987
 30
0.000000
  70
    32
  0
VERTEX
  8
AM_VIS
  5
954
 10
6.01520
 20
4.12954
 30
0.000000
  70
    32
  0
VERTEX
  8
AM_VIS
  5
955
 10
6.01522
 20
4.12920
 30
0.000000
  70
    32
  0
VERTEX
  8
AM_VIS
  5
956
 10
6.01525
 20
4.12886
 30
0.000000
  70
    32
  0
VERTEX
  8
AM_VIS
  5
957
 10
6.01527
 20
4.12852
 30
0.000000
  70
    32
  0
VERTEX
  8
AM_VIS
  5
958
 10
6.01529
 20
4.12819
 30
0.000000
  70
    32
  0
VERTEX
  8
AM_VIS
  5
959
 10
6.01532
 20
4.12785
 30
0.000000
  70
    32
  0
VERTEX
  8
AM_VIS
  5
95A
 10
6.01534
 20
4.12751
 30
0.000000
  70
    32
  0
VERTEX
  8
AM_VIS
  5
95B
 10
6.01537
 20
4.12717
 30
0.000000
  70
    32
  0
VERTEX
  8
AM_VIS
  5
95C
 10
6.01540
 20
4.12683
 30
0.000000
  70
    32
  0
VERTEX
  8
AM_VIS
  5
95D
 10
6.01542
 20
4.12650
 30
0.000000
  70
    32
  0
VERTEX
  8
AM_VIS
  5
95E
 10
6.01545
 20
4.12616
 30
0.000000
  70
    32
  0
VERTEX
  8
AM_VIS
  5
95F
 10
6.01547
 20
4.12582
 30
0.000000
  70
    32
  0
VERTEX
  8
AM_VIS
  5
960
 10
6.01550
 20
4.12548
 30
0.000000
  70
    32
  0
VERTEX
  8
AM_VIS
  5
961
 10
6.01553
 20
4.12514
 30
0.000000
  70
    32
  0
VERTEX
  8
AM_VIS
  5
962
 10
6.01556
 20
4.12480
 30
0.000000
  70
    32
  0
VERTEX
  8
AM_VIS
  5
963
 10
6.01559
 20
4.12447
 30
0.000000
  70
    32
  0
VERTEX
  8
AM_VIS
  5
964
 10
6.01562
 20
4.12413
 30
0.000000
  70
    32
  0
VERTEX
  8
AM_VIS
  5
965
 10
6.01565
 20
4.12379
 30
0.000000
  70
    32
  0
VERTEX
  8
AM_VIS
  5
966
 10
6.01568
 20
4.12345
 30
0.000000
  70
    32
  0
VERTEX
  8
AM_VIS
  5
967
 10
6.01571
 20
4.12311
 30
0.000000
  70
    32
  0
VERTEX
  8
AM_VIS
  5
968
 10
6.01574
 20
4.12277
 30
0.000000
  70
    32
  0
VERTEX
  8
AM_VIS
  5
969
 10
6.01577
 20
4.12243
 30
0.000000
  70
    32
  0
VERTEX
  8
AM_VIS
  5
96A
 10
6.01580
 20
4.12209
 30
0.000000
  70
    32
  0
VERTEX
  8
AM_VIS
  5
96B
 10
6.01583
 20
4.12175
 30
0.000000
  70
    32
  0
VERTEX
  8
AM_VIS
  5
96C
 10
6.01586
 20
4.12142
 30
0.000000
  70
    32
  0
VERTEX
  8
AM_VIS
  5
96D
 10
6.01590
 20
4.12108
 30
0.000000
  70
    32
  0
VERTEX
  8
AM_VIS
  5
96E
 10
6.01593
 20
4.12074
 30
0.000000
  70
    32
  0
VERTEX
  8
AM_VIS
  5
96F
 10
6.01596
 20
4.12040
 30
0.000000
  70
    32
  0
VERTEX
  8
AM_VIS
  5
970
 10
6.01600
 20
4.12006
 30
0.000000
  70
    32
  0
VERTEX
  8
AM_VIS
  5
971
 10
6.01603
 20
4.11972
 30
0.000000
  70
    32
  0
VERTEX
  8
AM_VIS
  5
972
 10
6.01606
 20
4.11938
 30
0.000000
  70
    32
  0
VERTEX
  8
AM_VIS
  5
973
 10
6.01610
 20
4.11904
 30
0.000000
  70
    32
  0
VERTEX
  8
AM_VIS
  5
974
 10
6.01613
 20
4.11870
 30
0.000000
  70
    32
  0
VERTEX
  8
AM_VIS
  5
975
 10
6.01617
 20
4.11836
 30
0.000000
  70
    32
  0
VERTEX
  8
AM_VIS
  5
976
 10
6.01621
 20
4.11802
 30
0.000000
  70
    32
  0
VERTEX
  8
AM_VIS
  5
977
 10
6.01624
 20
4.11768
 30
0.000000
  70
    32
  0
VERTEX
  8
AM_VIS
  5
978
 10
6.01628
 20
4.11734
 30
0.000000
  70
    32
  0
VERTEX
  8
AM_VIS
  5
979
 10
6.01632
 20
4.11700
 30
0.000000
  70
    32
  0
VERTEX
  8
AM_VIS
  5
97A
 10
6.01635
 20
4.11666
 30
0.000000
  70
    32
  0
VERTEX
  8
AM_VIS
  5
97B
 10
6.01639
 20
4.11632
 30
0.000000
  70
    32
  0
VERTEX
  8
AM_VIS
  5
97C
 10
6.01643
 20
4.11599
 30
0.000000
  70
    32
  0
VERTEX
  8
AM_VIS
  5
97D
 10
6.01647
 20
4.11565
 30
0.000000
  70
    32
  0
VERTEX
  8
AM_VIS
  5
97E
 10
6.01650
 20
4.11531
 30
0.000000
  70
    32
  0
VERTEX
  8
AM_VIS
  5
97F
 10
6.01654
 20
4.11497
 30
0.000000
  70
    32
  0
VERTEX
  8
AM_VIS
  5
980
 10
6.01658
 20
4.11463
 30
0.000000
  70
    32
  0
VERTEX
  8
AM_VIS
  5
981
 10
6.01662
 20
4.11429
 30
0.000000
  70
    32
  0
VERTEX
  8
AM_VIS
  5
982
 10
6.01666
 20
4.11395
 30
0.000000
  70
    32
  0
VERTEX
  8
AM_VIS
  5
983
 10
6.01670
 20
4.11361
 30
0.000000
  70
    32
  0
VERTEX
  8
AM_VIS
  5
984
 10
6.01674
 20
4.11327
 30
0.000000
  70
    32
  0
VERTEX
  8
AM_VIS
  5
985
 10
6.01678
 20
4.11293
 30
0.000000
  70
    32
  0
VERTEX
  8
AM_VIS
  5
986
 10
6.01682
 20
4.11259
 30
0.000000
  70
    32
  0
VERTEX
  8
AM_VIS
  5
987
 10
6.01687
 20
4.11225
 30
0.000000
  70
    32
  0
VERTEX
  8
AM_VIS
  5
988
 10
6.01691
 20
4.11191
 30
0.000000
  70
    32
  0
VERTEX
  8
AM_VIS
  5
989
 10
6.01695
 20
4.11157
 30
0.000000
  70
    32
  0
VERTEX
  8
AM_VIS
  5
98A
 10
6.01699
 20
4.11123
 30
0.000000
  70
    32
  0
VERTEX
  8
AM_VIS
  5
98B
 10
6.01703
 20
4.11090
 30
0.000000
  70
    32
  0
VERTEX
  8
AM_VIS
  5
98C
 10
6.01708
 20
4.11056
 30
0.000000
  70
    32
  0
VERTEX
  8
AM_VIS
  5
98D
 10
6.01712
 20
4.11022
 30
0.000000
  70
    32
  0
VERTEX
  8
AM_VIS
  5
98E
 10
6.01716
 20
4.10988
 30
0.000000
  70
    32
  0
VERTEX
  8
AM_VIS
  5
98F
 10
6.01721
 20
4.10954
 30
0.000000
  70
    32
  0
VERTEX
  8
AM_VIS
  5
990
 10
6.01725
 20
4.10920
 30
0.000000
  70
    32
  0
VERTEX
  8
AM_VIS
  5
991
 10
6.01729
 20
4.10886
 30
0.000000
  70
    32
  0
VERTEX
  8
AM_VIS
  5
992
 10
6.01734
 20
4.10852
 30
0.000000
  70
    32
  0
VERTEX
  8
AM_VIS
  5
993
 10
6.01738
 20
4.10819
 30
0.000000
  70
    32
  0
VERTEX
  8
AM_VIS
  5
994
 10
6.01743
 20
4.10785
 30
0.000000
  70
    32
  0
VERTEX
  8
AM_VIS
  5
995
 10
6.01747
 20
4.10751
 30
0.000000
  70
    32
  0
VERTEX
  8
AM_VIS
  5
996
 10
6.01752
 20
4.10717
 30
0.000000
  70
    32
  0
VERTEX
  8
AM_VIS
  5
997
 10
6.01756
 20
4.10683
 30
0.000000
  70
    32
  0
VERTEX
  8
AM_VIS
  5
998
 10
6.01761
 20
4.10649
 30
0.000000
  70
    32
  0
VERTEX
  8
AM_VIS
  5
999
 10
6.01766
 20
4.10616
 30
0.000000
  70
    32
  0
VERTEX
  8
AM_VIS
  5
99A
 10
6.01770
 20
4.10582
 30
0.000000
  70
    32
  0
VERTEX
  8
AM_VIS
  5
99B
 10
6.01775
 20
4.10548
 30
0.000000
  70
    32
  0
VERTEX
  8
AM_VIS
  5
99C
 10
6.01780
 20
4.10514
 30
0.000000
  70
    32
  0
VERTEX
  8
AM_VIS
  5
99D
 10
6.01784
 20
4.10481
 30
0.000000
  70
    32
  0
VERTEX
  8
AM_VIS
  5
99E
 10
6.01789
 20
4.10447
 30
0.000000
  70
    32
  0
VERTEX
  8
AM_VIS
  5
99F
 10
6.01794
 20
4.10413
 30
0.000000
  70
    32
  0
VERTEX
  8
AM_VIS
  5
9A0
 10
6.01799
 20
4.10379
 30
0.000000
  70
    32
  0
VERTEX
  8
AM_VIS
  5
9A1
 10
6.01803
 20
4.10346
 30
0.000000
  70
    32
  0
VERTEX
  8
AM_VIS
  5
9A2
 10
6.01808
 20
4.10312
 30
0.000000
  70
    32
  0
VERTEX
  8
AM_VIS
  5
9A3
 10
6.01813
 20
4.10278
 30
0.000000
  70
    32
  0
VERTEX
  8
AM_VIS
  5
9A4
 10
6.01818
 20
4.10244
 30
0.000000
  70
    32
  0
VERTEX
  8
AM_VIS
  5
9A5
 10
6.01823
 20
4.10211
 30
0.000000
  70
    32
  0
VERTEX
  8
AM_VIS
  5
9A6
 10
6.01828
 20
4.10177
 30
0.000000
  70
    32
  0
VERTEX
  8
AM_VIS
  5
9A7
 10
6.01833
 20
4.10143
 30
0.000000
  70
    32
  0
VERTEX
  8
AM_VIS
  5
9A8
 10
6.01838
 20
4.10109
 30
0.000000
  70
    32
  0
VERTEX
  8
AM_VIS
  5
9A9
 10
6.01843
 20
4.10075
 30
0.000000
  70
    32
  0
VERTEX
  8
AM_VIS
  5
9AA
 10
6.01848
 20
4.10041
 30
0.000000
  70
    32
  0
VERTEX
  8
AM_VIS
  5
9AB
 10
6.01853
 20
4.10007
 30
0.000000
  70
    32
  0
VERTEX
  8
AM_VIS
  5
9AC
 10
6.01858
 20
4.09973
 30
0.000000
  70
    32
  0
VERTEX
  8
AM_VIS
  5
9AD
 10
6.01863
 20
4.09939
 30
0.000000
  70
    32
  0
VERTEX
  8
AM_VIS
  5
9AE
 10
6.01868
 20
4.09905
 30
0.000000
  70
    32
  0
VERTEX
  8
AM_VIS
  5
9AF
 10
6.01873
 20
4.09871
 30
0.000000
  70
    32
  0
VERTEX
  8
AM_VIS
  5
9B0
 10
6.01878
 20
4.09837
 30
0.000000
  70
    32
  0
VERTEX
  8
AM_VIS
  5
9B1
 10
6.01884
 20
4.09803
 30
0.000000
  70
    32
  0
VERTEX
  8
AM_VIS
  5
9B2
 10
6.01889
 20
4.09769
 30
0.000000
  70
    32
  0
VERTEX
  8
AM_VIS
  5
9B3
 10
6.01894
 20
4.09734
 30
0.000000
  70
    32
  0
VERTEX
  8
AM_VIS
  5
9B4
 10
6.01899
 20
4.09700
 30
0.000000
  70
    32
  0
VERTEX
  8
AM_VIS
  5
9B5
 10
6.01905
 20
4.09666
 30
0.000000
  70
    32
  0
VERTEX
  8
AM_VIS
  5
9B6
 10
6.01910
 20
4.09632
 30
0.000000
  70
    32
  0
VERTEX
  8
AM_VIS
  5
9B7
 10
6.01915
 20
4.09597
 30
0.000000
  70
    32
  0
VERTEX
  8
AM_VIS
  5
9B8
 10
6.01921
 20
4.09563
 30
0.000000
  70
    32
  0
VERTEX
  8
AM_VIS
  5
9B9
 10
6.01926
 20
4.09528
 30
0.000000
  70
    32
  0
VERTEX
  8
AM_VIS
  5
9BA
 10
6.01932
 20
4.09494
 30
0.000000
  70
    32
  0
VERTEX
  8
AM_VIS
  5
9BB
 10
6.01937
 20
4.09460
 30
0.000000
  70
    32
  0
VERTEX
  8
AM_VIS
  5
9BC
 10
6.01942
 20
4.09425
 30
0.000000
  70
    32
  0
VERTEX
  8
AM_VIS
  5
9BD
 10
6.01948
 20
4.09391
 30
0.000000
  70
    32
  0
VERTEX
  8
AM_VIS
  5
9BE
 10
6.01953
 20
4.09356
 30
0.000000
  70
    32
  0
VERTEX
  8
AM_VIS
  5
9BF
 10
6.01959
 20
4.09322
 30
0.000000
  70
    32
  0
VERTEX
  8
AM_VIS
  5
9C0
 10
6.01965
 20
4.09287
 30
0.000000
  70
    32
  0
VERTEX
  8
AM_VIS
  5
9C1
 10
6.01970
 20
4.09252
 30
0.000000
  70
    32
  0
VERTEX
  8
AM_VIS
  5
9C2
 10
6.01976
 20
4.09218
 30
0.000000
  70
    32
  0
VERTEX
  8
AM_VIS
  5
9C3
 10
6.01981
 20
4.09183
 30
0.000000
  70
    32
  0
VERTEX
  8
AM_VIS
  5
9C4
 10
6.01987
 20
4.09148
 30
0.000000
  70
    32
  0
VERTEX
  8
AM_VIS
  5
9C5
 10
6.01993
 20
4.09114
 30
0.000000
  70
    32
  0
VERTEX
  8
AM_VIS
  5
9C6
 10
6.01998
 20
4.09079
 30
0.000000
  70
    32
  0
VERTEX
  8
AM_VIS
  5
9C7
 10
6.02004
 20
4.09044
 30
0.000000
  70
    32
  0
VERTEX
  8
AM_VIS
  5
9C8
 10
6.02010
 20
4.09009
 30
0.000000
  70
    32
  0
VERTEX
  8
AM_VIS
  5
9C9
 10
6.02016
 20
4.08975
 30
0.000000
  70
    32
  0
VERTEX
  8
AM_VIS
  5
9CA
 10
6.02021
 20
4.08940
 30
0.000000
  70
    32
  0
VERTEX
  8
AM_VIS
  5
9CB
 10
6.02027
 20
4.08905
 30
0.000000
  70
    32
  0
VERTEX
  8
AM_VIS
  5
9CC
 10
6.02033
 20
4.08870
 30
0.000000
  70
    32
  0
VERTEX
  8
AM_VIS
  5
9CD
 10
6.02039
 20
4.08835
 30
0.000000
  70
    32
  0
VERTEX
  8
AM_VIS
  5
9CE
 10
6.02045
 20
4.08800
 30
0.000000
  70
    32
  0
VERTEX
  8
AM_VIS
  5
9CF
 10
6.02051
 20
4.08765
 30
0.000000
  70
    32
  0
VERTEX
  8
AM_VIS
  5
9D0
 10
6.02056
 20
4.08730
 30
0.000000
  70
    32
  0
VERTEX
  8
AM_VIS
  5
9D1
 10
6.02062
 20
4.08695
 30
0.000000
  70
    32
  0
VERTEX
  8
AM_VIS
  5
9D2
 10
6.02068
 20
4.08660
 30
0.000000
  70
    32
  0
VERTEX
  8
AM_VIS
  5
9D3
 10
6.02074
 20
4.08625
 30
0.000000
  70
    32
  0
VERTEX
  8
AM_VIS
  5
9D4
 10
6.02080
 20
4.08590
 30
0.000000
  70
    32
  0
VERTEX
  8
AM_VIS
  5
9D5
 10
6.02086
 20
4.08554
 30
0.000000
  70
    32
  0
VERTEX
  8
AM_VIS
  5
9D6
 10
6.02092
 20
4.08519
 30
0.000000
  70
    32
  0
VERTEX
  8
AM_VIS
  5
9D7
 10
6.02098
 20
4.08484
 30
0.000000
  70
    32
  0
VERTEX
  8
AM_VIS
  5
9D8
 10
6.02104
 20
4.08449
 30
0.000000
  70
    32
  0
VERTEX
  8
AM_VIS
  5
9D9
 10
6.02110
 20
4.08413
 30
0.000000
  70
    32
  0
VERTEX
  8
AM_VIS
  5
9DA
 10
6.02116
 20
4.08378
 30
0.000000
  70
    32
  0
VERTEX
  8
AM_VIS
  5
9DB
 10
6.02123
 20
4.08343
 30
0.000000
  70
    32
  0
VERTEX
  8
AM_VIS
  5
9DC
 10
6.02129
 20
4.08307
 30
0.000000
  70
    32
  0
VERTEX
  8
AM_VIS
  5
9DD
 10
6.02135
 20
4.08272
 30
0.000000
  70
    32
  0
VERTEX
  8
AM_VIS
  5
9DE
 10
6.02141
 20
4.08237
 30
0.000000
  70
    32
  0
VERTEX
  8
AM_VIS
  5
9DF
 10
6.02147
 20
4.08201
 30
0.000000
  70
    32
  0
VERTEX
  8
AM_VIS
  5
9E0
 10
6.02153
 20
4.08166
 30
0.000000
  70
    32
  0
VERTEX
  8
AM_VIS
  5
9E1
 10
6.02160
 20
4.08130
 30
0.000000
  70
    32
  0
VERTEX
  8
AM_VIS
  5
9E2
 10
6.02166
 20
4.08095
 30
0.000000
  70
    32
  0
VERTEX
  8
AM_VIS
  5
9E3
 10
6.02172
 20
4.08059
 30
0.000000
  70
    32
  0
VERTEX
  8
AM_VIS
  5
9E4
 10
6.02178
 20
4.08023
 30
0.000000
  70
    32
  0
VERTEX
  8
AM_VIS
  5
9E5
 10
6.02185
 20
4.07988
 30
0.000000
  70
    32
  0
VERTEX
  8
AM_VIS
  5
9E6
 10
6.02191
 20
4.07952
 30
0.000000
  70
    32
  0
VERTEX
  8
AM_VIS
  5
9E7
 10
6.02197
 20
4.07916
 30
0.000000
  70
    32
  0
VERTEX
  8
AM_VIS
  5
9E8
 10
6.02203
 20
4.07881
 30
0.000000
  70
    32
  0
VERTEX
  8
AM_VIS
  5
9E9
 10
6.02210
 20
4.07845
 30
0.000000
  70
    32
  0
VERTEX
  8
AM_VIS
  5
9EA
 10
6.02216
 20
4.07809
 30
0.000000
  70
    32
  0
VERTEX
  8
AM_VIS
  5
9EB
 10
6.02222
 20
4.07773
 30
0.000000
  70
    32
  0
VERTEX
  8
AM_VIS
  5
9EC
 10
6.02229
 20
4.07738
 30
0.000000
  70
    32
  0
VERTEX
  8
AM_VIS
  5
9ED
 10
6.02235
 20
4.07702
 30
0.000000
  70
    32
  0
VERTEX
  8
AM_VIS
  5
9EE
 10
6.02242
 20
4.07666
 30
0.000000
  70
    32
  0
VERTEX
  8
AM_VIS
  5
9EF
 10
6.02248
 20
4.07630
 30
0.000000
  70
    32
  0
VERTEX
  8
AM_VIS
  5
9F0
 10
6.02255
 20
4.07594
 30
0.000000
  70
    32
  0
VERTEX
  8
AM_VIS
  5
9F1
 10
6.02261
 20
4.07558
 30
0.000000
  70
    32
  0
VERTEX
  8
AM_VIS
  5
9F2
 10
6.02267
 20
4.07522
 30
0.000000
  70
    32
  0
VERTEX
  8
AM_VIS
  5
9F3
 10
6.02274
 20
4.07486
 30
0.000000
  70
    32
  0
VERTEX
  8
AM_VIS
  5
9F4
 10
6.02280
 20
4.07450
 30
0.000000
  70
    32
  0
VERTEX
  8
AM_VIS
  5
9F5
 10
6.02287
 20
4.07414
 30
0.000000
  70
    32
  0
VERTEX
  8
AM_VIS
  5
9F6
 10
6.02293
 20
4.07378
 30
0.000000
  70
    32
  0
VERTEX
  8
AM_VIS
  5
9F7
 10
6.02300
 20
4.07342
 30
0.000000
  70
    32
  0
VERTEX
  8
AM_VIS
  5
9F8
 10
6.02307
 20
4.07306
 30
0.000000
  70
    32
  0
VERTEX
  8
AM_VIS
  5
9F9
 10
6.02313
 20
4.07269
 30
0.000000
  70
    32
  0
VERTEX
  8
AM_VIS
  5
9FA
 10
6.02320
 20
4.07233
 30
0.000000
  70
    32
  0
VERTEX
  8
AM_VIS
  5
9FB
 10
6.02326
 20
4.07197
 30
0.000000
  70
    32
  0
VERTEX
  8
AM_VIS
  5
9FC
 10
6.02333
 20
4.07161
 30
0.000000
  70
    32
  0
VERTEX
  8
AM_VIS
  5
9FD
 10
6.02340
 20
4.07124
 30
0.000000
  70
    32
  0
VERTEX
  8
AM_VIS
  5
9FE
 10
6.02346
 20
4.07088
 30
0.000000
  70
    32
  0
VERTEX
  8
AM_VIS
  5
9FF
 10
6.02353
 20
4.07052
 30
0.000000
  70
    32
  0
VERTEX
  8
AM_VIS
  5
A00
 10
6.02359
 20
4.07015
 30
0.000000
  70
    32
  0
VERTEX
  8
AM_VIS
  5
A01
 10
6.02366
 20
4.06979
 30
0.000000
  70
    32
  0
VERTEX
  8
AM_VIS
  5
A02
 10
6.02373
 20
4.06942
 30
0.000000
  70
    32
  0
VERTEX
  8
AM_VIS
  5
A03
 10
6.02379
 20
4.06906
 30
0.000000
  70
    32
  0
VERTEX
  8
AM_VIS
  5
A04
 10
6.02386
 20
4.06869
 30
0.000000
  70
    32
  0
VERTEX
  8
AM_VIS
  5
A05
 10
6.02393
 20
4.06833
 30
0.000000
  70
    32
  0
VERTEX
  8
AM_VIS
  5
A06
 10
6.02400
 20
4.06796
 30
0.000000
  70
    32
  0
VERTEX
  8
AM_VIS
  5
A07
 10
6.02406
 20
4.06760
 30
0.000000
  70
    32
  0
VERTEX
  8
AM_VIS
  5
A08
 10
6.02413
 20
4.06723
 30
0.000000
  70
    32
  0
VERTEX
  8
AM_VIS
  5
A09
 10
6.02420
 20
4.06687
 30
0.000000
  70
    32
  0
VERTEX
  8
AM_VIS
  5
A0A
 10
6.02427
 20
4.06650
 30
0.000000
  70
    32
  0
VERTEX
  8
AM_VIS
  5
A0B
 10
6.02433
 20
4.06613
 30
0.000000
  70
    32
  0
VERTEX
  8
AM_VIS
  5
A0C
 10
6.02440
 20
4.06576
 30
0.000000
  70
    32
  0
VERTEX
  8
AM_VIS
  5
A0D
 10
6.02447
 20
4.06540
 30
0.000000
  70
    32
  0
VERTEX
  8
AM_VIS
  5
A0E
 10
6.02454
 20
4.06503
 30
0.000000
  70
    32
  0
VERTEX
  8
AM_VIS
  5
A0F
 10
6.02461
 20
4.06466
 30
0.000000
  70
    32
  0
VERTEX
  8
AM_VIS
  5
A10
 10
6.02467
 20
4.06429
 30
0.000000
  70
    32
  0
VERTEX
  8
AM_VIS
  5
A11
 10
6.02474
 20
4.06392
 30
0.000000
  70
    32
  0
VERTEX
  8
AM_VIS
  5
A12
 10
6.02481
 20
4.06356
 30
0.000000
  70
    32
  0
VERTEX
  8
AM_VIS
  5
A13
 10
6.02488
 20
4.06319
 30
0.000000
  70
    32
  0
VERTEX
  8
AM_VIS
  5
A14
 10
6.02495
 20
4.06282
 30
0.000000
  70
    32
  0
VERTEX
  8
AM_VIS
  5
A15
 10
6.02502
 20
4.06245
 30
0.000000
  70
    32
  0
VERTEX
  8
AM_VIS
  5
A16
 10
6.02508
 20
4.06208
 30
0.000000
  70
    32
  0
VERTEX
  8
AM_VIS
  5
A17
 10
6.02515
 20
4.06171
 30
0.000000
  70
    32
  0
VERTEX
  8
AM_VIS
  5
A18
 10
6.02522
 20
4.06134
 30
0.000000
  70
    32
  0
VERTEX
  8
AM_VIS
  5
A19
 10
6.02529
 20
4.06096
 30
0.000000
  70
    32
  0
VERTEX
  8
AM_VIS
  5
A1A
 10
6.02536
 20
4.06059
 30
0.000000
  70
    32
  0
VERTEX
  8
AM_VIS
  5
A1B
 10
6.02543
 20
4.06022
 30
0.000000
  70
    32
  0
VERTEX
  8
AM_VIS
  5
A1C
 10
6.02550
 20
4.05985
 30
0.000000
  70
    32
  0
VERTEX
  8
AM_VIS
  5
A1D
 10
6.02557
 20
4.05948
 30
0.000000
  70
    32
  0
VERTEX
  8
AM_VIS
  5
A1E
 10
6.02564
 20
4.05911
 30
0.000000
  70
    32
  0
VERTEX
  8
AM_VIS
  5
A1F
 10
6.02571
 20
4.05873
 30
0.000000
  70
    32
  0
VERTEX
  8
AM_VIS
  5
A20
 10
6.02578
 20
4.05836
 30
0.000000
  70
    32
  0
VERTEX
  8
AM_VIS
  5
A21
 10
6.02585
 20
4.05799
 30
0.000000
  70
    32
  0
VERTEX
  8
AM_VIS
  5
A22
 10
6.02592
 20
4.05761
 30
0.000000
  70
    32
  0
VERTEX
  8
AM_VIS
  5
A23
 10
6.02598
 20
4.05724
 30
0.000000
  70
    32
  0
VERTEX
  8
AM_VIS
  5
A24
 10
6.02605
 20
4.05687
 30
0.000000
  70
    32
  0
VERTEX
  8
AM_VIS
  5
A25
 10
6.02612
 20
4.05649
 30
0.000000
  70
    32
  0
VERTEX
  8
AM_VIS
  5
A26
 10
6.02619
 20
4.05612
 30
0.000000
  70
    32
  0
VERTEX
  8
AM_VIS
  5
A27
 10
6.02626
 20
4.05574
 30
0.000000
  70
    32
  0
VERTEX
  8
AM_VIS
  5
A28
 10
6.02633
 20
4.05537
 30
0.000000
  70
    32
  0
VERTEX
  8
AM_VIS
  5
A29
 10
6.02640
 20
4.05499
 30
0.000000
  70
    32
  0
VERTEX
  8
AM_VIS
  5
A2A
 10
6.02647
 20
4.05462
 30
0.000000
  70
    32
  0
VERTEX
  8
AM_VIS
  5
A2B
 10
6.02654
 20
4.05424
 30
0.000000
  70
    32
  0
VERTEX
  8
AM_VIS
  5
A2C
 10
6.02661
 20
4.05387
 30
0.000000
  70
    32
  0
VERTEX
  8
AM_VIS
  5
A2D
 10
6.02668
 20
4.05349
 30
0.000000
  70
    32
  0
VERTEX
  8
AM_VIS
  5
A2E
 10
6.02675
 20
4.05311
 30
0.000000
  70
    32
  0
VERTEX
  8
AM_VIS
  5
A2F
 10
6.02683
 20
4.05273
 30
0.000000
  70
    32
  0
VERTEX
  8
AM_VIS
  5
A30
 10
6.02690
 20
4.05236
 30
0.000000
  70
    32
  0
VERTEX
  8
AM_VIS
  5
A31
 10
6.02697
 20
4.05198
 30
0.000000
  70
    32
  0
VERTEX
  8
AM_VIS
  5
A32
 10
6.02704
 20
4.05160
 30
0.000000
  70
    32
  0
VERTEX
  8
AM_VIS
  5
A33
 10
6.02711
 20
4.05122
 30
0.000000
  70
    32
  0
VERTEX
  8
AM_VIS
  5
A34
 10
6.02718
 20
4.05085
 30
0.000000
  70
    32
  0
VERTEX
  8
AM_VIS
  5
A35
 10
6.02725
 20
4.05047
 30
0.000000
  70
    32
  0
VERTEX
  8
AM_VIS
  5
A36
 10
6.02732
 20
4.05009
 30
0.000000
  70
    32
  0
VERTEX
  8
AM_VIS
  5
A37
 10
6.02739
 20
4.04971
 30
0.000000
  70
    32
  0
VERTEX
  8
AM_VIS
  5
A38
 10
6.02746
 20
4.04933
 30
0.000000
  70
    32
  0
VERTEX
  8
AM_VIS
  5
A39
 10
6.02753
 20
4.04895
 30
0.000000
  70
    32
  0
VERTEX
  8
AM_VIS
  5
A3A
 10
6.02760
 20
4.04857
 30
0.000000
  70
    32
  0
VERTEX
  8
AM_VIS
  5
A3B
 10
6.02767
 20
4.04819
 30
0.000000
  70
    32
  0
VERTEX
  8
AM_VIS
  5
A3C
 10
6.02774
 20
4.04781
 30
0.000000
  70
    32
  0
VERTEX
  8
AM_VIS
  5
A3D
 10
6.02781
 20
4.04743
 30
0.000000
  70
    32
  0
VERTEX
  8
AM_VIS
  5
A3E
 10
6.02788
 20
4.04705
 30
0.000000
  70
    32
  0
VERTEX
  8
AM_VIS
  5
A3F
 10
6.02795
 20
4.04666
 30
0.000000
  70
    32
  0
VERTEX
  8
AM_VIS
  5
A40
 10
6.02802
 20
4.04628
 30
0.000000
  70
    32
  0
VERTEX
  8
AM_VIS
  5
A41
 10
6.02810
 20
4.04590
 30
0.000000
  70
    32
  0
VERTEX
  8
AM_VIS
  5
A42
 10
6.02817
 20
4.04552
 30
0.000000
  70
    32
  0
VERTEX
  8
AM_VIS
  5
A43
 10
6.02824
 20
4.04514
 30
0.000000
  70
    32
  0
VERTEX
  8
AM_VIS
  5
A44
 10
6.02831
 20
4.04475
 30
0.000000
  70
    32
  0
VERTEX
  8
AM_VIS
  5
A45
 10
6.02838
 20
4.04437
 30
0.000000
  70
    32
  0
VERTEX
  8
AM_VIS
  5
A46
 10
6.02845
 20
4.04399
 30
0.000000
  70
    32
  0
VERTEX
  8
AM_VIS
  5
A47
 10
6.02852
 20
4.04360
 30
0.000000
  70
    32
  0
VERTEX
  8
AM_VIS
  5
A48
 10
6.02859
 20
4.04322
 30
0.000000
  70
    32
  0
VERTEX
  8
AM_VIS
  5
A49
 10
6.02866
 20
4.04283
 30
0.000000
  70
    32
  0
VERTEX
  8
AM_VIS
  5
A4A
 10
6.02873
 20
4.04245
 30
0.000000
  70
    32
  0
VERTEX
  8
AM_VIS
  5
A4B
 10
6.02880
 20
4.04206
 30
0.000000
  70
    32
  0
VERTEX
  8
AM_VIS
  5
A4C
 10
6.02887
 20
4.04168
 30
0.000000
  70
    32
  0
VERTEX
  8
AM_VIS
  5
A4D
 10
6.02895
 20
4.04129
 30
0.000000
  70
    32
  0
VERTEX
  8
AM_VIS
  5
A4E
 10
6.02902
 20
4.04091
 30
0.000000
  70
    32
  0
VERTEX
  8
AM_VIS
  5
A4F
 10
6.02909
 20
4.04052
 30
0.000000
  70
    32
  0
VERTEX
  8
AM_VIS
  5
A50
 10
6.02916
 20
4.04014
 30
0.000000
  70
    32
  0
VERTEX
  8
AM_VIS
  5
A51
 10
6.02923
 20
4.03975
 30
0.000000
  70
    32
  0
VERTEX
  8
AM_VIS
  5
A52
 10
6.02930
 20
4.03936
 30
0.000000
  70
    32
  0
VERTEX
  8
AM_VIS
  5
A53
 10
6.02937
 20
4.03898
 30
0.000000
  70
    32
  0
VERTEX
  8
AM_VIS
  5
A54
 10
6.02944
 20
4.03859
 30
0.000000
  70
    32
  0
VERTEX
  8
AM_VIS
  5
A55
 10
6.02951
 20
4.03820
 30
0.000000
  70
    32
  0
VERTEX
  8
AM_VIS
  5
A56
 10
6.02958
 20
4.03781
 30
0.000000
  70
    32
  0
VERTEX
  8
AM_VIS
  5
A57
 10
6.02965
 20
4.03743
 30
0.000000
  70
    32
  0
VERTEX
  8
AM_VIS
  5
A58
 10
6.02972
 20
4.03704
 30
0.000000
  70
    32
  0
VERTEX
  8
AM_VIS
  5
A59
 10
6.02979
 20
4.03665
 30
0.000000
  70
    32
  0
VERTEX
  8
AM_VIS
  5
A5A
 10
6.02986
 20
4.03626
 30
0.000000
  70
    32
  0
VERTEX
  8
AM_VIS
  5
A5B
 10
6.02993
 20
4.03587
 30
0.000000
  70
    32
  0
VERTEX
  8
AM_VIS
  5
A5C
 10
6.03001
 20
4.03548
 30
0.000000
  70
    32
  0
VERTEX
  8
AM_VIS
  5
A5D
 10
6.03008
 20
4.03509
 30
0.000000
  70
    32
  0
VERTEX
  8
AM_VIS
  5
A5E
 10
6.03015
 20
4.03470
 30
0.000000
  70
    32
  0
VERTEX
  8
AM_VIS
  5
A5F
 10
6.03022
 20
4.03431
 30
0.000000
  70
    32
  0
VERTEX
  8
AM_VIS
  5
A60
 10
6.03029
 20
4.03392
 30
0.000000
  70
    32
  0
VERTEX
  8
AM_VIS
  5
A61
 10
6.03036
 20
4.03353
 30
0.000000
  70
    32
  0
VERTEX
  8
AM_VIS
  5
A62
 10
6.03043
 20
4.03314
 30
0.000000
  70
    32
  0
VERTEX
  8
AM_VIS
  5
A63
 10
6.03050
 20
4.03275
 30
0.000000
  70
    32
  0
VERTEX
  8
AM_VIS
  5
A64
 10
6.03057
 20
4.03235
 30
0.000000
  70
    32
  0
VERTEX
  8
AM_VIS
  5
A65
 10
6.03064
 20
4.03196
 30
0.000000
  70
    32
  0
VERTEX
  8
AM_VIS
  5
A66
 10
6.03071
 20
4.03157
 30
0.000000
  70
    32
  0
VERTEX
  8
AM_VIS
  5
A67
 10
6.03078
 20
4.03118
 30
0.000000
  70
    32
  0
VERTEX
  8
AM_VIS
  5
A68
 10
6.03085
 20
4.03078
 30
0.000000
  70
    32
  0
VERTEX
  8
AM_VIS
  5
A69
 10
6.03092
 20
4.03039
 30
0.000000
  70
    32
  0
VERTEX
  8
AM_VIS
  5
A6A
 10
6.03099
 20
4.03000
 30
0.000000
  70
    32
  0
VERTEX
  8
AM_VIS
  5
A6B
 10
6.03106
 20
4.02960
 30
0.000000
  70
    32
  0
VERTEX
  8
AM_VIS
  5
A6C
 10
6.03113
 20
4.02921
 30
0.000000
  70
    32
  0
VERTEX
  8
AM_VIS
  5
A6D
 10
6.03120
 20
4.02882
 30
0.000000
  70
    32
  0
VERTEX
  8
AM_VIS
  5
A6E
 10
6.03127
 20
4.02842
 30
0.000000
  70
    32
  0
VERTEX
  8
AM_VIS
  5
A6F
 10
6.03134
 20
4.02803
 30
0.000000
  70
    32
  0
VERTEX
  8
AM_VIS
  5
A70
 10
6.03141
 20
4.02763
 30
0.000000
  70
    32
  0
VERTEX
  8
AM_VIS
  5
A71
 10
6.03148
 20
4.02724
 30
0.000000
  70
    32
  0
VERTEX
  8
AM_VIS
  5
A72
 10
6.03155
 20
4.02684
 30
0.000000
  70
    32
  0
VERTEX
  8
AM_VIS
  5
A73
 10
6.03161
 20
4.02644
 30
0.000000
  70
    32
  0
VERTEX
  8
AM_VIS
  5
A74
 10
6.03168
 20
4.02605
 30
0.000000
  70
    32
  0
VERTEX
  8
AM_VIS
  5
A75
 10
6.03175
 20
4.02565
 30
0.000000
  70
    32
  0
VERTEX
  8
AM_VIS
  5
A76
 10
6.03182
 20
4.02526
 30
0.000000
  70
    32
  0
VERTEX
  8
AM_VIS
  5
A77
 10
6.03189
 20
4.02486
 30
0.000000
  70
    32
  0
VERTEX
  8
AM_VIS
  5
A78
 10
6.03196
 20
4.02446
 30
0.000000
  70
    32
  0
VERTEX
  8
AM_VIS
  5
A79
 10
6.03203
 20
4.02406
 30
0.000000
  70
    32
  0
VERTEX
  8
AM_VIS
  5
A7A
 10
6.03210
 20
4.02367
 30
0.000000
  70
    32
  0
VERTEX
  8
AM_VIS
  5
A7B
 10
6.03217
 20
4.02327
 30
0.000000
  70
    32
  0
VERTEX
  8
AM_VIS
  5
A7C
 10
6.03224
 20
4.02287
 30
0.000000
  70
    32
  0
VERTEX
  8
AM_VIS
  5
A7D
 10
6.03230
 20
4.02247
 30
0.000000
  70
    32
  0
VERTEX
  8
AM_VIS
  5
A7E
 10
6.03237
 20
4.02207
 30
0.000000
  70
    32
  0
VERTEX
  8
AM_VIS
  5
A7F
 10
6.03244
 20
4.02167
 30
0.000000
  70
    32
  0
VERTEX
  8
AM_VIS
  5
A80
 10
6.03251
 20
4.02127
 30
0.000000
  70
    32
  0
VERTEX
  8
AM_VIS
  5
A81
 10
6.03258
 20
4.02087
 30
0.000000
  70
    32
  0
VERTEX
  8
AM_VIS
  5
A82
 10
6.03265
 20
4.02047
 30
0.000000
  70
    32
  0
VERTEX
  8
AM_VIS
  5
A83
 10
6.03271
 20
4.02007
 30
0.000000
  70
    32
  0
VERTEX
  8
AM_VIS
  5
A84
 10
6.03278
 20
4.01967
 30
0.000000
  70
    32
  0
VERTEX
  8
AM_VIS
  5
A85
 10
6.03285
 20
4.01927
 30
0.000000
  70
    32
  0
VERTEX
  8
AM_VIS
  5
A86
 10
6.03292
 20
4.01887
 30
0.000000
  70
    32
  0
VERTEX
  8
AM_VIS
  5
A87
 10
6.03298
 20
4.01847
 30
0.000000
  70
    32
  0
VERTEX
  8
AM_VIS
  5
A88
 10
6.03305
 20
4.01807
 30
0.000000
  70
    32
  0
VERTEX
  8
AM_VIS
  5
A89
 10
6.03312
 20
4.01766
 30
0.000000
  70
    32
  0
VERTEX
  8
AM_VIS
  5
A8A
 10
6.03319
 20
4.01726
 30
0.000000
  70
    32
  0
VERTEX
  8
AM_VIS
  5
A8B
 10
6.03325
 20
4.01686
 30
0.000000
  70
    32
  0
VERTEX
  8
AM_VIS
  5
A8C
 10
6.03332
 20
4.01646
 30
0.000000
  70
    32
  0
VERTEX
  8
AM_VIS
  5
A8D
 10
6.03339
 20
4.01605
 30
0.000000
  70
    32
  0
VERTEX
  8
AM_VIS
  5
A8E
 10
6.03345
 20
4.01565
 30
0.000000
  70
    32
  0
VERTEX
  8
AM_VIS
  5
A8F
 10
6.03352
 20
4.01525
 30
0.000000
  70
    32
  0
VERTEX
  8
AM_VIS
  5
A90
 10
6.03359
 20
4.01484
 30
0.000000
  70
    32
  0
VERTEX
  8
AM_VIS
  5
A91
 10
6.03365
 20
4.01444
 30
0.000000
  70
    32
  0
VERTEX
  8
AM_VIS
  5
A92
 10
6.03372
 20
4.01403
 30
0.000000
  70
    32
  0
VERTEX
  8
AM_VIS
  5
A93
 10
6.03379
 20
4.01363
 30
0.000000
  70
    32
  0
VERTEX
  8
AM_VIS
  5
A94
 10
6.03385
 20
4.01323
 30
0.000000
  70
    32
  0
VERTEX
  8
AM_VIS
  5
A95
 10
6.03392
 20
4.01282
 30
0.000000
  70
    32
  0
VERTEX
  8
AM_VIS
  5
A96
 10
6.03399
 20
4.01241
 30
0.000000
  70
    32
  0
VERTEX
  8
AM_VIS
  5
A97
 10
6.03405
 20
4.01201
 30
0.000000
  70
    32
  0
VERTEX
  8
AM_VIS
  5
A98
 10
6.03412
 20
4.01160
 30
0.000000
  70
    32
  0
VERTEX
  8
AM_VIS
  5
A99
 10
6.03418
 20
4.01120
 30
0.000000
  70
    32
  0
VERTEX
  8
AM_VIS
  5
A9A
 10
6.03425
 20
4.01079
 30
0.000000
  70
    32
  0
VERTEX
  8
AM_VIS
  5
A9B
 10
6.03431
 20
4.01038
 30
0.000000
  70
    32
  0
VERTEX
  8
AM_VIS
  5
A9C
 10
6.03438
 20
4.00998
 30
0.000000
  70
    32
  0
VERTEX
  8
AM_VIS
  5
A9D
 10
6.03444
 20
4.00957
 30
0.000000
  70
    32
  0
VERTEX
  8
AM_VIS
  5
A9E
 10
6.03451
 20
4.00916
 30
0.000000
  70
    32
  0
VERTEX
  8
AM_VIS
  5
A9F
 10
6.03457
 20
4.00875
 30
0.000000
  70
    32
  0
VERTEX
  8
AM_VIS
  5
AA0
 10
6.03464
 20
4.00834
 30
0.000000
  70
    32
  0
VERTEX
  8
AM_VIS
  5
AA1
 10
6.03470
 20
4.00794
 30
0.000000
  70
    32
  0
VERTEX
  8
AM_VIS
  5
AA2
 10
6.03477
 20
4.00753
 30
0.000000
  70
    32
  0
VERTEX
  8
AM_VIS
  5
AA3
 10
6.03483
 20
4.00712
 30
0.000000
  70
    32
  0
VERTEX
  8
AM_VIS
  5
AA4
 10
6.03489
 20
4.00671
 30
0.000000
  70
    32
  0
VERTEX
  8
AM_VIS
  5
AA5
 10
6.03496
 20
4.00630
 30
0.000000
  70
    32
  0
VERTEX
  8
AM_VIS
  5
AA6
 10
6.03502
 20
4.00589
 30
0.000000
  70
    32
  0
VERTEX
  8
AM_VIS
  5
AA7
 10
6.03508
 20
4.00548
 30
0.000000
  70
    32
  0
VERTEX
  8
AM_VIS
  5
AA8
 10
6.03515
 20
4.00507
 30
0.000000
  70
    32
  0
VERTEX
  8
AM_VIS
  5
AA9
 10
6.03521
 20
4.00466
 30
0.000000
  70
    32
  0
VERTEX
  8
AM_VIS
  5
AAA
 10
6.03527
 20
4.00425
 30
0.000000
  70
    32
  0
VERTEX
  8
AM_VIS
  5
AAB
 10
6.03534
 20
4.00383
 30
0.000000
  70
    32
  0
VERTEX
  8
AM_VIS
  5
AAC
 10
6.03540
 20
4.00342
 30
0.000000
  70
    32
  0
VERTEX
  8
AM_VIS
  5
AAD
 10
6.03546
 20
4.00301
 30
0.000000
  70
    32
  0
VERTEX
  8
AM_VIS
  5
AAE
 10
6.03552
 20
4.00260
 30
0.000000
  70
    32
  0
VERTEX
  8
AM_VIS
  5
AAF
 10
6.03559
 20
4.00219
 30
0.000000
  70
    32
  0
VERTEX
  8
AM_VIS
  5
AB0
 10
6.03565
 20
4.00178
 30
0.000000
  70
    32
  0
VERTEX
  8
AM_VIS
  5
AB1
 10
6.03571
 20
4.00136
 30
0.000000
  70
    32
  0
VERTEX
  8
AM_VIS
  5
AB2
 10
6.03577
 20
4.00095
 30
0.000000
  70
    32
  0
VERTEX
  8
AM_VIS
  5
AB3
 10
6.03583
 20
4.00054
 30
0.000000
  70
    32
  0
VERTEX
  8
AM_VIS
  5
AB4
 10
6.03589
 20
4.00013
 30
0.000000
  70
    32
  0
VERTEX
  8
AM_VIS
  5
AB5
 10
6.03596
 20
3.99972
 30
0.000000
  70
    32
  0
VERTEX
  8
AM_VIS
  5
AB6
 10
6.03602
 20
3.99931
 30
0.000000
  70
    32
  0
VERTEX
  8
AM_VIS
  5
AB7
 10
6.03608
 20
3.99889
 30
0.000000
  70
    32
  0
VERTEX
  8
AM_VIS
  5
AB8
 10
6.03614
 20
3.99848
 30
0.000000
  70
    32
  0
VERTEX
  8
AM_VIS
  5
AB9
 10
6.03620
 20
3.99807
 30
0.000000
  70
    32
  0
VERTEX
  8
AM_VIS
  5
ABA
 10
6.03626
 20
3.99766
 30
0.000000
  70
    32
  0
VERTEX
  8
AM_VIS
  5
ABB
 10
6.03632
 20
3.99725
 30
0.000000
  70
    32
  0
VERTEX
  8
AM_VIS
  5
ABC
 10
6.03637
 20
3.99684
 30
0.000000
  70
    32
  0
VERTEX
  8
AM_VIS
  5
ABD
 10
6.03643
 20
3.99643
 30
0.000000
  70
    32
  0
VERTEX
  8
AM_VIS
  5
ABE
 10
6.03649
 20
3.99601
 30
0.000000
  70
    32
  0
VERTEX
  8
AM_VIS
  5
ABF
 10
6.03655
 20
3.99560
 30
0.000000
  70
    32
  0
VERTEX
  8
AM_VIS
  5
AC0
 10
6.03661
 20
3.99519
 30
0.000000
  70
    32
  0
VERTEX
  8
AM_VIS
  5
AC1
 10
6.03667
 20
3.99478
 30
0.000000
  70
    32
  0
VERTEX
  8
AM_VIS
  5
AC2
 10
6.03673
 20
3.99437
 30
0.000000
  70
    32
  0
VERTEX
  8
AM_VIS
  5
AC3
 10
6.03678
 20
3.99396
 30
0.000000
  70
    32
  0
VERTEX
  8
AM_VIS
  5
AC4
 10
6.03684
 20
3.99355
 30
0.000000
  70
    32
  0
VERTEX
  8
AM_VIS
  5
AC5
 10
6.03690
 20
3.99313
 30
0.000000
  70
    32
  0
VERTEX
  8
AM_VIS
  5
AC6
 10
6.03696
 20
3.99272
 30
0.000000
  70
    32
  0
VERTEX
  8
AM_VIS
  5
AC7
 10
6.03701
 20
3.99231
 30
0.000000
  70
    32
  0
VERTEX
  8
AM_VIS
  5
AC8
 10
6.03707
 20
3.99190
 30
0.000000
  70
    32
  0
VERTEX
  8
AM_VIS
  5
AC9
 10
6.03712
 20
3.99149
 30
0.000000
  70
    32
  0
VERTEX
  8
AM_VIS
  5
ACA
 10
6.03718
 20
3.99108
 30
0.000000
  70
    32
  0
VERTEX
  8
AM_VIS
  5
ACB
 10
6.03724
 20
3.99067
 30
0.000000
  70
    32
  0
VERTEX
  8
AM_VIS
  5
ACC
 10
6.03729
 20
3.99025
 30
0.000000
  70
    32
  0
VERTEX
  8
AM_VIS
  5
ACD
 10
6.03735
 20
3.98984
 30
0.000000
  70
    32
  0
VERTEX
  8
AM_VIS
  5
ACE
 10
6.03740
 20
3.98943
 30
0.000000
  70
    32
  0
VERTEX
  8
AM_VIS
  5
ACF
 10
6.03746
 20
3.98902
 30
0.000000
  70
    32
  0
VERTEX
  8
AM_VIS
  5
AD0
 10
6.03751
 20
3.98861
 30
0.000000
  70
    32
  0
VERTEX
  8
AM_VIS
  5
AD1
 10
6.03757
 20
3.98820
 30
0.000000
  70
    32
  0
VERTEX
  8
AM_VIS
  5
AD2
 10
6.03762
 20
3.98778
 30
0.000000
  70
    32
  0
VERTEX
  8
AM_VIS
  5
AD3
 10
6.03767
 20
3.98737
 30
0.000000
  70
    32
  0
VERTEX
  8
AM_VIS
  5
AD4
 10
6.03773
 20
3.98696
 30
0.000000
  70
    32
  0
VERTEX
  8
AM_VIS
  5
AD5
 10
6.03778
 20
3.98655
 30
0.000000
  70
    32
  0
VERTEX
  8
AM_VIS
  5
AD6
 10
6.03784
 20
3.98614
 30
0.000000
  70
    32
  0
VERTEX
  8
AM_VIS
  5
AD7
 10
6.03789
 20
3.98573
 30
0.000000
  70
    32
  0
VERTEX
  8
AM_VIS
  5
AD8
 10
6.03794
 20
3.98532
 30
0.000000
  70
    32
  0
VERTEX
  8
AM_VIS
  5
AD9
 10
6.03799
 20
3.98490
 30
0.000000
  70
    32
  0
VERTEX
  8
AM_VIS
  5
ADA
 10
6.03805
 20
3.98449
 30
0.000000
  70
    32
  0
VERTEX
  8
AM_VIS
  5
ADB
 10
6.03810
 20
3.98408
 30
0.000000
  70
    32
  0
VERTEX
  8
AM_VIS
  5
ADC
 10
6.03815
 20
3.98367
 30
0.000000
  70
    32
  0
VERTEX
  8
AM_VIS
  5
ADD
 10
6.03820
 20
3.98326
 30
0.000000
  70
    32
  0
VERTEX
  8
AM_VIS
  5
ADE
 10
6.03825
 20
3.98284
 30
0.000000
  70
    32
  0
VERTEX
  8
AM_VIS
  5
ADF
 10
6.03830
 20
3.98243
 30
0.000000
  70
    32
  0
VERTEX
  8
AM_VIS
  5
AE0
 10
6.03835
 20
3.98202
 30
0.000000
  70
    32
  0
VERTEX
  8
AM_VIS
  5
AE1
 10
6.03840
 20
3.98161
 30
0.000000
  70
    32
  0
VERTEX
  8
AM_VIS
  5
AE2
 10
6.03845
 20
3.98120
 30
0.000000
  70
    32
  0
VERTEX
  8
AM_VIS
  5
AE3
 10
6.03850
 20
3.98079
 30
0.000000
  70
    32
  0
VERTEX
  8
AM_VIS
  5
AE4
 10
6.03855
 20
3.98037
 30
0.000000
  70
    32
  0
VERTEX
  8
AM_VIS
  5
AE5
 10
6.03860
 20
3.97996
 30
0.000000
  70
    32
  0
VERTEX
  8
AM_VIS
  5
AE6
 10
6.03865
 20
3.97955
 30
0.000000
  70
    32
  0
VERTEX
  8
AM_VIS
  5
AE7
 10
6.03870
 20
3.97914
 30
0.000000
  70
    32
  0
VERTEX
  8
AM_VIS
  5
AE8
 10
6.03875
 20
3.97872
 30
0.000000
  70
    32
  0
VERTEX
  8
AM_VIS
  5
AE9
 10
6.03880
 20
3.97831
 30
0.000000
  70
    32
  0
VERTEX
  8
AM_VIS
  5
AEA
 10
6.03885
 20
3.97790
 30
0.000000
  70
    32
  0
VERTEX
  8
AM_VIS
  5
AEB
 10
6.03890
 20
3.97749
 30
0.000000
  70
    32
  0
VERTEX
  8
AM_VIS
  5
AEC
 10
6.03894
 20
3.97708
 30
0.000000
  70
    32
  0
VERTEX
  8
AM_VIS
  5
AED
 10
6.03899
 20
3.97666
 30
0.000000
  70
    32
  0
VERTEX
  8
AM_VIS
  5
AEE
 10
6.03904
 20
3.97625
 30
0.000000
  70
    32
  0
VERTEX
  8
AM_VIS
  5
AEF
 10
6.03908
 20
3.97584
 30
0.000000
  70
    32
  0
VERTEX
  8
AM_VIS
  5
AF0
 10
6.03913
 20
3.97543
 30
0.000000
  70
    32
  0
VERTEX
  8
AM_VIS
  5
AF1
 10
6.03918
 20
3.97501
 30
0.000000
  70
    32
  0
VERTEX
  8
AM_VIS
  5
AF2
 10
6.03922
 20
3.97460
 30
0.000000
  70
    32
  0
VERTEX
  8
AM_VIS
  5
AF3
 10
6.03927
 20
3.97419
 30
0.000000
  70
    32
  0
VERTEX
  8
AM_VIS
  5
AF4
 10
6.03931
 20
3.97378
 30
0.000000
  70
    32
  0
VERTEX
  8
AM_VIS
  5
AF5
 10
6.03936
 20
3.97336
 30
0.000000
  70
    32
  0
VERTEX
  8
AM_VIS
  5
AF6
 10
6.03940
 20
3.97295
 30
0.000000
  70
    32
  0
VERTEX
  8
AM_VIS
  5
AF7
 10
6.03945
 20
3.97254
 30
0.000000
  70
    32
  0
VERTEX
  8
AM_VIS
  5
AF8
 10
6.03949
 20
3.97212
 30
0.000000
  70
    32
  0
VERTEX
  8
AM_VIS
  5
AF9
 10
6.03954
 20
3.97171
 30
0.000000
  70
    32
  0
VERTEX
  8
AM_VIS
  5
AFA
 10
6.03958
 20
3.97130
 30
0.000000
  70
    32
  0
VERTEX
  8
AM_VIS
  5
AFB
 10
6.03963
 20
3.97088
 30
0.000000
  70
    32
  0
VERTEX
  8
AM_VIS
  5
AFC
 10
6.03967
 20
3.97047
 30
0.000000
  70
    32
  0
VERTEX
  8
AM_VIS
  5
AFD
 10
6.03971
 20
3.97006
 30
0.000000
  70
    32
  0
VERTEX
  8
AM_VIS
  5
AFE
 10
6.03975
 20
3.96965
 30
0.000000
  70
    32
  0
VERTEX
  8
AM_VIS
  5
AFF
 10
6.03980
 20
3.96923
 30
0.000000
  70
    32
  0
VERTEX
  8
AM_VIS
  5
B00
 10
6.03984
 20
3.96882
 30
0.000000
  70
    32
  0
VERTEX
  8
AM_VIS
  5
B01
 10
6.03988
 20
3.96840
 30
0.000000
  70
    32
  0
VERTEX
  8
AM_VIS
  5
B02
 10
6.03992
 20
3.96799
 30
0.000000
  70
    32
  0
VERTEX
  8
AM_VIS
  5
B03
 10
6.03996
 20
3.96758
 30
0.000000
  70
    32
  0
VERTEX
  8
AM_VIS
  5
B04
 10
6.04001
 20
3.96716
 30
0.000000
  70
    32
  0
VERTEX
  8
AM_VIS
  5
B05
 10
6.04005
 20
3.96675
 30
0.000000
  70
    32
  0
VERTEX
  8
AM_VIS
  5
B06
 10
6.04009
 20
3.96634
 30
0.000000
  70
    32
  0
VERTEX
  8
AM_VIS
  5
B07
 10
6.04013
 20
3.96592
 30
0.000000
  70
    32
  0
VERTEX
  8
AM_VIS
  5
B08
 10
6.04017
 20
3.96551
 30
0.000000
  70
    32
  0
VERTEX
  8
AM_VIS
  5
B09
 10
6.04021
 20
3.96509
 30
0.000000
  70
    32
  0
VERTEX
  8
AM_VIS
  5
B0A
 10
6.04025
 20
3.96468
 30
0.000000
  70
    32
  0
VERTEX
  8
AM_VIS
  5
B0B
 10
6.04029
 20
3.96427
 30
0.000000
  70
    32
  0
VERTEX
  8
AM_VIS
  5
B0C
 10
6.04033
 20
3.96385
 30
0.000000
  70
    32
  0
VERTEX
  8
AM_VIS
  5
B0D
 10
6.04036
 20
3.96344
 30
0.000000
  70
    32
  0
VERTEX
  8
AM_VIS
  5
B0E
 10
6.04040
 20
3.96302
 30
0.000000
  70
    32
  0
VERTEX
  8
AM_VIS
  5
B0F
 10
6.04044
 20
3.96261
 30
0.000000
  70
    32
  0
VERTEX
  8
AM_VIS
  5
B10
 10
6.04048
 20
3.96219
 30
0.000000
  70
    32
  0
VERTEX
  8
AM_VIS
  5
B11
 10
6.04052
 20
3.96178
 30
0.000000
  70
    32
  0
VERTEX
  8
AM_VIS
  5
B12
 10
6.04055
 20
3.96136
 30
0.000000
  70
    32
  0
VERTEX
  8
AM_VIS
  5
B13
 10
6.04059
 20
3.96095
 30
0.000000
  70
    32
  0
VERTEX
  8
AM_VIS
  5
B14
 10
6.04063
 20
3.96053
 30
0.000000
  70
    32
  0
VERTEX
  8
AM_VIS
  5
B15
 10
6.04066
 20
3.96012
 30
0.000000
  70
    32
  0
VERTEX
  8
AM_VIS
  5
B16
 10
6.04070
 20
3.95970
 30
0.000000
  70
    32
  0
VERTEX
  8
AM_VIS
  5
B17
 10
6.04073
 20
3.95929
 30
0.000000
  70
    32
  0
VERTEX
  8
AM_VIS
  5
B18
 10
6.04077
 20
3.95887
 30
0.000000
  70
    32
  0
VERTEX
  8
AM_VIS
  5
B19
 10
6.04080
 20
3.95846
 30
0.000000
  70
    32
  0
VERTEX
  8
AM_VIS
  5
B1A
 10
6.04084
 20
3.95804
 30
0.000000
  70
    32
  0
VERTEX
  8
AM_VIS
  5
B1B
 10
6.04087
 20
3.95763
 30
0.000000
  70
    32
  0
VERTEX
  8
AM_VIS
  5
B1C
 10
6.04091
 20
3.95721
 30
0.000000
  70
    32
  0
VERTEX
  8
AM_VIS
  5
B1D
 10
6.04094
 20
3.95680
 30
0.000000
  70
    32
  0
VERTEX
  8
AM_VIS
  5
B1E
 10
6.04098
 20
3.95638
 30
0.000000
  70
    32
  0
VERTEX
  8
AM_VIS
  5
B1F
 10
6.04101
 20
3.95596
 30
0.000000
  70
    32
  0
VERTEX
  8
AM_VIS
  5
B20
 10
6.04104
 20
3.95555
 30
0.000000
  70
    32
  0
VERTEX
  8
AM_VIS
  5
B21
 10
6.04108
 20
3.95513
 30
0.000000
  70
    32
  0
VERTEX
  8
AM_VIS
  5
B22
 10
6.04111
 20
3.95471
 30
0.000000
  70
    32
  0
VERTEX
  8
AM_VIS
  5
B23
 10
6.04114
 20
3.95430
 30
0.000000
  70
    32
  0
VERTEX
  8
AM_VIS
  5
B24
 10
6.04117
 20
3.95388
 30
0.000000
  70
    32
  0
VERTEX
  8
AM_VIS
  5
B25
 10
6.04120
 20
3.95347
 30
0.000000
  70
    32
  0
VERTEX
  8
AM_VIS
  5
B26
 10
6.04123
 20
3.95305
 30
0.000000
  70
    32
  0
VERTEX
  8
AM_VIS
  5
B27
 10
6.04127
 20
3.95263
 30
0.000000
  70
    32
  0
VERTEX
  8
AM_VIS
  5
B28
 10
6.04130
 20
3.95221
 30
0.000000
  70
    32
  0
VERTEX
  8
AM_VIS
  5
B29
 10
6.04133
 20
3.95180
 30
0.000000
  70
    32
  0
VERTEX
  8
AM_VIS
  5
B2A
 10
6.04136
 20
3.95138
 30
0.000000
  70
    32
  0
VERTEX
  8
AM_VIS
  5
B2B
 10
6.04139
 20
3.95096
 30
0.000000
  70
    32
  0
VERTEX
  8
AM_VIS
  5
B2C
 10
6.04141
 20
3.95055
 30
0.000000
  70
    32
  0
VERTEX
  8
AM_VIS
  5
B2D
 10
6.04144
 20
3.95013
 30
0.000000
  70
    32
  0
VERTEX
  8
AM_VIS
  5
B2E
 10
6.04147
 20
3.94971
 30
0.000000
  70
    32
  0
VERTEX
  8
AM_VIS
  5
B2F
 10
6.04150
 20
3.94929
 30
0.000000
  70
    32
  0
VERTEX
  8
AM_VIS
  5
B30
 10
6.04153
 20
3.94888
 30
0.000000
  70
    32
  0
VERTEX
  8
AM_VIS
  5
B31
 10
6.04156
 20
3.94846
 30
0.000000
  70
    32
  0
VERTEX
  8
AM_VIS
  5
B32
 10
6.04158
 20
3.94804
 30
0.000000
  70
    32
  0
VERTEX
  8
AM_VIS
  5
B33
 10
6.04161
 20
3.94762
 30
0.000000
  70
    32
  0
VERTEX
  8
AM_VIS
  5
B34
 10
6.04164
 20
3.94720
 30
0.000000
  70
    32
  0
VERTEX
  8
AM_VIS
  5
B35
 10
6.04166
 20
3.94679
 30
0.000000
  70
    32
  0
VERTEX
  8
AM_VIS
  5
B36
 10
6.04169
 20
3.94637
 30
0.000000
  70
    32
  0
VERTEX
  8
AM_VIS
  5
B37
 10
6.04172
 20
3.94595
 30
0.000000
  70
    32
  0
VERTEX
  8
AM_VIS
  5
B38
 10
6.04174
 20
3.94553
 30
0.000000
  70
    32
  0
VERTEX
  8
AM_VIS
  5
B39
 10
6.04177
 20
3.94511
 30
0.000000
  70
    32
  0
VERTEX
  8
AM_VIS
  5
B3A
 10
6.04179
 20
3.94470
 30
0.000000
  70
    32
  0
VERTEX
  8
AM_VIS
  5
B3B
 10
6.04182
 20
3.94428
 30
0.000000
  70
    32
  0
VERTEX
  8
AM_VIS
  5
B3C
 10
6.04184
 20
3.94386
 30
0.000000
  70
    32
  0
VERTEX
  8
AM_VIS
  5
B3D
 10
6.04187
 20
3.94344
 30
0.000000
  70
    32
  0
VERTEX
  8
AM_VIS
  5
B3E
 10
6.04189
 20
3.94303
 30
0.000000
  70
    32
  0
VERTEX
  8
AM_VIS
  5
B3F
 10
6.04191
 20
3.94261
 30
0.000000
  70
    32
  0
VERTEX
  8
AM_VIS
  5
B40
 10
6.04194
 20
3.94219
 30
0.000000
  70
    32
  0
VERTEX
  8
AM_VIS
  5
B41
 10
6.04196
 20
3.94177
 30
0.000000
  70
    32
  0
VERTEX
  8
AM_VIS
  5
B42
 10
6.04198
 20
3.94135
 30
0.000000
  70
    32
  0
VERTEX
  8
AM_VIS
  5
B43
 10
6.04200
 20
3.94094
 30
0.000000
  70
    32
  0
VERTEX
  8
AM_VIS
  5
B44
 10
6.04202
 20
3.94052
 30
0.000000
  70
    32
  0
VERTEX
  8
AM_VIS
  5
B45
 10
6.04205
 20
3.94010
 30
0.000000
  70
    32
  0
VERTEX
  8
AM_VIS
  5
B46
 10
6.04207
 20
3.93968
 30
0.000000
  70
    32
  0
VERTEX
  8
AM_VIS
  5
B47
 10
6.04209
 20
3.93927
 30
0.000000
  70
    32
  0
VERTEX
  8
AM_VIS
  5
B48
 10
6.04211
 20
3.93885
 30
0.000000
  70
    32
  0
VERTEX
  8
AM_VIS
  5
B49
 10
6.04213
 20
3.93843
 30
0.000000
  70
    32
  0
VERTEX
  8
AM_VIS
  5
B4A
 10
6.04215
 20
3.93801
 30
0.000000
  70
    32
  0
VERTEX
  8
AM_VIS
  5
B4B
 10
6.04217
 20
3.93759
 30
0.000000
  70
    32
  0
VERTEX
  8
AM_VIS
  5
B4C
 10
6.04219
 20
3.93718
 30
0.000000
  70
    32
  0
VERTEX
  8
AM_VIS
  5
B4D
 10
6.04220
 20
3.93676
 30
0.000000
  70
    32
  0
VERTEX
  8
AM_VIS
  5
B4E
 10
6.04222
 20
3.93634
 30
0.000000
  70
    32
  0
VERTEX
  8
AM_VIS
  5
B4F
 10
6.04224
 20
3.93592
 30
0.000000
  70
    32
  0
VERTEX
  8
AM_VIS
  5
B50
 10
6.04226
 20
3.93550
 30
0.000000
  70
    32
  0
VERTEX
  8
AM_VIS
  5
B51
 10
6.04228
 20
3.93508
 30
0.000000
  70
    32
  0
VERTEX
  8
AM_VIS
  5
B52
 10
6.04229
 20
3.93467
 30
0.000000
  70
    32
  0
VERTEX
  8
AM_VIS
  5
B53
 10
6.04231
 20
3.93425
 30
0.000000
  70
    32
  0
VERTEX
  8
AM_VIS
  5
B54
 10
6.04233
 20
3.93383
 30
0.000000
  70
    32
  0
VERTEX
  8
AM_VIS
  5
B55
 10
6.04234
 20
3.93341
 30
0.000000
  70
    32
  0
VERTEX
  8
AM_VIS
  5
B56
 10
6.04236
 20
3.93299
 30
0.000000
  70
    32
  0
VERTEX
  8
AM_VIS
  5
B57
 10
6.04237
 20
3.93258
 30
0.000000
  70
    32
  0
VERTEX
  8
AM_VIS
  5
B58
 10
6.04239
 20
3.93216
 30
0.000000
  70
    32
  0
VERTEX
  8
AM_VIS
  5
B59
 10
6.04240
 20
3.93174
 30
0.000000
  70
    32
  0
VERTEX
  8
AM_VIS
  5
B5A
 10
6.04242
 20
3.93132
 30
0.000000
  70
    32
  0
VERTEX
  8
AM_VIS
  5
B5B
 10
6.04243
 20
3.93090
 30
0.000000
  70
    32
  0
VERTEX
  8
AM_VIS
  5
B5C
 10
6.04244
 20
3.93048
 30
0.000000
  70
    32
  0
VERTEX
  8
AM_VIS
  5
B5D
 10
6.04246
 20
3.93006
 30
0.000000
  70
    32
  0
VERTEX
  8
AM_VIS
  5
B5E
 10
6.04247
 20
3.92965
 30
0.000000
  70
    32
  0
VERTEX
  8
AM_VIS
  5
B5F
 10
6.04248
 20
3.92923
 30
0.000000
  70
    32
  0
VERTEX
  8
AM_VIS
  5
B60
 10
6.04250
 20
3.92881
 30
0.000000
  70
    32
  0
VERTEX
  8
AM_VIS
  5
B61
 10
6.04251
 20
3.92839
 30
0.000000
  70
    32
  0
VERTEX
  8
AM_VIS
  5
B62
 10
6.04252
 20
3.92797
 30
0.000000
  70
    32
  0
VERTEX
  8
AM_VIS
  5
B63
 10
6.04253
 20
3.92755
 30
0.000000
  70
    32
  0
VERTEX
  8
AM_VIS
  5
B64
 10
6.04254
 20
3.92713
 30
0.000000
  70
    32
  0
VERTEX
  8
AM_VIS
  5
B65
 10
6.04255
 20
3.92671
 30
0.000000
  70
    32
  0
VERTEX
  8
AM_VIS
  5
B66
 10
6.04256
 20
3.92630
 30
0.000000
  70
    32
  0
VERTEX
  8
AM_VIS
  5
B67
 10
6.04257
 20
3.92588
 30
0.000000
  70
    32
  0
VERTEX
  8
AM_VIS
  5
B68
 10
6.04258
 20
3.92546
 30
0.000000
  70
    32
  0
VERTEX
  8
AM_VIS
  5
B69
 10
6.04259
 20
3.92504
 30
0.000000
  70
    32
  0
VERTEX
  8
AM_VIS
  5
B6A
 10
6.04260
 20
3.92462
 30
0.000000
  70
    32
  0
VERTEX
  8
AM_VIS
  5
B6B
 10
6.04261
 20
3.92420
 30
0.000000
  70
    32
  0
VERTEX
  8
AM_VIS
  5
B6C
 10
6.04262
 20
3.92378
 30
0.000000
  70
    32
  0
VERTEX
  8
AM_VIS
  5
B6D
 10
6.04263
 20
3.92336
 30
0.000000
  70
    32
  0
VERTEX
  8
AM_VIS
  5
B6E
 10
6.04263
 20
3.92294
 30
0.000000
  70
    32
  0
VERTEX
  8
AM_VIS
  5
B6F
 10
6.04264
 20
3.92253
 30
0.000000
  70
    32
  0
VERTEX
  8
AM_VIS
  5
B70
 10
6.04265
 20
3.92211
 30
0.000000
  70
    32
  0
VERTEX
  8
AM_VIS
  5
B71
 10
6.04265
 20
3.92169
 30
0.000000
  70
    32
  0
VERTEX
  8
AM_VIS
  5
B72
 10
6.04266
 20
3.92127
 30
0.000000
  70
    32
  0
VERTEX
  8
AM_VIS
  5
B73
 10
6.04267
 20
3.92085
 30
0.000000
  70
    32
  0
VERTEX
  8
AM_VIS
  5
B74
 10
6.04267
 20
3.92043
 30
0.000000
  70
    32
  0
VERTEX
  8
AM_VIS
  5
B75
 10
6.04268
 20
3.92001
 30
0.000000
  70
    32
  0
VERTEX
  8
AM_VIS
  5
B76
 10
6.04268
 20
3.91959
 30
0.000000
  70
    32
  0
VERTEX
  8
AM_VIS
  5
B77
 10
6.04269
 20
3.91917
 30
0.000000
  70
    32
  0
VERTEX
  8
AM_VIS
  5
B78
 10
6.04269
 20
3.91876
 30
0.000000
  70
    32
  0
VERTEX
  8
AM_VIS
  5
B79
 10
6.04270
 20
3.91834
 30
0.000000
  70
    32
  0
VERTEX
  8
AM_VIS
  5
B7A
 10
6.04270
 20
3.91792
 30
0.000000
  70
    32
  0
VERTEX
  8
AM_VIS
  5
B7B
 10
6.04270
 20
3.91750
 30
0.000000
  70
    32
  0
VERTEX
  8
AM_VIS
  5
B7C
 10
6.04271
 20
3.91708
 30
0.000000
  70
    32
  0
VERTEX
  8
AM_VIS
  5
B7D
 10
6.04271
 20
3.91666
 30
0.000000
  70
    32
  0
VERTEX
  8
AM_VIS
  5
B7E
 10
6.04271
 20
3.91624
 30
0.000000
  70
    32
  0
VERTEX
  8
AM_VIS
  5
B7F
 10
6.04271
 20
3.91582
 30
0.000000
  70
    32
  0
VERTEX
  8
AM_VIS
  5
B80
 10
6.04271
 20
3.91541
 30
0.000000
  70
    32
  0
VERTEX
  8
AM_VIS
  5
B81
 10
6.04271
 20
3.91499
 30
0.000000
  70
    32
  0
VERTEX
  8
AM_VIS
  5
B82
 10
6.04272
 20
3.91457
 30
0.000000
  70
    32
  0
VERTEX
  8
AM_VIS
  5
B83
 10
6.04272
 20
3.91415
 30
0.000000
  70
    32
  0
VERTEX
  8
AM_VIS
  5
B84
 10
6.04272
 20
3.91373
 30
0.000000
  70
    32
  0
SEQEND
  8
AM_VIS
  5
B85
  0
LINE
  5
37
  8
AM_VIS
 10
7.5870764478568651
 20
4.2050931235847191
 30
0.0
 11
7.5870764478568651
 21
3.913729849111407
 31
0.0
  0
ARC
  5
38
  8
AM_VIS
 10
7.2552242274723913
 20
3.905339136747068
 30
0.0
 40
0.29543740769127
 50
139.29431560951761
 51
178.3717898942202
  0
ARC
  5
39
  8
AM_VIS
 10
7.2634586739374907
 20
3.906403646421273
 30
0.0
 40
0.293171678051878
 50
1.432271715215069
 51
40.824881436170891
  0
LINE
  5
3A
  8
AM_HID
 10
6.4590551057267378
 20
4.6337298491832204
 30
0.0
 11
7.5870764478568651
 21
4.6337298491832204
 31
0.0
  0
LINE
  5
3B
  8
AM_HID
 10
6.4590551057267378
 20
3.19372984918322
 30
0.0
 11
7.5870764478568651
 21
3.19372984918322
 31
0.0
  0
LINE
  5
3C
  8
AM_HID
 10
6.5670551057267392
 20
3.1037298491832219
 30
0.0
 11
6.5670551057267392
 21
3.0857298491832208
 31
0.0
  0
LINE
  5
3D
  8
AM_VIS
 10
4.9110551057267378
 20
4.7237298491832176
 30
0.0
 11
4.9110551057267386
 21
3.1037298491832219
 31
0.0
  0
LINE
  5
3E
  8
AM_VIS
 10
6.5670551057267383
 20
4.74172984918322
 30
0.0
 11
7.5510764478568664
 21
4.74172984918322
 31
0.0
  0
LINE
  5
3F
  8
AM_VIS
 10
6.5670551057267383
 20
3.0857298491832199
 30
0.0
 11
7.5510764478568664
 21
3.0857298491832199
 31
0.0
  0
LINE
  5
40
  8
AM_HID
 10
6.4590551057267378
 20
4.7417298491832183
 30
0.0
 11
6.4590551057267378
 21
4.6337298491832204
 31
0.0
  0
LINE
  5
41
  8
AM_HID
 10
6.4590551057267387
 20
3.1937298491832209
 30
0.0
 11
6.4590551057267387
 21
3.085729849183223
 31
0.0
  0
LINE
  5
42
  8
AM_HID
 10
5.0190551057267383
 20
4.7417298491832183
 30
0.0
 11
5.0190551057267392
 21
3.085729849183223
 31
0.0
  0
LINE
  5
43
  8
AM_HID
 10
6.5670551057267392
 20
4.74172984918322
 30
0.0
 11
6.5670551057267392
 21
4.7237298491832176
 31
0.0
  0
LINE
  5
44
  8
AM_HID
 10
6.5490551057267377
 20
3.1037298491832219
 30
0.0
 11
6.5670551057267392
 21
3.1037298491832219
 31
0.0
  0
ARC
  5
45
  8
AM_VIS
 10
7.2582551057267377
 20
3.9137298491832211
 30
0.0
 40
0.2925
 50
219.0723075591803
 51
320.92769244081938
  0
LINE
  5
46
  8
AM_VIS
 10
6.5490551057267377
 20
3.085729849183223
 30
0.0
 11
4.9290551057267384
 21
3.085729849183223
 31
0.0
  0
ARC
  5
47
  8
AM_VIS
 10
5.739055105726738
 20
3.913729849183218
 30
0.0
 40
0.2925
 50
129.07230755918039
 51
230.9276924408191
  0
CIRCLE
  5
48
  8
AM_VIS
 10
5.739055105726738
 20
3.913729849183218
 30
0.0
 40
0.225
  0
ARC
  5
49
  8
AM_VIS
 10
5.739055105726738
 20
3.913729849183222
 30
0.0
 40
0.2925
 50
309.07230755918027
 51
50.927692440819257
  0
LINE
  5
4A
  8
AM_VIS
 10
7.587076447856866
 20
3.1217298491832199
 30
0.0
 11
7.587076447856866
 21
3.6223665747817209
 31
0.0
  0
LINE
  5
4B
  8
AM_VIS
 10
7.5870764478568651
 20
4.2050931235847191
 30
0.0
 11
7.5870764478568651
 21
4.7057298491832196
 31
0.0
  0
CIRCLE
  5
4C
  8
AM_VIS
 10
7.2582551057267377
 20
3.9137298491832211
 30
0.0
 40
0.225
  0
LINE
  5
4D
  8
AM_HID
 10
6.5490551057267377
 20
4.7237298491832176
 30
0.0
 11
6.5670551057267392
 21
4.7237298491832176
 31
0.0
  0
ARC
  5
4E
  8
AM_VIS
 10
7.2582551057267377
 20
3.913729849183218
 30
0.0
 40
0.2925
 50
39.072307559180501
 51
140.92769244081961
  0
LINE
  5
4F
  8
AM_VIS
 10
6.5490551057267377
 20
4.7417298491832183
 30
0.0
 11
4.9290551057267384
 21
4.7417298491832183
 31
0.0
  0
ARC
  5
50
  8
AM_HID
 10
6.5490551057267377
 20
3.1037298491832219
 30
0.0
 40
0.018
 50
314.99999999999528
 51
0.0
  0
ARC
  5
51
  8
AM_VIS
 10
6.5490551057267377
 20
3.1037298491832219
 30
0.0
 40
0.018
 50
270.0
 51
314.99999999999528
  0
ARC
  5
52
  8
AM_VIS
 10
4.9290551057267384
 20
3.1037298491832219
 30
0.0
 40
0.018
 50
180.0
 51
270.0
  0
ARC
  5
53
  8
AM_VIS
 10
7.5510764478568664
 20
3.1217298491832199
 30
0.0
 40
0.036
 50
270.0
 51
0.0
  0
ARC
  5
54
  8
AM_VIS
 10
7.5510764478568664
 20
4.7057298491832196
 30
0.0
 40
0.036
 50
0.0
 51
90.0
  0
ARC
  5
55
  8
AM_VIS
 10
4.9290551057267384
 20
4.7237298491832176
 30
0.0
 40
0.018
 50
90.0
 51
180.0
  0
ARC
  5
56
  8
AM_VIS
 10
6.5490551057267377
 20
4.7237298491832176
 30
0.0
 40
0.018
 50
45.000000000004277
 51
90.0
  0
ARC
  5
57
  8
AM_HID
 10
6.5490551057267377
 20
4.7237298491832176
 30
0.0
 40
0.018
 50
0.0
 51
45.000000000004277
  0
INSERT
  5
171
  8
0
  2
*U7
 10
0.0
 20
0.0
 30
0.0
  0
INSERT
  5
172
  8
0
  2
*U8
 10
0.0
 20
0.0
 30
0.0
  0
LINE
  5
17D
  8
0
 10
5.739055105726738
 20
4.7867298491832182
 30
0.0
 11
5.739055105726738
 21
5.5025508408892811
 31
0.0
  0
LINE
  5
17E
  8
0
 10
7.587076447856866
 20
4.7507298491832204
 30
0.0
 11
7.587076447856866
 21
5.5025508408892811
 31
0.0
  0
LINE
  5
17F
  8
0
 10
5.8290551057267379
 20
5.3729508408892812
 30
0.0
 11
6.449974719572185
 21
5.3729508408892812
 31
0.0
  0
LINE
  5
180
  8
0
 10
7.497076447856867
 20
5.3729508408892812
 30
0.0
 11
6.8956773971733307
 21
5.3729508408892812
 31
0.0
  0
SOLID
  5
181
  8
0
 10
5.8290551057267379
 20
5.38795084088928
 30
0.0
 11
5.8290551057267379
 21
5.3579508408892806
 31
0.0
 12
5.739055105726738
 22
5.3729508408892812
 32
0.0
 13
5.739055105726738
 23
5.3729508408892812
 33
0.0
  0
SOLID
  5
182
  8
0
 10
7.497076447856867
 20
5.38795084088928
 30
0.0
 11
7.497076447856867
 21
5.3579508408892806
 31
0.0
 12
7.587076447856866
 22
5.3729508408892812
 32
0.0
 13
7.587076447856866
 23
5.3729508408892812
 33
0.0
  0
INSERT
  5
183
  8
0
  2
*U9
 10
0.0
 20
0.0
 30
0.0
  0
ENDSEC
  0
EOF
