  0
SECTION
  2
HEADER
  9
$ACADVER
  1
AC1009
  9
$INSBASE
 10
0.0
 20
0.0
 30
0.0
  9
$EXTMIN
 10
2.6836811187707732
 20
0.3869882694832598
 30
0.0
  9
$EXTMAX
 10
8.8785557974937888
 20
6.9453750705419246
 30
0.0
  9
$LIMMIN
 10
0.0
 20
0.0
  9
$LIMMAX
 10
12.0
 20
9.0
  9
$ORTHOMODE
 70
     1
  9
$REGENMODE
 70
     0
  9
$FILLMODE
 70
     1
  9
$QTEXTMODE
 70
     0
  9
$MIRRTEXT
 70
     0
  9
$DRAGMODE
 70
     2
  9
$LTSCALE
 40
1.0
  9
$OSMODE
 70
    55
  9
$ATTMODE
 70
     1
  9
$TEXTSIZE
 40
0.2
  9
$TRACEWID
 40
0.05
  9
$TEXTSTYLE
  7
STANDARD
  9
$CLAYER
  8
0
  9
$CELTYPE
  6
BYLAYER
  9
$CECOLOR
 62
   256
  9
$DIMSCALE
 40
1.0
  9
$DIMASZ
 40
0.125
  9
$DIMEXO
 40
0.0625
  9
$DIMDLI
 40
0.38
  9
$DIMRND
 40
0.0
  9
$DIMDLE
 40
0.0
  9
$DIMEXE
 40
0.18
  9
$DIMTP
 40
0.0
  9
$DIMTM
 40
0.0
  9
$DIMTXT
 40
0.09375
  9
$DIMCEN
 40
-0.125
  9
$DIMTSZ
 40
0.0
  9
$DIMTOL
 70
     0
  9
$DIMLIM
 70
     0
  9
$DIMTIH
 70
     0
  9
$DIMTOH
 70
     0
  9
$DIMSE1
 70
     0
  9
$DIMSE2
 70
     0
  9
$DIMTAD
 70
     0
  9
$DIMZIN
 70
     3
  9
$DIMBLK
  1

  9
$DIMASO
 70
     0
  9
$DIMSHO
 70
     1
  9
$DIMPOST
  1

  9
$DIMAPOST
  1

  9
$DIMALT
 70
     0
  9
$DIMALTD
 70
     2
  9
$DIMALTF
 40
25.399999999999999
  9
$DIMLFAC
 40
1.0
  9
$DIMTOFL
 70
     1
  9
$DIMTVP
 40
0.0
  9
$DIMTIX
 70
     0
  9
$DIMSOXD
 70
     0
  9
$DIMSAH
 70
     0
  9
$DIMBLK1
  1

  9
$DIMBLK2
  1

  9
$DIMSTYLE
  2
STANDARD
  9
$DIMCLRD
 70
     0
  9
$DIMCLRE
 70
     0
  9
$DIMCLRT
 70
     0
  9
$DIMTFAC
 40
1.0
  9
$DIMGAP
 40
0.09
  9
$LUNITS
 70
     4
  9
$LUPREC
 70
     4
  9
$SKETCHINC
 40
0.1
  9
$FILLETRAD
 40
0.0
  9
$AUNITS
 70
     0
  9
$AUPREC
 70
     4
  9
$MENU
  1
.
  9
$ELEVATION
 40
0.0
  9
$PELEVATION
 40
0.0
  9
$THICKNESS
 40
0.0
  9
$LIMCHECK
 70
     0
  9
$BLIPMODE
 70
     0
  9
$CHAMFERA
 40
0.125
  9
$CHAMFERB
 40
0.5
  9
$SKPOLY
 70
     0
  9
$TDCREATE
 40
2451086.9109346061
  9
$TDUPDATE
 40
2453913.5666864589
  9
$TDINDWG
 40
0.1059187153
  9
$TDUSRTIMER
 40
0.1059187153
  9
$USRTIMER
 70
     1
  9
$ANGBASE
 50
0.0
  9
$ANGDIR
 70
     0
  9
$PDMODE
 70
    34
  9
$PDSIZE
 40
3.0
  9
$PLINEWID
 40
0.0
  9
$COORDS
 70
     1
  9
$SPLFRAME
 70
     0
  9
$SPLINETYPE
 70
     6
  9
$SPLINESEGS
 70
     8
  9
$ATTDIA
 70
     0
  9
$ATTREQ
 70
     1
  9
$HANDLING
 70
     1
  9
$HANDSEED
  5
645
  9
$SURFTAB1
 70
     6
  9
$SURFTAB2
 70
     6
  9
$SURFTYPE
 70
     6
  9
$SURFU
 70
     6
  9
$SURFV
 70
     6
  9
$UCSNAME
  2

  9
$UCSORG
 10
0.0
 20
0.0
 30
0.0
  9
$UCSXDIR
 10
1.0
 20
0.0
 30
0.0
  9
$UCSYDIR
 10
0.0
 20
1.0
 30
0.0
  9
$PUCSNAME
  2

  9
$PUCSORG
 10
0.0
 20
0.0
 30
0.0
  9
$PUCSXDIR
 10
1.0
 20
0.0
 30
0.0
  9
$PUCSYDIR
 10
0.0
 20
1.0
 30
0.0
  9
$USERI1
 70
     0
  9
$USERI2
 70
     0
  9
$USERI3
 70
     0
  9
$USERI4
 70
     0
  9
$USERI5
 70
     0
  9
$USERR1
 40
0.0
  9
$USERR2
 40
0.0
  9
$USERR3
 40
0.0
  9
$USERR4
 40
0.0
  9
$USERR5
 40
0.0
  9
$WORLDVIEW
 70
     1
  9
$SHADEDGE
 70
     3
  9
$SHADEDIF
 70
    70
  9
$TILEMODE
 70
     1
  9
$MAXACTVP
 70
    48
  9
$PLIMCHECK
 70
     0
  9
$PEXTMIN
 10
2.2029423601265901
 20
0.0557382694832596
 30
0.0
  9
$PEXTMAX
 10
7.8755937328100538
 20
7.2766250705419262
 30
0.0
  9
$PLIMMIN
 10
-0.1579164520023376
 20
-0.2812499887361301
  9
$PLIMMAX
 10
10.84208330770177
 20
8.2187497709679782
  9
$UNITMODE
 70
     0
  9
$VISRETAIN
 70
     1
  9
$PLINEGEN
 70
     0
  9
$PSLTSCALE
 70
     1
  0
ENDSEC
  0
SECTION
  2
TABLES
  0
TABLE
  2
VPORT
 70
     2
  0
VPORT
  2
*ACTIVE
 70
     0
 10
0.0
 20
0.0
 11
1.0
 21
1.0
 12
1.354857272875023
 22
0.0
 13
0.0
 23
0.0
 14
0.5
 24
0.5
 15
0.5
 25
0.5
 16
0.0
 26
0.0
 36
1.0
 17
6.1649958580091244
 27
3.4726875402709618
 37
0.0
 40
6.9453750805419254
 41
2.1654275092936799
 42
50.0
 43
0.0
 44
0.0
 50
0.0
 51
0.0
 71
     0
 72
   100
 73
     1
 74
     1
 75
     0
 76
     0
 77
     0
 78
     0
  0
ENDTAB
  0
TABLE
  2
LTYPE
 70
    18
  0
LTYPE
  2
CONTINUOUS
 70
     0
  3
Solid line
 72
    65
 73
     0
 40
0.0
  0
LTYPE
  2
HIDDEN
 70
     0
  3
Hidden __ __ __ __ __ __ __ __ __ __ __ __ __ _
 72
    65
 73
     2
 40
0.375
 49
0.25
 49
-0.125
  0
LTYPE
  2
PHANTOM2
 70
     0
  3
Phantom (.5x) ___ _ _ ___ _ _ ___ _ _ ___ _ _
 72
    65
 73
     6
 40
1.25
 49
0.625
 49
-0.125
 49
0.125
 49
-0.125
 49
0.125
 49
-0.125
  0
LTYPE
  2
CENTER
 70
     0
  3
Center ____ _ ____ _ ____ _ ____ _ ____ _ ____
 72
    65
 73
     4
 40
2.0
 49
1.25
 49
-0.25
 49
0.25
 49
-0.25
  0
LTYPE
  2
ASULTYPE
 70
     0
  3
Solid line
 72
    65
 73
     2
 40
3.0
 49
2.5
 49
0.5
  0
LTYPE
  2
ASVLTYPE
 70
     0
  3
__ __ __ __ __ __ __ __ __ __ __ __ __ __ __ __ __ __ __ __ __
 72
    65
 73
     2
 40
0.75
 49
0.5
 49
-0.25
  0
LTYPE
  2
AM_ISO02W050
 70
     0
  3
__ __ __ __ __ __ __ __ __ __ __ __ __ __ __
 72
    65
 73
     2
 40
7.5
 49
6.0
 49
-1.5
  0
LTYPE
  2
AM_ISO08W050
 70
     0
  3
____ . ____ . ____ . ____ . ____ . ____ . ____
 72
    65
 73
     4
 40
18.0
 49
12.0
 49
-1.5
 49
3.0
 49
-1.5
  0
LTYPE
  2
AM_ISO09W050
 70
     0
  3
_____ . . _____ . . _____ . . ____ .. ____
 72
    65
 73
     6
 40
22.5
 49
12.0
 49
-1.5
 49
3.0
 49
-1.5
 49
3.0
 49
-1.5
  0
LTYPE
  2
AMCONSTR
 70
     0
  3
_______________________
 72
    65
 73
     2
 40
9999.0
 49
9999.0
 49
0.0
  0
LTYPE
  2
AM_ISO08W050X2
 70
     0
  3
__ . __ . __ . __ . __ . __
 72
    65
 73
     4
 40
9.0
 49
6.0
 49
-0.75
 49
1.5
 49
-0.75
  0
LTYPE
  2
AM_ISO02W050X2
 70
     0
  3
 _ _ _ _ _ _ _ _ _ _ _ _
 72
    65
 73
     2
 40
3.75
 49
3.0
 49
-0.75
  0
LTYPE
  2
AMZIGZAG
 70
     0
  3
/\/-/\/-/\/-/\/-/\/-/\/
 72
    65
 73
     2
 40
11.0001
 49
0.0001
 49
-11.0
  0
LTYPE
  2
CENTER2
 70
     0
  3
Center (.5x) ___ _ ___ _ ___ _ ___ _ ___ _ ___
 72
    65
 73
     4
 40
1.125
 49
0.75
 49
-0.125
 49
0.125
 49
-0.125
  0
LTYPE
  2
HIDDEN2
 70
     0
  3
Hidden (.5x) _ _ _ _ _ _ _ _ _ _ _ _ _ _ _ _ _
 72
    65
 73
     2
 40
0.1875
 49
0.125
 49
-0.0625
  0
LTYPE
  2
AMZIGZAG2
 70
     0
  3
/\/-/\/-/\/-/\/-/\/-/\/
 72
    65
 73
     2
 40
0.4401
 49
0.0001
 49
-0.4400000000000001
  0
LTYPE
  2
ACANSTGB
 70
     0
  3
__ . . __ . .
 72
    65
 73
     6
 40
0.35433070866
 49
0.15748031496
 49
-0.03937007874
 49
0.03937007874
 49
-0.03937007874
 49
0.03937007874
 49
-0.03937007874
  0
LTYPE
  2
ACANSTGL
 70
     0
  3
_ _ _ _ _
 72
    65
 73
     2
 40
0.11811023622
 49
0.07874015748
 49
-0.03937007874
  0
ENDTAB
  0
TABLE
  2
LAYER
 70
     4
  0
LAYER
  2
0
 70
     0
 62
     7
  6
CONTINUOUS
  0
LAYER
  2
AM_VIS
 70
     0
 62
     7
  6
CONTINUOUS
  0
LAYER
  2
AM_HID
 70
     0
 62
     7
  6
HIDDEN
  0
LAYER
  2
KEE10
 70
     0
 62
     7
  6
CONTINUOUS
  0
ENDTAB
  0
TABLE
  2
STYLE
 70
     5
  0
STYLE
  2
STANDARD
 70
     0
 40
0.0
 41
1.0
 50
0.0
 71
     0
 42
0.2
  3
txt
  4

  0
STYLE
  2

 70
     1
 40
0.0
 41
1.0
 50
0.0
 71
     0
 42
0.2
  3
ltypeshp.shx
  4

  0
STYLE
  2
ACANSTS
 70
     0
 40
1.0
 41
1.0
 50
0.0
 71
     0
 42
0.2
  3
romans.shx
  4

  0
STYLE
  2
ACANSGDT
 70
     0
 40
0.0
 41
1.0
 50
0.0
 71
     0
 42
0.2
  3
amgdtans.shx
  4

  0
STYLE
  2
ACANSTSB
 70
     0
 40
1.0
 41
1.0
 50
0.0
 71
     0
 42
0.2
  3
romans.shx
  4

  0
ENDTAB
  0
TABLE
  2
VIEW
 70
     0
  0
ENDTAB
  0
TABLE
  2
UCS
 70
     0
  0
ENDTAB
  0
TABLE
  2
APPID
 70
    13
  0
APPID
  2
ACAD
 70
     0
  0
APPID
  2
GENIUS_GENDIM_13
 70
     0
  0
APPID
  2
GENIUS_GENDTOL_13
 70
     0
  0
APPID
  2
GENIUS_GE3DTOL_13
 70
     0
  0
APPID
  2
MCAD_NO_VIS
 70
     0
  0
APPID
  2
ACAD_TEMP_GRAPHIC
 70
     0
  0
APPID
  2
AD_DRAW
 70
     0
  0
APPID
  2
ACATTRIBSERVICES
 70
     0
  0
APPID
  2
ASURF_PCURVE_APPNAME
 70
     0
  0
APPID
  2
AMG_3D2D_5_0
 70
     0
  0
APPID
  2
DESIGNERASSEMBLIES
 70
     0
  0
APPID
  2
ACADM_DIM_EDIT
 70
     0
  0
APPID
  2
AMDT_DM_ADJ
 70
     0
  0
ENDTAB
  0
TABLE
  2
DIMSTYLE
 70
     7
  0
DIMSTYLE
  2
STANDARD
 70
     0
  3

  4

  5

  6

  7

 40
1.0
 41
0.18
 42
0.0625
 43
0.38
 44
0.18
 45
0.0
 46
0.0
 47
0.0
 48
0.0
140
0.18
141
0.09
142
0.0
143
25.399999999999999
144
1.0
145
0.0
146
1.0
147
0.09
 71
     0
 72
     0
 73
     1
 74
     1
 75
     0
 76
     0
 77
     0
 78
     0
170
     0
171
     2
172
     0
173
     0
174
     0
175
     0
176
     0
177
     0
178
     0
  0
DIMSTYLE
  2
AM_ANSI
 70
     0
  3

  4
mm
  5

  6

  7

 40
1.0
 41
0.1
 42
0.05
 43
0.5
 44
0.1
 45
0.0
 46
0.0
 47
0.1
 48
0.1
140
0.12
141
0.0
142
0.0
143
25.399999999999999
144
1.0
145
0.0
146
0.71
147
0.06
 71
     0
 72
     0
 73
     1
 74
     1
 75
     0
 76
     0
 77
     0
 78
     7
170
     0
171
     2
172
     0
173
     0
174
     0
175
     0
176
   256
177
   256
178
     2
  0
DIMSTYLE
  2
AM_ANSI$3
 70
     0
  3

  4
mm
  5

  6

  7

 40
1.0
 41
0.1
 42
0.05
 43
0.5
 44
0.1
 45
0.0
 46
0.0
 47
0.1
 48
0.1
140
0.12
141
0.0
142
0.0
143
25.399999999999999
144
1.0
145
0.0
146
0.71
147
0.06
 71
     0
 72
     0
 73
     1
 74
     1
 75
     0
 76
     0
 77
     0
 78
     7
170
     0
171
     2
172
     0
173
     0
174
     0
175
     0
176
   256
177
   256
178
     2
  0
DIMSTYLE
  2
AM_ANSI$4
 70
     0
  3

  4
mm
  5

  6

  7

 40
1.0
 41
0.1
 42
0.05
 43
0.5
 44
0.1
 45
0.0
 46
0.0
 47
0.1
 48
0.1
140
0.12
141
0.0
142
0.0
143
25.399999999999999
144
1.0
145
0.0
146
0.71
147
0.06
 71
     0
 72
     0
 73
     1
 74
     1
 75
     0
 76
     0
 77
     0
 78
     7
170
     0
171
     2
172
     0
173
     0
174
     0
175
     0
176
   256
177
   256
178
     2
  0
DIMSTYLE
  2
AM_ANSI$7
 70
     0
  3

  4
mm
  5

  6

  7

 40
1.0
 41
0.1
 42
0.05
 43
0.5
 44
0.1
 45
0.0
 46
0.0
 47
0.1
 48
0.1
140
0.24
141
0.0
142
0.0
143
25.399999999999999
144
1.0
145
0.0
146
0.71
147
0.06
 71
     0
 72
     0
 73
     1
 74
     1
 75
     0
 76
     0
 77
     0
 78
     7
170
     0
171
     2
172
     0
173
     0
174
     0
175
     0
176
   256
177
   256
178
     2
  0
DIMSTYLE
  2
AM_ANSI$SF
 70
     0
  3

  4
mm
  5

  6

  7

 40
1.0
 41
0.1
 42
0.05
 43
0.5
 44
0.1
 45
0.0
 46
0.0
 47
0.1
 48
0.1
140
0.12
141
0.0
142
0.0
143
25.399999999999999
144
1.0
145
0.0
146
0.71
147
0.06
 71
     0
 72
     0
 73
     1
 74
     1
 75
     1
 76
     1
 77
     0
 78
     7
170
     0
171
     2
172
     0
173
     0
174
     0
175
     0
176
   256
177
   256
178
     2
  0
DIMSTYLE
  2
AM_ANSI$SH
 70
     0
  3

  4
mm
  5

  6
GENAXEH
  7

 40
1.0
 41
0.1
 42
0.05
 43
0.5
 44
0.1
 45
0.0
 46
0.0
 47
0.1
 48
0.1
140
0.12
141
0.0
142
0.0
143
25.399999999999999
144
1.0
145
0.0
146
0.71
147
0.06
 71
     0
 72
     0
 73
     1
 74
     1
 75
     1
 76
     1
 77
     0
 78
     7
170
     0
171
     2
172
     0
173
     1
174
     0
175
     0
176
   256
177
   256
178
     2
  0
ENDTAB
  0
ENDSEC
  0
SECTION
  2
BLOCKS
  0
BLOCK
  8
0
  2
$MODEL_SPACE
 70
     0
 10
0.0
 20
0.0
 30
0.0
  3
$MODEL_SPACE
  1

  0
ENDBLK
  5
A
  8
0
  0
BLOCK
 67
     1
  8
0
  2
$PAPER_SPACE
 70
     0
 10
0.0
 20
0.0
 30
0.0
  3
$PAPER_SPACE
  1

  0
ENDBLK
  5
F
 67
     1
  8
0
  0
BLOCK
  8
0
  2
*U0
 70
     1
 10
0.0
 20
0.0
 30
0.0
  3
*U0
  1

  0
ENDBLK
  5
121
  8
0
  0
BLOCK
  8
0
  2
GENAXEH
 70
     0
 10
0.0
 20
0.0
 30
0.0
  3
GENAXEH
  1

  0
LINE
  5
15F
  8
0
 10
-1.0
 20
0.0
 30
0.0
 11
1.0
 21
0.0
 31
0.0
  0
ENDBLK
  5
161
  8
0
  0
BLOCK
  8
0
  2
_DOT
 70
     0
 10
0.0
 20
0.0
 30
0.0
  3
_DOT
  1

  0
POLYLINE
  5
168
  8
0
  6
BYBLOCK
 62
     0
 66
     1
 10
0.0
 20
0.0
 30
0.0
 70
     1
 40
0.5
 41
0.5
  0
VERTEX
  5
169
  8
0
  6
BYBLOCK
 62
     0
 10
-0.25
 20
0.0
 30
0.0
 42
1.0
  0
VERTEX
  5
16A
  8
0
  6
BYBLOCK
 62
     0
 10
0.25
 20
0.0
 30
0.0
 42
1.0
  0
SEQEND
  5
16B
  8
0
  6
BYBLOCK
 62
     0
  0
LINE
  5
16C
  8
0
  6
BYBLOCK
 62
     0
 10
-0.5
 20
0.0
 30
0.0
 11
-1.0
 21
0.0
 31
0.0
  0
ENDBLK
  5
16E
  8
0
  0
BLOCK
  8
0
  2
2D
 70
     0
 10
0.0
 20
0.0
 30
0.0
  3
2D
  1

  0
INSERT
  5
172
  8
0
  2
*U4
 10
0.0
 20
0.0
 30
0.0
  0
INSERT
  5
173
  8
0
  2
*U5
 10
0.0
 20
0.0
 30
0.0
  0
INSERT
  5
174
  8
0
  2
*U6
 10
0.0
 20
0.0
 30
0.0
  0
ENDBLK
  5
176
  8
0
  0
BLOCK
  8
0
  2
*U4
 70
     1
 10
0.0
 20
0.0
 30
0.0
  3
*U4
  1

  0
TEXT
  5
1A6
  8
KEE10
 10
-0.167740653382606
 20
0.7944046258072062
 30
0.0
 40
0.140625
  1
KEE
  0
ENDBLK
  5
1A8
  8
0
  0
BLOCK
  8
0
  2
*U5
 70
     1
 10
0.0
 20
0.0
 30
0.0
  3
*U5
  1

  0
TEXT
  5
1AA
  8
KEE10
 10
-0.308365653382606
 20
0.4858688129746218
 30
0.0
 40
0.140625
  1
KLAMP
  0
ENDBLK
  5
1AC
  8
0
  0
BLOCK
  8
0
  2
*U6
 70
     1
 10
0.0
 20
0.0
 30
0.0
  3
*U6
  1

  0
TEXT
  5
1AE
  8
KEE10
 10
-0.202896903382606
 20
0.2018753139112972
 30
0.0
 40
0.140625
  1
10-8
  0
ENDBLK
  5
1B0
  8
0
  0
BLOCK
  8
0
  2
*U7
 70
     1
 10
0.0
 20
0.0
 30
0.0
  3
*U7
  1

  0
TEXT
  5
1B2
  8
KEE10
 10
4.0483629490052371
 20
2.0341865317978671
 30
0.0
 40
0.140625
  1
KEE
  0
ENDBLK
  5
1B4
  8
0
  0
BLOCK
  8
0
  2
*U8
 70
     1
 10
0.0
 20
0.0
 30
0.0
  3
*U8
  1

  0
TEXT
  5
1B6
  8
KEE10
 10
3.9077379490052371
 20
1.7256507189652821
 30
0.0
 40
0.140625
  1
KLAMP
  0
ENDBLK
  5
1B8
  8
0
  0
BLOCK
  8
0
  2
*U9
 70
     1
 10
0.0
 20
0.0
 30
0.0
  3
*U9
  1

  0
TEXT
  5
1BA
  8
0
 10
8.7454307974937873
 20
5.3828750705419264
 30
0.0
 40
0.09375
  1
2-5/8"
 50
90.0
  0
ENDBLK
  5
1BC
  8
0
  0
ENDSEC
  0
SECTION
  2
ENTITIES
  0
POINT
  5
25
  8
0
 10
0.0
 20
0.0
 30
0.0
  0
POINT
  5
26
  8
0
 10
0.0
 20
0.0
 30
0.0
  0
LINE
  5
27
  8
AM_VIS
 10
4.1859277613244412
 20
2.8424789839017839
 30
0.0
 11
2.8734277613244412
 21
2.7276501130240089
 31
0.0
  0
LINE
  5
29
  8
AM_VIS
 10
4.1859277613244412
 20
2.842478983901783
 30
0.0
 11
6.1234277613244412
 21
3.0119882694832611
 31
0.0
  0
LINE
  5
2A
  8
AM_VIS
 10
6.1234277613244412
 20
0.3869882694832598
 30
0.0
 11
4.1859277613244412
 21
0.5564975550647376
 31
0.0
  0
LINE
  5
2B
  8
AM_VIS
 10
2.8734277613244412
 20
0.6713264259425131
 30
0.0
 11
4.1859277613244412
 21
0.5564975550647376
 31
0.0
  0
LINE
  5
2C
  8
AM_HID
 10
2.889094940909954
 20
1.4612124542938181
 30
0.0
 11
2.889094940909954
 21
1.091148816998565
 31
0.0
  0
ARC
  5
2F
  8
AM_HID
 10
1.612846253174353
 20
1.69948826948326
 30
0.0
 40
1.298285519344148
 50
349.42462300662538
 51
10.57537699337481
  0
LINE
  5
30
  8
AM_HID
 10
2.889094940909954
 20
2.3078277219446921
 30
0.0
 11
2.889094940909954
 21
1.937764084672706
 31
0.0
  0
POLYLINE
  8
AM_VIS
  5
1BD
  66
     1
 10
0.000000
 20
0.000000
 30
0.000000
  70
     8
  0
VERTEX
  8
AM_VIS
  5
1BE
 10
2.96609
 20
1.69949
 30
0.000000
  70
    32
  0
VERTEX
  8
AM_VIS
  5
1BF
 10
2.96608
 20
1.70141
 30
0.000000
  70
    32
  0
VERTEX
  8
AM_VIS
  5
1C0
 10
2.96608
 20
1.70333
 30
0.000000
  70
    32
  0
VERTEX
  8
AM_VIS
  5
1C1
 10
2.96608
 20
1.70524
 30
0.000000
  70
    32
  0
VERTEX
  8
AM_VIS
  5
1C2
 10
2.96607
 20
1.70716
 30
0.000000
  70
    32
  0
VERTEX
  8
AM_VIS
  5
1C3
 10
2.96606
 20
1.70907
 30
0.000000
  70
    32
  0
VERTEX
  8
AM_VIS
  5
1C4
 10
2.96605
 20
1.71098
 30
0.000000
  70
    32
  0
VERTEX
  8
AM_VIS
  5
1C5
 10
2.96604
 20
1.71289
 30
0.000000
  70
    32
  0
VERTEX
  8
AM_VIS
  5
1C6
 10
2.96602
 20
1.71479
 30
0.000000
  70
    32
  0
VERTEX
  8
AM_VIS
  5
1C7
 10
2.96601
 20
1.71670
 30
0.000000
  70
    32
  0
VERTEX
  8
AM_VIS
  5
1C8
 10
2.96599
 20
1.71860
 30
0.000000
  70
    32
  0
VERTEX
  8
AM_VIS
  5
1C9
 10
2.96597
 20
1.72050
 30
0.000000
  70
    32
  0
VERTEX
  8
AM_VIS
  5
1CA
 10
2.96595
 20
1.72240
 30
0.000000
  70
    32
  0
VERTEX
  8
AM_VIS
  5
1CB
 10
2.96592
 20
1.72429
 30
0.000000
  70
    32
  0
VERTEX
  8
AM_VIS
  5
1CC
 10
2.96590
 20
1.72618
 30
0.000000
  70
    32
  0
VERTEX
  8
AM_VIS
  5
1CD
 10
2.96587
 20
1.72808
 30
0.000000
  70
    32
  0
VERTEX
  8
AM_VIS
  5
1CE
 10
2.96584
 20
1.72997
 30
0.000000
  70
    32
  0
VERTEX
  8
AM_VIS
  5
1CF
 10
2.96581
 20
1.73185
 30
0.000000
  70
    32
  0
VERTEX
  8
AM_VIS
  5
1D0
 10
2.96578
 20
1.73374
 30
0.000000
  70
    32
  0
VERTEX
  8
AM_VIS
  5
1D1
 10
2.96574
 20
1.73562
 30
0.000000
  70
    32
  0
VERTEX
  8
AM_VIS
  5
1D2
 10
2.96571
 20
1.73750
 30
0.000000
  70
    32
  0
VERTEX
  8
AM_VIS
  5
1D3
 10
2.96567
 20
1.73938
 30
0.000000
  70
    32
  0
VERTEX
  8
AM_VIS
  5
1D4
 10
2.96563
 20
1.74126
 30
0.000000
  70
    32
  0
VERTEX
  8
AM_VIS
  5
1D5
 10
2.96559
 20
1.74313
 30
0.000000
  70
    32
  0
VERTEX
  8
AM_VIS
  5
1D6
 10
2.96554
 20
1.74500
 30
0.000000
  70
    32
  0
VERTEX
  8
AM_VIS
  5
1D7
 10
2.96550
 20
1.74688
 30
0.000000
  70
    32
  0
VERTEX
  8
AM_VIS
  5
1D8
 10
2.96545
 20
1.74874
 30
0.000000
  70
    32
  0
VERTEX
  8
AM_VIS
  5
1D9
 10
2.96540
 20
1.75061
 30
0.000000
  70
    32
  0
VERTEX
  8
AM_VIS
  5
1DA
 10
2.96535
 20
1.75247
 30
0.000000
  70
    32
  0
VERTEX
  8
AM_VIS
  5
1DB
 10
2.96530
 20
1.75434
 30
0.000000
  70
    32
  0
VERTEX
  8
AM_VIS
  5
1DC
 10
2.96524
 20
1.75620
 30
0.000000
  70
    32
  0
VERTEX
  8
AM_VIS
  5
1DD
 10
2.96519
 20
1.75805
 30
0.000000
  70
    32
  0
VERTEX
  8
AM_VIS
  5
1DE
 10
2.96513
 20
1.75991
 30
0.000000
  70
    32
  0
VERTEX
  8
AM_VIS
  5
1DF
 10
2.96507
 20
1.76176
 30
0.000000
  70
    32
  0
VERTEX
  8
AM_VIS
  5
1E0
 10
2.96501
 20
1.76361
 30
0.000000
  70
    32
  0
VERTEX
  8
AM_VIS
  5
1E1
 10
2.96495
 20
1.76546
 30
0.000000
  70
    32
  0
VERTEX
  8
AM_VIS
  5
1E2
 10
2.96488
 20
1.76731
 30
0.000000
  70
    32
  0
VERTEX
  8
AM_VIS
  5
1E3
 10
2.96482
 20
1.76915
 30
0.000000
  70
    32
  0
VERTEX
  8
AM_VIS
  5
1E4
 10
2.96475
 20
1.77100
 30
0.000000
  70
    32
  0
VERTEX
  8
AM_VIS
  5
1E5
 10
2.96468
 20
1.77284
 30
0.000000
  70
    32
  0
VERTEX
  8
AM_VIS
  5
1E6
 10
2.96461
 20
1.77467
 30
0.000000
  70
    32
  0
VERTEX
  8
AM_VIS
  5
1E7
 10
2.96454
 20
1.77651
 30
0.000000
  70
    32
  0
VERTEX
  8
AM_VIS
  5
1E8
 10
2.96446
 20
1.77834
 30
0.000000
  70
    32
  0
VERTEX
  8
AM_VIS
  5
1E9
 10
2.96439
 20
1.78017
 30
0.000000
  70
    32
  0
VERTEX
  8
AM_VIS
  5
1EA
 10
2.96431
 20
1.78200
 30
0.000000
  70
    32
  0
VERTEX
  8
AM_VIS
  5
1EB
 10
2.96423
 20
1.78383
 30
0.000000
  70
    32
  0
VERTEX
  8
AM_VIS
  5
1EC
 10
2.96415
 20
1.78565
 30
0.000000
  70
    32
  0
VERTEX
  8
AM_VIS
  5
1ED
 10
2.96407
 20
1.78748
 30
0.000000
  70
    32
  0
VERTEX
  8
AM_VIS
  5
1EE
 10
2.96399
 20
1.78930
 30
0.000000
  70
    32
  0
VERTEX
  8
AM_VIS
  5
1EF
 10
2.96390
 20
1.79112
 30
0.000000
  70
    32
  0
VERTEX
  8
AM_VIS
  5
1F0
 10
2.96381
 20
1.79293
 30
0.000000
  70
    32
  0
VERTEX
  8
AM_VIS
  5
1F1
 10
2.96373
 20
1.79474
 30
0.000000
  70
    32
  0
VERTEX
  8
AM_VIS
  5
1F2
 10
2.96364
 20
1.79656
 30
0.000000
  70
    32
  0
VERTEX
  8
AM_VIS
  5
1F3
 10
2.96354
 20
1.79836
 30
0.000000
  70
    32
  0
VERTEX
  8
AM_VIS
  5
1F4
 10
2.96345
 20
1.80017
 30
0.000000
  70
    32
  0
VERTEX
  8
AM_VIS
  5
1F5
 10
2.96336
 20
1.80198
 30
0.000000
  70
    32
  0
VERTEX
  8
AM_VIS
  5
1F6
 10
2.96326
 20
1.80378
 30
0.000000
  70
    32
  0
VERTEX
  8
AM_VIS
  5
1F7
 10
2.96316
 20
1.80558
 30
0.000000
  70
    32
  0
VERTEX
  8
AM_VIS
  5
1F8
 10
2.96307
 20
1.80738
 30
0.000000
  70
    32
  0
VERTEX
  8
AM_VIS
  5
1F9
 10
2.96297
 20
1.80917
 30
0.000000
  70
    32
  0
VERTEX
  8
AM_VIS
  5
1FA
 10
2.96286
 20
1.81096
 30
0.000000
  70
    32
  0
VERTEX
  8
AM_VIS
  5
1FB
 10
2.96276
 20
1.81275
 30
0.000000
  70
    32
  0
VERTEX
  8
AM_VIS
  5
1FC
 10
2.96266
 20
1.81454
 30
0.000000
  70
    32
  0
VERTEX
  8
AM_VIS
  5
1FD
 10
2.96255
 20
1.81633
 30
0.000000
  70
    32
  0
VERTEX
  8
AM_VIS
  5
1FE
 10
2.96244
 20
1.81811
 30
0.000000
  70
    32
  0
VERTEX
  8
AM_VIS
  5
1FF
 10
2.96233
 20
1.81989
 30
0.000000
  70
    32
  0
VERTEX
  8
AM_VIS
  5
200
 10
2.96222
 20
1.82167
 30
0.000000
  70
    32
  0
VERTEX
  8
AM_VIS
  5
201
 10
2.96211
 20
1.82345
 30
0.000000
  70
    32
  0
VERTEX
  8
AM_VIS
  5
202
 10
2.96200
 20
1.82522
 30
0.000000
  70
    32
  0
VERTEX
  8
AM_VIS
  5
203
 10
2.96188
 20
1.82700
 30
0.000000
  70
    32
  0
VERTEX
  8
AM_VIS
  5
204
 10
2.96177
 20
1.82877
 30
0.000000
  70
    32
  0
VERTEX
  8
AM_VIS
  5
205
 10
2.96165
 20
1.83053
 30
0.000000
  70
    32
  0
VERTEX
  8
AM_VIS
  5
206
 10
2.96153
 20
1.83230
 30
0.000000
  70
    32
  0
VERTEX
  8
AM_VIS
  5
207
 10
2.96141
 20
1.83406
 30
0.000000
  70
    32
  0
VERTEX
  8
AM_VIS
  5
208
 10
2.96129
 20
1.83582
 30
0.000000
  70
    32
  0
VERTEX
  8
AM_VIS
  5
209
 10
2.96117
 20
1.83758
 30
0.000000
  70
    32
  0
VERTEX
  8
AM_VIS
  5
20A
 10
2.96104
 20
1.83934
 30
0.000000
  70
    32
  0
VERTEX
  8
AM_VIS
  5
20B
 10
2.96092
 20
1.84109
 30
0.000000
  70
    32
  0
VERTEX
  8
AM_VIS
  5
20C
 10
2.96079
 20
1.84284
 30
0.000000
  70
    32
  0
VERTEX
  8
AM_VIS
  5
20D
 10
2.96066
 20
1.84459
 30
0.000000
  70
    32
  0
VERTEX
  8
AM_VIS
  5
20E
 10
2.96053
 20
1.84633
 30
0.000000
  70
    32
  0
VERTEX
  8
AM_VIS
  5
20F
 10
2.96040
 20
1.84808
 30
0.000000
  70
    32
  0
VERTEX
  8
AM_VIS
  5
210
 10
2.96027
 20
1.84982
 30
0.000000
  70
    32
  0
VERTEX
  8
AM_VIS
  5
211
 10
2.96014
 20
1.85156
 30
0.000000
  70
    32
  0
VERTEX
  8
AM_VIS
  5
212
 10
2.96000
 20
1.85329
 30
0.000000
  70
    32
  0
VERTEX
  8
AM_VIS
  5
213
 10
2.95987
 20
1.85503
 30
0.000000
  70
    32
  0
VERTEX
  8
AM_VIS
  5
214
 10
2.95973
 20
1.85676
 30
0.000000
  70
    32
  0
VERTEX
  8
AM_VIS
  5
215
 10
2.95959
 20
1.85849
 30
0.000000
  70
    32
  0
VERTEX
  8
AM_VIS
  5
216
 10
2.95945
 20
1.86022
 30
0.000000
  70
    32
  0
VERTEX
  8
AM_VIS
  5
217
 10
2.95931
 20
1.86194
 30
0.000000
  70
    32
  0
VERTEX
  8
AM_VIS
  5
218
 10
2.95917
 20
1.86366
 30
0.000000
  70
    32
  0
VERTEX
  8
AM_VIS
  5
219
 10
2.95903
 20
1.86538
 30
0.000000
  70
    32
  0
VERTEX
  8
AM_VIS
  5
21A
 10
2.95888
 20
1.86710
 30
0.000000
  70
    32
  0
VERTEX
  8
AM_VIS
  5
21B
 10
2.95874
 20
1.86881
 30
0.000000
  70
    32
  0
VERTEX
  8
AM_VIS
  5
21C
 10
2.95859
 20
1.87052
 30
0.000000
  70
    32
  0
VERTEX
  8
AM_VIS
  5
21D
 10
2.95844
 20
1.87223
 30
0.000000
  70
    32
  0
VERTEX
  8
AM_VIS
  5
21E
 10
2.95829
 20
1.87394
 30
0.000000
  70
    32
  0
VERTEX
  8
AM_VIS
  5
21F
 10
2.95814
 20
1.87565
 30
0.000000
  70
    32
  0
VERTEX
  8
AM_VIS
  5
220
 10
2.95799
 20
1.87735
 30
0.000000
  70
    32
  0
VERTEX
  8
AM_VIS
  5
221
 10
2.95784
 20
1.87905
 30
0.000000
  70
    32
  0
VERTEX
  8
AM_VIS
  5
222
 10
2.95769
 20
1.88074
 30
0.000000
  70
    32
  0
VERTEX
  8
AM_VIS
  5
223
 10
2.95753
 20
1.88244
 30
0.000000
  70
    32
  0
VERTEX
  8
AM_VIS
  5
224
 10
2.95738
 20
1.88413
 30
0.000000
  70
    32
  0
VERTEX
  8
AM_VIS
  5
225
 10
2.95722
 20
1.88582
 30
0.000000
  70
    32
  0
VERTEX
  8
AM_VIS
  5
226
 10
2.95706
 20
1.88751
 30
0.000000
  70
    32
  0
VERTEX
  8
AM_VIS
  5
227
 10
2.95690
 20
1.88919
 30
0.000000
  70
    32
  0
VERTEX
  8
AM_VIS
  5
228
 10
2.95674
 20
1.89087
 30
0.000000
  70
    32
  0
VERTEX
  8
AM_VIS
  5
229
 10
2.95658
 20
1.89255
 30
0.000000
  70
    32
  0
VERTEX
  8
AM_VIS
  5
22A
 10
2.95642
 20
1.89423
 30
0.000000
  70
    32
  0
VERTEX
  8
AM_VIS
  5
22B
 10
2.95625
 20
1.89591
 30
0.000000
  70
    32
  0
VERTEX
  8
AM_VIS
  5
22C
 10
2.95609
 20
1.89758
 30
0.000000
  70
    32
  0
VERTEX
  8
AM_VIS
  5
22D
 10
2.95592
 20
1.89925
 30
0.000000
  70
    32
  0
VERTEX
  8
AM_VIS
  5
22E
 10
2.95576
 20
1.90091
 30
0.000000
  70
    32
  0
VERTEX
  8
AM_VIS
  5
22F
 10
2.95559
 20
1.90258
 30
0.000000
  70
    32
  0
VERTEX
  8
AM_VIS
  5
230
 10
2.95542
 20
1.90424
 30
0.000000
  70
    32
  0
VERTEX
  8
AM_VIS
  5
231
 10
2.95525
 20
1.90590
 30
0.000000
  70
    32
  0
VERTEX
  8
AM_VIS
  5
232
 10
2.95508
 20
1.90756
 30
0.000000
  70
    32
  0
VERTEX
  8
AM_VIS
  5
233
 10
2.95491
 20
1.90921
 30
0.000000
  70
    32
  0
VERTEX
  8
AM_VIS
  5
234
 10
2.95473
 20
1.91086
 30
0.000000
  70
    32
  0
VERTEX
  8
AM_VIS
  5
235
 10
2.95456
 20
1.91251
 30
0.000000
  70
    32
  0
VERTEX
  8
AM_VIS
  5
236
 10
2.95439
 20
1.91416
 30
0.000000
  70
    32
  0
VERTEX
  8
AM_VIS
  5
237
 10
2.95421
 20
1.91580
 30
0.000000
  70
    32
  0
VERTEX
  8
AM_VIS
  5
238
 10
2.95403
 20
1.91744
 30
0.000000
  70
    32
  0
VERTEX
  8
AM_VIS
  5
239
 10
2.95386
 20
1.91908
 30
0.000000
  70
    32
  0
VERTEX
  8
AM_VIS
  5
23A
 10
2.95368
 20
1.92071
 30
0.000000
  70
    32
  0
VERTEX
  8
AM_VIS
  5
23B
 10
2.95350
 20
1.92235
 30
0.000000
  70
    32
  0
VERTEX
  8
AM_VIS
  5
23C
 10
2.95332
 20
1.92398
 30
0.000000
  70
    32
  0
VERTEX
  8
AM_VIS
  5
23D
 10
2.95314
 20
1.92561
 30
0.000000
  70
    32
  0
VERTEX
  8
AM_VIS
  5
23E
 10
2.95295
 20
1.92723
 30
0.000000
  70
    32
  0
VERTEX
  8
AM_VIS
  5
23F
 10
2.95277
 20
1.92885
 30
0.000000
  70
    32
  0
VERTEX
  8
AM_VIS
  5
240
 10
2.95259
 20
1.93047
 30
0.000000
  70
    32
  0
VERTEX
  8
AM_VIS
  5
241
 10
2.95240
 20
1.93209
 30
0.000000
  70
    32
  0
VERTEX
  8
AM_VIS
  5
242
 10
2.95222
 20
1.93371
 30
0.000000
  70
    32
  0
VERTEX
  8
AM_VIS
  5
243
 10
2.95203
 20
1.93532
 30
0.000000
  70
    32
  0
VERTEX
  8
AM_VIS
  5
244
 10
2.95184
 20
1.93693
 30
0.000000
  70
    32
  0
VERTEX
  8
AM_VIS
  5
245
 10
2.95165
 20
1.93854
 30
0.000000
  70
    32
  0
VERTEX
  8
AM_VIS
  5
246
 10
2.95146
 20
1.94014
 30
0.000000
  70
    32
  0
VERTEX
  8
AM_VIS
  5
247
 10
2.95127
 20
1.94174
 30
0.000000
  70
    32
  0
VERTEX
  8
AM_VIS
  5
248
 10
2.95108
 20
1.94334
 30
0.000000
  70
    32
  0
VERTEX
  8
AM_VIS
  5
249
 10
2.95089
 20
1.94494
 30
0.000000
  70
    32
  0
VERTEX
  8
AM_VIS
  5
24A
 10
2.95070
 20
1.94653
 30
0.000000
  70
    32
  0
VERTEX
  8
AM_VIS
  5
24B
 10
2.95051
 20
1.94812
 30
0.000000
  70
    32
  0
VERTEX
  8
AM_VIS
  5
24C
 10
2.95031
 20
1.94971
 30
0.000000
  70
    32
  0
VERTEX
  8
AM_VIS
  5
24D
 10
2.95012
 20
1.95129
 30
0.000000
  70
    32
  0
VERTEX
  8
AM_VIS
  5
24E
 10
2.94992
 20
1.95288
 30
0.000000
  70
    32
  0
VERTEX
  8
AM_VIS
  5
24F
 10
2.94973
 20
1.95446
 30
0.000000
  70
    32
  0
VERTEX
  8
AM_VIS
  5
250
 10
2.94953
 20
1.95603
 30
0.000000
  70
    32
  0
VERTEX
  8
AM_VIS
  5
251
 10
2.94933
 20
1.95761
 30
0.000000
  70
    32
  0
VERTEX
  8
AM_VIS
  5
252
 10
2.94913
 20
1.95918
 30
0.000000
  70
    32
  0
VERTEX
  8
AM_VIS
  5
253
 10
2.94893
 20
1.96075
 30
0.000000
  70
    32
  0
VERTEX
  8
AM_VIS
  5
254
 10
2.94873
 20
1.96232
 30
0.000000
  70
    32
  0
VERTEX
  8
AM_VIS
  5
255
 10
2.94853
 20
1.96388
 30
0.000000
  70
    32
  0
VERTEX
  8
AM_VIS
  5
256
 10
2.94833
 20
1.96544
 30
0.000000
  70
    32
  0
VERTEX
  8
AM_VIS
  5
257
 10
2.94813
 20
1.96700
 30
0.000000
  70
    32
  0
VERTEX
  8
AM_VIS
  5
258
 10
2.94792
 20
1.96855
 30
0.000000
  70
    32
  0
VERTEX
  8
AM_VIS
  5
259
 10
2.94772
 20
1.97011
 30
0.000000
  70
    32
  0
VERTEX
  8
AM_VIS
  5
25A
 10
2.94752
 20
1.97166
 30
0.000000
  70
    32
  0
VERTEX
  8
AM_VIS
  5
25B
 10
2.94731
 20
1.97320
 30
0.000000
  70
    32
  0
VERTEX
  8
AM_VIS
  5
25C
 10
2.94710
 20
1.97475
 30
0.000000
  70
    32
  0
VERTEX
  8
AM_VIS
  5
25D
 10
2.94690
 20
1.97631
 30
0.000000
  70
    32
  0
VERTEX
  8
AM_VIS
  5
25E
 10
2.94669
 20
1.97786
 30
0.000000
  70
    32
  0
VERTEX
  8
AM_VIS
  5
25F
 10
2.94648
 20
1.97942
 30
0.000000
  70
    32
  0
VERTEX
  8
AM_VIS
  5
260
 10
2.94626
 20
1.98098
 30
0.000000
  70
    32
  0
VERTEX
  8
AM_VIS
  5
261
 10
2.94605
 20
1.98254
 30
0.000000
  70
    32
  0
VERTEX
  8
AM_VIS
  5
262
 10
2.94583
 20
1.98410
 30
0.000000
  70
    32
  0
VERTEX
  8
AM_VIS
  5
263
 10
2.94561
 20
1.98567
 30
0.000000
  70
    32
  0
VERTEX
  8
AM_VIS
  5
264
 10
2.94540
 20
1.98724
 30
0.000000
  70
    32
  0
VERTEX
  8
AM_VIS
  5
265
 10
2.94517
 20
1.98881
 30
0.000000
  70
    32
  0
VERTEX
  8
AM_VIS
  5
266
 10
2.94495
 20
1.99038
 30
0.000000
  70
    32
  0
VERTEX
  8
AM_VIS
  5
267
 10
2.94473
 20
1.99196
 30
0.000000
  70
    32
  0
VERTEX
  8
AM_VIS
  5
268
 10
2.94450
 20
1.99354
 30
0.000000
  70
    32
  0
VERTEX
  8
AM_VIS
  5
269
 10
2.94428
 20
1.99512
 30
0.000000
  70
    32
  0
VERTEX
  8
AM_VIS
  5
26A
 10
2.94405
 20
1.99670
 30
0.000000
  70
    32
  0
VERTEX
  8
AM_VIS
  5
26B
 10
2.94382
 20
1.99829
 30
0.000000
  70
    32
  0
VERTEX
  8
AM_VIS
  5
26C
 10
2.94359
 20
1.99987
 30
0.000000
  70
    32
  0
VERTEX
  8
AM_VIS
  5
26D
 10
2.94336
 20
2.00146
 30
0.000000
  70
    32
  0
VERTEX
  8
AM_VIS
  5
26E
 10
2.94312
 20
2.00306
 30
0.000000
  70
    32
  0
VERTEX
  8
AM_VIS
  5
26F
 10
2.94289
 20
2.00465
 30
0.000000
  70
    32
  0
VERTEX
  8
AM_VIS
  5
270
 10
2.94265
 20
2.00625
 30
0.000000
  70
    32
  0
VERTEX
  8
AM_VIS
  5
271
 10
2.94241
 20
2.00784
 30
0.000000
  70
    32
  0
VERTEX
  8
AM_VIS
  5
272
 10
2.94217
 20
2.00945
 30
0.000000
  70
    32
  0
VERTEX
  8
AM_VIS
  5
273
 10
2.94193
 20
2.01105
 30
0.000000
  70
    32
  0
VERTEX
  8
AM_VIS
  5
274
 10
2.94169
 20
2.01265
 30
0.000000
  70
    32
  0
VERTEX
  8
AM_VIS
  5
275
 10
2.94144
 20
2.01426
 30
0.000000
  70
    32
  0
VERTEX
  8
AM_VIS
  5
276
 10
2.94120
 20
2.01587
 30
0.000000
  70
    32
  0
VERTEX
  8
AM_VIS
  5
277
 10
2.94095
 20
2.01748
 30
0.000000
  70
    32
  0
VERTEX
  8
AM_VIS
  5
278
 10
2.94070
 20
2.01910
 30
0.000000
  70
    32
  0
VERTEX
  8
AM_VIS
  5
279
 10
2.94046
 20
2.02071
 30
0.000000
  70
    32
  0
VERTEX
  8
AM_VIS
  5
27A
 10
2.94020
 20
2.02233
 30
0.000000
  70
    32
  0
VERTEX
  8
AM_VIS
  5
27B
 10
2.93995
 20
2.02395
 30
0.000000
  70
    32
  0
VERTEX
  8
AM_VIS
  5
27C
 10
2.93970
 20
2.02557
 30
0.000000
  70
    32
  0
VERTEX
  8
AM_VIS
  5
27D
 10
2.93944
 20
2.02720
 30
0.000000
  70
    32
  0
VERTEX
  8
AM_VIS
  5
27E
 10
2.93919
 20
2.02882
 30
0.000000
  70
    32
  0
VERTEX
  8
AM_VIS
  5
27F
 10
2.93893
 20
2.03045
 30
0.000000
  70
    32
  0
VERTEX
  8
AM_VIS
  5
280
 10
2.93867
 20
2.03208
 30
0.000000
  70
    32
  0
VERTEX
  8
AM_VIS
  5
281
 10
2.93841
 20
2.03371
 30
0.000000
  70
    32
  0
VERTEX
  8
AM_VIS
  5
282
 10
2.93815
 20
2.03535
 30
0.000000
  70
    32
  0
VERTEX
  8
AM_VIS
  5
283
 10
2.93789
 20
2.03698
 30
0.000000
  70
    32
  0
VERTEX
  8
AM_VIS
  5
284
 10
2.93762
 20
2.03862
 30
0.000000
  70
    32
  0
VERTEX
  8
AM_VIS
  5
285
 10
2.93736
 20
2.04026
 30
0.000000
  70
    32
  0
VERTEX
  8
AM_VIS
  5
286
 10
2.93709
 20
2.04191
 30
0.000000
  70
    32
  0
VERTEX
  8
AM_VIS
  5
287
 10
2.93682
 20
2.04355
 30
0.000000
  70
    32
  0
VERTEX
  8
AM_VIS
  5
288
 10
2.93655
 20
2.04520
 30
0.000000
  70
    32
  0
VERTEX
  8
AM_VIS
  5
289
 10
2.93628
 20
2.04684
 30
0.000000
  70
    32
  0
VERTEX
  8
AM_VIS
  5
28A
 10
2.93601
 20
2.04850
 30
0.000000
  70
    32
  0
VERTEX
  8
AM_VIS
  5
28B
 10
2.93574
 20
2.05015
 30
0.000000
  70
    32
  0
VERTEX
  8
AM_VIS
  5
28C
 10
2.93546
 20
2.05180
 30
0.000000
  70
    32
  0
VERTEX
  8
AM_VIS
  5
28D
 10
2.93519
 20
2.05346
 30
0.000000
  70
    32
  0
VERTEX
  8
AM_VIS
  5
28E
 10
2.93491
 20
2.05512
 30
0.000000
  70
    32
  0
VERTEX
  8
AM_VIS
  5
28F
 10
2.93463
 20
2.05678
 30
0.000000
  70
    32
  0
VERTEX
  8
AM_VIS
  5
290
 10
2.93435
 20
2.05844
 30
0.000000
  70
    32
  0
VERTEX
  8
AM_VIS
  5
291
 10
2.93407
 20
2.06010
 30
0.000000
  70
    32
  0
VERTEX
  8
AM_VIS
  5
292
 10
2.93379
 20
2.06177
 30
0.000000
  70
    32
  0
VERTEX
  8
AM_VIS
  5
293
 10
2.93351
 20
2.06343
 30
0.000000
  70
    32
  0
VERTEX
  8
AM_VIS
  5
294
 10
2.93323
 20
2.06510
 30
0.000000
  70
    32
  0
VERTEX
  8
AM_VIS
  5
295
 10
2.93294
 20
2.06677
 30
0.000000
  70
    32
  0
VERTEX
  8
AM_VIS
  5
296
 10
2.93265
 20
2.06845
 30
0.000000
  70
    32
  0
VERTEX
  8
AM_VIS
  5
297
 10
2.93237
 20
2.07012
 30
0.000000
  70
    32
  0
VERTEX
  8
AM_VIS
  5
298
 10
2.93208
 20
2.07180
 30
0.000000
  70
    32
  0
VERTEX
  8
AM_VIS
  5
299
 10
2.93179
 20
2.07348
 30
0.000000
  70
    32
  0
VERTEX
  8
AM_VIS
  5
29A
 10
2.93150
 20
2.07516
 30
0.000000
  70
    32
  0
VERTEX
  8
AM_VIS
  5
29B
 10
2.93120
 20
2.07684
 30
0.000000
  70
    32
  0
VERTEX
  8
AM_VIS
  5
29C
 10
2.93091
 20
2.07852
 30
0.000000
  70
    32
  0
VERTEX
  8
AM_VIS
  5
29D
 10
2.93062
 20
2.08021
 30
0.000000
  70
    32
  0
VERTEX
  8
AM_VIS
  5
29E
 10
2.93032
 20
2.08190
 30
0.000000
  70
    32
  0
VERTEX
  8
AM_VIS
  5
29F
 10
2.93003
 20
2.08358
 30
0.000000
  70
    32
  0
VERTEX
  8
AM_VIS
  5
2A0
 10
2.92973
 20
2.08527
 30
0.000000
  70
    32
  0
VERTEX
  8
AM_VIS
  5
2A1
 10
2.92943
 20
2.08697
 30
0.000000
  70
    32
  0
VERTEX
  8
AM_VIS
  5
2A2
 10
2.92913
 20
2.08866
 30
0.000000
  70
    32
  0
VERTEX
  8
AM_VIS
  5
2A3
 10
2.92883
 20
2.09036
 30
0.000000
  70
    32
  0
VERTEX
  8
AM_VIS
  5
2A4
 10
2.92853
 20
2.09205
 30
0.000000
  70
    32
  0
VERTEX
  8
AM_VIS
  5
2A5
 10
2.92822
 20
2.09375
 30
0.000000
  70
    32
  0
VERTEX
  8
AM_VIS
  5
2A6
 10
2.92792
 20
2.09545
 30
0.000000
  70
    32
  0
VERTEX
  8
AM_VIS
  5
2A7
 10
2.92761
 20
2.09716
 30
0.000000
  70
    32
  0
VERTEX
  8
AM_VIS
  5
2A8
 10
2.92731
 20
2.09886
 30
0.000000
  70
    32
  0
VERTEX
  8
AM_VIS
  5
2A9
 10
2.92700
 20
2.10057
 30
0.000000
  70
    32
  0
VERTEX
  8
AM_VIS
  5
2AA
 10
2.92669
 20
2.10227
 30
0.000000
  70
    32
  0
VERTEX
  8
AM_VIS
  5
2AB
 10
2.92638
 20
2.10398
 30
0.000000
  70
    32
  0
VERTEX
  8
AM_VIS
  5
2AC
 10
2.92607
 20
2.10569
 30
0.000000
  70
    32
  0
VERTEX
  8
AM_VIS
  5
2AD
 10
2.92576
 20
2.10740
 30
0.000000
  70
    32
  0
VERTEX
  8
AM_VIS
  5
2AE
 10
2.92545
 20
2.10912
 30
0.000000
  70
    32
  0
VERTEX
  8
AM_VIS
  5
2AF
 10
2.92514
 20
2.11083
 30
0.000000
  70
    32
  0
VERTEX
  8
AM_VIS
  5
2B0
 10
2.92482
 20
2.11255
 30
0.000000
  70
    32
  0
VERTEX
  8
AM_VIS
  5
2B1
 10
2.92451
 20
2.11427
 30
0.000000
  70
    32
  0
VERTEX
  8
AM_VIS
  5
2B2
 10
2.92419
 20
2.11599
 30
0.000000
  70
    32
  0
VERTEX
  8
AM_VIS
  5
2B3
 10
2.92387
 20
2.11771
 30
0.000000
  70
    32
  0
VERTEX
  8
AM_VIS
  5
2B4
 10
2.92355
 20
2.11943
 30
0.000000
  70
    32
  0
VERTEX
  8
AM_VIS
  5
2B5
 10
2.92323
 20
2.12115
 30
0.000000
  70
    32
  0
VERTEX
  8
AM_VIS
  5
2B6
 10
2.92291
 20
2.12288
 30
0.000000
  70
    32
  0
VERTEX
  8
AM_VIS
  5
2B7
 10
2.92259
 20
2.12461
 30
0.000000
  70
    32
  0
VERTEX
  8
AM_VIS
  5
2B8
 10
2.92227
 20
2.12634
 30
0.000000
  70
    32
  0
VERTEX
  8
AM_VIS
  5
2B9
 10
2.92195
 20
2.12807
 30
0.000000
  70
    32
  0
VERTEX
  8
AM_VIS
  5
2BA
 10
2.92162
 20
2.12980
 30
0.000000
  70
    32
  0
VERTEX
  8
AM_VIS
  5
2BB
 10
2.92130
 20
2.13153
 30
0.000000
  70
    32
  0
VERTEX
  8
AM_VIS
  5
2BC
 10
2.92097
 20
2.13327
 30
0.000000
  70
    32
  0
VERTEX
  8
AM_VIS
  5
2BD
 10
2.92065
 20
2.13500
 30
0.000000
  70
    32
  0
VERTEX
  8
AM_VIS
  5
2BE
 10
2.92032
 20
2.13674
 30
0.000000
  70
    32
  0
VERTEX
  8
AM_VIS
  5
2BF
 10
2.91999
 20
2.13848
 30
0.000000
  70
    32
  0
VERTEX
  8
AM_VIS
  5
2C0
 10
2.91966
 20
2.14022
 30
0.000000
  70
    32
  0
VERTEX
  8
AM_VIS
  5
2C1
 10
2.91933
 20
2.14196
 30
0.000000
  70
    32
  0
VERTEX
  8
AM_VIS
  5
2C2
 10
2.91900
 20
2.14370
 30
0.000000
  70
    32
  0
VERTEX
  8
AM_VIS
  5
2C3
 10
2.91867
 20
2.14545
 30
0.000000
  70
    32
  0
VERTEX
  8
AM_VIS
  5
2C4
 10
2.91834
 20
2.14719
 30
0.000000
  70
    32
  0
VERTEX
  8
AM_VIS
  5
2C5
 10
2.91800
 20
2.14894
 30
0.000000
  70
    32
  0
VERTEX
  8
AM_VIS
  5
2C6
 10
2.91767
 20
2.15069
 30
0.000000
  70
    32
  0
VERTEX
  8
AM_VIS
  5
2C7
 10
2.91733
 20
2.15244
 30
0.000000
  70
    32
  0
VERTEX
  8
AM_VIS
  5
2C8
 10
2.91700
 20
2.15419
 30
0.000000
  70
    32
  0
VERTEX
  8
AM_VIS
  5
2C9
 10
2.91666
 20
2.15594
 30
0.000000
  70
    32
  0
VERTEX
  8
AM_VIS
  5
2CA
 10
2.91632
 20
2.15769
 30
0.000000
  70
    32
  0
VERTEX
  8
AM_VIS
  5
2CB
 10
2.91599
 20
2.15945
 30
0.000000
  70
    32
  0
VERTEX
  8
AM_VIS
  5
2CC
 10
2.91565
 20
2.16120
 30
0.000000
  70
    32
  0
VERTEX
  8
AM_VIS
  5
2CD
 10
2.91531
 20
2.16296
 30
0.000000
  70
    32
  0
VERTEX
  8
AM_VIS
  5
2CE
 10
2.91497
 20
2.16472
 30
0.000000
  70
    32
  0
VERTEX
  8
AM_VIS
  5
2CF
 10
2.91462
 20
2.16648
 30
0.000000
  70
    32
  0
VERTEX
  8
AM_VIS
  5
2D0
 10
2.91428
 20
2.16824
 30
0.000000
  70
    32
  0
VERTEX
  8
AM_VIS
  5
2D1
 10
2.91394
 20
2.17000
 30
0.000000
  70
    32
  0
VERTEX
  8
AM_VIS
  5
2D2
 10
2.91360
 20
2.17176
 30
0.000000
  70
    32
  0
VERTEX
  8
AM_VIS
  5
2D3
 10
2.91325
 20
2.17353
 30
0.000000
  70
    32
  0
VERTEX
  8
AM_VIS
  5
2D4
 10
2.91291
 20
2.17529
 30
0.000000
  70
    32
  0
VERTEX
  8
AM_VIS
  5
2D5
 10
2.91256
 20
2.17706
 30
0.000000
  70
    32
  0
VERTEX
  8
AM_VIS
  5
2D6
 10
2.91221
 20
2.17883
 30
0.000000
  70
    32
  0
VERTEX
  8
AM_VIS
  5
2D7
 10
2.91187
 20
2.18060
 30
0.000000
  70
    32
  0
VERTEX
  8
AM_VIS
  5
2D8
 10
2.91152
 20
2.18237
 30
0.000000
  70
    32
  0
VERTEX
  8
AM_VIS
  5
2D9
 10
2.91117
 20
2.18414
 30
0.000000
  70
    32
  0
VERTEX
  8
AM_VIS
  5
2DA
 10
2.91082
 20
2.18591
 30
0.000000
  70
    32
  0
VERTEX
  8
AM_VIS
  5
2DB
 10
2.91047
 20
2.18768
 30
0.000000
  70
    32
  0
VERTEX
  8
AM_VIS
  5
2DC
 10
2.91012
 20
2.18946
 30
0.000000
  70
    32
  0
VERTEX
  8
AM_VIS
  5
2DD
 10
2.90977
 20
2.19123
 30
0.000000
  70
    32
  0
VERTEX
  8
AM_VIS
  5
2DE
 10
2.90941
 20
2.19301
 30
0.000000
  70
    32
  0
VERTEX
  8
AM_VIS
  5
2DF
 10
2.90906
 20
2.19479
 30
0.000000
  70
    32
  0
VERTEX
  8
AM_VIS
  5
2E0
 10
2.90871
 20
2.19657
 30
0.000000
  70
    32
  0
VERTEX
  8
AM_VIS
  5
2E1
 10
2.90835
 20
2.19835
 30
0.000000
  70
    32
  0
VERTEX
  8
AM_VIS
  5
2E2
 10
2.90800
 20
2.20013
 30
0.000000
  70
    32
  0
VERTEX
  8
AM_VIS
  5
2E3
 10
2.90764
 20
2.20191
 30
0.000000
  70
    32
  0
VERTEX
  8
AM_VIS
  5
2E4
 10
2.90729
 20
2.20369
 30
0.000000
  70
    32
  0
VERTEX
  8
AM_VIS
  5
2E5
 10
2.90693
 20
2.20548
 30
0.000000
  70
    32
  0
VERTEX
  8
AM_VIS
  5
2E6
 10
2.90657
 20
2.20726
 30
0.000000
  70
    32
  0
VERTEX
  8
AM_VIS
  5
2E7
 10
2.90622
 20
2.20905
 30
0.000000
  70
    32
  0
VERTEX
  8
AM_VIS
  5
2E8
 10
2.90586
 20
2.21083
 30
0.000000
  70
    32
  0
VERTEX
  8
AM_VIS
  5
2E9
 10
2.90550
 20
2.21262
 30
0.000000
  70
    32
  0
VERTEX
  8
AM_VIS
  5
2EA
 10
2.90514
 20
2.21441
 30
0.000000
  70
    32
  0
VERTEX
  8
AM_VIS
  5
2EB
 10
2.90478
 20
2.21620
 30
0.000000
  70
    32
  0
VERTEX
  8
AM_VIS
  5
2EC
 10
2.90442
 20
2.21799
 30
0.000000
  70
    32
  0
VERTEX
  8
AM_VIS
  5
2ED
 10
2.90406
 20
2.21978
 30
0.000000
  70
    32
  0
VERTEX
  8
AM_VIS
  5
2EE
 10
2.90369
 20
2.22157
 30
0.000000
  70
    32
  0
VERTEX
  8
AM_VIS
  5
2EF
 10
2.90333
 20
2.22335
 30
0.000000
  70
    32
  0
VERTEX
  8
AM_VIS
  5
2F0
 10
2.90298
 20
2.22511
 30
0.000000
  70
    32
  0
VERTEX
  8
AM_VIS
  5
2F1
 10
2.90263
 20
2.22685
 30
0.000000
  70
    32
  0
VERTEX
  8
AM_VIS
  5
2F2
 10
2.90228
 20
2.22856
 30
0.000000
  70
    32
  0
VERTEX
  8
AM_VIS
  5
2F3
 10
2.90194
 20
2.23026
 30
0.000000
  70
    32
  0
VERTEX
  8
AM_VIS
  5
2F4
 10
2.90161
 20
2.23193
 30
0.000000
  70
    32
  0
VERTEX
  8
AM_VIS
  5
2F5
 10
2.90128
 20
2.23359
 30
0.000000
  70
    32
  0
VERTEX
  8
AM_VIS
  5
2F6
 10
2.90095
 20
2.23522
 30
0.000000
  70
    32
  0
VERTEX
  8
AM_VIS
  5
2F7
 10
2.90063
 20
2.23683
 30
0.000000
  70
    32
  0
VERTEX
  8
AM_VIS
  5
2F8
 10
2.90031
 20
2.23843
 30
0.000000
  70
    32
  0
VERTEX
  8
AM_VIS
  5
2F9
 10
2.89999
 20
2.24000
 30
0.000000
  70
    32
  0
VERTEX
  8
AM_VIS
  5
2FA
 10
2.89968
 20
2.24156
 30
0.000000
  70
    32
  0
VERTEX
  8
AM_VIS
  5
2FB
 10
2.89938
 20
2.24309
 30
0.000000
  70
    32
  0
VERTEX
  8
AM_VIS
  5
2FC
 10
2.89908
 20
2.24461
 30
0.000000
  70
    32
  0
VERTEX
  8
AM_VIS
  5
2FD
 10
2.89878
 20
2.24610
 30
0.000000
  70
    32
  0
VERTEX
  8
AM_VIS
  5
2FE
 10
2.89849
 20
2.24758
 30
0.000000
  70
    32
  0
VERTEX
  8
AM_VIS
  5
2FF
 10
2.89821
 20
2.24903
 30
0.000000
  70
    32
  0
VERTEX
  8
AM_VIS
  5
300
 10
2.89792
 20
2.25047
 30
0.000000
  70
    32
  0
VERTEX
  8
AM_VIS
  5
301
 10
2.89765
 20
2.25189
 30
0.000000
  70
    32
  0
VERTEX
  8
AM_VIS
  5
302
 10
2.89737
 20
2.25329
 30
0.000000
  70
    32
  0
VERTEX
  8
AM_VIS
  5
303
 10
2.89711
 20
2.25467
 30
0.000000
  70
    32
  0
VERTEX
  8
AM_VIS
  5
304
 10
2.89684
 20
2.25604
 30
0.000000
  70
    32
  0
VERTEX
  8
AM_VIS
  5
305
 10
2.89658
 20
2.25738
 30
0.000000
  70
    32
  0
VERTEX
  8
AM_VIS
  5
306
 10
2.89633
 20
2.25871
 30
0.000000
  70
    32
  0
VERTEX
  8
AM_VIS
  5
307
 10
2.89608
 20
2.26002
 30
0.000000
  70
    32
  0
VERTEX
  8
AM_VIS
  5
308
 10
2.89583
 20
2.26131
 30
0.000000
  70
    32
  0
VERTEX
  8
AM_VIS
  5
309
 10
2.89559
 20
2.26259
 30
0.000000
  70
    32
  0
VERTEX
  8
AM_VIS
  5
30A
 10
2.89535
 20
2.26384
 30
0.000000
  70
    32
  0
VERTEX
  8
AM_VIS
  5
30B
 10
2.89512
 20
2.26508
 30
0.000000
  70
    32
  0
VERTEX
  8
AM_VIS
  5
30C
 10
2.89489
 20
2.26630
 30
0.000000
  70
    32
  0
VERTEX
  8
AM_VIS
  5
30D
 10
2.89466
 20
2.26751
 30
0.000000
  70
    32
  0
VERTEX
  8
AM_VIS
  5
30E
 10
2.89444
 20
2.26870
 30
0.000000
  70
    32
  0
VERTEX
  8
AM_VIS
  5
30F
 10
2.89423
 20
2.26987
 30
0.000000
  70
    32
  0
VERTEX
  8
AM_VIS
  5
310
 10
2.89402
 20
2.27102
 30
0.000000
  70
    32
  0
VERTEX
  8
AM_VIS
  5
311
 10
2.89381
 20
2.27216
 30
0.000000
  70
    32
  0
VERTEX
  8
AM_VIS
  5
312
 10
2.89361
 20
2.27328
 30
0.000000
  70
    32
  0
VERTEX
  8
AM_VIS
  5
313
 10
2.89341
 20
2.27438
 30
0.000000
  70
    32
  0
VERTEX
  8
AM_VIS
  5
314
 10
2.89322
 20
2.27547
 30
0.000000
  70
    32
  0
VERTEX
  8
AM_VIS
  5
315
 10
2.89303
 20
2.27654
 30
0.000000
  70
    32
  0
VERTEX
  8
AM_VIS
  5
316
 10
2.89285
 20
2.27760
 30
0.000000
  70
    32
  0
VERTEX
  8
AM_VIS
  5
317
 10
2.89267
 20
2.27864
 30
0.000000
  70
    32
  0
VERTEX
  8
AM_VIS
  5
318
 10
2.89249
 20
2.27966
 30
0.000000
  70
    32
  0
VERTEX
  8
AM_VIS
  5
319
 10
2.89232
 20
2.28067
 30
0.000000
  70
    32
  0
VERTEX
  8
AM_VIS
  5
31A
 10
2.89215
 20
2.28167
 30
0.000000
  70
    32
  0
VERTEX
  8
AM_VIS
  5
31B
 10
2.89199
 20
2.28264
 30
0.000000
  70
    32
  0
VERTEX
  8
AM_VIS
  5
31C
 10
2.89183
 20
2.28361
 30
0.000000
  70
    32
  0
VERTEX
  8
AM_VIS
  5
31D
 10
2.89168
 20
2.28456
 30
0.000000
  70
    32
  0
VERTEX
  8
AM_VIS
  5
31E
 10
2.89153
 20
2.28549
 30
0.000000
  70
    32
  0
VERTEX
  8
AM_VIS
  5
31F
 10
2.89138
 20
2.28641
 30
0.000000
  70
    32
  0
VERTEX
  8
AM_VIS
  5
320
 10
2.89124
 20
2.28731
 30
0.000000
  70
    32
  0
VERTEX
  8
AM_VIS
  5
321
 10
2.89110
 20
2.28820
 30
0.000000
  70
    32
  0
VERTEX
  8
AM_VIS
  5
322
 10
2.89097
 20
2.28908
 30
0.000000
  70
    32
  0
VERTEX
  8
AM_VIS
  5
323
 10
2.89084
 20
2.28994
 30
0.000000
  70
    32
  0
VERTEX
  8
AM_VIS
  5
324
 10
2.89072
 20
2.29079
 30
0.000000
  70
    32
  0
VERTEX
  8
AM_VIS
  5
325
 10
2.89060
 20
2.29162
 30
0.000000
  70
    32
  0
VERTEX
  8
AM_VIS
  5
326
 10
2.89048
 20
2.29245
 30
0.000000
  70
    32
  0
VERTEX
  8
AM_VIS
  5
327
 10
2.89037
 20
2.29326
 30
0.000000
  70
    32
  0
VERTEX
  8
AM_VIS
  5
328
 10
2.89026
 20
2.29405
 30
0.000000
  70
    32
  0
VERTEX
  8
AM_VIS
  5
329
 10
2.89016
 20
2.29484
 30
0.000000
  70
    32
  0
VERTEX
  8
AM_VIS
  5
32A
 10
2.89006
 20
2.29561
 30
0.000000
  70
    32
  0
VERTEX
  8
AM_VIS
  5
32B
 10
2.88997
 20
2.29636
 30
0.000000
  70
    32
  0
VERTEX
  8
AM_VIS
  5
32C
 10
2.88988
 20
2.29711
 30
0.000000
  70
    32
  0
VERTEX
  8
AM_VIS
  5
32D
 10
2.88980
 20
2.29784
 30
0.000000
  70
    32
  0
VERTEX
  8
AM_VIS
  5
32E
 10
2.88972
 20
2.29855
 30
0.000000
  70
    32
  0
VERTEX
  8
AM_VIS
  5
32F
 10
2.88964
 20
2.29926
 30
0.000000
  70
    32
  0
VERTEX
  8
AM_VIS
  5
330
 10
2.88957
 20
2.29995
 30
0.000000
  70
    32
  0
VERTEX
  8
AM_VIS
  5
331
 10
2.88950
 20
2.30062
 30
0.000000
  70
    32
  0
VERTEX
  8
AM_VIS
  5
332
 10
2.88944
 20
2.30128
 30
0.000000
  70
    32
  0
VERTEX
  8
AM_VIS
  5
333
 10
2.88938
 20
2.30193
 30
0.000000
  70
    32
  0
VERTEX
  8
AM_VIS
  5
334
 10
2.88933
 20
2.30256
 30
0.000000
  70
    32
  0
VERTEX
  8
AM_VIS
  5
335
 10
2.88929
 20
2.30318
 30
0.000000
  70
    32
  0
VERTEX
  8
AM_VIS
  5
336
 10
2.88924
 20
2.30379
 30
0.000000
  70
    32
  0
VERTEX
  8
AM_VIS
  5
337
 10
2.88921
 20
2.30438
 30
0.000000
  70
    32
  0
VERTEX
  8
AM_VIS
  5
338
 10
2.88917
 20
2.30496
 30
0.000000
  70
    32
  0
VERTEX
  8
AM_VIS
  5
339
 10
2.88915
 20
2.30554
 30
0.000000
  70
    32
  0
VERTEX
  8
AM_VIS
  5
33A
 10
2.88913
 20
2.30612
 30
0.000000
  70
    32
  0
VERTEX
  8
AM_VIS
  5
33B
 10
2.88911
 20
2.30670
 30
0.000000
  70
    32
  0
VERTEX
  8
AM_VIS
  5
33C
 10
2.88910
 20
2.30727
 30
0.000000
  70
    32
  0
VERTEX
  8
AM_VIS
  5
33D
 10
2.88909
 20
2.30783
 30
0.000000
  70
    32
  0
SEQEND
  8
AM_VIS
  5
33E
  0
POLYLINE
  8
AM_VIS
  5
33F
  66
     1
 10
0.000000
 20
0.000000
 30
0.000000
  70
     8
  0
VERTEX
  8
AM_VIS
  5
340
 10
2.88909
 20
1.09115
 30
0.000000
  70
    32
  0
VERTEX
  8
AM_VIS
  5
341
 10
2.88910
 20
1.09132
 30
0.000000
  70
    32
  0
VERTEX
  8
AM_VIS
  5
342
 10
2.88910
 20
1.09150
 30
0.000000
  70
    32
  0
VERTEX
  8
AM_VIS
  5
343
 10
2.88910
 20
1.09167
 30
0.000000
  70
    32
  0
VERTEX
  8
AM_VIS
  5
344
 10
2.88910
 20
1.09185
 30
0.000000
  70
    32
  0
VERTEX
  8
AM_VIS
  5
345
 10
2.88910
 20
1.09202
 30
0.000000
  70
    32
  0
VERTEX
  8
AM_VIS
  5
346
 10
2.88911
 20
1.09220
 30
0.000000
  70
    32
  0
VERTEX
  8
AM_VIS
  5
347
 10
2.88911
 20
1.09238
 30
0.000000
  70
    32
  0
VERTEX
  8
AM_VIS
  5
348
 10
2.88912
 20
1.09256
 30
0.000000
  70
    32
  0
VERTEX
  8
AM_VIS
  5
349
 10
2.88912
 20
1.09274
 30
0.000000
  70
    32
  0
VERTEX
  8
AM_VIS
  5
34A
 10
2.88913
 20
1.09292
 30
0.000000
  70
    32
  0
VERTEX
  8
AM_VIS
  5
34B
 10
2.88913
 20
1.09309
 30
0.000000
  70
    32
  0
VERTEX
  8
AM_VIS
  5
34C
 10
2.88914
 20
1.09327
 30
0.000000
  70
    32
  0
VERTEX
  8
AM_VIS
  5
34D
 10
2.88915
 20
1.09346
 30
0.000000
  70
    32
  0
VERTEX
  8
AM_VIS
  5
34E
 10
2.88916
 20
1.09364
 30
0.000000
  70
    32
  0
VERTEX
  8
AM_VIS
  5
34F
 10
2.88916
 20
1.09382
 30
0.000000
  70
    32
  0
VERTEX
  8
AM_VIS
  5
350
 10
2.88917
 20
1.09400
 30
0.000000
  70
    32
  0
VERTEX
  8
AM_VIS
  5
351
 10
2.88918
 20
1.09418
 30
0.000000
  70
    32
  0
VERTEX
  8
AM_VIS
  5
352
 10
2.88919
 20
1.09436
 30
0.000000
  70
    32
  0
VERTEX
  8
AM_VIS
  5
353
 10
2.88920
 20
1.09454
 30
0.000000
  70
    32
  0
VERTEX
  8
AM_VIS
  5
354
 10
2.88921
 20
1.09472
 30
0.000000
  70
    32
  0
VERTEX
  8
AM_VIS
  5
355
 10
2.88923
 20
1.09490
 30
0.000000
  70
    32
  0
VERTEX
  8
AM_VIS
  5
356
 10
2.88924
 20
1.09508
 30
0.000000
  70
    32
  0
VERTEX
  8
AM_VIS
  5
357
 10
2.88925
 20
1.09526
 30
0.000000
  70
    32
  0
VERTEX
  8
AM_VIS
  5
358
 10
2.88926
 20
1.09545
 30
0.000000
  70
    32
  0
VERTEX
  8
AM_VIS
  5
359
 10
2.88927
 20
1.09563
 30
0.000000
  70
    32
  0
VERTEX
  8
AM_VIS
  5
35A
 10
2.88929
 20
1.09582
 30
0.000000
  70
    32
  0
VERTEX
  8
AM_VIS
  5
35B
 10
2.88930
 20
1.09600
 30
0.000000
  70
    32
  0
VERTEX
  8
AM_VIS
  5
35C
 10
2.88932
 20
1.09619
 30
0.000000
  70
    32
  0
VERTEX
  8
AM_VIS
  5
35D
 10
2.88933
 20
1.09638
 30
0.000000
  70
    32
  0
VERTEX
  8
AM_VIS
  5
35E
 10
2.88935
 20
1.09657
 30
0.000000
  70
    32
  0
VERTEX
  8
AM_VIS
  5
35F
 10
2.88936
 20
1.09676
 30
0.000000
  70
    32
  0
VERTEX
  8
AM_VIS
  5
360
 10
2.88938
 20
1.09696
 30
0.000000
  70
    32
  0
VERTEX
  8
AM_VIS
  5
361
 10
2.88939
 20
1.09715
 30
0.000000
  70
    32
  0
VERTEX
  8
AM_VIS
  5
362
 10
2.88941
 20
1.09734
 30
0.000000
  70
    32
  0
VERTEX
  8
AM_VIS
  5
363
 10
2.88943
 20
1.09754
 30
0.000000
  70
    32
  0
VERTEX
  8
AM_VIS
  5
364
 10
2.88945
 20
1.09774
 30
0.000000
  70
    32
  0
VERTEX
  8
AM_VIS
  5
365
 10
2.88946
 20
1.09794
 30
0.000000
  70
    32
  0
VERTEX
  8
AM_VIS
  5
366
 10
2.88948
 20
1.09814
 30
0.000000
  70
    32
  0
VERTEX
  8
AM_VIS
  5
367
 10
2.88950
 20
1.09834
 30
0.000000
  70
    32
  0
VERTEX
  8
AM_VIS
  5
368
 10
2.88952
 20
1.09854
 30
0.000000
  70
    32
  0
VERTEX
  8
AM_VIS
  5
369
 10
2.88954
 20
1.09875
 30
0.000000
  70
    32
  0
VERTEX
  8
AM_VIS
  5
36A
 10
2.88956
 20
1.09895
 30
0.000000
  70
    32
  0
VERTEX
  8
AM_VIS
  5
36B
 10
2.88958
 20
1.09916
 30
0.000000
  70
    32
  0
VERTEX
  8
AM_VIS
  5
36C
 10
2.88960
 20
1.09936
 30
0.000000
  70
    32
  0
VERTEX
  8
AM_VIS
  5
36D
 10
2.88962
 20
1.09957
 30
0.000000
  70
    32
  0
VERTEX
  8
AM_VIS
  5
36E
 10
2.88965
 20
1.09978
 30
0.000000
  70
    32
  0
VERTEX
  8
AM_VIS
  5
36F
 10
2.88967
 20
1.09999
 30
0.000000
  70
    32
  0
VERTEX
  8
AM_VIS
  5
370
 10
2.88969
 20
1.10020
 30
0.000000
  70
    32
  0
VERTEX
  8
AM_VIS
  5
371
 10
2.88972
 20
1.10042
 30
0.000000
  70
    32
  0
VERTEX
  8
AM_VIS
  5
372
 10
2.88974
 20
1.10063
 30
0.000000
  70
    32
  0
VERTEX
  8
AM_VIS
  5
373
 10
2.88976
 20
1.10085
 30
0.000000
  70
    32
  0
VERTEX
  8
AM_VIS
  5
374
 10
2.88979
 20
1.10106
 30
0.000000
  70
    32
  0
VERTEX
  8
AM_VIS
  5
375
 10
2.88981
 20
1.10128
 30
0.000000
  70
    32
  0
VERTEX
  8
AM_VIS
  5
376
 10
2.88984
 20
1.10150
 30
0.000000
  70
    32
  0
VERTEX
  8
AM_VIS
  5
377
 10
2.88986
 20
1.10172
 30
0.000000
  70
    32
  0
VERTEX
  8
AM_VIS
  5
378
 10
2.88989
 20
1.10194
 30
0.000000
  70
    32
  0
VERTEX
  8
AM_VIS
  5
379
 10
2.88992
 20
1.10216
 30
0.000000
  70
    32
  0
VERTEX
  8
AM_VIS
  5
37A
 10
2.88994
 20
1.10239
 30
0.000000
  70
    32
  0
VERTEX
  8
AM_VIS
  5
37B
 10
2.88997
 20
1.10261
 30
0.000000
  70
    32
  0
VERTEX
  8
AM_VIS
  5
37C
 10
2.89000
 20
1.10284
 30
0.000000
  70
    32
  0
VERTEX
  8
AM_VIS
  5
37D
 10
2.89003
 20
1.10307
 30
0.000000
  70
    32
  0
VERTEX
  8
AM_VIS
  5
37E
 10
2.89005
 20
1.10329
 30
0.000000
  70
    32
  0
VERTEX
  8
AM_VIS
  5
37F
 10
2.89008
 20
1.10352
 30
0.000000
  70
    32
  0
VERTEX
  8
AM_VIS
  5
380
 10
2.89011
 20
1.10375
 30
0.000000
  70
    32
  0
VERTEX
  8
AM_VIS
  5
381
 10
2.89014
 20
1.10398
 30
0.000000
  70
    32
  0
VERTEX
  8
AM_VIS
  5
382
 10
2.89017
 20
1.10422
 30
0.000000
  70
    32
  0
VERTEX
  8
AM_VIS
  5
383
 10
2.89020
 20
1.10445
 30
0.000000
  70
    32
  0
VERTEX
  8
AM_VIS
  5
384
 10
2.89023
 20
1.10469
 30
0.000000
  70
    32
  0
VERTEX
  8
AM_VIS
  5
385
 10
2.89026
 20
1.10492
 30
0.000000
  70
    32
  0
VERTEX
  8
AM_VIS
  5
386
 10
2.89030
 20
1.10516
 30
0.000000
  70
    32
  0
VERTEX
  8
AM_VIS
  5
387
 10
2.89033
 20
1.10540
 30
0.000000
  70
    32
  0
VERTEX
  8
AM_VIS
  5
388
 10
2.89036
 20
1.10564
 30
0.000000
  70
    32
  0
VERTEX
  8
AM_VIS
  5
389
 10
2.89039
 20
1.10588
 30
0.000000
  70
    32
  0
VERTEX
  8
AM_VIS
  5
38A
 10
2.89043
 20
1.10612
 30
0.000000
  70
    32
  0
VERTEX
  8
AM_VIS
  5
38B
 10
2.89046
 20
1.10636
 30
0.000000
  70
    32
  0
VERTEX
  8
AM_VIS
  5
38C
 10
2.89049
 20
1.10660
 30
0.000000
  70
    32
  0
VERTEX
  8
AM_VIS
  5
38D
 10
2.89053
 20
1.10685
 30
0.000000
  70
    32
  0
VERTEX
  8
AM_VIS
  5
38E
 10
2.89056
 20
1.10710
 30
0.000000
  70
    32
  0
VERTEX
  8
AM_VIS
  5
38F
 10
2.89060
 20
1.10734
 30
0.000000
  70
    32
  0
VERTEX
  8
AM_VIS
  5
390
 10
2.89063
 20
1.10759
 30
0.000000
  70
    32
  0
VERTEX
  8
AM_VIS
  5
391
 10
2.89067
 20
1.10784
 30
0.000000
  70
    32
  0
VERTEX
  8
AM_VIS
  5
392
 10
2.89071
 20
1.10809
 30
0.000000
  70
    32
  0
VERTEX
  8
AM_VIS
  5
393
 10
2.89074
 20
1.10835
 30
0.000000
  70
    32
  0
VERTEX
  8
AM_VIS
  5
394
 10
2.89078
 20
1.10860
 30
0.000000
  70
    32
  0
VERTEX
  8
AM_VIS
  5
395
 10
2.89082
 20
1.10886
 30
0.000000
  70
    32
  0
VERTEX
  8
AM_VIS
  5
396
 10
2.89085
 20
1.10911
 30
0.000000
  70
    32
  0
VERTEX
  8
AM_VIS
  5
397
 10
2.89089
 20
1.10937
 30
0.000000
  70
    32
  0
VERTEX
  8
AM_VIS
  5
398
 10
2.89093
 20
1.10963
 30
0.000000
  70
    32
  0
VERTEX
  8
AM_VIS
  5
399
 10
2.89097
 20
1.10989
 30
0.000000
  70
    32
  0
VERTEX
  8
AM_VIS
  5
39A
 10
2.89101
 20
1.11016
 30
0.000000
  70
    32
  0
VERTEX
  8
AM_VIS
  5
39B
 10
2.89105
 20
1.11042
 30
0.000000
  70
    32
  0
VERTEX
  8
AM_VIS
  5
39C
 10
2.89109
 20
1.11068
 30
0.000000
  70
    32
  0
VERTEX
  8
AM_VIS
  5
39D
 10
2.89113
 20
1.11095
 30
0.000000
  70
    32
  0
VERTEX
  8
AM_VIS
  5
39E
 10
2.89117
 20
1.11122
 30
0.000000
  70
    32
  0
VERTEX
  8
AM_VIS
  5
39F
 10
2.89121
 20
1.11149
 30
0.000000
  70
    32
  0
VERTEX
  8
AM_VIS
  5
3A0
 10
2.89125
 20
1.11176
 30
0.000000
  70
    32
  0
VERTEX
  8
AM_VIS
  5
3A1
 10
2.89130
 20
1.11203
 30
0.000000
  70
    32
  0
VERTEX
  8
AM_VIS
  5
3A2
 10
2.89134
 20
1.11230
 30
0.000000
  70
    32
  0
VERTEX
  8
AM_VIS
  5
3A3
 10
2.89138
 20
1.11258
 30
0.000000
  70
    32
  0
VERTEX
  8
AM_VIS
  5
3A4
 10
2.89143
 20
1.11285
 30
0.000000
  70
    32
  0
VERTEX
  8
AM_VIS
  5
3A5
 10
2.89147
 20
1.11313
 30
0.000000
  70
    32
  0
VERTEX
  8
AM_VIS
  5
3A6
 10
2.89151
 20
1.11341
 30
0.000000
  70
    32
  0
VERTEX
  8
AM_VIS
  5
3A7
 10
2.89156
 20
1.11369
 30
0.000000
  70
    32
  0
VERTEX
  8
AM_VIS
  5
3A8
 10
2.89160
 20
1.11397
 30
0.000000
  70
    32
  0
VERTEX
  8
AM_VIS
  5
3A9
 10
2.89165
 20
1.11425
 30
0.000000
  70
    32
  0
VERTEX
  8
AM_VIS
  5
3AA
 10
2.89169
 20
1.11454
 30
0.000000
  70
    32
  0
VERTEX
  8
AM_VIS
  5
3AB
 10
2.89174
 20
1.11482
 30
0.000000
  70
    32
  0
VERTEX
  8
AM_VIS
  5
3AC
 10
2.89179
 20
1.11511
 30
0.000000
  70
    32
  0
VERTEX
  8
AM_VIS
  5
3AD
 10
2.89183
 20
1.11540
 30
0.000000
  70
    32
  0
VERTEX
  8
AM_VIS
  5
3AE
 10
2.89188
 20
1.11568
 30
0.000000
  70
    32
  0
VERTEX
  8
AM_VIS
  5
3AF
 10
2.89193
 20
1.11598
 30
0.000000
  70
    32
  0
VERTEX
  8
AM_VIS
  5
3B0
 10
2.89198
 20
1.11627
 30
0.000000
  70
    32
  0
VERTEX
  8
AM_VIS
  5
3B1
 10
2.89203
 20
1.11656
 30
0.000000
  70
    32
  0
VERTEX
  8
AM_VIS
  5
3B2
 10
2.89207
 20
1.11686
 30
0.000000
  70
    32
  0
VERTEX
  8
AM_VIS
  5
3B3
 10
2.89212
 20
1.11715
 30
0.000000
  70
    32
  0
VERTEX
  8
AM_VIS
  5
3B4
 10
2.89217
 20
1.11745
 30
0.000000
  70
    32
  0
VERTEX
  8
AM_VIS
  5
3B5
 10
2.89222
 20
1.11775
 30
0.000000
  70
    32
  0
VERTEX
  8
AM_VIS
  5
3B6
 10
2.89227
 20
1.11805
 30
0.000000
  70
    32
  0
VERTEX
  8
AM_VIS
  5
3B7
 10
2.89232
 20
1.11835
 30
0.000000
  70
    32
  0
VERTEX
  8
AM_VIS
  5
3B8
 10
2.89238
 20
1.11866
 30
0.000000
  70
    32
  0
VERTEX
  8
AM_VIS
  5
3B9
 10
2.89243
 20
1.11896
 30
0.000000
  70
    32
  0
VERTEX
  8
AM_VIS
  5
3BA
 10
2.89248
 20
1.11927
 30
0.000000
  70
    32
  0
VERTEX
  8
AM_VIS
  5
3BB
 10
2.89253
 20
1.11957
 30
0.000000
  70
    32
  0
VERTEX
  8
AM_VIS
  5
3BC
 10
2.89259
 20
1.11988
 30
0.000000
  70
    32
  0
VERTEX
  8
AM_VIS
  5
3BD
 10
2.89264
 20
1.12019
 30
0.000000
  70
    32
  0
VERTEX
  8
AM_VIS
  5
3BE
 10
2.89269
 20
1.12050
 30
0.000000
  70
    32
  0
VERTEX
  8
AM_VIS
  5
3BF
 10
2.89275
 20
1.12082
 30
0.000000
  70
    32
  0
VERTEX
  8
AM_VIS
  5
3C0
 10
2.89280
 20
1.12113
 30
0.000000
  70
    32
  0
VERTEX
  8
AM_VIS
  5
3C1
 10
2.89286
 20
1.12145
 30
0.000000
  70
    32
  0
VERTEX
  8
AM_VIS
  5
3C2
 10
2.89291
 20
1.12177
 30
0.000000
  70
    32
  0
VERTEX
  8
AM_VIS
  5
3C3
 10
2.89297
 20
1.12209
 30
0.000000
  70
    32
  0
VERTEX
  8
AM_VIS
  5
3C4
 10
2.89302
 20
1.12241
 30
0.000000
  70
    32
  0
VERTEX
  8
AM_VIS
  5
3C5
 10
2.89308
 20
1.12273
 30
0.000000
  70
    32
  0
VERTEX
  8
AM_VIS
  5
3C6
 10
2.89314
 20
1.12305
 30
0.000000
  70
    32
  0
VERTEX
  8
AM_VIS
  5
3C7
 10
2.89319
 20
1.12338
 30
0.000000
  70
    32
  0
VERTEX
  8
AM_VIS
  5
3C8
 10
2.89325
 20
1.12370
 30
0.000000
  70
    32
  0
VERTEX
  8
AM_VIS
  5
3C9
 10
2.89331
 20
1.12403
 30
0.000000
  70
    32
  0
VERTEX
  8
AM_VIS
  5
3CA
 10
2.89337
 20
1.12436
 30
0.000000
  70
    32
  0
VERTEX
  8
AM_VIS
  5
3CB
 10
2.89343
 20
1.12469
 30
0.000000
  70
    32
  0
VERTEX
  8
AM_VIS
  5
3CC
 10
2.89349
 20
1.12502
 30
0.000000
  70
    32
  0
VERTEX
  8
AM_VIS
  5
3CD
 10
2.89354
 20
1.12535
 30
0.000000
  70
    32
  0
VERTEX
  8
AM_VIS
  5
3CE
 10
2.89360
 20
1.12569
 30
0.000000
  70
    32
  0
VERTEX
  8
AM_VIS
  5
3CF
 10
2.89367
 20
1.12602
 30
0.000000
  70
    32
  0
VERTEX
  8
AM_VIS
  5
3D0
 10
2.89373
 20
1.12636
 30
0.000000
  70
    32
  0
VERTEX
  8
AM_VIS
  5
3D1
 10
2.89379
 20
1.12670
 30
0.000000
  70
    32
  0
VERTEX
  8
AM_VIS
  5
3D2
 10
2.89385
 20
1.12704
 30
0.000000
  70
    32
  0
VERTEX
  8
AM_VIS
  5
3D3
 10
2.89391
 20
1.12738
 30
0.000000
  70
    32
  0
VERTEX
  8
AM_VIS
  5
3D4
 10
2.89397
 20
1.12773
 30
0.000000
  70
    32
  0
VERTEX
  8
AM_VIS
  5
3D5
 10
2.89404
 20
1.12807
 30
0.000000
  70
    32
  0
VERTEX
  8
AM_VIS
  5
3D6
 10
2.89410
 20
1.12842
 30
0.000000
  70
    32
  0
VERTEX
  8
AM_VIS
  5
3D7
 10
2.89416
 20
1.12877
 30
0.000000
  70
    32
  0
VERTEX
  8
AM_VIS
  5
3D8
 10
2.89423
 20
1.12912
 30
0.000000
  70
    32
  0
VERTEX
  8
AM_VIS
  5
3D9
 10
2.89429
 20
1.12947
 30
0.000000
  70
    32
  0
VERTEX
  8
AM_VIS
  5
3DA
 10
2.89436
 20
1.12982
 30
0.000000
  70
    32
  0
VERTEX
  8
AM_VIS
  5
3DB
 10
2.89442
 20
1.13017
 30
0.000000
  70
    32
  0
VERTEX
  8
AM_VIS
  5
3DC
 10
2.89449
 20
1.13053
 30
0.000000
  70
    32
  0
VERTEX
  8
AM_VIS
  5
3DD
 10
2.89455
 20
1.13089
 30
0.000000
  70
    32
  0
VERTEX
  8
AM_VIS
  5
3DE
 10
2.89462
 20
1.13125
 30
0.000000
  70
    32
  0
VERTEX
  8
AM_VIS
  5
3DF
 10
2.89469
 20
1.13161
 30
0.000000
  70
    32
  0
VERTEX
  8
AM_VIS
  5
3E0
 10
2.89475
 20
1.13197
 30
0.000000
  70
    32
  0
VERTEX
  8
AM_VIS
  5
3E1
 10
2.89482
 20
1.13233
 30
0.000000
  70
    32
  0
VERTEX
  8
AM_VIS
  5
3E2
 10
2.89489
 20
1.13269
 30
0.000000
  70
    32
  0
VERTEX
  8
AM_VIS
  5
3E3
 10
2.89496
 20
1.13306
 30
0.000000
  70
    32
  0
VERTEX
  8
AM_VIS
  5
3E4
 10
2.89502
 20
1.13343
 30
0.000000
  70
    32
  0
VERTEX
  8
AM_VIS
  5
3E5
 10
2.89509
 20
1.13380
 30
0.000000
  70
    32
  0
VERTEX
  8
AM_VIS
  5
3E6
 10
2.89516
 20
1.13417
 30
0.000000
  70
    32
  0
VERTEX
  8
AM_VIS
  5
3E7
 10
2.89523
 20
1.13454
 30
0.000000
  70
    32
  0
VERTEX
  8
AM_VIS
  5
3E8
 10
2.89530
 20
1.13491
 30
0.000000
  70
    32
  0
VERTEX
  8
AM_VIS
  5
3E9
 10
2.89537
 20
1.13529
 30
0.000000
  70
    32
  0
VERTEX
  8
AM_VIS
  5
3EA
 10
2.89544
 20
1.13566
 30
0.000000
  70
    32
  0
VERTEX
  8
AM_VIS
  5
3EB
 10
2.89552
 20
1.13604
 30
0.000000
  70
    32
  0
VERTEX
  8
AM_VIS
  5
3EC
 10
2.89559
 20
1.13643
 30
0.000000
  70
    32
  0
VERTEX
  8
AM_VIS
  5
3ED
 10
2.89566
 20
1.13682
 30
0.000000
  70
    32
  0
VERTEX
  8
AM_VIS
  5
3EE
 10
2.89574
 20
1.13722
 30
0.000000
  70
    32
  0
VERTEX
  8
AM_VIS
  5
3EF
 10
2.89582
 20
1.13763
 30
0.000000
  70
    32
  0
VERTEX
  8
AM_VIS
  5
3F0
 10
2.89590
 20
1.13805
 30
0.000000
  70
    32
  0
VERTEX
  8
AM_VIS
  5
3F1
 10
2.89599
 20
1.13848
 30
0.000000
  70
    32
  0
VERTEX
  8
AM_VIS
  5
3F2
 10
2.89607
 20
1.13892
 30
0.000000
  70
    32
  0
VERTEX
  8
AM_VIS
  5
3F3
 10
2.89616
 20
1.13937
 30
0.000000
  70
    32
  0
VERTEX
  8
AM_VIS
  5
3F4
 10
2.89625
 20
1.13983
 30
0.000000
  70
    32
  0
VERTEX
  8
AM_VIS
  5
3F5
 10
2.89635
 20
1.14030
 30
0.000000
  70
    32
  0
VERTEX
  8
AM_VIS
  5
3F6
 10
2.89644
 20
1.14078
 30
0.000000
  70
    32
  0
VERTEX
  8
AM_VIS
  5
3F7
 10
2.89654
 20
1.14127
 30
0.000000
  70
    32
  0
VERTEX
  8
AM_VIS
  5
3F8
 10
2.89664
 20
1.14177
 30
0.000000
  70
    32
  0
VERTEX
  8
AM_VIS
  5
3F9
 10
2.89674
 20
1.14228
 30
0.000000
  70
    32
  0
VERTEX
  8
AM_VIS
  5
3FA
 10
2.89685
 20
1.14279
 30
0.000000
  70
    32
  0
VERTEX
  8
AM_VIS
  5
3FB
 10
2.89695
 20
1.14332
 30
0.000000
  70
    32
  0
VERTEX
  8
AM_VIS
  5
3FC
 10
2.89706
 20
1.14386
 30
0.000000
  70
    32
  0
VERTEX
  8
AM_VIS
  5
3FD
 10
2.89718
 20
1.14441
 30
0.000000
  70
    32
  0
VERTEX
  8
AM_VIS
  5
3FE
 10
2.89729
 20
1.14496
 30
0.000000
  70
    32
  0
VERTEX
  8
AM_VIS
  5
3FF
 10
2.89740
 20
1.14553
 30
0.000000
  70
    32
  0
VERTEX
  8
AM_VIS
  5
400
 10
2.89752
 20
1.14610
 30
0.000000
  70
    32
  0
VERTEX
  8
AM_VIS
  5
401
 10
2.89764
 20
1.14669
 30
0.000000
  70
    32
  0
VERTEX
  8
AM_VIS
  5
402
 10
2.89777
 20
1.14729
 30
0.000000
  70
    32
  0
VERTEX
  8
AM_VIS
  5
403
 10
2.89789
 20
1.14789
 30
0.000000
  70
    32
  0
VERTEX
  8
AM_VIS
  5
404
 10
2.89802
 20
1.14851
 30
0.000000
  70
    32
  0
VERTEX
  8
AM_VIS
  5
405
 10
2.89815
 20
1.14913
 30
0.000000
  70
    32
  0
VERTEX
  8
AM_VIS
  5
406
 10
2.89828
 20
1.14976
 30
0.000000
  70
    32
  0
VERTEX
  8
AM_VIS
  5
407
 10
2.89841
 20
1.15041
 30
0.000000
  70
    32
  0
VERTEX
  8
AM_VIS
  5
408
 10
2.89854
 20
1.15106
 30
0.000000
  70
    32
  0
VERTEX
  8
AM_VIS
  5
409
 10
2.89868
 20
1.15172
 30
0.000000
  70
    32
  0
VERTEX
  8
AM_VIS
  5
40A
 10
2.89882
 20
1.15240
 30
0.000000
  70
    32
  0
VERTEX
  8
AM_VIS
  5
40B
 10
2.89896
 20
1.15308
 30
0.000000
  70
    32
  0
VERTEX
  8
AM_VIS
  5
40C
 10
2.89911
 20
1.15377
 30
0.000000
  70
    32
  0
VERTEX
  8
AM_VIS
  5
40D
 10
2.89925
 20
1.15447
 30
0.000000
  70
    32
  0
VERTEX
  8
AM_VIS
  5
40E
 10
2.89940
 20
1.15518
 30
0.000000
  70
    32
  0
VERTEX
  8
AM_VIS
  5
40F
 10
2.89955
 20
1.15590
 30
0.000000
  70
    32
  0
VERTEX
  8
AM_VIS
  5
410
 10
2.89970
 20
1.15664
 30
0.000000
  70
    32
  0
VERTEX
  8
AM_VIS
  5
411
 10
2.89986
 20
1.15738
 30
0.000000
  70
    32
  0
VERTEX
  8
AM_VIS
  5
412
 10
2.90001
 20
1.15813
 30
0.000000
  70
    32
  0
VERTEX
  8
AM_VIS
  5
413
 10
2.90017
 20
1.15889
 30
0.000000
  70
    32
  0
VERTEX
  8
AM_VIS
  5
414
 10
2.90033
 20
1.15965
 30
0.000000
  70
    32
  0
VERTEX
  8
AM_VIS
  5
415
 10
2.90049
 20
1.16043
 30
0.000000
  70
    32
  0
VERTEX
  8
AM_VIS
  5
416
 10
2.90066
 20
1.16122
 30
0.000000
  70
    32
  0
VERTEX
  8
AM_VIS
  5
417
 10
2.90082
 20
1.16202
 30
0.000000
  70
    32
  0
VERTEX
  8
AM_VIS
  5
418
 10
2.90099
 20
1.16283
 30
0.000000
  70
    32
  0
VERTEX
  8
AM_VIS
  5
419
 10
2.90116
 20
1.16365
 30
0.000000
  70
    32
  0
VERTEX
  8
AM_VIS
  5
41A
 10
2.90133
 20
1.16447
 30
0.000000
  70
    32
  0
VERTEX
  8
AM_VIS
  5
41B
 10
2.90150
 20
1.16531
 30
0.000000
  70
    32
  0
VERTEX
  8
AM_VIS
  5
41C
 10
2.90168
 20
1.16616
 30
0.000000
  70
    32
  0
VERTEX
  8
AM_VIS
  5
41D
 10
2.90186
 20
1.16701
 30
0.000000
  70
    32
  0
VERTEX
  8
AM_VIS
  5
41E
 10
2.90204
 20
1.16788
 30
0.000000
  70
    32
  0
VERTEX
  8
AM_VIS
  5
41F
 10
2.90222
 20
1.16876
 30
0.000000
  70
    32
  0
VERTEX
  8
AM_VIS
  5
420
 10
2.90240
 20
1.16964
 30
0.000000
  70
    32
  0
VERTEX
  8
AM_VIS
  5
421
 10
2.90259
 20
1.17054
 30
0.000000
  70
    32
  0
VERTEX
  8
AM_VIS
  5
422
 10
2.90277
 20
1.17144
 30
0.000000
  70
    32
  0
VERTEX
  8
AM_VIS
  5
423
 10
2.90296
 20
1.17236
 30
0.000000
  70
    32
  0
VERTEX
  8
AM_VIS
  5
424
 10
2.90315
 20
1.17328
 30
0.000000
  70
    32
  0
VERTEX
  8
AM_VIS
  5
425
 10
2.90335
 20
1.17421
 30
0.000000
  70
    32
  0
VERTEX
  8
AM_VIS
  5
426
 10
2.90354
 20
1.17516
 30
0.000000
  70
    32
  0
VERTEX
  8
AM_VIS
  5
427
 10
2.90374
 20
1.17611
 30
0.000000
  70
    32
  0
VERTEX
  8
AM_VIS
  5
428
 10
2.90394
 20
1.17707
 30
0.000000
  70
    32
  0
VERTEX
  8
AM_VIS
  5
429
 10
2.90414
 20
1.17804
 30
0.000000
  70
    32
  0
VERTEX
  8
AM_VIS
  5
42A
 10
2.90434
 20
1.17903
 30
0.000000
  70
    32
  0
VERTEX
  8
AM_VIS
  5
42B
 10
2.90454
 20
1.18002
 30
0.000000
  70
    32
  0
VERTEX
  8
AM_VIS
  5
42C
 10
2.90475
 20
1.18102
 30
0.000000
  70
    32
  0
VERTEX
  8
AM_VIS
  5
42D
 10
2.90495
 20
1.18203
 30
0.000000
  70
    32
  0
VERTEX
  8
AM_VIS
  5
42E
 10
2.90516
 20
1.18305
 30
0.000000
  70
    32
  0
VERTEX
  8
AM_VIS
  5
42F
 10
2.90537
 20
1.18408
 30
0.000000
  70
    32
  0
VERTEX
  8
AM_VIS
  5
430
 10
2.90559
 20
1.18512
 30
0.000000
  70
    32
  0
VERTEX
  8
AM_VIS
  5
431
 10
2.90580
 20
1.18617
 30
0.000000
  70
    32
  0
VERTEX
  8
AM_VIS
  5
432
 10
2.90602
 20
1.18723
 30
0.000000
  70
    32
  0
VERTEX
  8
AM_VIS
  5
433
 10
2.90623
 20
1.18830
 30
0.000000
  70
    32
  0
VERTEX
  8
AM_VIS
  5
434
 10
2.90645
 20
1.18938
 30
0.000000
  70
    32
  0
VERTEX
  8
AM_VIS
  5
435
 10
2.90667
 20
1.19047
 30
0.000000
  70
    32
  0
VERTEX
  8
AM_VIS
  5
436
 10
2.90690
 20
1.19156
 30
0.000000
  70
    32
  0
VERTEX
  8
AM_VIS
  5
437
 10
2.90712
 20
1.19267
 30
0.000000
  70
    32
  0
VERTEX
  8
AM_VIS
  5
438
 10
2.90735
 20
1.19379
 30
0.000000
  70
    32
  0
VERTEX
  8
AM_VIS
  5
439
 10
2.90758
 20
1.19491
 30
0.000000
  70
    32
  0
VERTEX
  8
AM_VIS
  5
43A
 10
2.90781
 20
1.19605
 30
0.000000
  70
    32
  0
VERTEX
  8
AM_VIS
  5
43B
 10
2.90804
 20
1.19720
 30
0.000000
  70
    32
  0
VERTEX
  8
AM_VIS
  5
43C
 10
2.90827
 20
1.19835
 30
0.000000
  70
    32
  0
VERTEX
  8
AM_VIS
  5
43D
 10
2.90850
 20
1.19952
 30
0.000000
  70
    32
  0
VERTEX
  8
AM_VIS
  5
43E
 10
2.90874
 20
1.20069
 30
0.000000
  70
    32
  0
VERTEX
  8
AM_VIS
  5
43F
 10
2.90898
 20
1.20188
 30
0.000000
  70
    32
  0
VERTEX
  8
AM_VIS
  5
440
 10
2.90922
 20
1.20307
 30
0.000000
  70
    32
  0
VERTEX
  8
AM_VIS
  5
441
 10
2.90946
 20
1.20428
 30
0.000000
  70
    32
  0
VERTEX
  8
AM_VIS
  5
442
 10
2.90970
 20
1.20549
 30
0.000000
  70
    32
  0
VERTEX
  8
AM_VIS
  5
443
 10
2.90994
 20
1.20671
 30
0.000000
  70
    32
  0
VERTEX
  8
AM_VIS
  5
444
 10
2.91019
 20
1.20795
 30
0.000000
  70
    32
  0
VERTEX
  8
AM_VIS
  5
445
 10
2.91044
 20
1.20919
 30
0.000000
  70
    32
  0
VERTEX
  8
AM_VIS
  5
446
 10
2.91068
 20
1.21044
 30
0.000000
  70
    32
  0
VERTEX
  8
AM_VIS
  5
447
 10
2.91094
 20
1.21170
 30
0.000000
  70
    32
  0
VERTEX
  8
AM_VIS
  5
448
 10
2.91119
 20
1.21297
 30
0.000000
  70
    32
  0
VERTEX
  8
AM_VIS
  5
449
 10
2.91144
 20
1.21426
 30
0.000000
  70
    32
  0
VERTEX
  8
AM_VIS
  5
44A
 10
2.91169
 20
1.21555
 30
0.000000
  70
    32
  0
VERTEX
  8
AM_VIS
  5
44B
 10
2.91195
 20
1.21685
 30
0.000000
  70
    32
  0
VERTEX
  8
AM_VIS
  5
44C
 10
2.91221
 20
1.21816
 30
0.000000
  70
    32
  0
VERTEX
  8
AM_VIS
  5
44D
 10
2.91247
 20
1.21948
 30
0.000000
  70
    32
  0
VERTEX
  8
AM_VIS
  5
44E
 10
2.91273
 20
1.22081
 30
0.000000
  70
    32
  0
VERTEX
  8
AM_VIS
  5
44F
 10
2.91299
 20
1.22215
 30
0.000000
  70
    32
  0
VERTEX
  8
AM_VIS
  5
450
 10
2.91325
 20
1.22349
 30
0.000000
  70
    32
  0
VERTEX
  8
AM_VIS
  5
451
 10
2.91352
 20
1.22485
 30
0.000000
  70
    32
  0
VERTEX
  8
AM_VIS
  5
452
 10
2.91379
 20
1.22622
 30
0.000000
  70
    32
  0
VERTEX
  8
AM_VIS
  5
453
 10
2.91405
 20
1.22760
 30
0.000000
  70
    32
  0
VERTEX
  8
AM_VIS
  5
454
 10
2.91432
 20
1.22899
 30
0.000000
  70
    32
  0
VERTEX
  8
AM_VIS
  5
455
 10
2.91459
 20
1.23038
 30
0.000000
  70
    32
  0
VERTEX
  8
AM_VIS
  5
456
 10
2.91487
 20
1.23179
 30
0.000000
  70
    32
  0
VERTEX
  8
AM_VIS
  5
457
 10
2.91514
 20
1.23320
 30
0.000000
  70
    32
  0
VERTEX
  8
AM_VIS
  5
458
 10
2.91542
 20
1.23463
 30
0.000000
  70
    32
  0
VERTEX
  8
AM_VIS
  5
459
 10
2.91569
 20
1.23607
 30
0.000000
  70
    32
  0
VERTEX
  8
AM_VIS
  5
45A
 10
2.91597
 20
1.23751
 30
0.000000
  70
    32
  0
VERTEX
  8
AM_VIS
  5
45B
 10
2.91625
 20
1.23897
 30
0.000000
  70
    32
  0
VERTEX
  8
AM_VIS
  5
45C
 10
2.91653
 20
1.24043
 30
0.000000
  70
    32
  0
VERTEX
  8
AM_VIS
  5
45D
 10
2.91681
 20
1.24190
 30
0.000000
  70
    32
  0
VERTEX
  8
AM_VIS
  5
45E
 10
2.91709
 20
1.24339
 30
0.000000
  70
    32
  0
VERTEX
  8
AM_VIS
  5
45F
 10
2.91738
 20
1.24488
 30
0.000000
  70
    32
  0
VERTEX
  8
AM_VIS
  5
460
 10
2.91766
 20
1.24638
 30
0.000000
  70
    32
  0
VERTEX
  8
AM_VIS
  5
461
 10
2.91795
 20
1.24790
 30
0.000000
  70
    32
  0
VERTEX
  8
AM_VIS
  5
462
 10
2.91824
 20
1.24942
 30
0.000000
  70
    32
  0
VERTEX
  8
AM_VIS
  5
463
 10
2.91853
 20
1.25095
 30
0.000000
  70
    32
  0
VERTEX
  8
AM_VIS
  5
464
 10
2.91882
 20
1.25249
 30
0.000000
  70
    32
  0
VERTEX
  8
AM_VIS
  5
465
 10
2.91911
 20
1.25404
 30
0.000000
  70
    32
  0
VERTEX
  8
AM_VIS
  5
466
 10
2.91941
 20
1.25560
 30
0.000000
  70
    32
  0
VERTEX
  8
AM_VIS
  5
467
 10
2.91970
 20
1.25717
 30
0.000000
  70
    32
  0
VERTEX
  8
AM_VIS
  5
468
 10
2.92000
 20
1.25875
 30
0.000000
  70
    32
  0
VERTEX
  8
AM_VIS
  5
469
 10
2.92029
 20
1.26034
 30
0.000000
  70
    32
  0
VERTEX
  8
AM_VIS
  5
46A
 10
2.92059
 20
1.26194
 30
0.000000
  70
    32
  0
VERTEX
  8
AM_VIS
  5
46B
 10
2.92089
 20
1.26355
 30
0.000000
  70
    32
  0
VERTEX
  8
AM_VIS
  5
46C
 10
2.92119
 20
1.26517
 30
0.000000
  70
    32
  0
VERTEX
  8
AM_VIS
  5
46D
 10
2.92149
 20
1.26680
 30
0.000000
  70
    32
  0
VERTEX
  8
AM_VIS
  5
46E
 10
2.92180
 20
1.26844
 30
0.000000
  70
    32
  0
VERTEX
  8
AM_VIS
  5
46F
 10
2.92210
 20
1.27008
 30
0.000000
  70
    32
  0
VERTEX
  8
AM_VIS
  5
470
 10
2.92241
 20
1.27174
 30
0.000000
  70
    32
  0
VERTEX
  8
AM_VIS
  5
471
 10
2.92271
 20
1.27341
 30
0.000000
  70
    32
  0
VERTEX
  8
AM_VIS
  5
472
 10
2.92302
 20
1.27508
 30
0.000000
  70
    32
  0
VERTEX
  8
AM_VIS
  5
473
 10
2.92333
 20
1.27677
 30
0.000000
  70
    32
  0
VERTEX
  8
AM_VIS
  5
474
 10
2.92364
 20
1.27846
 30
0.000000
  70
    32
  0
VERTEX
  8
AM_VIS
  5
475
 10
2.92395
 20
1.28017
 30
0.000000
  70
    32
  0
VERTEX
  8
AM_VIS
  5
476
 10
2.92426
 20
1.28188
 30
0.000000
  70
    32
  0
VERTEX
  8
AM_VIS
  5
477
 10
2.92458
 20
1.28361
 30
0.000000
  70
    32
  0
VERTEX
  8
AM_VIS
  5
478
 10
2.92489
 20
1.28534
 30
0.000000
  70
    32
  0
VERTEX
  8
AM_VIS
  5
479
 10
2.92521
 20
1.28709
 30
0.000000
  70
    32
  0
VERTEX
  8
AM_VIS
  5
47A
 10
2.92552
 20
1.28884
 30
0.000000
  70
    32
  0
VERTEX
  8
AM_VIS
  5
47B
 10
2.92584
 20
1.29060
 30
0.000000
  70
    32
  0
VERTEX
  8
AM_VIS
  5
47C
 10
2.92616
 20
1.29238
 30
0.000000
  70
    32
  0
VERTEX
  8
AM_VIS
  5
47D
 10
2.92648
 20
1.29416
 30
0.000000
  70
    32
  0
VERTEX
  8
AM_VIS
  5
47E
 10
2.92680
 20
1.29595
 30
0.000000
  70
    32
  0
VERTEX
  8
AM_VIS
  5
47F
 10
2.92712
 20
1.29775
 30
0.000000
  70
    32
  0
VERTEX
  8
AM_VIS
  5
480
 10
2.92745
 20
1.29956
 30
0.000000
  70
    32
  0
VERTEX
  8
AM_VIS
  5
481
 10
2.92777
 20
1.30138
 30
0.000000
  70
    32
  0
VERTEX
  8
AM_VIS
  5
482
 10
2.92809
 20
1.30321
 30
0.000000
  70
    32
  0
VERTEX
  8
AM_VIS
  5
483
 10
2.92842
 20
1.30505
 30
0.000000
  70
    32
  0
VERTEX
  8
AM_VIS
  5
484
 10
2.92875
 20
1.30690
 30
0.000000
  70
    32
  0
VERTEX
  8
AM_VIS
  5
485
 10
2.92908
 20
1.30876
 30
0.000000
  70
    32
  0
VERTEX
  8
AM_VIS
  5
486
 10
2.92940
 20
1.31063
 30
0.000000
  70
    32
  0
VERTEX
  8
AM_VIS
  5
487
 10
2.92973
 20
1.31251
 30
0.000000
  70
    32
  0
VERTEX
  8
AM_VIS
  5
488
 10
2.93006
 20
1.31440
 30
0.000000
  70
    32
  0
VERTEX
  8
AM_VIS
  5
489
 10
2.93040
 20
1.31629
 30
0.000000
  70
    32
  0
VERTEX
  8
AM_VIS
  5
48A
 10
2.93073
 20
1.31820
 30
0.000000
  70
    32
  0
VERTEX
  8
AM_VIS
  5
48B
 10
2.93106
 20
1.32010
 30
0.000000
  70
    32
  0
VERTEX
  8
AM_VIS
  5
48C
 10
2.93139
 20
1.32201
 30
0.000000
  70
    32
  0
VERTEX
  8
AM_VIS
  5
48D
 10
2.93172
 20
1.32392
 30
0.000000
  70
    32
  0
VERTEX
  8
AM_VIS
  5
48E
 10
2.93205
 20
1.32584
 30
0.000000
  70
    32
  0
VERTEX
  8
AM_VIS
  5
48F
 10
2.93237
 20
1.32775
 30
0.000000
  70
    32
  0
VERTEX
  8
AM_VIS
  5
490
 10
2.93270
 20
1.32968
 30
0.000000
  70
    32
  0
VERTEX
  8
AM_VIS
  5
491
 10
2.93303
 20
1.33160
 30
0.000000
  70
    32
  0
VERTEX
  8
AM_VIS
  5
492
 10
2.93335
 20
1.33353
 30
0.000000
  70
    32
  0
VERTEX
  8
AM_VIS
  5
493
 10
2.93368
 20
1.33546
 30
0.000000
  70
    32
  0
VERTEX
  8
AM_VIS
  5
494
 10
2.93400
 20
1.33739
 30
0.000000
  70
    32
  0
VERTEX
  8
AM_VIS
  5
495
 10
2.93432
 20
1.33933
 30
0.000000
  70
    32
  0
VERTEX
  8
AM_VIS
  5
496
 10
2.93465
 20
1.34127
 30
0.000000
  70
    32
  0
VERTEX
  8
AM_VIS
  5
497
 10
2.93497
 20
1.34321
 30
0.000000
  70
    32
  0
VERTEX
  8
AM_VIS
  5
498
 10
2.93529
 20
1.34516
 30
0.000000
  70
    32
  0
VERTEX
  8
AM_VIS
  5
499
 10
2.93561
 20
1.34711
 30
0.000000
  70
    32
  0
VERTEX
  8
AM_VIS
  5
49A
 10
2.93593
 20
1.34906
 30
0.000000
  70
    32
  0
VERTEX
  8
AM_VIS
  5
49B
 10
2.93624
 20
1.35101
 30
0.000000
  70
    32
  0
VERTEX
  8
AM_VIS
  5
49C
 10
2.93656
 20
1.35297
 30
0.000000
  70
    32
  0
VERTEX
  8
AM_VIS
  5
49D
 10
2.93688
 20
1.35493
 30
0.000000
  70
    32
  0
VERTEX
  8
AM_VIS
  5
49E
 10
2.93719
 20
1.35690
 30
0.000000
  70
    32
  0
VERTEX
  8
AM_VIS
  5
49F
 10
2.93751
 20
1.35886
 30
0.000000
  70
    32
  0
VERTEX
  8
AM_VIS
  5
4A0
 10
2.93782
 20
1.36083
 30
0.000000
  70
    32
  0
VERTEX
  8
AM_VIS
  5
4A1
 10
2.93813
 20
1.36281
 30
0.000000
  70
    32
  0
VERTEX
  8
AM_VIS
  5
4A2
 10
2.93844
 20
1.36478
 30
0.000000
  70
    32
  0
VERTEX
  8
AM_VIS
  5
4A3
 10
2.93875
 20
1.36676
 30
0.000000
  70
    32
  0
VERTEX
  8
AM_VIS
  5
4A4
 10
2.93906
 20
1.36874
 30
0.000000
  70
    32
  0
VERTEX
  8
AM_VIS
  5
4A5
 10
2.93937
 20
1.37072
 30
0.000000
  70
    32
  0
VERTEX
  8
AM_VIS
  5
4A6
 10
2.93968
 20
1.37271
 30
0.000000
  70
    32
  0
VERTEX
  8
AM_VIS
  5
4A7
 10
2.93998
 20
1.37470
 30
0.000000
  70
    32
  0
VERTEX
  8
AM_VIS
  5
4A8
 10
2.94029
 20
1.37669
 30
0.000000
  70
    32
  0
VERTEX
  8
AM_VIS
  5
4A9
 10
2.94059
 20
1.37869
 30
0.000000
  70
    32
  0
VERTEX
  8
AM_VIS
  5
4AA
 10
2.94089
 20
1.38069
 30
0.000000
  70
    32
  0
VERTEX
  8
AM_VIS
  5
4AB
 10
2.94120
 20
1.38269
 30
0.000000
  70
    32
  0
VERTEX
  8
AM_VIS
  5
4AC
 10
2.94150
 20
1.38469
 30
0.000000
  70
    32
  0
VERTEX
  8
AM_VIS
  5
4AD
 10
2.94179
 20
1.38670
 30
0.000000
  70
    32
  0
VERTEX
  8
AM_VIS
  5
4AE
 10
2.94209
 20
1.38871
 30
0.000000
  70
    32
  0
VERTEX
  8
AM_VIS
  5
4AF
 10
2.94239
 20
1.39072
 30
0.000000
  70
    32
  0
VERTEX
  8
AM_VIS
  5
4B0
 10
2.94268
 20
1.39273
 30
0.000000
  70
    32
  0
VERTEX
  8
AM_VIS
  5
4B1
 10
2.94298
 20
1.39475
 30
0.000000
  70
    32
  0
VERTEX
  8
AM_VIS
  5
4B2
 10
2.94327
 20
1.39677
 30
0.000000
  70
    32
  0
VERTEX
  8
AM_VIS
  5
4B3
 10
2.94356
 20
1.39879
 30
0.000000
  70
    32
  0
VERTEX
  8
AM_VIS
  5
4B4
 10
2.94385
 20
1.40082
 30
0.000000
  70
    32
  0
VERTEX
  8
AM_VIS
  5
4B5
 10
2.94414
 20
1.40284
 30
0.000000
  70
    32
  0
VERTEX
  8
AM_VIS
  5
4B6
 10
2.94443
 20
1.40487
 30
0.000000
  70
    32
  0
VERTEX
  8
AM_VIS
  5
4B7
 10
2.94472
 20
1.40691
 30
0.000000
  70
    32
  0
VERTEX
  8
AM_VIS
  5
4B8
 10
2.94500
 20
1.40894
 30
0.000000
  70
    32
  0
VERTEX
  8
AM_VIS
  5
4B9
 10
2.94529
 20
1.41098
 30
0.000000
  70
    32
  0
VERTEX
  8
AM_VIS
  5
4BA
 10
2.94557
 20
1.41302
 30
0.000000
  70
    32
  0
VERTEX
  8
AM_VIS
  5
4BB
 10
2.94585
 20
1.41506
 30
0.000000
  70
    32
  0
VERTEX
  8
AM_VIS
  5
4BC
 10
2.94613
 20
1.41711
 30
0.000000
  70
    32
  0
VERTEX
  8
AM_VIS
  5
4BD
 10
2.94641
 20
1.41915
 30
0.000000
  70
    32
  0
VERTEX
  8
AM_VIS
  5
4BE
 10
2.94669
 20
1.42120
 30
0.000000
  70
    32
  0
VERTEX
  8
AM_VIS
  5
4BF
 10
2.94696
 20
1.42325
 30
0.000000
  70
    32
  0
VERTEX
  8
AM_VIS
  5
4C0
 10
2.94724
 20
1.42531
 30
0.000000
  70
    32
  0
VERTEX
  8
AM_VIS
  5
4C1
 10
2.94751
 20
1.42737
 30
0.000000
  70
    32
  0
VERTEX
  8
AM_VIS
  5
4C2
 10
2.94778
 20
1.42943
 30
0.000000
  70
    32
  0
VERTEX
  8
AM_VIS
  5
4C3
 10
2.94805
 20
1.43149
 30
0.000000
  70
    32
  0
VERTEX
  8
AM_VIS
  5
4C4
 10
2.94832
 20
1.43355
 30
0.000000
  70
    32
  0
VERTEX
  8
AM_VIS
  5
4C5
 10
2.94859
 20
1.43562
 30
0.000000
  70
    32
  0
VERTEX
  8
AM_VIS
  5
4C6
 10
2.94885
 20
1.43769
 30
0.000000
  70
    32
  0
VERTEX
  8
AM_VIS
  5
4C7
 10
2.94912
 20
1.43976
 30
0.000000
  70
    32
  0
VERTEX
  8
AM_VIS
  5
4C8
 10
2.94938
 20
1.44183
 30
0.000000
  70
    32
  0
VERTEX
  8
AM_VIS
  5
4C9
 10
2.94964
 20
1.44391
 30
0.000000
  70
    32
  0
VERTEX
  8
AM_VIS
  5
4CA
 10
2.94990
 20
1.44599
 30
0.000000
  70
    32
  0
VERTEX
  8
AM_VIS
  5
4CB
 10
2.95016
 20
1.44807
 30
0.000000
  70
    32
  0
VERTEX
  8
AM_VIS
  5
4CC
 10
2.95041
 20
1.45015
 30
0.000000
  70
    32
  0
VERTEX
  8
AM_VIS
  5
4CD
 10
2.95067
 20
1.45223
 30
0.000000
  70
    32
  0
VERTEX
  8
AM_VIS
  5
4CE
 10
2.95092
 20
1.45432
 30
0.000000
  70
    32
  0
VERTEX
  8
AM_VIS
  5
4CF
 10
2.95117
 20
1.45641
 30
0.000000
  70
    32
  0
VERTEX
  8
AM_VIS
  5
4D0
 10
2.95142
 20
1.45850
 30
0.000000
  70
    32
  0
VERTEX
  8
AM_VIS
  5
4D1
 10
2.95167
 20
1.46059
 30
0.000000
  70
    32
  0
VERTEX
  8
AM_VIS
  5
4D2
 10
2.95191
 20
1.46269
 30
0.000000
  70
    32
  0
VERTEX
  8
AM_VIS
  5
4D3
 10
2.95216
 20
1.46479
 30
0.000000
  70
    32
  0
VERTEX
  8
AM_VIS
  5
4D4
 10
2.95240
 20
1.46689
 30
0.000000
  70
    32
  0
VERTEX
  8
AM_VIS
  5
4D5
 10
2.95264
 20
1.46899
 30
0.000000
  70
    32
  0
VERTEX
  8
AM_VIS
  5
4D6
 10
2.95288
 20
1.47109
 30
0.000000
  70
    32
  0
VERTEX
  8
AM_VIS
  5
4D7
 10
2.95312
 20
1.47320
 30
0.000000
  70
    32
  0
VERTEX
  8
AM_VIS
  5
4D8
 10
2.95335
 20
1.47531
 30
0.000000
  70
    32
  0
VERTEX
  8
AM_VIS
  5
4D9
 10
2.95359
 20
1.47742
 30
0.000000
  70
    32
  0
VERTEX
  8
AM_VIS
  5
4DA
 10
2.95382
 20
1.47953
 30
0.000000
  70
    32
  0
VERTEX
  8
AM_VIS
  5
4DB
 10
2.95405
 20
1.48164
 30
0.000000
  70
    32
  0
VERTEX
  8
AM_VIS
  5
4DC
 10
2.95428
 20
1.48376
 30
0.000000
  70
    32
  0
VERTEX
  8
AM_VIS
  5
4DD
 10
2.95451
 20
1.48587
 30
0.000000
  70
    32
  0
VERTEX
  8
AM_VIS
  5
4DE
 10
2.95473
 20
1.48799
 30
0.000000
  70
    32
  0
VERTEX
  8
AM_VIS
  5
4DF
 10
2.95495
 20
1.49012
 30
0.000000
  70
    32
  0
VERTEX
  8
AM_VIS
  5
4E0
 10
2.95517
 20
1.49224
 30
0.000000
  70
    32
  0
VERTEX
  8
AM_VIS
  5
4E1
 10
2.95539
 20
1.49436
 30
0.000000
  70
    32
  0
VERTEX
  8
AM_VIS
  5
4E2
 10
2.95561
 20
1.49649
 30
0.000000
  70
    32
  0
VERTEX
  8
AM_VIS
  5
4E3
 10
2.95582
 20
1.49862
 30
0.000000
  70
    32
  0
VERTEX
  8
AM_VIS
  5
4E4
 10
2.95604
 20
1.50075
 30
0.000000
  70
    32
  0
VERTEX
  8
AM_VIS
  5
4E5
 10
2.95625
 20
1.50289
 30
0.000000
  70
    32
  0
VERTEX
  8
AM_VIS
  5
4E6
 10
2.95646
 20
1.50502
 30
0.000000
  70
    32
  0
VERTEX
  8
AM_VIS
  5
4E7
 10
2.95667
 20
1.50716
 30
0.000000
  70
    32
  0
VERTEX
  8
AM_VIS
  5
4E8
 10
2.95687
 20
1.50929
 30
0.000000
  70
    32
  0
VERTEX
  8
AM_VIS
  5
4E9
 10
2.95707
 20
1.51143
 30
0.000000
  70
    32
  0
VERTEX
  8
AM_VIS
  5
4EA
 10
2.95727
 20
1.51358
 30
0.000000
  70
    32
  0
VERTEX
  8
AM_VIS
  5
4EB
 10
2.95747
 20
1.51572
 30
0.000000
  70
    32
  0
VERTEX
  8
AM_VIS
  5
4EC
 10
2.95767
 20
1.51786
 30
0.000000
  70
    32
  0
VERTEX
  8
AM_VIS
  5
4ED
 10
2.95786
 20
1.52001
 30
0.000000
  70
    32
  0
VERTEX
  8
AM_VIS
  5
4EE
 10
2.95806
 20
1.52216
 30
0.000000
  70
    32
  0
VERTEX
  8
AM_VIS
  5
4EF
 10
2.95825
 20
1.52430
 30
0.000000
  70
    32
  0
VERTEX
  8
AM_VIS
  5
4F0
 10
2.95844
 20
1.52645
 30
0.000000
  70
    32
  0
VERTEX
  8
AM_VIS
  5
4F1
 10
2.95862
 20
1.52860
 30
0.000000
  70
    32
  0
VERTEX
  8
AM_VIS
  5
4F2
 10
2.95881
 20
1.53076
 30
0.000000
  70
    32
  0
VERTEX
  8
AM_VIS
  5
4F3
 10
2.95899
 20
1.53291
 30
0.000000
  70
    32
  0
VERTEX
  8
AM_VIS
  5
4F4
 10
2.95917
 20
1.53506
 30
0.000000
  70
    32
  0
VERTEX
  8
AM_VIS
  5
4F5
 10
2.95935
 20
1.53722
 30
0.000000
  70
    32
  0
VERTEX
  8
AM_VIS
  5
4F6
 10
2.95952
 20
1.53938
 30
0.000000
  70
    32
  0
VERTEX
  8
AM_VIS
  5
4F7
 10
2.95970
 20
1.54154
 30
0.000000
  70
    32
  0
VERTEX
  8
AM_VIS
  5
4F8
 10
2.95987
 20
1.54369
 30
0.000000
  70
    32
  0
VERTEX
  8
AM_VIS
  5
4F9
 10
2.96004
 20
1.54586
 30
0.000000
  70
    32
  0
VERTEX
  8
AM_VIS
  5
4FA
 10
2.96020
 20
1.54802
 30
0.000000
  70
    32
  0
VERTEX
  8
AM_VIS
  5
4FB
 10
2.96037
 20
1.55018
 30
0.000000
  70
    32
  0
VERTEX
  8
AM_VIS
  5
4FC
 10
2.96053
 20
1.55234
 30
0.000000
  70
    32
  0
VERTEX
  8
AM_VIS
  5
4FD
 10
2.96069
 20
1.55451
 30
0.000000
  70
    32
  0
VERTEX
  8
AM_VIS
  5
4FE
 10
2.96085
 20
1.55668
 30
0.000000
  70
    32
  0
VERTEX
  8
AM_VIS
  5
4FF
 10
2.96100
 20
1.55884
 30
0.000000
  70
    32
  0
VERTEX
  8
AM_VIS
  5
500
 10
2.96116
 20
1.56101
 30
0.000000
  70
    32
  0
VERTEX
  8
AM_VIS
  5
501
 10
2.96131
 20
1.56318
 30
0.000000
  70
    32
  0
VERTEX
  8
AM_VIS
  5
502
 10
2.96146
 20
1.56535
 30
0.000000
  70
    32
  0
VERTEX
  8
AM_VIS
  5
503
 10
2.96160
 20
1.56753
 30
0.000000
  70
    32
  0
VERTEX
  8
AM_VIS
  5
504
 10
2.96175
 20
1.56970
 30
0.000000
  70
    32
  0
VERTEX
  8
AM_VIS
  5
505
 10
2.96189
 20
1.57188
 30
0.000000
  70
    32
  0
VERTEX
  8
AM_VIS
  5
506
 10
2.96203
 20
1.57405
 30
0.000000
  70
    32
  0
VERTEX
  8
AM_VIS
  5
507
 10
2.96217
 20
1.57623
 30
0.000000
  70
    32
  0
VERTEX
  8
AM_VIS
  5
508
 10
2.96230
 20
1.57840
 30
0.000000
  70
    32
  0
VERTEX
  8
AM_VIS
  5
509
 10
2.96244
 20
1.58058
 30
0.000000
  70
    32
  0
VERTEX
  8
AM_VIS
  5
50A
 10
2.96257
 20
1.58276
 30
0.000000
  70
    32
  0
VERTEX
  8
AM_VIS
  5
50B
 10
2.96270
 20
1.58494
 30
0.000000
  70
    32
  0
VERTEX
  8
AM_VIS
  5
50C
 10
2.96282
 20
1.58713
 30
0.000000
  70
    32
  0
VERTEX
  8
AM_VIS
  5
50D
 10
2.96295
 20
1.58931
 30
0.000000
  70
    32
  0
VERTEX
  8
AM_VIS
  5
50E
 10
2.96307
 20
1.59149
 30
0.000000
  70
    32
  0
VERTEX
  8
AM_VIS
  5
50F
 10
2.96319
 20
1.59368
 30
0.000000
  70
    32
  0
VERTEX
  8
AM_VIS
  5
510
 10
2.96331
 20
1.59586
 30
0.000000
  70
    32
  0
VERTEX
  8
AM_VIS
  5
511
 10
2.96342
 20
1.59805
 30
0.000000
  70
    32
  0
VERTEX
  8
AM_VIS
  5
512
 10
2.96353
 20
1.60024
 30
0.000000
  70
    32
  0
VERTEX
  8
AM_VIS
  5
513
 10
2.96364
 20
1.60243
 30
0.000000
  70
    32
  0
VERTEX
  8
AM_VIS
  5
514
 10
2.96375
 20
1.60461
 30
0.000000
  70
    32
  0
VERTEX
  8
AM_VIS
  5
515
 10
2.96386
 20
1.60680
 30
0.000000
  70
    32
  0
VERTEX
  8
AM_VIS
  5
516
 10
2.96396
 20
1.60900
 30
0.000000
  70
    32
  0
VERTEX
  8
AM_VIS
  5
517
 10
2.96406
 20
1.61119
 30
0.000000
  70
    32
  0
VERTEX
  8
AM_VIS
  5
518
 10
2.96416
 20
1.61338
 30
0.000000
  70
    32
  0
VERTEX
  8
AM_VIS
  5
519
 10
2.96426
 20
1.61558
 30
0.000000
  70
    32
  0
VERTEX
  8
AM_VIS
  5
51A
 10
2.96435
 20
1.61777
 30
0.000000
  70
    32
  0
VERTEX
  8
AM_VIS
  5
51B
 10
2.96444
 20
1.61997
 30
0.000000
  70
    32
  0
VERTEX
  8
AM_VIS
  5
51C
 10
2.96453
 20
1.62216
 30
0.000000
  70
    32
  0
VERTEX
  8
AM_VIS
  5
51D
 10
2.96462
 20
1.62436
 30
0.000000
  70
    32
  0
VERTEX
  8
AM_VIS
  5
51E
 10
2.96470
 20
1.62656
 30
0.000000
  70
    32
  0
VERTEX
  8
AM_VIS
  5
51F
 10
2.96478
 20
1.62876
 30
0.000000
  70
    32
  0
VERTEX
  8
AM_VIS
  5
520
 10
2.96486
 20
1.63096
 30
0.000000
  70
    32
  0
VERTEX
  8
AM_VIS
  5
521
 10
2.96494
 20
1.63316
 30
0.000000
  70
    32
  0
VERTEX
  8
AM_VIS
  5
522
 10
2.96501
 20
1.63536
 30
0.000000
  70
    32
  0
VERTEX
  8
AM_VIS
  5
523
 10
2.96508
 20
1.63756
 30
0.000000
  70
    32
  0
VERTEX
  8
AM_VIS
  5
524
 10
2.96515
 20
1.63976
 30
0.000000
  70
    32
  0
VERTEX
  8
AM_VIS
  5
525
 10
2.96522
 20
1.64197
 30
0.000000
  70
    32
  0
VERTEX
  8
AM_VIS
  5
526
 10
2.96529
 20
1.64417
 30
0.000000
  70
    32
  0
VERTEX
  8
AM_VIS
  5
527
 10
2.96535
 20
1.64638
 30
0.000000
  70
    32
  0
VERTEX
  8
AM_VIS
  5
528
 10
2.96541
 20
1.64858
 30
0.000000
  70
    32
  0
VERTEX
  8
AM_VIS
  5
529
 10
2.96546
 20
1.65079
 30
0.000000
  70
    32
  0
VERTEX
  8
AM_VIS
  5
52A
 10
2.96552
 20
1.65300
 30
0.000000
  70
    32
  0
VERTEX
  8
AM_VIS
  5
52B
 10
2.96557
 20
1.65520
 30
0.000000
  70
    32
  0
VERTEX
  8
AM_VIS
  5
52C
 10
2.96562
 20
1.65741
 30
0.000000
  70
    32
  0
VERTEX
  8
AM_VIS
  5
52D
 10
2.96567
 20
1.65962
 30
0.000000
  70
    32
  0
VERTEX
  8
AM_VIS
  5
52E
 10
2.96571
 20
1.66183
 30
0.000000
  70
    32
  0
VERTEX
  8
AM_VIS
  5
52F
 10
2.96576
 20
1.66404
 30
0.000000
  70
    32
  0
VERTEX
  8
AM_VIS
  5
530
 10
2.96580
 20
1.66625
 30
0.000000
  70
    32
  0
VERTEX
  8
AM_VIS
  5
531
 10
2.96583
 20
1.66846
 30
0.000000
  70
    32
  0
VERTEX
  8
AM_VIS
  5
532
 10
2.96587
 20
1.67068
 30
0.000000
  70
    32
  0
VERTEX
  8
AM_VIS
  5
533
 10
2.96590
 20
1.67289
 30
0.000000
  70
    32
  0
VERTEX
  8
AM_VIS
  5
534
 10
2.96593
 20
1.67510
 30
0.000000
  70
    32
  0
VERTEX
  8
AM_VIS
  5
535
 10
2.96596
 20
1.67732
 30
0.000000
  70
    32
  0
VERTEX
  8
AM_VIS
  5
536
 10
2.96598
 20
1.67953
 30
0.000000
  70
    32
  0
VERTEX
  8
AM_VIS
  5
537
 10
2.96600
 20
1.68175
 30
0.000000
  70
    32
  0
VERTEX
  8
AM_VIS
  5
538
 10
2.96602
 20
1.68396
 30
0.000000
  70
    32
  0
VERTEX
  8
AM_VIS
  5
539
 10
2.96604
 20
1.68618
 30
0.000000
  70
    32
  0
VERTEX
  8
AM_VIS
  5
53A
 10
2.96605
 20
1.68840
 30
0.000000
  70
    32
  0
VERTEX
  8
AM_VIS
  5
53B
 10
2.96606
 20
1.69061
 30
0.000000
  70
    32
  0
VERTEX
  8
AM_VIS
  5
53C
 10
2.96607
 20
1.69283
 30
0.000000
  70
    32
  0
VERTEX
  8
AM_VIS
  5
53D
 10
2.96608
 20
1.69505
 30
0.000000
  70
    32
  0
VERTEX
  8
AM_VIS
  5
53E
 10
2.96608
 20
1.69727
 30
0.000000
  70
    32
  0
VERTEX
  8
AM_VIS
  5
53F
 10
2.96609
 20
1.69949
 30
0.000000
  70
    32
  0
SEQEND
  8
AM_VIS
  5
540
  0
ARC
  5
33
  8
AM_HID
 10
1.591699386669621
 20
1.66391471957547
 30
0.0
 40
1.3259821638795659
 50
11.91882537011799
 51
15.218599883212161
  0
ARC
  5
34
  8
AM_HID
 10
1.591699386671753
 20
1.7350618193905509
 30
0.0
 40
1.325982163877377
 50
344.78140011678448
 51
348.08117462988417
  0
ARC
  5
35
  8
AM_VIS
 10
0.4452775885786227
 20
1.4213851994065481
 30
0.0
 40
2.5996198947849982
 50
19.93715795816998
 51
21.06452589956864
  0
ARC
  5
36
  8
AM_VIS
 10
2.6211811187718439
 20
1.043238269484247
 30
0.0
 40
0.2499999999988272
 50
6.0271665609546918
 51
75.522487814185283
  0
ARC
  5
37
  8
AM_VIS
 10
2.6211811187710712
 20
2.355738269483262
 30
0.0
 40
0.2500000000000004
 50
284.47751218592981
 51
359.99999999999977
  0
LINE
  5
38
  8
AM_VIS
 10
2.8697991742287061
 20
1.069488270207267
 30
0.0
 11
2.8811294229436002
 21
1.069488270207267
 31
0.0
  0
LINE
  5
39
  8
AM_VIS
 10
2.6836811187707732
 20
1.3840956199405461
 30
0.0
 11
2.6836811187707732
 21
1.285299728621156
 31
0.0
  0
LINE
  5
3A
  8
AM_VIS
 10
2.6836811187707732
 20
2.1136768103453671
 30
0.0
 11
2.6836811187707732
 21
2.0148809190259769
 31
0.0
  0
LINE
  5
3B
  8
AM_HID
 10
3.1041969920936721
 20
0.6511367343596078
 30
0.0
 11
3.1041969920936721
 21
2.7478398046069148
 31
0.0
  0
LINE
  5
3C
  8
AM_VIS
 10
2.8734277613244412
 20
0.6713264259425131
 30
0.0
 11
2.8734277613244412
 21
1.0694882694832619
 31
0.0
  0
LINE
  5
3D
  8
AM_HID
 10
2.8734277613244412
 20
1.0694882694832619
 30
0.0
 11
2.8734277613244412
 21
2.3498830897710179
 31
0.0
  0
LINE
  5
3E
  8
AM_VIS
 10
2.8734277613244412
 20
2.3498830897710179
 30
0.0
 11
2.8734277613244412
 21
2.7276501130240089
 31
0.0
  0
LINE
  5
3F
  8
AM_HID
 10
2.8711811187710712
 20
1.386988269483262
 30
0.0
 11
2.6836811187710699
 21
1.386988269483262
 31
0.0
  0
LINE
  5
40
  8
AM_HID
 10
2.8711811187710712
 20
2.011988269483262
 30
0.0
 11
2.6836811187710699
 21
2.011988269483262
 31
0.0
  0
LINE
  5
41
  8
AM_HID
 10
2.8711811187710712
 20
2.011988269483262
 30
0.0
 11
2.8711811187710712
 21
2.3557382694832611
 31
0.0
  0
LINE
  5
42
  8
AM_HID
 10
2.8711811187710712
 20
1.0694882694832619
 30
0.0
 11
2.8711811187710712
 21
1.386988269483262
 31
0.0
  0
CIRCLE
  5
43
  8
AM_VIS
 10
6.1234277613244412
 20
1.6994882694832609
 30
0.0
 40
0.975
  0
ARC
  5
44
  8
AM_VIS
 10
6.1234277613244403
 20
1.6994882694832609
 30
0.0
 40
1.3125
 50
270.0
 51
90.0
  0
LINE
  5
45
  8
AM_VIS
 10
2.6836811187710712
 20
2.0148809190259782
 30
0.0
 11
2.6836811187710712
 21
1.3840956199405461
 31
0.0
  0
LINE
  5
46
  8
AM_VIS
 10
6.1234277613244412
 20
4.5511443013111563
 30
0.0
 11
4.1859277613244412
 21
4.5511443013111563
 31
0.0
  0
ARC
  5
47
  8
AM_VIS
 10
4.1859277613244412
 20
5.6328750705419246
 30
0.0
 40
1.0817307692307689
 50
89.999999999999943
 51
270.0
  0
LINE
  5
48
  8
AM_VIS
 10
4.1859277613244412
 20
6.7146058397726938
 30
0.0
 11
6.1234277613244412
 21
6.7146058397726938
 31
0.0
  0
LINE
  5
49
  8
AM_VIS
 10
6.1234277613244421
 20
6.7146058397726938
 30
0.0
 11
6.1234277613244421
 21
6.9453750705419246
 31
0.0
  0
LINE
  5
4A
  8
AM_VIS
 10
6.1234277613244421
 20
6.9453750705419246
 30
0.0
 11
4.1859277613244421
 21
6.9453750705419246
 31
0.0
  0
ARC
  5
4B
  8
AM_VIS
 10
4.1859277613244412
 20
5.6328750705419246
 30
0.0
 40
1.3125
 50
89.999999999999915
 51
270.0
  0
LINE
  5
4C
  8
AM_VIS
 10
4.1859277613244412
 20
4.3203750705419246
 30
0.0
 11
6.1234277613244412
 21
4.3203750705419246
 31
0.0
  0
LINE
  5
4D
  8
AM_VIS
 10
6.1234277613244412
 20
4.3203750705419246
 30
0.0
 11
6.1234277613244412
 21
4.5511443013111563
 31
0.0
  0
ARC
  5
4E
  8
AM_VIS
 10
4.0211811188810813
 20
5.6328750705354871
 30
0.0
 40
1.150000000110009
 50
169.87376002923489
 51
179.9999999996792
  0
ARC
  5
4F
  8
AM_VIS
 10
4.0211811188809667
 20
5.6328750705483559
 30
0.0
 40
1.1500000001098949
 50
180.00000000032031
 51
190.12623997076449
  0
POLYLINE
  8
AM_HID
  5
541
  66
     1
 10
0.000000
 20
0.000000
 30
0.000000
  70
     8
  0
VERTEX
  8
AM_HID
  5
542
 10
2.86980
 20
5.63288
 30
0.000000
  70
    32
  0
VERTEX
  8
AM_HID
  5
543
 10
2.86980
 20
5.63415
 30
0.000000
  70
    32
  0
VERTEX
  8
AM_HID
  5
544
 10
2.86980
 20
5.63542
 30
0.000000
  70
    32
  0
VERTEX
  8
AM_HID
  5
545
 10
2.86981
 20
5.63669
 30
0.000000
  70
    32
  0
VERTEX
  8
AM_HID
  5
546
 10
2.86981
 20
5.63796
 30
0.000000
  70
    32
  0
VERTEX
  8
AM_HID
  5
547
 10
2.86982
 20
5.63922
 30
0.000000
  70
    32
  0
VERTEX
  8
AM_HID
  5
548
 10
2.86983
 20
5.64048
 30
0.000000
  70
    32
  0
VERTEX
  8
AM_HID
  5
549
 10
2.86984
 20
5.64174
 30
0.000000
  70
    32
  0
VERTEX
  8
AM_HID
  5
54A
 10
2.86986
 20
5.64300
 30
0.000000
  70
    32
  0
VERTEX
  8
AM_HID
  5
54B
 10
2.86987
 20
5.64426
 30
0.000000
  70
    32
  0
VERTEX
  8
AM_HID
  5
54C
 10
2.86989
 20
5.64552
 30
0.000000
  70
    32
  0
VERTEX
  8
AM_HID
  5
54D
 10
2.86991
 20
5.64677
 30
0.000000
  70
    32
  0
VERTEX
  8
AM_HID
  5
54E
 10
2.86993
 20
5.64802
 30
0.000000
  70
    32
  0
VERTEX
  8
AM_HID
  5
54F
 10
2.86995
 20
5.64927
 30
0.000000
  70
    32
  0
VERTEX
  8
AM_HID
  5
550
 10
2.86997
 20
5.65052
 30
0.000000
  70
    32
  0
VERTEX
  8
AM_HID
  5
551
 10
2.87000
 20
5.65176
 30
0.000000
  70
    32
  0
VERTEX
  8
AM_HID
  5
552
 10
2.87002
 20
5.65301
 30
0.000000
  70
    32
  0
VERTEX
  8
AM_HID
  5
553
 10
2.87005
 20
5.65425
 30
0.000000
  70
    32
  0
VERTEX
  8
AM_HID
  5
554
 10
2.87008
 20
5.65549
 30
0.000000
  70
    32
  0
VERTEX
  8
AM_HID
  5
555
 10
2.87012
 20
5.65673
 30
0.000000
  70
    32
  0
VERTEX
  8
AM_HID
  5
556
 10
2.87015
 20
5.65796
 30
0.000000
  70
    32
  0
VERTEX
  8
AM_HID
  5
557
 10
2.87018
 20
5.65920
 30
0.000000
  70
    32
  0
VERTEX
  8
AM_HID
  5
558
 10
2.87022
 20
5.66043
 30
0.000000
  70
    32
  0
VERTEX
  8
AM_HID
  5
559
 10
2.87026
 20
5.66166
 30
0.000000
  70
    32
  0
VERTEX
  8
AM_HID
  5
55A
 10
2.87030
 20
5.66289
 30
0.000000
  70
    32
  0
VERTEX
  8
AM_HID
  5
55B
 10
2.87034
 20
5.66412
 30
0.000000
  70
    32
  0
VERTEX
  8
AM_HID
  5
55C
 10
2.87038
 20
5.66534
 30
0.000000
  70
    32
  0
VERTEX
  8
AM_HID
  5
55D
 10
2.87043
 20
5.66657
 30
0.000000
  70
    32
  0
VERTEX
  8
AM_HID
  5
55E
 10
2.87048
 20
5.66779
 30
0.000000
  70
    32
  0
VERTEX
  8
AM_HID
  5
55F
 10
2.87052
 20
5.66901
 30
0.000000
  70
    32
  0
VERTEX
  8
AM_HID
  5
560
 10
2.87057
 20
5.67023
 30
0.000000
  70
    32
  0
VERTEX
  8
AM_HID
  5
561
 10
2.87062
 20
5.67145
 30
0.000000
  70
    32
  0
VERTEX
  8
AM_HID
  5
562
 10
2.87068
 20
5.67267
 30
0.000000
  70
    32
  0
VERTEX
  8
AM_HID
  5
563
 10
2.87073
 20
5.67388
 30
0.000000
  70
    32
  0
VERTEX
  8
AM_HID
  5
564
 10
2.87078
 20
5.67510
 30
0.000000
  70
    32
  0
VERTEX
  8
AM_HID
  5
565
 10
2.87084
 20
5.67631
 30
0.000000
  70
    32
  0
VERTEX
  8
AM_HID
  5
566
 10
2.87090
 20
5.67752
 30
0.000000
  70
    32
  0
VERTEX
  8
AM_HID
  5
567
 10
2.87096
 20
5.67873
 30
0.000000
  70
    32
  0
VERTEX
  8
AM_HID
  5
568
 10
2.87102
 20
5.67994
 30
0.000000
  70
    32
  0
VERTEX
  8
AM_HID
  5
569
 10
2.87108
 20
5.68114
 30
0.000000
  70
    32
  0
VERTEX
  8
AM_HID
  5
56A
 10
2.87115
 20
5.68235
 30
0.000000
  70
    32
  0
VERTEX
  8
AM_HID
  5
56B
 10
2.87121
 20
5.68355
 30
0.000000
  70
    32
  0
VERTEX
  8
AM_HID
  5
56C
 10
2.87128
 20
5.68475
 30
0.000000
  70
    32
  0
VERTEX
  8
AM_HID
  5
56D
 10
2.87135
 20
5.68595
 30
0.000000
  70
    32
  0
VERTEX
  8
AM_HID
  5
56E
 10
2.87142
 20
5.68715
 30
0.000000
  70
    32
  0
VERTEX
  8
AM_HID
  5
56F
 10
2.87149
 20
5.68835
 30
0.000000
  70
    32
  0
VERTEX
  8
AM_HID
  5
570
 10
2.87156
 20
5.68955
 30
0.000000
  70
    32
  0
VERTEX
  8
AM_HID
  5
571
 10
2.87164
 20
5.69074
 30
0.000000
  70
    32
  0
VERTEX
  8
AM_HID
  5
572
 10
2.87171
 20
5.69194
 30
0.000000
  70
    32
  0
VERTEX
  8
AM_HID
  5
573
 10
2.87179
 20
5.69313
 30
0.000000
  70
    32
  0
VERTEX
  8
AM_HID
  5
574
 10
2.87187
 20
5.69432
 30
0.000000
  70
    32
  0
VERTEX
  8
AM_HID
  5
575
 10
2.87195
 20
5.69551
 30
0.000000
  70
    32
  0
VERTEX
  8
AM_HID
  5
576
 10
2.87203
 20
5.69670
 30
0.000000
  70
    32
  0
VERTEX
  8
AM_HID
  5
577
 10
2.87211
 20
5.69789
 30
0.000000
  70
    32
  0
VERTEX
  8
AM_HID
  5
578
 10
2.87219
 20
5.69908
 30
0.000000
  70
    32
  0
VERTEX
  8
AM_HID
  5
579
 10
2.87228
 20
5.70026
 30
0.000000
  70
    32
  0
VERTEX
  8
AM_HID
  5
57A
 10
2.87236
 20
5.70145
 30
0.000000
  70
    32
  0
VERTEX
  8
AM_HID
  5
57B
 10
2.87245
 20
5.70263
 30
0.000000
  70
    32
  0
VERTEX
  8
AM_HID
  5
57C
 10
2.87254
 20
5.70381
 30
0.000000
  70
    32
  0
VERTEX
  8
AM_HID
  5
57D
 10
2.87263
 20
5.70499
 30
0.000000
  70
    32
  0
VERTEX
  8
AM_HID
  5
57E
 10
2.87272
 20
5.70617
 30
0.000000
  70
    32
  0
VERTEX
  8
AM_HID
  5
57F
 10
2.87281
 20
5.70735
 30
0.000000
  70
    32
  0
VERTEX
  8
AM_HID
  5
580
 10
2.87290
 20
5.70853
 30
0.000000
  70
    32
  0
VERTEX
  8
AM_HID
  5
581
 10
2.87300
 20
5.70971
 30
0.000000
  70
    32
  0
VERTEX
  8
AM_HID
  5
582
 10
2.87309
 20
5.71089
 30
0.000000
  70
    32
  0
VERTEX
  8
AM_HID
  5
583
 10
2.87319
 20
5.71206
 30
0.000000
  70
    32
  0
VERTEX
  8
AM_HID
  5
584
 10
2.87329
 20
5.71324
 30
0.000000
  70
    32
  0
VERTEX
  8
AM_HID
  5
585
 10
2.87339
 20
5.71441
 30
0.000000
  70
    32
  0
VERTEX
  8
AM_HID
  5
586
 10
2.87349
 20
5.71558
 30
0.000000
  70
    32
  0
VERTEX
  8
AM_HID
  5
587
 10
2.87359
 20
5.71675
 30
0.000000
  70
    32
  0
VERTEX
  8
AM_HID
  5
588
 10
2.87369
 20
5.71792
 30
0.000000
  70
    32
  0
VERTEX
  8
AM_HID
  5
589
 10
2.87380
 20
5.71909
 30
0.000000
  70
    32
  0
VERTEX
  8
AM_HID
  5
58A
 10
2.87390
 20
5.72026
 30
0.000000
  70
    32
  0
VERTEX
  8
AM_HID
  5
58B
 10
2.87401
 20
5.72143
 30
0.000000
  70
    32
  0
VERTEX
  8
AM_HID
  5
58C
 10
2.87411
 20
5.72260
 30
0.000000
  70
    32
  0
VERTEX
  8
AM_HID
  5
58D
 10
2.87422
 20
5.72377
 30
0.000000
  70
    32
  0
VERTEX
  8
AM_HID
  5
58E
 10
2.87433
 20
5.72493
 30
0.000000
  70
    32
  0
VERTEX
  8
AM_HID
  5
58F
 10
2.87444
 20
5.72610
 30
0.000000
  70
    32
  0
VERTEX
  8
AM_HID
  5
590
 10
2.87455
 20
5.72726
 30
0.000000
  70
    32
  0
VERTEX
  8
AM_HID
  5
591
 10
2.87467
 20
5.72843
 30
0.000000
  70
    32
  0
VERTEX
  8
AM_HID
  5
592
 10
2.87478
 20
5.72959
 30
0.000000
  70
    32
  0
VERTEX
  8
AM_HID
  5
593
 10
2.87489
 20
5.73075
 30
0.000000
  70
    32
  0
VERTEX
  8
AM_HID
  5
594
 10
2.87501
 20
5.73191
 30
0.000000
  70
    32
  0
VERTEX
  8
AM_HID
  5
595
 10
2.87513
 20
5.73307
 30
0.000000
  70
    32
  0
VERTEX
  8
AM_HID
  5
596
 10
2.87525
 20
5.73424
 30
0.000000
  70
    32
  0
VERTEX
  8
AM_HID
  5
597
 10
2.87536
 20
5.73540
 30
0.000000
  70
    32
  0
VERTEX
  8
AM_HID
  5
598
 10
2.87548
 20
5.73655
 30
0.000000
  70
    32
  0
VERTEX
  8
AM_HID
  5
599
 10
2.87560
 20
5.73771
 30
0.000000
  70
    32
  0
VERTEX
  8
AM_HID
  5
59A
 10
2.87573
 20
5.73887
 30
0.000000
  70
    32
  0
VERTEX
  8
AM_HID
  5
59B
 10
2.87585
 20
5.74003
 30
0.000000
  70
    32
  0
VERTEX
  8
AM_HID
  5
59C
 10
2.87597
 20
5.74119
 30
0.000000
  70
    32
  0
VERTEX
  8
AM_HID
  5
59D
 10
2.87610
 20
5.74234
 30
0.000000
  70
    32
  0
VERTEX
  8
AM_HID
  5
59E
 10
2.87622
 20
5.74350
 30
0.000000
  70
    32
  0
VERTEX
  8
AM_HID
  5
59F
 10
2.87635
 20
5.74466
 30
0.000000
  70
    32
  0
VERTEX
  8
AM_HID
  5
5A0
 10
2.87648
 20
5.74581
 30
0.000000
  70
    32
  0
VERTEX
  8
AM_HID
  5
5A1
 10
2.87660
 20
5.74697
 30
0.000000
  70
    32
  0
VERTEX
  8
AM_HID
  5
5A2
 10
2.87673
 20
5.74812
 30
0.000000
  70
    32
  0
VERTEX
  8
AM_HID
  5
5A3
 10
2.87686
 20
5.74927
 30
0.000000
  70
    32
  0
VERTEX
  8
AM_HID
  5
5A4
 10
2.87699
 20
5.75043
 30
0.000000
  70
    32
  0
VERTEX
  8
AM_HID
  5
5A5
 10
2.87713
 20
5.75158
 30
0.000000
  70
    32
  0
VERTEX
  8
AM_HID
  5
5A6
 10
2.87726
 20
5.75274
 30
0.000000
  70
    32
  0
VERTEX
  8
AM_HID
  5
5A7
 10
2.87739
 20
5.75389
 30
0.000000
  70
    32
  0
VERTEX
  8
AM_HID
  5
5A8
 10
2.87753
 20
5.75504
 30
0.000000
  70
    32
  0
VERTEX
  8
AM_HID
  5
5A9
 10
2.87766
 20
5.75619
 30
0.000000
  70
    32
  0
VERTEX
  8
AM_HID
  5
5AA
 10
2.87780
 20
5.75735
 30
0.000000
  70
    32
  0
VERTEX
  8
AM_HID
  5
5AB
 10
2.87794
 20
5.75850
 30
0.000000
  70
    32
  0
VERTEX
  8
AM_HID
  5
5AC
 10
2.87807
 20
5.75965
 30
0.000000
  70
    32
  0
VERTEX
  8
AM_HID
  5
5AD
 10
2.87821
 20
5.76080
 30
0.000000
  70
    32
  0
VERTEX
  8
AM_HID
  5
5AE
 10
2.87835
 20
5.76195
 30
0.000000
  70
    32
  0
VERTEX
  8
AM_HID
  5
5AF
 10
2.87849
 20
5.76310
 30
0.000000
  70
    32
  0
VERTEX
  8
AM_HID
  5
5B0
 10
2.87863
 20
5.76425
 30
0.000000
  70
    32
  0
VERTEX
  8
AM_HID
  5
5B1
 10
2.87877
 20
5.76540
 30
0.000000
  70
    32
  0
VERTEX
  8
AM_HID
  5
5B2
 10
2.87891
 20
5.76655
 30
0.000000
  70
    32
  0
VERTEX
  8
AM_HID
  5
5B3
 10
2.87906
 20
5.76770
 30
0.000000
  70
    32
  0
VERTEX
  8
AM_HID
  5
5B4
 10
2.87920
 20
5.76886
 30
0.000000
  70
    32
  0
VERTEX
  8
AM_HID
  5
5B5
 10
2.87935
 20
5.77001
 30
0.000000
  70
    32
  0
VERTEX
  8
AM_HID
  5
5B6
 10
2.87949
 20
5.77116
 30
0.000000
  70
    32
  0
VERTEX
  8
AM_HID
  5
5B7
 10
2.87964
 20
5.77231
 30
0.000000
  70
    32
  0
VERTEX
  8
AM_HID
  5
5B8
 10
2.87978
 20
5.77346
 30
0.000000
  70
    32
  0
VERTEX
  8
AM_HID
  5
5B9
 10
2.87993
 20
5.77461
 30
0.000000
  70
    32
  0
VERTEX
  8
AM_HID
  5
5BA
 10
2.88008
 20
5.77576
 30
0.000000
  70
    32
  0
VERTEX
  8
AM_HID
  5
5BB
 10
2.88023
 20
5.77691
 30
0.000000
  70
    32
  0
VERTEX
  8
AM_HID
  5
5BC
 10
2.88037
 20
5.77806
 30
0.000000
  70
    32
  0
VERTEX
  8
AM_HID
  5
5BD
 10
2.88052
 20
5.77921
 30
0.000000
  70
    32
  0
VERTEX
  8
AM_HID
  5
5BE
 10
2.88067
 20
5.78036
 30
0.000000
  70
    32
  0
VERTEX
  8
AM_HID
  5
5BF
 10
2.88083
 20
5.78151
 30
0.000000
  70
    32
  0
VERTEX
  8
AM_HID
  5
5C0
 10
2.88098
 20
5.78266
 30
0.000000
  70
    32
  0
VERTEX
  8
AM_HID
  5
5C1
 10
2.88113
 20
5.78381
 30
0.000000
  70
    32
  0
SEQEND
  8
AM_HID
  5
5C2
  0
ARC
  5
51
  8
AM_VIS
 10
2.7845178915744588
 20
6.2891250705424184
 30
0.0
 40
0.2500000000004951
 50
270.0
 51
316.57464777186448
  0
LINE
  5
52
  8
AM_VIS
 10
2.6836811187707732
 20
5.8889347103027161
 30
0.0
 11
2.6836811187707732
 21
5.6328750705409556
 31
0.0
  0
POLYLINE
  8
AM_HID
  5
5C3
  66
     1
 10
0.000000
 20
0.000000
 30
0.000000
  70
     8
  0
VERTEX
  8
AM_HID
  5
5C4
 10
2.86980
 20
5.63288
 30
0.000000
  70
    32
  0
VERTEX
  8
AM_HID
  5
5C5
 10
2.86980
 20
5.63160
 30
0.000000
  70
    32
  0
VERTEX
  8
AM_HID
  5
5C6
 10
2.86980
 20
5.63033
 30
0.000000
  70
    32
  0
VERTEX
  8
AM_HID
  5
5C7
 10
2.86981
 20
5.62906
 30
0.000000
  70
    32
  0
VERTEX
  8
AM_HID
  5
5C8
 10
2.86981
 20
5.62779
 30
0.000000
  70
    32
  0
VERTEX
  8
AM_HID
  5
5C9
 10
2.86982
 20
5.62653
 30
0.000000
  70
    32
  0
VERTEX
  8
AM_HID
  5
5CA
 10
2.86983
 20
5.62527
 30
0.000000
  70
    32
  0
VERTEX
  8
AM_HID
  5
5CB
 10
2.86984
 20
5.62401
 30
0.000000
  70
    32
  0
VERTEX
  8
AM_HID
  5
5CC
 10
2.86986
 20
5.62275
 30
0.000000
  70
    32
  0
VERTEX
  8
AM_HID
  5
5CD
 10
2.86987
 20
5.62149
 30
0.000000
  70
    32
  0
VERTEX
  8
AM_HID
  5
5CE
 10
2.86989
 20
5.62023
 30
0.000000
  70
    32
  0
VERTEX
  8
AM_HID
  5
5CF
 10
2.86991
 20
5.61898
 30
0.000000
  70
    32
  0
VERTEX
  8
AM_HID
  5
5D0
 10
2.86993
 20
5.61773
 30
0.000000
  70
    32
  0
VERTEX
  8
AM_HID
  5
5D1
 10
2.86995
 20
5.61648
 30
0.000000
  70
    32
  0
VERTEX
  8
AM_HID
  5
5D2
 10
2.86997
 20
5.61523
 30
0.000000
  70
    32
  0
VERTEX
  8
AM_HID
  5
5D3
 10
2.87000
 20
5.61399
 30
0.000000
  70
    32
  0
VERTEX
  8
AM_HID
  5
5D4
 10
2.87002
 20
5.61274
 30
0.000000
  70
    32
  0
VERTEX
  8
AM_HID
  5
5D5
 10
2.87005
 20
5.61150
 30
0.000000
  70
    32
  0
VERTEX
  8
AM_HID
  5
5D6
 10
2.87008
 20
5.61026
 30
0.000000
  70
    32
  0
VERTEX
  8
AM_HID
  5
5D7
 10
2.87012
 20
5.60902
 30
0.000000
  70
    32
  0
VERTEX
  8
AM_HID
  5
5D8
 10
2.87015
 20
5.60779
 30
0.000000
  70
    32
  0
VERTEX
  8
AM_HID
  5
5D9
 10
2.87018
 20
5.60655
 30
0.000000
  70
    32
  0
VERTEX
  8
AM_HID
  5
5DA
 10
2.87022
 20
5.60532
 30
0.000000
  70
    32
  0
VERTEX
  8
AM_HID
  5
5DB
 10
2.87026
 20
5.60409
 30
0.000000
  70
    32
  0
VERTEX
  8
AM_HID
  5
5DC
 10
2.87030
 20
5.60286
 30
0.000000
  70
    32
  0
VERTEX
  8
AM_HID
  5
5DD
 10
2.87034
 20
5.60163
 30
0.000000
  70
    32
  0
VERTEX
  8
AM_HID
  5
5DE
 10
2.87038
 20
5.60041
 30
0.000000
  70
    32
  0
VERTEX
  8
AM_HID
  5
5DF
 10
2.87043
 20
5.59918
 30
0.000000
  70
    32
  0
VERTEX
  8
AM_HID
  5
5E0
 10
2.87048
 20
5.59796
 30
0.000000
  70
    32
  0
VERTEX
  8
AM_HID
  5
5E1
 10
2.87052
 20
5.59674
 30
0.000000
  70
    32
  0
VERTEX
  8
AM_HID
  5
5E2
 10
2.87057
 20
5.59552
 30
0.000000
  70
    32
  0
VERTEX
  8
AM_HID
  5
5E3
 10
2.87062
 20
5.59430
 30
0.000000
  70
    32
  0
VERTEX
  8
AM_HID
  5
5E4
 10
2.87068
 20
5.59308
 30
0.000000
  70
    32
  0
VERTEX
  8
AM_HID
  5
5E5
 10
2.87073
 20
5.59187
 30
0.000000
  70
    32
  0
VERTEX
  8
AM_HID
  5
5E6
 10
2.87078
 20
5.59065
 30
0.000000
  70
    32
  0
VERTEX
  8
AM_HID
  5
5E7
 10
2.87084
 20
5.58944
 30
0.000000
  70
    32
  0
VERTEX
  8
AM_HID
  5
5E8
 10
2.87090
 20
5.58823
 30
0.000000
  70
    32
  0
VERTEX
  8
AM_HID
  5
5E9
 10
2.87096
 20
5.58702
 30
0.000000
  70
    32
  0
VERTEX
  8
AM_HID
  5
5EA
 10
2.87102
 20
5.58581
 30
0.000000
  70
    32
  0
VERTEX
  8
AM_HID
  5
5EB
 10
2.87108
 20
5.58461
 30
0.000000
  70
    32
  0
VERTEX
  8
AM_HID
  5
5EC
 10
2.87115
 20
5.58340
 30
0.000000
  70
    32
  0
VERTEX
  8
AM_HID
  5
5ED
 10
2.87121
 20
5.58220
 30
0.000000
  70
    32
  0
VERTEX
  8
AM_HID
  5
5EE
 10
2.87128
 20
5.58100
 30
0.000000
  70
    32
  0
VERTEX
  8
AM_HID
  5
5EF
 10
2.87135
 20
5.57980
 30
0.000000
  70
    32
  0
VERTEX
  8
AM_HID
  5
5F0
 10
2.87142
 20
5.57860
 30
0.000000
  70
    32
  0
VERTEX
  8
AM_HID
  5
5F1
 10
2.87149
 20
5.57740
 30
0.000000
  70
    32
  0
VERTEX
  8
AM_HID
  5
5F2
 10
2.87156
 20
5.57620
 30
0.000000
  70
    32
  0
VERTEX
  8
AM_HID
  5
5F3
 10
2.87164
 20
5.57501
 30
0.000000
  70
    32
  0
VERTEX
  8
AM_HID
  5
5F4
 10
2.87171
 20
5.57381
 30
0.000000
  70
    32
  0
VERTEX
  8
AM_HID
  5
5F5
 10
2.87179
 20
5.57262
 30
0.000000
  70
    32
  0
VERTEX
  8
AM_HID
  5
5F6
 10
2.87187
 20
5.57143
 30
0.000000
  70
    32
  0
VERTEX
  8
AM_HID
  5
5F7
 10
2.87195
 20
5.57024
 30
0.000000
  70
    32
  0
VERTEX
  8
AM_HID
  5
5F8
 10
2.87203
 20
5.56905
 30
0.000000
  70
    32
  0
VERTEX
  8
AM_HID
  5
5F9
 10
2.87211
 20
5.56786
 30
0.000000
  70
    32
  0
VERTEX
  8
AM_HID
  5
5FA
 10
2.87219
 20
5.56667
 30
0.000000
  70
    32
  0
VERTEX
  8
AM_HID
  5
5FB
 10
2.87228
 20
5.56549
 30
0.000000
  70
    32
  0
VERTEX
  8
AM_HID
  5
5FC
 10
2.87236
 20
5.56430
 30
0.000000
  70
    32
  0
VERTEX
  8
AM_HID
  5
5FD
 10
2.87245
 20
5.56312
 30
0.000000
  70
    32
  0
VERTEX
  8
AM_HID
  5
5FE
 10
2.87254
 20
5.56194
 30
0.000000
  70
    32
  0
VERTEX
  8
AM_HID
  5
5FF
 10
2.87263
 20
5.56076
 30
0.000000
  70
    32
  0
VERTEX
  8
AM_HID
  5
600
 10
2.87272
 20
5.55958
 30
0.000000
  70
    32
  0
VERTEX
  8
AM_HID
  5
601
 10
2.87281
 20
5.55840
 30
0.000000
  70
    32
  0
VERTEX
  8
AM_HID
  5
602
 10
2.87290
 20
5.55722
 30
0.000000
  70
    32
  0
VERTEX
  8
AM_HID
  5
603
 10
2.87300
 20
5.55604
 30
0.000000
  70
    32
  0
VERTEX
  8
AM_HID
  5
604
 10
2.87309
 20
5.55486
 30
0.000000
  70
    32
  0
VERTEX
  8
AM_HID
  5
605
 10
2.87319
 20
5.55369
 30
0.000000
  70
    32
  0
VERTEX
  8
AM_HID
  5
606
 10
2.87329
 20
5.55251
 30
0.000000
  70
    32
  0
VERTEX
  8
AM_HID
  5
607
 10
2.87339
 20
5.55134
 30
0.000000
  70
    32
  0
VERTEX
  8
AM_HID
  5
608
 10
2.87349
 20
5.55017
 30
0.000000
  70
    32
  0
VERTEX
  8
AM_HID
  5
609
 10
2.87359
 20
5.54900
 30
0.000000
  70
    32
  0
VERTEX
  8
AM_HID
  5
60A
 10
2.87369
 20
5.54783
 30
0.000000
  70
    32
  0
VERTEX
  8
AM_HID
  5
60B
 10
2.87380
 20
5.54666
 30
0.000000
  70
    32
  0
VERTEX
  8
AM_HID
  5
60C
 10
2.87390
 20
5.54549
 30
0.000000
  70
    32
  0
VERTEX
  8
AM_HID
  5
60D
 10
2.87401
 20
5.54432
 30
0.000000
  70
    32
  0
VERTEX
  8
AM_HID
  5
60E
 10
2.87411
 20
5.54315
 30
0.000000
  70
    32
  0
VERTEX
  8
AM_HID
  5
60F
 10
2.87422
 20
5.54198
 30
0.000000
  70
    32
  0
VERTEX
  8
AM_HID
  5
610
 10
2.87433
 20
5.54082
 30
0.000000
  70
    32
  0
VERTEX
  8
AM_HID
  5
611
 10
2.87444
 20
5.53965
 30
0.000000
  70
    32
  0
VERTEX
  8
AM_HID
  5
612
 10
2.87455
 20
5.53849
 30
0.000000
  70
    32
  0
VERTEX
  8
AM_HID
  5
613
 10
2.87467
 20
5.53732
 30
0.000000
  70
    32
  0
VERTEX
  8
AM_HID
  5
614
 10
2.87478
 20
5.53616
 30
0.000000
  70
    32
  0
VERTEX
  8
AM_HID
  5
615
 10
2.87489
 20
5.53500
 30
0.000000
  70
    32
  0
VERTEX
  8
AM_HID
  5
616
 10
2.87501
 20
5.53384
 30
0.000000
  70
    32
  0
VERTEX
  8
AM_HID
  5
617
 10
2.87513
 20
5.53268
 30
0.000000
  70
    32
  0
VERTEX
  8
AM_HID
  5
618
 10
2.87525
 20
5.53151
 30
0.000000
  70
    32
  0
VERTEX
  8
AM_HID
  5
619
 10
2.87536
 20
5.53035
 30
0.000000
  70
    32
  0
VERTEX
  8
AM_HID
  5
61A
 10
2.87548
 20
5.52920
 30
0.000000
  70
    32
  0
VERTEX
  8
AM_HID
  5
61B
 10
2.87560
 20
5.52804
 30
0.000000
  70
    32
  0
VERTEX
  8
AM_HID
  5
61C
 10
2.87573
 20
5.52688
 30
0.000000
  70
    32
  0
VERTEX
  8
AM_HID
  5
61D
 10
2.87585
 20
5.52572
 30
0.000000
  70
    32
  0
VERTEX
  8
AM_HID
  5
61E
 10
2.87597
 20
5.52456
 30
0.000000
  70
    32
  0
VERTEX
  8
AM_HID
  5
61F
 10
2.87610
 20
5.52341
 30
0.000000
  70
    32
  0
VERTEX
  8
AM_HID
  5
620
 10
2.87622
 20
5.52225
 30
0.000000
  70
    32
  0
VERTEX
  8
AM_HID
  5
621
 10
2.87635
 20
5.52109
 30
0.000000
  70
    32
  0
VERTEX
  8
AM_HID
  5
622
 10
2.87648
 20
5.51994
 30
0.000000
  70
    32
  0
VERTEX
  8
AM_HID
  5
623
 10
2.87660
 20
5.51878
 30
0.000000
  70
    32
  0
VERTEX
  8
AM_HID
  5
624
 10
2.87673
 20
5.51763
 30
0.000000
  70
    32
  0
VERTEX
  8
AM_HID
  5
625
 10
2.87686
 20
5.51648
 30
0.000000
  70
    32
  0
VERTEX
  8
AM_HID
  5
626
 10
2.87699
 20
5.51532
 30
0.000000
  70
    32
  0
VERTEX
  8
AM_HID
  5
627
 10
2.87713
 20
5.51417
 30
0.000000
  70
    32
  0
VERTEX
  8
AM_HID
  5
628
 10
2.87726
 20
5.51301
 30
0.000000
  70
    32
  0
VERTEX
  8
AM_HID
  5
629
 10
2.87739
 20
5.51186
 30
0.000000
  70
    32
  0
VERTEX
  8
AM_HID
  5
62A
 10
2.87753
 20
5.51071
 30
0.000000
  70
    32
  0
VERTEX
  8
AM_HID
  5
62B
 10
2.87766
 20
5.50956
 30
0.000000
  70
    32
  0
VERTEX
  8
AM_HID
  5
62C
 10
2.87780
 20
5.50841
 30
0.000000
  70
    32
  0
VERTEX
  8
AM_HID
  5
62D
 10
2.87794
 20
5.50725
 30
0.000000
  70
    32
  0
VERTEX
  8
AM_HID
  5
62E
 10
2.87807
 20
5.50610
 30
0.000000
  70
    32
  0
VERTEX
  8
AM_HID
  5
62F
 10
2.87821
 20
5.50495
 30
0.000000
  70
    32
  0
VERTEX
  8
AM_HID
  5
630
 10
2.87835
 20
5.50380
 30
0.000000
  70
    32
  0
VERTEX
  8
AM_HID
  5
631
 10
2.87849
 20
5.50265
 30
0.000000
  70
    32
  0
VERTEX
  8
AM_HID
  5
632
 10
2.87863
 20
5.50150
 30
0.000000
  70
    32
  0
VERTEX
  8
AM_HID
  5
633
 10
2.87877
 20
5.50035
 30
0.000000
  70
    32
  0
VERTEX
  8
AM_HID
  5
634
 10
2.87891
 20
5.49920
 30
0.000000
  70
    32
  0
VERTEX
  8
AM_HID
  5
635
 10
2.87906
 20
5.49805
 30
0.000000
  70
    32
  0
VERTEX
  8
AM_HID
  5
636
 10
2.87920
 20
5.49689
 30
0.000000
  70
    32
  0
VERTEX
  8
AM_HID
  5
637
 10
2.87935
 20
5.49574
 30
0.000000
  70
    32
  0
VERTEX
  8
AM_HID
  5
638
 10
2.87949
 20
5.49459
 30
0.000000
  70
    32
  0
VERTEX
  8
AM_HID
  5
639
 10
2.87964
 20
5.49344
 30
0.000000
  70
    32
  0
VERTEX
  8
AM_HID
  5
63A
 10
2.87978
 20
5.49229
 30
0.000000
  70
    32
  0
VERTEX
  8
AM_HID
  5
63B
 10
2.87993
 20
5.49114
 30
0.000000
  70
    32
  0
VERTEX
  8
AM_HID
  5
63C
 10
2.88008
 20
5.48999
 30
0.000000
  70
    32
  0
VERTEX
  8
AM_HID
  5
63D
 10
2.88023
 20
5.48884
 30
0.000000
  70
    32
  0
VERTEX
  8
AM_HID
  5
63E
 10
2.88037
 20
5.48769
 30
0.000000
  70
    32
  0
VERTEX
  8
AM_HID
  5
63F
 10
2.88052
 20
5.48654
 30
0.000000
  70
    32
  0
VERTEX
  8
AM_HID
  5
640
 10
2.88067
 20
5.48539
 30
0.000000
  70
    32
  0
VERTEX
  8
AM_HID
  5
641
 10
2.88083
 20
5.48424
 30
0.000000
  70
    32
  0
VERTEX
  8
AM_HID
  5
642
 10
2.88098
 20
5.48309
 30
0.000000
  70
    32
  0
VERTEX
  8
AM_HID
  5
643
 10
2.88113
 20
5.48194
 30
0.000000
  70
    32
  0
SEQEND
  8
AM_HID
  5
644
  0
ARC
  5
54
  8
AM_VIS
 10
2.7845178915744588
 20
4.9766250705414343
 30
0.0
 40
0.2500000000004954
 50
43.42535222813585
 51
90.0
  0
LINE
  5
55
  8
AM_VIS
 10
2.6836811187707732
 20
5.6328750705428963
 30
0.0
 11
2.6836811187707732
 21
5.3768154307811358
 31
0.0
  0
LINE
  5
56
  8
AM_HID
 10
5.1484277613244398
 20
4.3203750705419237
 30
0.0
 11
5.1484277613244398
 21
4.5511443013111563
 31
0.0
  0
LINE
  5
57
  8
AM_HID
 10
7.09842776132444
 20
4.3203750705419246
 30
0.0
 11
7.09842776132444
 21
4.5511443013111563
 31
0.0
  0
LINE
  5
58
  8
AM_VIS
 10
7.4359277613244403
 20
4.3203750705419246
 30
0.0
 11
7.4359277613244412
 21
4.5511443013111563
 31
0.0
  0
LINE
  5
59
  8
AM_HID
 10
2.9111728829262451
 20
5.3203750705419219
 30
0.0
 11
2.6836811187710699
 21
5.3203750705419219
 31
0.0
  0
LINE
  5
5A
  8
AM_HID
 10
2.9111728829262442
 20
5.9453750705419219
 30
0.0
 11
2.6836811187710712
 21
5.9453750705419219
 31
0.0
  0
LINE
  5
5B
  8
AM_VIS
 10
2.7845178915745961
 20
6.0391250705419264
 30
0.0
 11
2.6836811187710712
 21
6.0391250705419264
 31
0.0
  0
LINE
  5
5C
  8
AM_VIS
 10
2.6836811187710712
 20
5.2266250705419264
 30
0.0
 11
2.7845178915745961
 21
5.2266250705419264
 31
0.0
  0
LINE
  5
5D
  8
AM_HID
 10
5.1484277613244407
 20
6.7146058397726929
 30
0.0
 11
5.1484277613244407
 21
6.9453750705419237
 31
0.0
  0
LINE
  5
5E
  8
AM_HID
 10
7.0984277613244409
 20
6.7146058397726938
 30
0.0
 11
7.0984277613244418
 21
6.9453750705419246
 31
0.0
  0
LINE
  5
5F
  8
AM_VIS
 10
7.4359277613244412
 20
6.7146058397726938
 30
0.0
 11
7.4359277613244412
 21
6.9453750705419246
 31
0.0
  0
LINE
  5
60
  8
AM_VIS
 10
6.1234277613244412
 20
6.7146058397726938
 30
0.0
 11
7.4359277613244412
 21
6.7146058397726938
 31
0.0
  0
LINE
  5
61
  8
AM_VIS
 10
6.1234277613244412
 20
4.5511443013111563
 30
0.0
 11
7.4359277613244412
 21
4.5511443013111563
 31
0.0
  0
LINE
  5
62
  8
AM_VIS
 10
6.1234277613244403
 20
4.3203750705419246
 30
0.0
 11
7.4359277613244403
 21
4.3203750705419246
 31
0.0
  0
LINE
  5
63
  8
AM_VIS
 10
2.6836811187710712
 20
5.8889347103027161
 30
0.0
 11
2.6836811187710712
 21
6.0391250705419264
 31
0.0
  0
LINE
  5
64
  8
AM_VIS
 10
2.6836811187710712
 20
5.3768154307811358
 30
0.0
 11
2.6836811187710712
 21
5.2266250705419273
 31
0.0
  0
LINE
  5
65
  8
AM_VIS
 10
6.1234277613244412
 20
6.9453750705419246
 30
0.0
 11
7.4359277613244412
 21
6.9453750705419246
 31
0.0
  0
INSERT
  5
17E
  8
0
  2
*U7
 10
0.0
 20
0.0
 30
0.0
  0
INSERT
  5
17F
  8
0
  2
*U8
 10
0.0
 20
0.0
 30
0.0
  0
LINE
  5
181
  8
0
 10
7.4984277613244412
 20
6.9453750705419246
 30
0.0
 11
8.8785557974937888
 21
6.9453750705419246
 31
0.0
  0
LINE
  5
182
  8
0
 10
7.4984277613244403
 20
4.3203750705419246
 30
0.0
 11
8.8785557974937888
 21
4.3203750705419246
 31
0.0
  0
LINE
  5
183
  8
0
 10
8.698555797493789
 20
6.8203750705419246
 30
0.0
 11
8.698555797493789
 21
5.9728750705419253
 31
0.0
  0
LINE
  5
184
  8
0
 10
8.698555797493789
 20
4.4453750705419246
 30
0.0
 11
8.698555797493789
 21
5.2928750705419247
 31
0.0
  0
SOLID
  5
185
  8
0
 10
8.6777224641604551
 20
6.8203750705419246
 30
0.0
 11
8.7193891308271212
 21
6.8203750705419246
 31
0.0
 12
8.698555797493789
 22
6.9453750705419246
 32
0.0
 13
8.698555797493789
 23
6.9453750705419246
 33
0.0
  0
SOLID
  5
186
  8
0
 10
8.6777224641604551
 20
4.4453750705419246
 30
0.0
 11
8.7193891308271212
 21
4.4453750705419246
 31
0.0
 12
8.698555797493789
 22
4.3203750705419246
 32
0.0
 13
8.698555797493789
 23
4.3203750705419246
 33
0.0
  0
INSERT
  5
187
  8
0
  2
*U9
 10
0.0
 20
0.0
 30
0.0
  0
ENDSEC
  0
EOF
