  0
SECTION
  2
HEADER
  9
$ACADVER
  1
AC1009
  9
$INSBASE
 10
0.0
 20
0.0
 30
0.0
  9
$EXTMIN
 10
5.2223814557566461
 20
0.9036119462909544
 30
0.0
  9
$EXTMAX
 10
12.06120868637487
 20
6.3088891694539484
 30
0.0
  9
$LIMMIN
 10
0.0
 20
0.0
  9
$LIMMAX
 10
12.0
 20
9.0
  9
$ORTHOMODE
 70
     1
  9
$REGENMODE
 70
     0
  9
$FILLMODE
 70
     1
  9
$QTEXTMODE
 70
     0
  9
$MIRRTEXT
 70
     0
  9
$DRAGMODE
 70
     2
  9
$LTSCALE
 40
1.0
  9
$OSMODE
 70
    55
  9
$ATTMODE
 70
     1
  9
$TEXTSIZE
 40
0.12
  9
$TRACEWID
 40
0.05
  9
$TEXTSTYLE
  7
ADESK1
  9
$CLAYER
  8
0
  9
$CELTYPE
  6
BYLAYER
  9
$CECOLOR
 62
   256
  9
$DIMSCALE
 40
1.0
  9
$DIMASZ
 40
0.125
  9
$DIMEXO
 40
0.0625
  9
$DIMDLI
 40
0.38
  9
$DIMRND
 40
0.0
  9
$DIMDLE
 40
0.0
  9
$DIMEXE
 40
0.18
  9
$DIMTP
 40
0.0
  9
$DIMTM
 40
0.0
  9
$DIMTXT
 40
0.09375
  9
$DIMCEN
 40
-0.125
  9
$DIMTSZ
 40
0.0
  9
$DIMTOL
 70
     0
  9
$DIMLIM
 70
     0
  9
$DIMTIH
 70
     0
  9
$DIMTOH
 70
     0
  9
$DIMSE1
 70
     0
  9
$DIMSE2
 70
     0
  9
$DIMTAD
 70
     0
  9
$DIMZIN
 70
     3
  9
$DIMBLK
  1

  9
$DIMASO
 70
     0
  9
$DIMSHO
 70
     1
  9
$DIMPOST
  1

  9
$DIMAPOST
  1

  9
$DIMALT
 70
     0
  9
$DIMALTD
 70
     2
  9
$DIMALTF
 40
25.399999999999999
  9
$DIMLFAC
 40
1.0
  9
$DIMTOFL
 70
     1
  9
$DIMTVP
 40
0.0
  9
$DIMTIX
 70
     0
  9
$DIMSOXD
 70
     0
  9
$DIMSAH
 70
     0
  9
$DIMBLK1
  1

  9
$DIMBLK2
  1

  9
$DIMSTYLE
  2
STANDARD
  9
$DIMCLRD
 70
     0
  9
$DIMCLRE
 70
     0
  9
$DIMCLRT
 70
     0
  9
$DIMTFAC
 40
1.0
  9
$DIMGAP
 40
0.09
  9
$LUNITS
 70
     4
  9
$LUPREC
 70
     4
  9
$SKETCHINC
 40
0.1
  9
$FILLETRAD
 40
0.0
  9
$AUNITS
 70
     0
  9
$AUPREC
 70
     4
  9
$MENU
  1
.
  9
$ELEVATION
 40
0.0
  9
$PELEVATION
 40
0.0
  9
$THICKNESS
 40
0.0
  9
$LIMCHECK
 70
     0
  9
$BLIPMODE
 70
     0
  9
$CHAMFERA
 40
0.5
  9
$CHAMFERB
 40
0.5
  9
$SKPOLY
 70
     0
  9
$TDCREATE
 40
2451066.3139898148
  9
$TDUPDATE
 40
2453913.576679884
  9
$TDINDWG
 40
0.1520967708
  9
$TDUSRTIMER
 40
0.1520967708
  9
$USRTIMER
 70
     1
  9
$ANGBASE
 50
0.0
  9
$ANGDIR
 70
     0
  9
$PDMODE
 70
    34
  9
$PDSIZE
 40
3.0
  9
$PLINEWID
 40
0.0
  9
$COORDS
 70
     1
  9
$SPLFRAME
 70
     0
  9
$SPLINETYPE
 70
     6
  9
$SPLINESEGS
 70
     8
  9
$ATTDIA
 70
     0
  9
$ATTREQ
 70
     1
  9
$HANDLING
 70
     1
  9
$HANDSEED
  5
2FE
  9
$SURFTAB1
 70
     6
  9
$SURFTAB2
 70
     6
  9
$SURFTYPE
 70
     6
  9
$SURFU
 70
     6
  9
$SURFV
 70
     6
  9
$UCSNAME
  2

  9
$UCSORG
 10
0.0
 20
0.0
 30
0.0
  9
$UCSXDIR
 10
1.0
 20
0.0
 30
0.0
  9
$UCSYDIR
 10
0.0
 20
1.0
 30
0.0
  9
$PUCSNAME
  2

  9
$PUCSORG
 10
0.0
 20
0.0
 30
0.0
  9
$PUCSXDIR
 10
1.0
 20
0.0
 30
0.0
  9
$PUCSYDIR
 10
0.0
 20
1.0
 30
0.0
  9
$USERI1
 70
     0
  9
$USERI2
 70
     0
  9
$USERI3
 70
     0
  9
$USERI4
 70
     0
  9
$USERI5
 70
     0
  9
$USERR1
 40
0.0
  9
$USERR2
 40
0.0
  9
$USERR3
 40
0.0
  9
$USERR4
 40
0.0
  9
$USERR5
 40
0.0
  9
$WORLDVIEW
 70
     1
  9
$SHADEDGE
 70
     3
  9
$SHADEDIF
 70
    70
  9
$TILEMODE
 70
     1
  9
$MAXACTVP
 70
    48
  9
$PLIMCHECK
 70
     0
  9
$PEXTMIN
 10
4.6804400942257347
 20
1.1797548733793439
 30
0.0
  9
$PEXTMAX
 10
12.60315004790578
 20
6.7436098502194071
 30
0.0
  9
$PLIMMIN
 10
-0.1579164520023376
 20
-0.2812499887361301
  9
$PLIMMAX
 10
10.84208330770177
 20
8.2187497709679782
  9
$UNITMODE
 70
     0
  9
$VISRETAIN
 70
     1
  9
$PLINEGEN
 70
     0
  9
$PSLTSCALE
 70
     1
  0
ENDSEC
  0
SECTION
  2
TABLES
  0
TABLE
  2
VPORT
 70
     2
  0
VPORT
  2
*ACTIVE
 70
     0
 10
0.0
 20
0.0
 11
1.0
 21
1.0
 12
1.602810439102089
 22
-0.7984890481728595
 13
0.0
 23
0.0
 14
0.5
 24
0.5
 15
0.5
 25
0.5
 16
0.0
 26
0.0
 36
1.0
 17
9.3893328670984708
 27
3.9616823617993751
 37
0.0
 40
4.694413615309144
 41
2.4581395348837201
 42
50.0
 43
0.0
 44
0.0
 50
0.0
 51
0.0
 71
     0
 72
  5000
 73
     1
 74
     1
 75
     0
 76
     0
 77
     0
 78
     0
  0
ENDTAB
  0
TABLE
  2
LTYPE
 70
    18
  0
LTYPE
  2
CONTINUOUS
 70
     0
  3
Solid line
 72
    65
 73
     0
 40
0.0
  0
LTYPE
  2
HIDDEN
 70
     0
  3
__ __ __ __ __ __ __ __ __ __ __ __ __ __ __ __
 72
    65
 73
     2
 40
0.375
 49
0.25
 49
-0.125
  0
LTYPE
  2
PHANTOM2
 70
     0
  3
Phantom (.5x) ___ _ _ ___ _ _ ___ _ _ ___ _ _
 72
    65
 73
     6
 40
1.25
 49
0.625
 49
-0.125
 49
0.125
 49
-0.125
 49
0.125
 49
-0.125
  0
LTYPE
  2
CENTER
 70
     0
  3
Center ____ _ ____ _ ____ _ ____ _ ____ _ ____
 72
    65
 73
     4
 40
2.0
 49
1.25
 49
-0.25
 49
0.25
 49
-0.25
  0
LTYPE
  2
ASULTYPE
 70
     0
  3
Solid line
 72
    65
 73
     2
 40
3.0
 49
2.5
 49
0.5
  0
LTYPE
  2
ASVLTYPE
 70
     0
  3
__ __ __ __ __ __ __ __ __ __ __ __ __ __ __ __ __ __ __ __ __
 72
    65
 73
     2
 40
0.75
 49
0.5
 49
-0.25
  0
LTYPE
  2
AM_ISO02W050
 70
     0
  3
__ __ __ __ __ __ __ __ __ __ __ __ __ __ __
 72
    65
 73
     2
 40
7.5
 49
6.0
 49
-1.5
  0
LTYPE
  2
AM_ISO08W050
 70
     0
  3
____ . ____ . ____ . ____ . ____ . ____ . ____
 72
    65
 73
     4
 40
18.0
 49
12.0
 49
-1.5
 49
3.0
 49
-1.5
  0
LTYPE
  2
AM_ISO09W050
 70
     0
  3
_____ . . _____ . . _____ . . ____ .. ____
 72
    65
 73
     6
 40
22.5
 49
12.0
 49
-1.5
 49
3.0
 49
-1.5
 49
3.0
 49
-1.5
  0
LTYPE
  2
AMCONSTR
 70
     0
  3
_______________________
 72
    65
 73
     2
 40
9999.0
 49
9999.0
 49
0.0
  0
LTYPE
  2
AM_ISO08W050X2
 70
     0
  3
__ . __ . __ . __ . __ . __
 72
    65
 73
     4
 40
9.0
 49
6.0
 49
-0.75
 49
1.5
 49
-0.75
  0
LTYPE
  2
AM_ISO02W050X2
 70
     0
  3
 _ _ _ _ _ _ _ _ _ _ _ _
 72
    65
 73
     2
 40
3.75
 49
3.0
 49
-0.75
  0
LTYPE
  2
AMZIGZAG
 70
     0
  3
/\/-/\/-/\/-/\/-/\/-/\/
 72
    65
 73
     2
 40
11.0001
 49
0.0001
 49
-11.0
  0
LTYPE
  2
CENTER2
 70
     0
  3
Center (.5x) ___ _ ___ _ ___ _ ___ _ ___ _ ___
 72
    65
 73
     4
 40
1.125
 49
0.75
 49
-0.125
 49
0.125
 49
-0.125
  0
LTYPE
  2
HIDDEN2
 70
     0
  3
Hidden (.5x) _ _ _ _ _ _ _ _ _ _ _ _ _ _ _ _ _
 72
    65
 73
     2
 40
0.1875
 49
0.125
 49
-0.0625
  0
LTYPE
  2
AMZIGZAG2
 70
     0
  3
/\/-/\/-/\/-/\/-/\/-/\/
 72
    65
 73
     2
 40
0.4401
 49
0.0001
 49
-0.4400000000000001
  0
LTYPE
  2
ACANSTGB
 70
     0
  3
__ . . __ . .
 72
    65
 73
     6
 40
0.35433070866
 49
0.15748031496
 49
-0.03937007874
 49
0.03937007874
 49
-0.03937007874
 49
0.03937007874
 49
-0.03937007874
  0
LTYPE
  2
ACANSTGL
 70
     0
  3
_ _ _ _ _
 72
    65
 73
     2
 40
0.11811023622
 49
0.07874015748
 49
-0.03937007874
  0
ENDTAB
  0
TABLE
  2
LAYER
 70
     4
  0
LAYER
  2
0
 70
     0
 62
     7
  6
CONTINUOUS
  0
LAYER
  2
AM_VIS
 70
     0
 62
     7
  6
CONTINUOUS
  0
LAYER
  2
AM_HID
 70
     0
 62
     7
  6
HIDDEN
  0
LAYER
  2
KEE10
 70
     0
 62
     7
  6
CONTINUOUS
  0
ENDTAB
  0
TABLE
  2
STYLE
 70
     6
  0
STYLE
  2
STANDARD
 70
     0
 40
0.0
 41
1.0
 50
0.0
 71
     0
 42
0.2
  3
txt
  4

  0
STYLE
  2
ADESK1
 70
     0
 40
0.0
 41
1.0
 50
0.0
 71
     0
 42
0.12
  3
romans.shx
  4

  0
STYLE
  2

 70
     1
 40
0.0
 41
1.0
 50
0.0
 71
     0
 42
0.12
  3
ltypeshp.shx
  4

  0
STYLE
  2
ACANSTS
 70
     0
 40
1.0
 41
1.0
 50
0.0
 71
     0
 42
0.12
  3
romans.shx
  4

  0
STYLE
  2
ACANSGDT
 70
     0
 40
0.0
 41
1.0
 50
0.0
 71
     0
 42
0.12
  3
amgdtans.shx
  4

  0
STYLE
  2
ACANSTSB
 70
     0
 40
1.0
 41
1.0
 50
0.0
 71
     0
 42
0.2
  3
romans.shx
  4

  0
ENDTAB
  0
TABLE
  2
VIEW
 70
     0
  0
ENDTAB
  0
TABLE
  2
UCS
 70
     0
  0
ENDTAB
  0
TABLE
  2
APPID
 70
    13
  0
APPID
  2
ACAD
 70
     0
  0
APPID
  2
GENIUS_GENDIM_13
 70
     0
  0
APPID
  2
GENIUS_GENDTOL_13
 70
     0
  0
APPID
  2
GENIUS_GE3DTOL_13
 70
     0
  0
APPID
  2
MCAD_NO_VIS
 70
     0
  0
APPID
  2
ACAD_TEMP_GRAPHIC
 70
     0
  0
APPID
  2
AD_DRAW
 70
     0
  0
APPID
  2
ACATTRIBSERVICES
 70
     0
  0
APPID
  2
ASURF_PCURVE_APPNAME
 70
     0
  0
APPID
  2
AMG_3D2D_5_0
 70
     0
  0
APPID
  2
DESIGNERASSEMBLIES
 70
     0
  0
APPID
  2
ACADM_DIM_EDIT
 70
     0
  0
APPID
  2
AMDT_DM_ADJ
 70
     0
  0
ENDTAB
  0
TABLE
  2
DIMSTYLE
 70
     7
  0
DIMSTYLE
  2
STANDARD
 70
     0
  3

  4

  5

  6

  7

 40
1.0
 41
0.18
 42
0.0625
 43
0.38
 44
0.18
 45
0.0
 46
0.0
 47
0.0
 48
0.0
140
0.18
141
0.09
142
0.0
143
25.399999999999999
144
1.0
145
0.0
146
1.0
147
0.09
 71
     0
 72
     0
 73
     1
 74
     1
 75
     0
 76
     0
 77
     0
 78
     0
170
     0
171
     2
172
     0
173
     0
174
     0
175
     0
176
     0
177
     0
178
     0
  0
DIMSTYLE
  2
AM_ANSI
 70
     0
  3

  4
mm
  5

  6

  7

 40
1.0
 41
0.1
 42
0.05
 43
0.5
 44
0.1
 45
0.0
 46
0.0
 47
0.1
 48
0.1
140
0.12
141
0.0
142
0.0
143
25.399999999999999
144
1.0
145
0.0
146
0.71
147
0.06
 71
     0
 72
     0
 73
     1
 74
     1
 75
     0
 76
     0
 77
     0
 78
     7
170
     0
171
     2
172
     0
173
     0
174
     0
175
     0
176
   256
177
   256
178
     2
  0
DIMSTYLE
  2
AM_ANSI$3
 70
     0
  3

  4
mm
  5

  6

  7

 40
1.0
 41
0.1
 42
0.05
 43
0.5
 44
0.1
 45
0.0
 46
0.0
 47
0.1
 48
0.1
140
0.12
141
0.0
142
0.0
143
25.399999999999999
144
1.0
145
0.0
146
0.71
147
0.06
 71
     0
 72
     0
 73
     1
 74
     1
 75
     0
 76
     0
 77
     0
 78
     7
170
     0
171
     2
172
     0
173
     0
174
     0
175
     0
176
   256
177
   256
178
     2
  0
DIMSTYLE
  2
AM_ANSI$4
 70
     0
  3

  4
mm
  5

  6

  7

 40
1.0
 41
0.1
 42
0.05
 43
0.5
 44
0.1
 45
0.0
 46
0.0
 47
0.1
 48
0.1
140
0.12
141
0.0
142
0.0
143
25.399999999999999
144
1.0
145
0.0
146
0.71
147
0.06
 71
     0
 72
     0
 73
     1
 74
     1
 75
     0
 76
     0
 77
     0
 78
     7
170
     0
171
     2
172
     0
173
     0
174
     0
175
     0
176
   256
177
   256
178
     2
  0
DIMSTYLE
  2
AM_ANSI$7
 70
     0
  3

  4
mm
  5

  6

  7

 40
1.0
 41
0.1
 42
0.05
 43
0.5
 44
0.1
 45
0.0
 46
0.0
 47
0.1
 48
0.1
140
0.24
141
0.0
142
0.0
143
25.399999999999999
144
1.0
145
0.0
146
0.71
147
0.06
 71
     0
 72
     0
 73
     1
 74
     1
 75
     0
 76
     0
 77
     0
 78
     7
170
     0
171
     2
172
     0
173
     0
174
     0
175
     0
176
   256
177
   256
178
     2
  0
DIMSTYLE
  2
AM_ANSI$SF
 70
     0
  3

  4
mm
  5

  6

  7

 40
1.0
 41
0.1
 42
0.05
 43
0.5
 44
0.1
 45
0.0
 46
0.0
 47
0.1
 48
0.1
140
0.12
141
0.0
142
0.0
143
25.399999999999999
144
1.0
145
0.0
146
0.71
147
0.06
 71
     0
 72
     0
 73
     1
 74
     1
 75
     1
 76
     1
 77
     0
 78
     7
170
     0
171
     2
172
     0
173
     0
174
     0
175
     0
176
   256
177
   256
178
     2
  0
DIMSTYLE
  2
AM_ANSI$SH
 70
     0
  3

  4
mm
  5

  6
GENAXEH
  7

 40
1.0
 41
0.1
 42
0.05
 43
0.5
 44
0.1
 45
0.0
 46
0.0
 47
0.1
 48
0.1
140
0.12
141
0.0
142
0.0
143
25.399999999999999
144
1.0
145
0.0
146
0.71
147
0.06
 71
     0
 72
     0
 73
     1
 74
     1
 75
     1
 76
     1
 77
     0
 78
     7
170
     0
171
     2
172
     0
173
     1
174
     0
175
     0
176
   256
177
   256
178
     2
  0
ENDTAB
  0
ENDSEC
  0
SECTION
  2
BLOCKS
  0
BLOCK
  8
0
  2
$MODEL_SPACE
 70
     0
 10
0.0
 20
0.0
 30
0.0
  3
$MODEL_SPACE
  1

  0
ENDBLK
  5
A
  8
0
  0
BLOCK
 67
     1
  8
0
  2
$PAPER_SPACE
 70
     0
 10
0.0
 20
0.0
 30
0.0
  3
$PAPER_SPACE
  1

  0
ENDBLK
  5
F
 67
     1
  8
0
  0
BLOCK
  8
0
  2
*U0
 70
     1
 10
0.0
 20
0.0
 30
0.0
  3
*U0
  1

  0
ENDBLK
  5
1E1
  8
0
  0
BLOCK
  8
0
  2
GENAXEH
 70
     0
 10
0.0
 20
0.0
 30
0.0
  3
GENAXEH
  1

  0
LINE
  5
21E
  8
0
 10
-1.0
 20
0.0
 30
0.0
 11
1.0
 21
0.0
 31
0.0
  0
ENDBLK
  5
220
  8
0
  0
BLOCK
  8
0
  2
_DOT
 70
     0
 10
0.0
 20
0.0
 30
0.0
  3
_DOT
  1

  0
POLYLINE
  5
227
  8
0
  6
BYBLOCK
 62
     0
 66
     1
 10
0.0
 20
0.0
 30
0.0
 70
     1
 40
0.5
 41
0.5
  0
VERTEX
  5
228
  8
0
  6
BYBLOCK
 62
     0
 10
-0.25
 20
0.0
 30
0.0
 42
1.0
  0
VERTEX
  5
229
  8
0
  6
BYBLOCK
 62
     0
 10
0.25
 20
0.0
 30
0.0
 42
1.0
  0
SEQEND
  5
22A
  8
0
  6
BYBLOCK
 62
     0
  0
LINE
  5
22B
  8
0
  6
BYBLOCK
 62
     0
 10
-0.5
 20
0.0
 30
0.0
 11
-1.0
 21
0.0
 31
0.0
  0
ENDBLK
  5
22D
  8
0
  0
BLOCK
  8
0
  2
2D
 70
     0
 10
0.0
 20
0.0
 30
0.0
  3
2D
  1

  0
INSERT
  5
231
  8
0
  2
*U4
 10
0.0
 20
0.0
 30
0.0
  0
INSERT
  5
232
  8
0
  2
*U5
 10
0.0
 20
0.0
 30
0.0
  0
INSERT
  5
233
  8
0
  2
*U6
 10
0.0
 20
0.0
 30
0.0
  0
ENDBLK
  5
235
  8
0
  0
BLOCK
  8
0
  2
*U4
 70
     1
 10
0.0
 20
0.0
 30
0.0
  3
*U4
  1

  0
TEXT
  5
265
  8
KEE10
 10
-0.167740653382606
 20
0.7944046258072062
 30
0.0
 40
0.140625
  1
KEE
  0
ENDBLK
  5
267
  8
0
  0
BLOCK
  8
0
  2
*U5
 70
     1
 10
0.0
 20
0.0
 30
0.0
  3
*U5
  1

  0
TEXT
  5
269
  8
KEE10
 10
-0.308365653382606
 20
0.4858688129746218
 30
0.0
 40
0.140625
  1
KLAMP
  0
ENDBLK
  5
26B
  8
0
  0
BLOCK
  8
0
  2
*U6
 70
     1
 10
0.0
 20
0.0
 30
0.0
  3
*U6
  1

  0
TEXT
  5
26D
  8
KEE10
 10
-0.202896903382606
 20
0.2018753139112972
 30
0.0
 40
0.140625
  1
10-8
  0
ENDBLK
  5
26F
  8
0
  0
BLOCK
  8
0
  2
*U7
 70
     1
 10
0.0
 20
0.0
 30
0.0
  3
*U7
  1

  0
TEXT
  5
271
  8
KEE10
 10
6.165535118294196
 20
3.1327850845353611
 30
0.0
 40
0.140625
  1
KEE
  0
ENDBLK
  5
273
  8
0
  0
BLOCK
  8
0
  2
*U8
 70
     1
 10
0.0
 20
0.0
 30
0.0
  3
*U8
  1

  0
TEXT
  5
275
  8
KEE10
 10
6.024910118294196
 20
2.8242492717027758
 30
0.0
 40
0.140625
  1
KLAMP
  0
ENDBLK
  5
277
  8
0
  0
BLOCK
  8
0
  2
*U9
 70
     1
 10
0.0
 20
0.0
 30
0.0
  3
*U9
  1

  0
TEXT
  5
279
  8
0
 10
8.275723642494329
 20
1.0523619462909539
 30
0.0
 40
0.09375
  1
6-15/16"
  7
ADESK1
  0
ENDBLK
  5
27B
  8
0
  0
ENDSEC
  0
SECTION
  2
ENTITIES
  0
CIRCLE
  5
26
  8
AM_VIS
 10
9.6317102811762538
 20
3.8793907642554468
 30
0.0
 40
0.103750141311238
  0
ARC
  5
28
  8
AM_HID
 10
8.6417950710656992
 20
2.889475554144894
 30
0.0
 40
0.9499999999999886
 50
95.206194639553445
 51
100.4123892790988
  0
ARC
  5
2B
  8
AM_HID
 10
8.6417950710656992
 20
2.889475554144894
 30
0.0
 40
0.9499999999999886
 50
100.4123892790988
 51
105.61858391864079
  0
ARC
  5
2C
  8
AM_HID
 10
8.6417950710656992
 20
2.889475554144894
 30
0.0
 40
0.9499999999999886
 50
105.61858391864079
 51
110.8247785581879
  0
ARC
  5
2D
  8
AM_HID
 10
8.6417950710656992
 20
2.889475554144894
 30
0.0
 40
0.9499999999999886
 50
110.8247785581879
 51
116.03097319773239
  0
ARC
  5
2E
  8
AM_HID
 10
8.6417950710656992
 20
2.889475554144894
 30
0.0
 40
0.9499999999999886
 50
116.03097319773239
 51
121.2371678372764
  0
ARC
  5
2F
  8
AM_HID
 10
8.6417950710656992
 20
2.889475554144894
 30
0.0
 40
0.9499999999999886
 50
121.2371678372764
 51
126.4433624768234
  0
ARC
  5
30
  8
AM_HID
 10
8.6417950710656992
 20
2.889475554144894
 30
0.0
 40
0.9499999999999886
 50
126.4433624768234
 51
131.6495571163646
  0
ARC
  5
31
  8
AM_HID
 10
8.6417950710656992
 20
2.889475554144894
 30
0.0
 40
0.9499999999999886
 50
131.6495571163646
 51
136.8557517559116
  0
ARC
  5
32
  8
AM_HID
 10
8.6417950710656992
 20
2.889475554144894
 30
0.0
 40
0.9499999999999886
 50
136.8557517559116
 51
142.061946395457
  0
ARC
  5
33
  8
AM_HID
 10
8.6417950710656992
 20
2.889475554144894
 30
0.0
 40
0.9499999999999886
 50
142.061946395457
 51
147.26814103500351
  0
ARC
  5
34
  8
AM_HID
 10
8.6417950710656992
 20
2.889475554144894
 30
0.0
 40
0.9499999999999886
 50
147.26814103500351
 51
152.47433567454851
  0
ARC
  5
35
  8
AM_HID
 10
8.6417950710656992
 20
2.889475554144894
 30
0.0
 40
0.9499999999999886
 50
152.47433567454851
 51
157.68053031409431
  0
ARC
  5
36
  8
AM_HID
 10
8.6417950710656992
 20
2.889475554144894
 30
0.0
 40
0.9499999999999886
 50
157.68053031409431
 51
162.88672495363949
  0
ARC
  5
37
  8
AM_HID
 10
8.6417950710656992
 20
2.889475554144894
 30
0.0
 40
0.9499999999999886
 50
162.88672495363949
 51
168.09291959318199
  0
ARC
  5
38
  8
AM_HID
 10
8.6417950710656992
 20
2.889475554144894
 30
0.0
 40
0.9499999999999886
 50
168.09291959318199
 51
173.2991142327287
  0
ARC
  5
39
  8
AM_HID
 10
8.6417950710656992
 20
2.889475554144894
 30
0.0
 40
0.9499999999999886
 50
173.2991142327287
 51
178.50530887227509
  0
ARC
  5
3A
  8
AM_HID
 10
8.6417950710656992
 20
2.889475554144894
 30
0.0
 40
0.9499999999999886
 50
178.50530887227509
 51
183.7115035118191
  0
ARC
  5
3B
  8
AM_HID
 10
8.6417950710656992
 20
2.889475554144894
 30
0.0
 40
0.9499999999999886
 50
183.7115035118191
 51
188.91769815136601
  0
ARC
  5
3C
  8
AM_HID
 10
8.6417950710656992
 20
2.889475554144894
 30
0.0
 40
0.9499999999999886
 50
188.91769815136601
 51
194.12389279090959
  0
ARC
  5
3D
  8
AM_HID
 10
8.6417950710656992
 20
2.889475554144894
 30
0.0
 40
0.9499999999999886
 50
194.12389279090959
 51
199.33008743045741
  0
ARC
  5
3E
  8
AM_HID
 10
8.6417950710656992
 20
2.889475554144894
 30
0.0
 40
0.9499999999999886
 50
199.33008743045741
 51
204.53628207000119
  0
ARC
  5
3F
  8
AM_HID
 10
8.6417950710656992
 20
2.889475554144894
 30
0.0
 40
0.9499999999999886
 50
204.53628207000119
 51
209.74247670955361
  0
ARC
  5
40
  8
AM_HID
 10
8.6417950710656992
 20
2.889475554144894
 30
0.0
 40
0.9499999999999886
 50
89.999999999999986
 51
95.206194639553445
  0
LINE
  5
41
  8
AM_VIS
 10
8.5555918320854403
 20
3.8355564183365232
 30
0.0
 11
8.6417950710656442
 21
3.8394755541449119
 31
0.0
  0
LINE
  5
42
  8
AM_VIS
 10
8.4700998398436127
 20
3.8238313469647092
 30
0.0
 11
8.5555918320854332
 21
3.835556418336564
 31
0.0
  0
LINE
  5
43
  8
AM_VIS
 10
8.386024472715178
 20
3.8043970813917549
 30
0.0
 11
8.470099839843618
 21
3.8238313469646901
 31
0.0
  0
LINE
  5
44
  8
AM_VIS
 10
8.3040594207672012
 20
3.7774139700937321
 30
0.0
 11
8.3860244727151834
 21
3.8043970813917372
 31
0.0
  0
LINE
  5
45
  8
AM_VIS
 10
8.2248809622527101
 20
3.743104645655364
 30
0.0
 11
8.3040594207671958
 21
3.7774139700937499
 31
0.0
  0
LINE
  5
46
  8
AM_VIS
 10
8.1491423837654224
 20
3.701752187870226
 30
0.0
 11
8.2248809622527101
 21
3.743104645655368
 31
0.0
  0
LINE
  5
47
  8
AM_VIS
 10
8.0774685900948384
 20
3.6536977881026469
 30
0.0
 11
8.1491423837654242
 21
3.7017521878702202
 31
0.0
  0
LINE
  5
48
  8
AM_VIS
 10
8.0104509482543431
 20
3.59933793418196
 30
0.0
 11
8.0774685900948331
 21
3.653697788102654
 31
0.0
  0
LINE
  5
49
  8
AM_VIS
 10
7.9486424082226099
 20
3.5391211390555091
 30
0.0
 11
8.0104509482543556
 21
3.5993379341819489
 31
0.0
  0
LINE
  5
4A
  8
AM_VIS
 10
7.8925529406576507
 20
3.4735442401929499
 30
0.0
 11
7.948642408222617
 21
3.5391211390555029
 31
0.0
  0
LINE
  5
4B
  8
AM_VIS
 10
7.8426453292242959
 20
3.4031483002733012
 30
0.0
 11
7.8925529406576391
 21
3.4735442401929588
 31
0.0
  0
LINE
  5
4C
  8
AM_VIS
 10
7.7993313522532608
 20
3.328514142978519
 30
0.0
 11
7.8426453292242897
 21
3.4031483002733038
 31
0.0
  0
LINE
  5
4D
  8
AM_VIS
 10
7.7629683852354674
 20
3.250257560726197
 30
0.0
 11
7.7993313522532954
 21
3.328514142978503
 31
0.0
  0
LINE
  5
4E
  8
AM_VIS
 10
7.7338564521837148
 20
3.169024233882225
 30
0.0
 11
7.7629683852354416
 21
3.2502575607262059
 31
0.0
  0
LINE
  5
4F
  8
AM_VIS
 10
7.7122357501913248
 20
3.0854844033730719
 30
0.0
 11
7.7338564521837307
 21
3.169024233882221
 31
0.0
  0
LINE
  5
50
  8
AM_VIS
 10
7.6982846676106069
 20
3.0003273406537678
 30
0.0
 11
7.712235750191299
 21
3.0854844033730759
 31
0.0
  0
LINE
  5
51
  8
AM_VIS
 10
7.692118312204399
 20
2.914255660658795
 30
0.0
 11
7.6982846676106371
 21
3.0003273406537661
 31
0.0
  0
LINE
  5
52
  8
AM_VIS
 10
7.6937875614132158
 20
2.8279795246580188
 30
0.0
 11
7.6921183122043724
 21
2.914255660658795
 31
0.0
  0
LINE
  5
53
  8
AM_VIS
 10
7.7032786425753548
 20
2.742210780849291
 30
0.0
 11
7.6937875614132416
 21
2.827979524658021
 31
0.0
  0
LINE
  5
54
  8
AM_VIS
 10
7.7205132465622341
 20
2.6576570910329451
 30
0.0
 11
7.7032786425753619
 21
2.7422107808492919
 31
0.0
  0
LINE
  5
55
  8
AM_VIS
 10
7.74534917389252
 20
2.5750160918267389
 30
0.0
 11
7.7205132465621951
 21
2.6576570910329331
 31
0.0
  0
LINE
  5
56
  8
AM_VIS
 10
7.7775815079933182
 20
2.4949696385976381
 30
0.0
 11
7.7453491738925297
 21
2.5750160918267428
 31
0.0
  0
LINE
  5
57
  8
AM_VIS
 10
7.8169443059283017
 20
2.4181781796006581
 30
0.0
 11
7.7775815079933368
 21
2.4949696385976479
 31
0.0
  0
LINE
  5
58
  8
AM_VIS
 10
7.624652256523631
 20
2.3529972382987689
 30
0.0
 11
7.6713281060329566
 21
2.272561979705308
 31
0.0
  0
LINE
  5
59
  8
AM_VIS
 10
7.584628555662789
 20
2.4369410833490401
 30
0.0
 11
7.6246522565236337
 21
2.3529972382987698
 31
0.0
  0
LINE
  5
5A
  8
AM_VIS
 10
7.5515187598171556
 20
2.5238445192505301
 30
0.0
 11
7.5846285556627686
 21
2.436941083349033
 31
0.0
  0
LINE
  5
5B
  8
AM_VIS
 10
7.5255394081792701
 20
2.6131391945727378
 30
0.0
 11
7.55151875981716
 21
2.523844519250531
 31
0.0
  0
LINE
  5
5C
  8
AM_VIS
 10
7.506860406593602
 20
2.7042411190978441
 30
0.0
 11
7.5255394081792639
 21
2.6131391945727369
 31
0.0
  0
LINE
  5
5D
  8
AM_VIS
 10
7.4956039163666901
 20
2.7965544831368438
 30
0.0
 11
7.5068604065936064
 21
2.7042411190978441
 31
0.0
  0
LINE
  5
5E
  8
AM_VIS
 10
7.4918435553278746
 20
2.889475554144894
 30
0.0
 11
7.4956039163666892
 21
2.7965544831368438
 31
0.0
  0
LINE
  5
5F
  8
AM_VIS
 10
7.4957712227719071
 20
2.9844377976394858
 30
0.0
 11
7.4918435553279021
 21
2.8894755541448931
 31
0.0
  0
LINE
  5
60
  8
AM_VIS
 10
7.5075273951526347
 20
3.0787513527204728
 30
0.0
 11
7.4957712227719107
 21
2.9844377976394858
 31
0.0
  0
LINE
  5
61
  8
AM_VIS
 10
7.5270317658921613
 20
3.1717719621740912
 30
0.0
 11
7.5075273951526347
 21
3.0787513527204728
 31
0.0
  0
LINE
  5
62
  8
AM_VIS
 10
7.5541511003610822
 20
3.2628642009161122
 30
0.0
 11
7.5270317658921249
 21
3.171771962174101
 31
0.0
  0
LINE
  5
63
  8
AM_VIS
 10
7.5887001460064312
 20
3.3514058165895331
 30
0.0
 11
7.5541511003610866
 21
3.26286420091611
 31
0.0
  0
LINE
  5
64
  8
AM_VIS
 10
7.6304428978141337
 20
3.4367919801793501
 30
0.0
 11
7.5887001460064312
 21
3.3514058165895331
 31
0.0
  0
LINE
  5
65
  8
AM_VIS
 10
7.679094210462778
 20
3.518439417607794
 30
0.0
 11
7.6304428978141337
 21
3.4367919801793501
 31
0.0
  0
LINE
  5
66
  8
AM_VIS
 10
7.7343217461551603
 20
3.5957903940878282
 30
0.0
 11
7.6790942104627709
 21
3.5184394176077989
 31
0.0
  0
LINE
  5
67
  8
AM_VIS
 10
7.7957482448225051
 20
3.6683165240172002
 30
0.0
 11
7.7343217461551701
 21
3.5957903940878189
 31
0.0
  0
LINE
  5
68
  8
AM_VIS
 10
7.8629541011933384
 20
3.7355223803879758
 30
0.0
 11
7.795748244822537
 21
3.6683165240171678
 31
0.0
  0
LINE
  5
69
  8
AM_VIS
 10
7.9354802311227104
 20
3.7969488790553778
 30
0.0
 11
7.8629541011933117
 21
3.7355223803880069
 31
0.0
  0
LINE
  5
6A
  8
AM_VIS
 10
8.0128312076027441
 20
3.8521764147477588
 30
0.0
 11
7.9354802311227219
 21
3.79694887905536
 31
0.0
  0
LINE
  5
6B
  8
AM_VIS
 10
8.0944786450311881
 20
3.900827727396404
 30
0.0
 11
8.0128312076027406
 21
3.8521764147477651
 31
0.0
  0
LINE
  5
6C
  8
AM_VIS
 10
8.1798648086210051
 20
3.942570479204107
 30
0.0
 11
8.0944786450311934
 21
3.9008277273963921
 31
0.0
  0
LINE
  5
6D
  8
AM_VIS
 10
8.2684064242944242
 20
3.977119524849456
 30
0.0
 11
8.1798648086210104
 21
3.9425704792040941
 31
0.0
  0
LINE
  5
6E
  8
AM_VIS
 10
8.3594986630363906
 20
4.0042388593184901
 30
0.0
 11
8.2684064242944082
 21
3.977119524849515
 31
0.0
  0
LINE
  5
6F
  8
AM_VIS
 10
8.452519272490008
 20
4.023743230057959
 30
0.0
 11
8.3594986630364012
 21
4.004238859318443
 31
0.0
  0
LINE
  5
70
  8
AM_VIS
 10
8.5468328275710501
 20
4.0354994024386883
 30
0.0
 11
8.4525192724900098
 21
4.0237432300579448
 31
0.0
  0
LINE
  5
71
  8
AM_VIS
 10
8.6417950710656442
 20
4.039427069882719
 30
0.0
 11
8.5468328275710501
 21
4.035499402438731
 31
0.0
  0
LINE
  5
72
  8
AM_VIS
 10
8.6635206429816094
 20
4.0392218253163596
 30
0.0
 11
8.6417950710656442
 21
4.0394270698827413
 31
0.0
  0
LINE
  5
73
  8
AM_VIS
 10
8.6852384596913321
 20
4.0386061648817408
 30
0.0
 11
8.6635206429816094
 21
4.0392218253163321
 31
0.0
  0
LINE
  5
74
  8
AM_VIS
 10
8.8869091526728425
 20
4.013000175835713
 30
0.0
 11
8.8039212326185616
 21
4.0279410109277327
 31
0.0
  0
LINE
  5
75
  8
AM_VIS
 10
8.9685791424058152
 20
3.9920183693072309
 30
0.0
 11
8.8869091526728514
 21
4.0130001758357468
 31
0.0
  0
LINE
  5
76
  8
AM_VIS
 10
9.1314220628917724
 20
3.7326559365641852
 30
0.0
 11
9.3151703272228126
 21
3.916404200895204
 31
0.0
  0
LINE
  5
77
  8
AM_VIS
 10
9.3151703272228001
 20
3.9164042008952151
 30
0.0
 11
8.9685791424058117
 21
3.992018369307218
 31
0.0
  0
LINE
  5
78
  8
AM_VIS
 10
8.8039212326185634
 20
4.0279410109277469
 30
0.0
 11
8.6884095962002466
 21
4.0531416412735624
 31
0.0
  0
LINE
  5
79
  8
AM_VIS
 10
8.6884095962002448
 20
4.0531416412735553
 30
0.0
 11
8.6852384596913321
 21
4.0386061648817408
 31
0.0
  0
LINE
  5
7A
  8
AM_VIS
 10
7.671328106032945
 20
2.2725619797053009
 30
0.0
 11
7.816944305928299
 21
2.4181781796006621
 31
0.0
  0
LINE
  5
7B
  8
AM_VIS
 10
8.6417950710656442
 20
3.839475554144939
 30
0.0
 11
9.1314220628917688
 21
3.7326559365641709
 31
0.0
  0
ARC
  5
7C
  8
AM_VIS
 10
8.6417950710656992
 20
2.889475554144894
 30
0.0
 40
1.149951515737782
 50
88.91746945562069
 51
89.999999999999986
  0
ARC
  5
7D
  8
AM_VIS
 10
8.6417950710656992
 20
2.889475554144894
 30
0.0
 40
1.149951515737782
 50
89.999999999999986
 51
94.736842105268423
  0
ARC
  5
7E
  8
AM_VIS
 10
8.6417950710656992
 20
2.889475554144894
 30
0.0
 40
1.149951515737782
 50
94.736842105268423
 51
99.473684210532298
  0
ARC
  5
7F
  8
AM_VIS
 10
8.6417950710656992
 20
2.889475554144894
 30
0.0
 40
1.149951515737782
 50
99.473684210532298
 51
104.2105263157946
  0
ARC
  5
80
  8
AM_VIS
 10
8.6417950710656992
 20
2.889475554144894
 30
0.0
 40
1.149951515737782
 50
104.2105263157946
 51
108.94736842105731
  0
ARC
  5
81
  8
AM_VIS
 10
8.6417950710656992
 20
2.889475554144894
 30
0.0
 40
1.149951515737782
 50
108.94736842105731
 51
113.6842105263195
  0
ARC
  5
82
  8
AM_VIS
 10
8.6417950710656992
 20
2.889475554144894
 30
0.0
 40
1.149951515737782
 50
113.6842105263195
 51
118.4210526315823
  0
ARC
  5
83
  8
AM_VIS
 10
8.6417950710656992
 20
2.889475554144894
 30
0.0
 40
1.149951515737782
 50
118.4210526315823
 51
123.15789473684529
  0
ARC
  5
84
  8
AM_VIS
 10
8.6417950710656992
 20
2.889475554144894
 30
0.0
 40
1.149951515737782
 50
123.15789473684529
 51
127.8947368421084
  0
ARC
  5
85
  8
AM_VIS
 10
8.6417950710656992
 20
2.889475554144894
 30
0.0
 40
1.149951515737782
 50
127.8947368421084
 51
132.63157894737159
  0
ARC
  5
86
  8
AM_VIS
 10
8.6417950710656992
 20
2.889475554144894
 30
0.0
 40
1.149951515737782
 50
132.63157894737159
 51
137.36842105263429
  0
ARC
  5
87
  8
AM_VIS
 10
8.6417950710656992
 20
2.889475554144894
 30
0.0
 40
1.149951515737782
 50
137.36842105263429
 51
142.10526315789551
  0
ARC
  5
88
  8
AM_VIS
 10
8.6417950710656992
 20
2.889475554144894
 30
0.0
 40
1.149951515737782
 50
142.10526315789551
 51
146.84210526315849
  0
ARC
  5
89
  8
AM_VIS
 10
8.6417950710656992
 20
2.889475554144894
 30
0.0
 40
1.149951515737782
 50
146.84210526315849
 51
151.5789473684215
  0
ARC
  5
8A
  8
AM_VIS
 10
8.6417950710656992
 20
2.889475554144894
 30
0.0
 40
1.149951515737782
 50
151.5789473684215
 51
156.31578947368419
  0
ARC
  5
8B
  8
AM_VIS
 10
8.6417950710656992
 20
2.889475554144894
 30
0.0
 40
1.149951515737782
 50
156.31578947368419
 51
161.0526315789462
  0
ARC
  5
8C
  8
AM_VIS
 10
8.6417950710656992
 20
2.889475554144894
 30
0.0
 40
1.149951515737782
 50
161.0526315789462
 51
165.78947368421009
  0
ARC
  5
8D
  8
AM_VIS
 10
8.6417950710656992
 20
2.889475554144894
 30
0.0
 40
1.149951515737782
 50
165.78947368421009
 51
170.5263157894733
  0
ARC
  5
8E
  8
AM_VIS
 10
8.6417950710656992
 20
2.889475554144894
 30
0.0
 40
1.149951515737782
 50
170.5263157894733
 51
175.26315789473441
  0
ARC
  5
8F
  8
AM_VIS
 10
8.6417950710656992
 20
2.889475554144894
 30
0.0
 40
1.149951515737782
 50
175.26315789473441
 51
180.0
  0
ARC
  5
90
  8
AM_VIS
 10
8.6417950710656992
 20
2.889475554144894
 30
0.0
 40
1.149951515737782
 50
180.0
 51
184.634800597229
  0
ARC
  5
91
  8
AM_VIS
 10
8.6417950710656992
 20
2.889475554144894
 30
0.0
 40
1.149951515737782
 50
184.634800597229
 51
189.26960119445829
  0
ARC
  5
92
  8
AM_VIS
 10
8.6417950710656992
 20
2.889475554144894
 30
0.0
 40
1.149951515737782
 50
189.26960119445829
 51
193.90440179168471
  0
ARC
  5
93
  8
AM_VIS
 10
8.6417950710656992
 20
2.889475554144894
 30
0.0
 40
1.149951515737782
 50
193.90440179168471
 51
198.5392023889132
  0
ARC
  5
94
  8
AM_VIS
 10
8.6417950710656992
 20
2.889475554144894
 30
0.0
 40
1.149951515737782
 50
198.5392023889132
 51
203.174002986142
  0
ARC
  5
95
  8
AM_VIS
 10
8.6417950710656992
 20
2.889475554144894
 30
0.0
 40
1.149951515737782
 50
203.174002986142
 51
207.80880358337009
  0
ARC
  5
96
  8
AM_VIS
 10
8.6417950710656992
 20
2.889475554144894
 30
0.0
 40
1.149951515737782
 50
207.80880358337009
 51
212.44360418059759
  0
LINE
  5
97
  8
AM_VIS
 10
9.1314220628917564
 20
3.7326559365641141
 30
0.0
 11
9.578422364631022
 21
3.6351359834418919
 31
0.0
  0
ARC
  5
98
  8
AM_VIS
 10
9.6317102811763107
 20
3.8793907642554468
 30
0.0
 40
0.25
 50
257.69288782325219
 51
174.88708382042759
  0
LINE
  5
99
  8
AM_VIS
 10
9.3827050310080171
 20
3.9016704722564608
 30
0.0
 11
9.3151703272227984
 21
3.9164042008951951
 31
0.0
  0
ARC
  5
9A
  8
AM_VIS
 10
8.6417950710656992
 20
2.889475554144894
 30
0.0
 40
1.149951515737782
 50
73.490636032819395
 51
77.692887823246039
  0
ARC
  5
9B
  8
AM_VIS
 10
8.6417950710656992
 20
2.889475554144894
 30
0.0
 40
1.149951515737782
 50
77.692887823246039
 51
81.895139613666487
  0
ARC
  5
9C
  8
AM_VIS
 10
8.6417950710656992
 20
2.889475554144894
 30
0.0
 40
1.149951515737782
 50
87.834938911235554
 51
88.91746945562069
  0
LINE
  5
9D
  8
AM_HID
 10
5.6895774132124179
 20
1.7394755541449169
 30
0.0
 11
5.8751854983008789
 21
1.7394755541449169
 31
0.0
  0
LINE
  5
9E
  8
AM_HID
 10
5.8751854983008789
 20
1.6144755541449169
 30
0.0
 11
5.8751854983008789
 21
1.7394755541449169
 31
0.0
  0
LINE
  5
9F
  8
AM_HID
 10
5.6895774132124179
 20
1.6144755541449169
 30
0.0
 11
5.6895774132124179
 21
1.7394755541449169
 31
0.0
  0
LINE
  5
A0
  8
AM_HID
 10
5.8751854983008789
 20
1.7394755541449169
 30
0.0
 11
5.9679895408451102
 21
1.7394755541449169
 31
0.0
  0
LINE
  5
A1
  8
AM_HID
 10
5.9679895408451102
 20
1.6144755541449169
 30
0.0
 11
5.9679895408451102
 21
1.7394755541449169
 31
0.0
  0
LINE
  5
A2
  8
AM_HID
 10
5.5967733706681884
 20
1.6144755541449169
 30
0.0
 11
5.5967733706681884
 21
1.7394755541449169
 31
0.0
  0
LINE
  5
A3
  8
AM_HID
 10
5.5967733706681884
 20
1.7394755541449169
 30
0.0
 11
5.6895774132124171
 21
1.7394755541449169
 31
0.0
  0
LINE
  5
A4
  8
AM_VIS
 10
5.222381455756647
 20
4.0394755541448939
 30
0.0
 11
5.2223814557566461
 21
2.889475554144894
 31
0.0
  0
LINE
  5
A5
  8
AM_VIS
 10
5.222381455756647
 20
2.889475554144894
 30
0.0
 11
5.222381455756647
 21
1.7394755541448941
 31
0.0
  0
ARC
  5
A6
  8
AM_VIS
 10
5.7735050869086884
 20
0.6923113015178766
 30
0.0
 40
1.1055675377355321
 50
71.279164802930481
 51
89.539966716750584
  0
ARC
  5
A7
  8
AM_VIS
 10
5.791257824604763
 20
0.6923113015170133
 30
0.0
 40
1.105567537736398
 50
90.460033283257573
 51
108.7208351970632
  0
LINE
  5
A8
  8
AM_VIS
 10
6.0948814557566493
 20
1.6144755541449169
 30
0.0
 11
5.4698814557566493
 21
1.6144755541449169
 31
0.0
  0
LINE
  5
A9
  8
AM_HID
 10
9.5917950710656914
 20
4.1930289447379891
 30
0.0
 11
9.5917950710656914
 21
4.1261837463311499
 31
0.0
  0
LINE
  5
AA
  8
AM_VIS
 10
9.79179507106568
 20
4.0714138359058998
 30
0.0
 11
9.79179507106568
 21
4.2518041471622041
 31
0.0
  0
LINE
  5
AB
  8
AM_HID
 10
9.3980192441784425
 20
3.9992531178506852
 30
0.0
 11
9.3980192441784425
 21
3.968207987961534
 31
0.0
  0
ARC
  5
AC
  8
AM_HID
 10
9.6317102811700952
 20
3.8793907642544339
 30
0.0
 40
0.2499999999938715
 50
174.88708381981769
 51
200.80992521903531
  0
LINE
  5
AD
  8
AM_HID
 10
9.3980192441784425
 20
3.7905735405493601
 30
0.0
 11
9.3980192441784425
 21
3.6744936836071811
 31
0.0
  0
LINE
  5
AE
  8
AM_HID
 10
7.9700436289385177
 20
3.5612269962720808
 30
0.0
 11
7.8286565562517847
 21
3.7026140689588161
 31
0.0
  0
ARC
  5
AF
  8
AM_HID
 10
8.6417950710656992
 20
2.889475554144894
 30
0.0
 40
0.9500000000000026
 50
65.385775646491723
 51
90.0
  0
ARC
  5
B0
  8
AM_VIS
 10
8.6417950710656992
 20
2.889475554144894
 30
0.0
 40
0.9500000000000026
 50
60.257523290448773
 51
65.385775646491723
  0
LINE
  5
B1
  8
AM_VIS
 10
9.1130924456099862
 20
3.714326319282284
 30
0.0
 11
9.1314220628918292
 21
3.732655936564127
 31
0.0
  0
LINE
  5
B2
  8
AM_HID
 10
9.3151703272228605
 20
3.9164042008951561
 30
0.0
 11
9.3980192441783839
 21
3.9992531178506789
 31
0.0
  0
LINE
  5
B3
  8
AM_HID
 10
9.6377242854178178
 20
4.2389581590900596
 30
0.0
 11
9.3980192441784425
 21
3.9992531178506852
 31
0.0
  0
LINE
  5
B4
  8
AM_VIS
 10
9.6377242854177911
 20
4.238958159090088
 30
0.0
 11
9.6377242854177911
 21
4.1293184172932342
 31
0.0
  0
LINE
  5
B5
  8
AM_HID
 10
7.3382416804726063
 20
1.9394755541448481
 30
0.0
 11
7.4050868788795006
 21
1.9394755541448481
 31
0.0
  0
LINE
  5
B6
  8
AM_VIS
 10
7.4598567893046939
 20
1.7394755541449161
 30
0.0
 11
7.2794664780483913
 21
1.7394755541449161
 31
0.0
  0
LINE
  5
B7
  8
AM_HID
 10
7.2794664780483913
 20
1.7394755541449169
 30
0.0
 11
7.2794664780483913
 21
1.8807003517206331
 31
0.0
  0
LINE
  5
B8
  8
AM_HID
 10
7.2923124661205421
 20
1.8935463397927841
 30
0.0
 11
7.2794664780483913
 21
1.880700351720634
 31
0.0
  0
ARC
  5
B9
  8
AM_HID
 10
7.651879860955205
 20
1.899560344034227
 30
0.0
 40
0.25
 50
0.3181894426622418
 51
77.692887823255049
  0
LINE
  5
BA
  8
AM_VIS
 10
7.5320175073599671
 20
2.1332513810321521
 30
0.0
 11
7.5630626372492307
 21
2.1332513810321521
 31
0.0
  0
LINE
  5
BB
  8
AM_VIS
 10
7.2923124661205634
 20
1.8935463397927479
 30
0.0
 11
7.4019522079173612
 21
1.8935463397927479
 31
0.0
  0
LINE
  5
BC
  8
AM_VIS
 10
7.2923124661205483
 20
1.893546339792787
 30
0.0
 11
7.6713281060330161
 21
2.2725619797052561
 31
0.0
  0
LINE
  5
BD
  8
AM_HID
 10
7.4781289839371068
 20
2.8428610290102951
 30
0.0
 11
7.5033296142827464
 21
2.72734939259266
 31
0.0
  0
LINE
  5
BE
  8
AM_HID
 10
7.5392522559035458
 20
2.5626914828042739
 30
0.0
 11
7.6296001529541391
 21
2.1485655942027631
 31
0.0
  0
LINE
  5
BF
  8
AM_HID
 10
7.492664460328899
 20
2.8460321655192011
 30
0.0
 11
7.478128983937097
 21
2.8428610290102929
 31
0.0
  0
LINE
  5
C0
  8
AM_HID
 10
7.7406970846614618
 20
2.1332513810321521
 30
0.0
 11
7.7535886034127657
 21
2.1332513810321521
 31
0.0
  0
LINE
  5
C1
  8
AM_VIS
 10
7.7535886034127657
 20
2.1332513810321521
 30
0.0
 11
7.856776941603413
 21
2.1332513810321521
 31
0.0
  0
LINE
  5
C2
  8
AM_HID
 10
7.8961346417686888
 20
1.9528482605795701
 30
0.0
 11
7.8619337475226514
 21
2.1096142306018111
 31
0.0
  0
LINE
  5
C3
  8
AM_VIS
 10
7.8619337475226514
 20
2.1096142306018111
 30
0.0
 11
7.856776941603413
 21
2.1332513810321521
 31
0.0
  0
LINE
  5
C4
  8
AM_VIS
 10
9.7917950710657014
 20
4.2518041471622041
 30
0.0
 11
9.6505702734899597
 21
4.2518041471622041
 31
0.0
  0
LINE
  5
C5
  8
AM_VIS
 10
9.6377242854178071
 20
4.2389581590901031
 30
0.0
 11
9.6505702734899526
 21
4.2518041471622476
 31
0.0
  0
ARC
  5
C6
  8
AM_HID
 10
8.641795071068179
 20
2.8894755541503399
 30
0.0
 40
1.1499515157318569
 50
57.556395819360873
 51
73.490636032850304
  0
POLYLINE
  8
AM_HID
  5
27C
  66
     1
 10
0.000000
 20
0.000000
 30
0.000000
  70
     8
  0
VERTEX
  8
AM_HID
  5
27D
 10
8.80392
 20
4.02794
 30
0.000000
  70
    32
  0
VERTEX
  8
AM_HID
  5
27E
 10
8.80299
 20
4.02807
 30
0.000000
  70
    32
  0
VERTEX
  8
AM_HID
  5
27F
 10
8.80206
 20
4.02820
 30
0.000000
  70
    32
  0
VERTEX
  8
AM_HID
  5
280
 10
8.80113
 20
4.02833
 30
0.000000
  70
    32
  0
VERTEX
  8
AM_HID
  5
281
 10
8.80020
 20
4.02846
 30
0.000000
  70
    32
  0
VERTEX
  8
AM_HID
  5
282
 10
8.79927
 20
4.02859
 30
0.000000
  70
    32
  0
VERTEX
  8
AM_HID
  5
283
 10
8.79834
 20
4.02872
 30
0.000000
  70
    32
  0
VERTEX
  8
AM_HID
  5
284
 10
8.79741
 20
4.02885
 30
0.000000
  70
    32
  0
VERTEX
  8
AM_HID
  5
285
 10
8.79648
 20
4.02897
 30
0.000000
  70
    32
  0
VERTEX
  8
AM_HID
  5
286
 10
8.79555
 20
4.02910
 30
0.000000
  70
    32
  0
VERTEX
  8
AM_HID
  5
287
 10
8.79462
 20
4.02922
 30
0.000000
  70
    32
  0
VERTEX
  8
AM_HID
  5
288
 10
8.79369
 20
4.02935
 30
0.000000
  70
    32
  0
VERTEX
  8
AM_HID
  5
289
 10
8.79276
 20
4.02947
 30
0.000000
  70
    32
  0
VERTEX
  8
AM_HID
  5
28A
 10
8.79183
 20
4.02959
 30
0.000000
  70
    32
  0
VERTEX
  8
AM_HID
  5
28B
 10
8.79090
 20
4.02971
 30
0.000000
  70
    32
  0
VERTEX
  8
AM_HID
  5
28C
 10
8.78997
 20
4.02983
 30
0.000000
  70
    32
  0
VERTEX
  8
AM_HID
  5
28D
 10
8.78904
 20
4.02995
 30
0.000000
  70
    32
  0
VERTEX
  8
AM_HID
  5
28E
 10
8.78811
 20
4.03007
 30
0.000000
  70
    32
  0
VERTEX
  8
AM_HID
  5
28F
 10
8.78718
 20
4.03019
 30
0.000000
  70
    32
  0
VERTEX
  8
AM_HID
  5
290
 10
8.78624
 20
4.03031
 30
0.000000
  70
    32
  0
VERTEX
  8
AM_HID
  5
291
 10
8.78531
 20
4.03043
 30
0.000000
  70
    32
  0
VERTEX
  8
AM_HID
  5
292
 10
8.78438
 20
4.03054
 30
0.000000
  70
    32
  0
VERTEX
  8
AM_HID
  5
293
 10
8.78345
 20
4.03066
 30
0.000000
  70
    32
  0
VERTEX
  8
AM_HID
  5
294
 10
8.78252
 20
4.03077
 30
0.000000
  70
    32
  0
VERTEX
  8
AM_HID
  5
295
 10
8.78158
 20
4.03089
 30
0.000000
  70
    32
  0
VERTEX
  8
AM_HID
  5
296
 10
8.78065
 20
4.03100
 30
0.000000
  70
    32
  0
VERTEX
  8
AM_HID
  5
297
 10
8.77972
 20
4.03111
 30
0.000000
  70
    32
  0
VERTEX
  8
AM_HID
  5
298
 10
8.77879
 20
4.03123
 30
0.000000
  70
    32
  0
VERTEX
  8
AM_HID
  5
299
 10
8.77786
 20
4.03134
 30
0.000000
  70
    32
  0
VERTEX
  8
AM_HID
  5
29A
 10
8.77692
 20
4.03145
 30
0.000000
  70
    32
  0
VERTEX
  8
AM_HID
  5
29B
 10
8.77599
 20
4.03156
 30
0.000000
  70
    32
  0
VERTEX
  8
AM_HID
  5
29C
 10
8.77506
 20
4.03167
 30
0.000000
  70
    32
  0
VERTEX
  8
AM_HID
  5
29D
 10
8.77413
 20
4.03177
 30
0.000000
  70
    32
  0
VERTEX
  8
AM_HID
  5
29E
 10
8.77319
 20
4.03188
 30
0.000000
  70
    32
  0
VERTEX
  8
AM_HID
  5
29F
 10
8.77226
 20
4.03199
 30
0.000000
  70
    32
  0
VERTEX
  8
AM_HID
  5
2A0
 10
8.77133
 20
4.03209
 30
0.000000
  70
    32
  0
VERTEX
  8
AM_HID
  5
2A1
 10
8.77039
 20
4.03220
 30
0.000000
  70
    32
  0
VERTEX
  8
AM_HID
  5
2A2
 10
8.76946
 20
4.03230
 30
0.000000
  70
    32
  0
VERTEX
  8
AM_HID
  5
2A3
 10
8.76853
 20
4.03241
 30
0.000000
  70
    32
  0
VERTEX
  8
AM_HID
  5
2A4
 10
8.76759
 20
4.03251
 30
0.000000
  70
    32
  0
VERTEX
  8
AM_HID
  5
2A5
 10
8.76666
 20
4.03261
 30
0.000000
  70
    32
  0
VERTEX
  8
AM_HID
  5
2A6
 10
8.76573
 20
4.03271
 30
0.000000
  70
    32
  0
VERTEX
  8
AM_HID
  5
2A7
 10
8.76479
 20
4.03281
 30
0.000000
  70
    32
  0
VERTEX
  8
AM_HID
  5
2A8
 10
8.76386
 20
4.03291
 30
0.000000
  70
    32
  0
VERTEX
  8
AM_HID
  5
2A9
 10
8.76292
 20
4.03301
 30
0.000000
  70
    32
  0
VERTEX
  8
AM_HID
  5
2AA
 10
8.76199
 20
4.03311
 30
0.000000
  70
    32
  0
VERTEX
  8
AM_HID
  5
2AB
 10
8.76106
 20
4.03321
 30
0.000000
  70
    32
  0
VERTEX
  8
AM_HID
  5
2AC
 10
8.76012
 20
4.03331
 30
0.000000
  70
    32
  0
VERTEX
  8
AM_HID
  5
2AD
 10
8.75919
 20
4.03340
 30
0.000000
  70
    32
  0
VERTEX
  8
AM_HID
  5
2AE
 10
8.75825
 20
4.03350
 30
0.000000
  70
    32
  0
VERTEX
  8
AM_HID
  5
2AF
 10
8.75732
 20
4.03359
 30
0.000000
  70
    32
  0
VERTEX
  8
AM_HID
  5
2B0
 10
8.75639
 20
4.03369
 30
0.000000
  70
    32
  0
VERTEX
  8
AM_HID
  5
2B1
 10
8.75545
 20
4.03378
 30
0.000000
  70
    32
  0
VERTEX
  8
AM_HID
  5
2B2
 10
8.75452
 20
4.03387
 30
0.000000
  70
    32
  0
VERTEX
  8
AM_HID
  5
2B3
 10
8.75358
 20
4.03396
 30
0.000000
  70
    32
  0
VERTEX
  8
AM_HID
  5
2B4
 10
8.75265
 20
4.03405
 30
0.000000
  70
    32
  0
VERTEX
  8
AM_HID
  5
2B5
 10
8.75171
 20
4.03414
 30
0.000000
  70
    32
  0
VERTEX
  8
AM_HID
  5
2B6
 10
8.75078
 20
4.03423
 30
0.000000
  70
    32
  0
VERTEX
  8
AM_HID
  5
2B7
 10
8.74984
 20
4.03432
 30
0.000000
  70
    32
  0
VERTEX
  8
AM_HID
  5
2B8
 10
8.74891
 20
4.03441
 30
0.000000
  70
    32
  0
VERTEX
  8
AM_HID
  5
2B9
 10
8.74797
 20
4.03450
 30
0.000000
  70
    32
  0
VERTEX
  8
AM_HID
  5
2BA
 10
8.74704
 20
4.03458
 30
0.000000
  70
    32
  0
VERTEX
  8
AM_HID
  5
2BB
 10
8.74610
 20
4.03467
 30
0.000000
  70
    32
  0
VERTEX
  8
AM_HID
  5
2BC
 10
8.74517
 20
4.03475
 30
0.000000
  70
    32
  0
VERTEX
  8
AM_HID
  5
2BD
 10
8.74423
 20
4.03484
 30
0.000000
  70
    32
  0
VERTEX
  8
AM_HID
  5
2BE
 10
8.74330
 20
4.03492
 30
0.000000
  70
    32
  0
VERTEX
  8
AM_HID
  5
2BF
 10
8.74236
 20
4.03500
 30
0.000000
  70
    32
  0
VERTEX
  8
AM_HID
  5
2C0
 10
8.74143
 20
4.03509
 30
0.000000
  70
    32
  0
VERTEX
  8
AM_HID
  5
2C1
 10
8.74049
 20
4.03517
 30
0.000000
  70
    32
  0
VERTEX
  8
AM_HID
  5
2C2
 10
8.73956
 20
4.03525
 30
0.000000
  70
    32
  0
VERTEX
  8
AM_HID
  5
2C3
 10
8.73862
 20
4.03533
 30
0.000000
  70
    32
  0
VERTEX
  8
AM_HID
  5
2C4
 10
8.73768
 20
4.03541
 30
0.000000
  70
    32
  0
VERTEX
  8
AM_HID
  5
2C5
 10
8.73675
 20
4.03548
 30
0.000000
  70
    32
  0
VERTEX
  8
AM_HID
  5
2C6
 10
8.73581
 20
4.03556
 30
0.000000
  70
    32
  0
VERTEX
  8
AM_HID
  5
2C7
 10
8.73488
 20
4.03564
 30
0.000000
  70
    32
  0
VERTEX
  8
AM_HID
  5
2C8
 10
8.73394
 20
4.03571
 30
0.000000
  70
    32
  0
VERTEX
  8
AM_HID
  5
2C9
 10
8.73301
 20
4.03579
 30
0.000000
  70
    32
  0
VERTEX
  8
AM_HID
  5
2CA
 10
8.73207
 20
4.03586
 30
0.000000
  70
    32
  0
VERTEX
  8
AM_HID
  5
2CB
 10
8.73113
 20
4.03594
 30
0.000000
  70
    32
  0
VERTEX
  8
AM_HID
  5
2CC
 10
8.73020
 20
4.03601
 30
0.000000
  70
    32
  0
VERTEX
  8
AM_HID
  5
2CD
 10
8.72926
 20
4.03608
 30
0.000000
  70
    32
  0
VERTEX
  8
AM_HID
  5
2CE
 10
8.72833
 20
4.03615
 30
0.000000
  70
    32
  0
VERTEX
  8
AM_HID
  5
2CF
 10
8.72739
 20
4.03622
 30
0.000000
  70
    32
  0
VERTEX
  8
AM_HID
  5
2D0
 10
8.72645
 20
4.03629
 30
0.000000
  70
    32
  0
VERTEX
  8
AM_HID
  5
2D1
 10
8.72552
 20
4.03636
 30
0.000000
  70
    32
  0
VERTEX
  8
AM_HID
  5
2D2
 10
8.72458
 20
4.03643
 30
0.000000
  70
    32
  0
VERTEX
  8
AM_HID
  5
2D3
 10
8.72364
 20
4.03650
 30
0.000000
  70
    32
  0
VERTEX
  8
AM_HID
  5
2D4
 10
8.72271
 20
4.03656
 30
0.000000
  70
    32
  0
VERTEX
  8
AM_HID
  5
2D5
 10
8.72177
 20
4.03663
 30
0.000000
  70
    32
  0
VERTEX
  8
AM_HID
  5
2D6
 10
8.72083
 20
4.03669
 30
0.000000
  70
    32
  0
VERTEX
  8
AM_HID
  5
2D7
 10
8.71990
 20
4.03676
 30
0.000000
  70
    32
  0
VERTEX
  8
AM_HID
  5
2D8
 10
8.71896
 20
4.03682
 30
0.000000
  70
    32
  0
VERTEX
  8
AM_HID
  5
2D9
 10
8.71803
 20
4.03688
 30
0.000000
  70
    32
  0
VERTEX
  8
AM_HID
  5
2DA
 10
8.71709
 20
4.03695
 30
0.000000
  70
    32
  0
VERTEX
  8
AM_HID
  5
2DB
 10
8.71615
 20
4.03701
 30
0.000000
  70
    32
  0
VERTEX
  8
AM_HID
  5
2DC
 10
8.71522
 20
4.03707
 30
0.000000
  70
    32
  0
VERTEX
  8
AM_HID
  5
2DD
 10
8.71428
 20
4.03713
 30
0.000000
  70
    32
  0
VERTEX
  8
AM_HID
  5
2DE
 10
8.71334
 20
4.03719
 30
0.000000
  70
    32
  0
VERTEX
  8
AM_HID
  5
2DF
 10
8.71241
 20
4.03725
 30
0.000000
  70
    32
  0
VERTEX
  8
AM_HID
  5
2E0
 10
8.71147
 20
4.03730
 30
0.000000
  70
    32
  0
VERTEX
  8
AM_HID
  5
2E1
 10
8.71053
 20
4.03736
 30
0.000000
  70
    32
  0
VERTEX
  8
AM_HID
  5
2E2
 10
8.70960
 20
4.03742
 30
0.000000
  70
    32
  0
VERTEX
  8
AM_HID
  5
2E3
 10
8.70866
 20
4.03747
 30
0.000000
  70
    32
  0
VERTEX
  8
AM_HID
  5
2E4
 10
8.70772
 20
4.03753
 30
0.000000
  70
    32
  0
VERTEX
  8
AM_HID
  5
2E5
 10
8.70679
 20
4.03758
 30
0.000000
  70
    32
  0
VERTEX
  8
AM_HID
  5
2E6
 10
8.70585
 20
4.03763
 30
0.000000
  70
    32
  0
VERTEX
  8
AM_HID
  5
2E7
 10
8.70491
 20
4.03769
 30
0.000000
  70
    32
  0
VERTEX
  8
AM_HID
  5
2E8
 10
8.70398
 20
4.03774
 30
0.000000
  70
    32
  0
VERTEX
  8
AM_HID
  5
2E9
 10
8.70304
 20
4.03779
 30
0.000000
  70
    32
  0
VERTEX
  8
AM_HID
  5
2EA
 10
8.70210
 20
4.03784
 30
0.000000
  70
    32
  0
VERTEX
  8
AM_HID
  5
2EB
 10
8.70116
 20
4.03789
 30
0.000000
  70
    32
  0
VERTEX
  8
AM_HID
  5
2EC
 10
8.70023
 20
4.03793
 30
0.000000
  70
    32
  0
VERTEX
  8
AM_HID
  5
2ED
 10
8.69929
 20
4.03798
 30
0.000000
  70
    32
  0
VERTEX
  8
AM_HID
  5
2EE
 10
8.69835
 20
4.03803
 30
0.000000
  70
    32
  0
VERTEX
  8
AM_HID
  5
2EF
 10
8.69742
 20
4.03808
 30
0.000000
  70
    32
  0
VERTEX
  8
AM_HID
  5
2F0
 10
8.69648
 20
4.03812
 30
0.000000
  70
    32
  0
VERTEX
  8
AM_HID
  5
2F1
 10
8.69554
 20
4.03817
 30
0.000000
  70
    32
  0
VERTEX
  8
AM_HID
  5
2F2
 10
8.69461
 20
4.03821
 30
0.000000
  70
    32
  0
VERTEX
  8
AM_HID
  5
2F3
 10
8.69367
 20
4.03825
 30
0.000000
  70
    32
  0
VERTEX
  8
AM_HID
  5
2F4
 10
8.69273
 20
4.03829
 30
0.000000
  70
    32
  0
VERTEX
  8
AM_HID
  5
2F5
 10
8.69180
 20
4.03834
 30
0.000000
  70
    32
  0
VERTEX
  8
AM_HID
  5
2F6
 10
8.69086
 20
4.03838
 30
0.000000
  70
    32
  0
VERTEX
  8
AM_HID
  5
2F7
 10
8.68992
 20
4.03842
 30
0.000000
  70
    32
  0
VERTEX
  8
AM_HID
  5
2F8
 10
8.68899
 20
4.03846
 30
0.000000
  70
    32
  0
VERTEX
  8
AM_HID
  5
2F9
 10
8.68805
 20
4.03850
 30
0.000000
  70
    32
  0
VERTEX
  8
AM_HID
  5
2FA
 10
8.68711
 20
4.03853
 30
0.000000
  70
    32
  0
VERTEX
  8
AM_HID
  5
2FB
 10
8.68618
 20
4.03857
 30
0.000000
  70
    32
  0
VERTEX
  8
AM_HID
  5
2FC
 10
8.68524
 20
4.03861
 30
0.000000
  70
    32
  0
SEQEND
  8
AM_HID
  5
2FD
  0
LINE
  5
C8
  8
AM_VIS
 10
7.8567769416034103
 20
2.133251381032168
 30
0.0
 11
7.7986146886464516
 21
2.3998485623188159
 31
0.0
  0
LINE
  5
C9
  8
AM_HID
 10
7.7986146886464507
 20
2.3998485623188159
 30
0.0
 11
7.7780708328068746
 21
2.494015032514588
 31
0.0
  0
LINE
  5
CA
  8
AM_VIS
 10
7.7780708328068746
 20
2.494015032514588
 30
0.0
 11
7.6926758636691153
 21
2.885438282316048
 31
0.0
  0
LINE
  5
CB
  8
AM_HID
 10
7.6926758636691153
 20
2.885438282316048
 30
0.0
 11
7.6917950710657124
 21
2.889475554144894
 31
0.0
  0
LINE
  5
CC
  8
AM_VIS
 10
7.4917950710656926
 20
4.0394755541448939
 30
0.0
 11
7.8286565562517811
 21
3.702614068958809
 31
0.0
  0
ARC
  5
CD
  8
AM_VIS
 10
10.79416499860592
 20
5.7488891694539461
 30
0.0
 40
1.0602091355172261
 50
160.95657474213041
 51
199.04342525786959
  0
LINE
  5
CE
  8
AM_VIS
 10
9.7917950710657014
 20
6.3088891694539484
 30
0.0
 11
7.4917950710657006
 21
6.3088891694539466
 31
0.0
  0
LINE
  5
CF
  8
AM_HID
 10
9.9167950710656783
 20
5.5632810843654852
 30
0.0
 11
9.7917950710656783
 21
5.5632810843654852
 31
0.0
  0
LINE
  5
D0
  8
AM_HID
 10
9.7917950710656783
 20
5.5632810843654852
 30
0.0
 11
9.7917950710656783
 21
5.6560851269097094
 31
0.0
  0
LINE
  5
D1
  8
AM_HID
 10
9.9167950710656783
 20
5.6560851269097148
 30
0.0
 11
9.7917950710656783
 21
5.6560851269097148
 31
0.0
  0
LINE
  5
D2
  8
AM_HID
 10
9.7917950710656783
 20
5.6560851269097148
 30
0.0
 11
9.7917950710656783
 21
5.8416932119981757
 31
0.0
  0
LINE
  5
D3
  8
AM_HID
 10
9.9167950710656783
 20
5.8416932119981757
 30
0.0
 11
9.7917950710656783
 21
5.8416932119981757
 31
0.0
  0
LINE
  5
D4
  8
AM_HID
 10
9.7917950710656783
 20
5.8416932119981757
 30
0.0
 11
9.7917950710656783
 21
5.9344972545423991
 31
0.0
  0
LINE
  5
D5
  8
AM_HID
 10
9.9167950710656783
 20
5.9344972545424071
 30
0.0
 11
9.7917950710656783
 21
5.9344972545424071
 31
0.0
  0
LINE
  5
D6
  8
AM_VIS
 10
9.9167950710656783
 20
6.0613891694539461
 30
0.0
 11
9.9167950710656783
 21
5.4363891694539461
 31
0.0
  0
LINE
  5
D7
  8
AM_VIS
 10
5.4698814557566493
 20
1.6144755541449169
 30
0.0
 11
5.436387806702764
 21
1.7394755541448961
 31
0.0
  0
LINE
  5
D8
  8
AM_VIS
 10
6.0948814557566493
 20
1.6144755541449169
 30
0.0
 11
6.1283751048105328
 21
1.739475554144895
 31
0.0
  0
LINE
  5
D9
  8
AM_HID
 10
9.5917950710657003
 20
6.3088891694539484
 30
0.0
 11
9.5917950710657003
 21
4.1930289447379927
 31
0.0
  0
LINE
  5
DA
  8
AM_HID
 10
7.691795071065699
 20
6.3088891694539484
 30
0.0
 11
7.6917950710656999
 21
3.8394755541448928
 31
0.0
  0
LINE
  5
DB
  8
AM_VIS
 10
9.7917950710656996
 20
6.3088891694539484
 30
0.0
 11
9.7917950710656996
 21
6.0948828185078296
 31
0.0
  0
LINE
  5
DC
  8
AM_VIS
 10
9.7917950710656996
 20
5.4028955204000608
 30
0.0
 11
9.7917950710656996
 21
4.2518041471622041
 31
0.0
  0
LINE
  5
DD
  8
AM_VIS
 10
7.4917950710656989
 20
6.3088891694539484
 30
0.0
 11
7.4917950710656998
 21
4.0394755541448939
 31
0.0
  0
LINE
  5
DE
  8
AM_VIS
 10
9.9167950710656783
 20
5.4363891694539461
 30
0.0
 11
9.7917950710656996
 21
5.4028955204000608
 31
0.0
  0
LINE
  5
DF
  8
AM_VIS
 10
9.9167950710656783
 20
6.0613891694539461
 30
0.0
 11
9.7917950710656996
 21
6.0948828185078296
 31
0.0
  0
LINE
  5
E0
  8
AM_HID
 10
5.222381455756647
 20
3.8394755541448968
 30
0.0
 11
7.6917950710657079
 21
3.8394755541448951
 31
0.0
  0
LINE
  5
E1
  8
AM_HID
 10
5.222381455756647
 20
1.9394755541448969
 30
0.0
 11
7.3382416804726063
 21
1.939475554144896
 31
0.0
  0
LINE
  5
E2
  8
AM_VIS
 10
5.222381455756647
 20
4.0394755541448957
 30
0.0
 11
7.4917950710656926
 21
4.0394755541448939
 31
0.0
  0
LINE
  5
E3
  8
AM_VIS
 10
5.2223814557566461
 20
1.739475554144897
 30
0.0
 11
5.436387806702764
 21
1.7394755541448961
 31
0.0
  0
LINE
  5
E4
  8
AM_VIS
 10
6.1283751048105328
 20
1.7394755541448961
 30
0.0
 11
7.2794664780483913
 21
1.7394755541448961
 31
0.0
  0
LINE
  5
E5
  8
AM_VIS
 10
9.4268132005281178
 20
3.6456997272575249
 30
0.0
 11
9.4216563946088616
 21
3.6693368776879511
 31
0.0
  0
LINE
  5
E6
  8
AM_HID
 10
9.7205275048823392
 20
3.645699727257524
 30
0.0
 11
9.5300015387190253
 21
3.645699727257524
 31
0.0
  0
LINE
  5
E7
  8
AM_VIS
 10
9.5300015387190253
 20
3.645699727257524
 30
0.0
 11
9.4268132005281018
 21
3.645699727257524
 31
0.0
  0
LINE
  5
E8
  8
AM_HID
 10
9.4549335858797576
 20
3.7026140689587801
 30
0.0
 11
9.4216563946089025
 21
3.6693368776879249
 31
0.0
  0
CIRCLE
  5
E9
  8
AM_VIS
 10
7.651879860955205
 20
1.8995603440342841
 30
0.0
 40
0.103750141311238
  0
LINE
  5
EA
  8
AM_HID
 10
10.004123664083121
 20
4.0394755541448708
 30
0.0
 11
10.004123664083121
 21
3.898250756569098
 31
0.0
  0
ARC
  5
EB
  8
AM_VIS
 10
8.6417950710658147
 20
2.8894755541448371
 30
0.0
 40
1.149951515737782
 50
245.3857756464827
 51
0.0
  0
ARC
  5
EC
  8
AM_HID
 10
8.6417950710658147
 20
2.8894755541448371
 30
0.0
 40
1.149951515737782
 50
237.55639581940241
 51
245.3857756464827
  0
ARC
  5
ED
  8
AM_VIS
 10
8.6417950710658147
 20
2.8894755541448371
 30
0.0
 40
0.9499999999999886
 50
240.2575232904494
 51
245.38577564648199
  0
ARC
  5
EE
  8
AM_HID
 10
8.6417950710658147
 20
2.8894755541448371
 30
0.0
 40
0.9499999999999886
 50
245.38577564648199
 51
270.0
  0
ARC
  5
EF
  8
AM_VIS
 10
8.6417950710658147
 20
2.8894755541448371
 30
0.0
 40
0.9499999999999886
 50
270.0
 51
29.74247670955058
  0
LINE
  5
F0
  8
AM_VIS
 10
8.1521680792396758
 20
2.0462951717256139
 30
0.0
 11
8.1704976965215668
 21
2.064624789007508
 31
0.0
  0
LINE
  5
F1
  8
AM_HID
 10
8.0248814966262181
 20
1.919008589112142
 30
0.0
 11
8.1521680792396758
 21
2.0462951717256139
 31
0.0
  0
LINE
  5
F2
  8
AM_VIS
 10
9.4666458362031563
 20
3.3607729286890731
 30
0.0
 11
9.6122620360985138
 21
3.5063891285844302
 31
0.0
  0
LINE
  5
F3
  8
AM_VIS
 10
9.9912776760109416
 20
3.885404768496918
 30
0.0
 11
9.6122620360984712
 21
3.5063891285844471
 31
0.0
  0
LINE
  5
F4
  8
AM_HID
 10
9.9912776760109452
 20
3.8854047684969202
 30
0.0
 11
10.004123664083121
 21
3.898250756569098
 31
0.0
  0
LINE
  5
F5
  8
AM_VIS
 10
8.6417950710658147
 20
1.739475554144837
 30
0.0
 11
8.6417950710658147
 21
1.7395240384070529
 31
0.0
  0
ARC
  5
F6
  8
AM_VIS
 10
8.6417950710658147
 20
2.8894755541448371
 30
0.0
 40
1.149951515737782
 50
0.0
 51
32.443604180597589
  0
LINE
  5
F7
  8
AM_VIS
 10
8.6417950710658147
 20
1.9394755541448481
 30
0.0
 11
7.7051677775004901
 21
2.1438151248478272
 31
0.0
  0
LINE
  5
F8
  8
AM_VIS
 10
7.9018760058594379
 20
1.9009487002527581
 30
0.0
 11
8.1628327808475678
 21
1.8440169882052391
 31
0.0
  0
ARC
  5
F9
  8
AM_VIS
 10
8.6417950710658928
 20
2.8894755541458039
 30
0.0
 40
1.150000000000964
 50
251.67198702922141
 51
270.0
  0
ARC
  5
FA
  8
AM_VIS
 10
8.6417950710661522
 20
2.8894755541418342
 30
0.0
 40
1.149999999996973
 50
270.0
 51
282.54868340129389
  0
LINE
  5
FB
  8
AM_HID
 10
8.5489910285215274
 20
1.7394755541449169
 30
0.0
 11
8.6417950710658147
 21
1.7394755541449161
 31
0.0
  0
LINE
  5
FC
  8
AM_HID
 10
8.4561869859772951
 20
1.739475554144803
 30
0.0
 11
8.5489910285215256
 21
1.7394755541448019
 31
0.0
  0
LINE
  5
FD
  8
AM_HID
 10
8.7345991136099883
 20
1.7394755541448601
 30
0.0
 11
8.7345991136099865
 21
1.614475554144803
 31
0.0
  0
LINE
  5
FE
  8
AM_HID
 10
8.8274031561542188
 20
1.739475554144803
 30
0.0
 11
8.7345991136099883
 21
1.7394755541448039
 31
0.0
  0
LINE
  5
FF
  8
AM_HID
 10
8.8274031561542188
 20
1.739475554144803
 30
0.0
 11
8.827403156154217
 21
1.6144755541448601
 31
0.0
  0
LINE
  5
100
  8
AM_VIS
 10
8.9542950710658147
 20
1.614475554144857
 30
0.0
 11
8.3292950710658147
 21
1.614475554144863
 31
0.0
  0
ARC
  5
101
  8
AM_VIS
 10
8.5825094810425604
 20
0.5031769150093073
 30
0.0
 40
1.301032507954859
 50
71.84999646024994
 51
76.254172876459975
  0
LINE
  5
102
  8
AM_HID
 10
8.6417950710658147
 20
1.7394755541449161
 30
0.0
 11
8.7345991136099883
 21
1.7394755541449149
 31
0.0
  0
LINE
  5
103
  8
AM_HID
 10
8.5489910285215274
 20
1.7394755541449169
 30
0.0
 11
8.5489910285215256
 21
1.614475554144803
 31
0.0
  0
LINE
  5
104
  8
AM_HID
 10
8.4561869859772951
 20
1.739475554144803
 30
0.0
 11
8.4561869859772951
 21
1.6144755541448601
 31
0.0
  0
ARC
  5
105
  8
AM_VIS
 10
7.6518798609551482
 20
1.8995603440343409
 30
0.0
 40
0.25
 50
77.692887823236788
 51
0.3181894426360632
  0
LINE
  5
106
  8
AM_VIS
 10
9.4268132005280911
 20
3.6456997272575311
 30
0.0
 11
9.4849754534850188
 21
3.3791025459709649
 31
0.0
  0
LINE
  5
107
  8
AM_HID
 10
9.4849754534850188
 20
3.3791025459709649
 30
0.0
 11
9.5054711687535836
 21
3.2851567367689389
 31
0.0
  0
LINE
  5
108
  8
AM_VIS
 10
9.5054711687535836
 20
3.2851567367689389
 30
0.0
 11
9.5917950710657713
 21
2.8894755541447181
 31
0.0
  0
LINE
  5
109
  8
AM_HID
 10
9.4216563946088776
 20
3.669336877687897
 30
0.0
 11
9.3874555003628402
 21
3.8261028477101648
 31
0.0
  0
LINE
  5
10A
  8
AM_HID
 10
9.805461158194408
 20
2.936090079279436
 30
0.0
 11
9.7802605278487782
 21
3.051601715697021
 31
0.0
  0
LINE
  5
10B
  8
AM_HID
 10
9.7443378862279797
 20
3.216259625485407
 30
0.0
 11
9.6539899891773668
 21
3.6303855140870072
 31
0.0
  0
LINE
  5
10C
  8
AM_HID
 10
9.7909256818026211
 20
2.9329189427705309
 30
0.0
 11
9.8054611581944187
 21
2.9360900792794369
 31
0.0
  0
ARC
  5
10D
  8
AM_HID
 10
9.6317102811763675
 20
3.8793907642554468
 30
0.0
 40
0.25
 50
200.8099252187437
 51
257.69288782323957
  0
LINE
  5
10E
  8
AM_VIS
 10
9.7515726347715486
 20
3.6456997272575209
 30
0.0
 11
9.7205275048823392
 21
3.6456997272575209
 31
0.0
  0
LINE
  5
10F
  8
AM_VIS
 10
9.9912776760109523
 20
3.8854047684969251
 30
0.0
 11
9.8816379342141545
 21
3.8854047684969251
 31
0.0
  0
LINE
  5
110
  8
AM_VIS
 10
9.8237333528268191
 20
4.0394755541448708
 30
0.0
 11
10.004123664083121
 21
4.0394755541448708
 31
0.0
  0
LINE
  5
111
  8
AM_HID
 10
9.9453484616589094
 20
3.8394755541448262
 30
0.0
 11
9.8785032632520711
 21
3.8394755541448262
 31
0.0
  0
LINE
  5
112
  8
AM_VIS
 10
12.06120868637487
 20
1.739475554144837
 30
0.0
 11
12.06120868637487
 21
4.0394755541448371
 31
0.0
  0
ARC
  5
113
  8
AM_VIS
 10
11.50120868637485
 20
0.7371056266042242
 30
0.0
 40
1.0602091355175971
 50
70.956574742135984
 51
109.04342525786311
  0
LINE
  5
114
  8
AM_HID
 10
11.3156006012864
 20
1.614475554144803
 30
0.0
 11
11.3156006012864
 21
1.739475554144803
 31
0.0
  0
LINE
  5
115
  8
AM_HID
 10
11.3156006012864
 20
1.739475554144803
 30
0.0
 11
11.40840464383062
 21
1.739475554144803
 31
0.0
  0
LINE
  5
116
  8
AM_HID
 10
11.408404643830631
 20
1.614475554144803
 30
0.0
 11
11.408404643830631
 21
1.739475554144803
 31
0.0
  0
LINE
  5
117
  8
AM_HID
 10
11.408404643830631
 20
1.739475554144803
 30
0.0
 11
11.59401272891909
 21
1.739475554144803
 31
0.0
  0
LINE
  5
118
  8
AM_HID
 10
11.59401272891909
 20
1.614475554144803
 30
0.0
 11
11.59401272891909
 21
1.739475554144803
 31
0.0
  0
LINE
  5
119
  8
AM_HID
 10
11.59401272891909
 20
1.739475554144803
 30
0.0
 11
11.68681677146331
 21
1.739475554144803
 31
0.0
  0
LINE
  5
11A
  8
AM_HID
 10
11.686816771463331
 20
1.614475554144803
 30
0.0
 11
11.686816771463331
 21
1.739475554144803
 31
0.0
  0
LINE
  5
11B
  8
AM_VIS
 10
11.813708686374859
 20
1.614475554144803
 30
0.0
 11
11.188708686374859
 21
1.614475554144803
 31
0.0
  0
LINE
  5
11C
  8
AM_VIS
 10
8.3292950710658147
 20
1.614475554144863
 30
0.0
 11
8.2801699693695632
 21
1.797812929602264
 31
0.0
  0
LINE
  5
11D
  8
AM_VIS
 10
8.9542950710658147
 20
1.614475554144857
 30
0.0
 11
8.9877887201197009
 21
1.739475554144837
 31
0.0
  0
LINE
  5
11E
  8
AM_VIS
 10
12.06120868637487
 20
1.739475554144837
 30
0.0
 11
11.84720233542876
 21
1.739475554144837
 31
0.0
  0
LINE
  5
11F
  8
AM_VIS
 10
11.15521503732097
 20
1.739475554144837
 30
0.0
 11
8.9877887201197026
 21
1.739475554144837
 31
0.0
  0
LINE
  5
120
  8
AM_VIS
 10
12.06120868637487
 20
4.0394755541448371
 30
0.0
 11
10.004123664083121
 21
4.0394755541448371
 31
0.0
  0
LINE
  5
121
  8
AM_HID
 10
12.06120868637487
 20
1.939475554144837
 30
0.0
 11
8.6417950710658147
 21
1.939475554144837
 31
0.0
  0
LINE
  5
122
  8
AM_HID
 10
12.06120868637487
 20
3.8394755541448369
 30
0.0
 11
9.9453484616589094
 21
3.8394755541448369
 31
0.0
  0
LINE
  5
123
  8
AM_VIS
 10
11.188708686374859
 20
1.614475554144803
 30
0.0
 11
11.15521503732097
 21
1.739475554144837
 31
0.0
  0
LINE
  5
124
  8
AM_VIS
 10
11.813708686374859
 20
1.614475554144803
 30
0.0
 11
11.84720233542876
 21
1.739475554144837
 31
0.0
  0
INSERT
  5
23D
  8
0
  2
*U7
 10
0.0
 20
0.0
 30
0.0
  0
INSERT
  5
23E
  8
0
  2
*U8
 10
0.0
 20
0.0
 30
0.0
  0
LINE
  5
240
  8
0
 10
5.222381455756647
 20
1.6769755541448941
 30
0.0
 11
5.222381455756647
 21
0.9036119462909544
 31
0.0
  0
LINE
  5
241
  8
0
 10
12.06120868637487
 20
1.676975554144837
 30
0.0
 11
12.06120868637487
 21
0.9036119462909544
 31
0.0
  0
LINE
  5
242
  8
0
 10
5.347381455756647
 20
1.0836119462909539
 30
0.0
 11
8.2035807853514715
 21
1.0836119462909539
 31
0.0
  0
LINE
  5
243
  8
0
 10
11.93620868637487
 20
1.0836119462909539
 30
0.0
 11
9.0800093567800442
 21
1.0836119462909539
 31
0.0
  0
SOLID
  5
244
  8
0
 10
5.347381455756647
 20
1.104445279624287
 30
0.0
 11
5.347381455756647
 21
1.0627786129576211
 31
0.0
 12
5.222381455756647
 22
1.0836119462909539
 32
0.0
 13
5.222381455756647
 23
1.0836119462909539
 33
0.0
  0
SOLID
  5
245
  8
0
 10
11.93620868637487
 20
1.104445279624287
 30
0.0
 11
11.93620868637487
 21
1.0627786129576211
 31
0.0
 12
12.06120868637487
 22
1.0836119462909539
 32
0.0
 13
12.06120868637487
 23
1.0836119462909539
 33
0.0
  0
INSERT
  5
246
  8
0
  2
*U9
 10
0.0
 20
0.0
 30
0.0
  0
ENDSEC
  0
EOF
