  0
SECTION
  2
HEADER
  9
$ACADVER
  1
AC1009
  9
$INSBASE
 10
0.0
 20
0.0
 30
0.0
  9
$EXTMIN
 10
-1.869211284899035
 20
-0.8822239852560866
 30
0.0
  9
$EXTMAX
 10
1.8391059631742259
 20
1.869211284899035
 30
0.0
  9
$LIMMIN
 10
0.0
 20
0.0
  9
$LIMMAX
 10
12.0
 20
9.0
  9
$ORTHOMODE
 70
     1
  9
$REGENMODE
 70
     0
  9
$FILLMODE
 70
     1
  9
$QTEXTMODE
 70
     0
  9
$MIRRTEXT
 70
     0
  9
$DRAGMODE
 70
     2
  9
$LTSCALE
 40
1.0
  9
$OSMODE
 70
    55
  9
$ATTMODE
 70
     1
  9
$TEXTSIZE
 40
0.2
  9
$TRACEWID
 40
0.05
  9
$TEXTSTYLE
  7
STANDARD
  9
$CLAYER
  8
0
  9
$CELTYPE
  6
BYLAYER
  9
$CECOLOR
 62
   256
  9
$DIMSCALE
 40
1.0
  9
$DIMASZ
 40
0.125
  9
$DIMEXO
 40
0.0625
  9
$DIMDLI
 40
0.38
  9
$DIMRND
 40
0.0
  9
$DIMDLE
 40
0.0
  9
$DIMEXE
 40
0.18
  9
$DIMTP
 40
0.0
  9
$DIMTM
 40
0.0
  9
$DIMTXT
 40
0.09375
  9
$DIMCEN
 40
-0.125
  9
$DIMTSZ
 40
0.0
  9
$DIMTOL
 70
     0
  9
$DIMLIM
 70
     0
  9
$DIMTIH
 70
     0
  9
$DIMTOH
 70
     0
  9
$DIMSE1
 70
     0
  9
$DIMSE2
 70
     0
  9
$DIMTAD
 70
     0
  9
$DIMZIN
 70
     3
  9
$DIMBLK
  1

  9
$DIMASO
 70
     0
  9
$DIMSHO
 70
     1
  9
$DIMPOST
  1

  9
$DIMAPOST
  1

  9
$DIMALT
 70
     0
  9
$DIMALTD
 70
     2
  9
$DIMALTF
 40
25.399999999999999
  9
$DIMLFAC
 40
1.0
  9
$DIMTOFL
 70
     1
  9
$DIMTVP
 40
0.0
  9
$DIMTIX
 70
     0
  9
$DIMSOXD
 70
     0
  9
$DIMSAH
 70
     0
  9
$DIMBLK1
  1

  9
$DIMBLK2
  1

  9
$DIMSTYLE
  2
STANDARD
  9
$DIMCLRD
 70
     0
  9
$DIMCLRE
 70
     0
  9
$DIMCLRT
 70
     0
  9
$DIMTFAC
 40
1.0
  9
$DIMGAP
 40
0.09
  9
$LUNITS
 70
     4
  9
$LUPREC
 70
     4
  9
$SKETCHINC
 40
0.1
  9
$FILLETRAD
 40
0.025
  9
$AUNITS
 70
     0
  9
$AUPREC
 70
     4
  9
$MENU
  1
.
  9
$ELEVATION
 40
0.0
  9
$PELEVATION
 40
0.0
  9
$THICKNESS
 40
0.0
  9
$LIMCHECK
 70
     0
  9
$BLIPMODE
 70
     0
  9
$CHAMFERA
 40
0.125
  9
$CHAMFERB
 40
0.5
  9
$SKPOLY
 70
     0
  9
$TDCREATE
 40
2451086.9109346061
  9
$TDUPDATE
 40
2453913.5738464468
  9
$TDINDWG
 40
0.0578677083
  9
$TDUSRTIMER
 40
0.0578677083
  9
$USRTIMER
 70
     1
  9
$ANGBASE
 50
0.0
  9
$ANGDIR
 70
     0
  9
$PDMODE
 70
    34
  9
$PDSIZE
 40
3.0
  9
$PLINEWID
 40
0.0
  9
$COORDS
 70
     1
  9
$SPLFRAME
 70
     0
  9
$SPLINETYPE
 70
     6
  9
$SPLINESEGS
 70
     8
  9
$ATTDIA
 70
     0
  9
$ATTREQ
 70
     1
  9
$HANDLING
 70
     1
  9
$HANDSEED
  5
17D
  9
$SURFTAB1
 70
     6
  9
$SURFTAB2
 70
     6
  9
$SURFTYPE
 70
     6
  9
$SURFU
 70
     6
  9
$SURFV
 70
     6
  9
$UCSNAME
  2

  9
$UCSORG
 10
0.0
 20
0.0
 30
0.0
  9
$UCSXDIR
 10
1.0
 20
0.0
 30
0.0
  9
$UCSYDIR
 10
0.0
 20
1.0
 30
0.0
  9
$PUCSNAME
  2

  9
$PUCSORG
 10
0.0
 20
0.0
 30
0.0
  9
$PUCSXDIR
 10
1.0
 20
0.0
 30
0.0
  9
$PUCSYDIR
 10
0.0
 20
1.0
 30
0.0
  9
$USERI1
 70
     0
  9
$USERI2
 70
     0
  9
$USERI3
 70
     0
  9
$USERI4
 70
     0
  9
$USERI5
 70
     0
  9
$USERR1
 40
0.0
  9
$USERR2
 40
0.0
  9
$USERR3
 40
0.0
  9
$USERR4
 40
0.0
  9
$USERR5
 40
0.0
  9
$WORLDVIEW
 70
     1
  9
$SHADEDGE
 70
     3
  9
$SHADEDIF
 70
    70
  9
$TILEMODE
 70
     1
  9
$MAXACTVP
 70
    48
  9
$PLIMCHECK
 70
     0
  9
$PEXTMIN
 10
11.17920514411586
 20
2.0203918794313802
 30
0.0
  9
$PEXTMAX
 10
14.62440271670722
 20
5.4655894520227379
 30
0.0
  9
$PLIMMIN
 10
-0.1579164520023376
 20
-0.2812499887361301
  9
$PLIMMAX
 10
10.84208330770177
 20
8.2187497709679782
  9
$UNITMODE
 70
     0
  9
$VISRETAIN
 70
     1
  9
$PLINEGEN
 70
     0
  9
$PSLTSCALE
 70
     1
  0
ENDSEC
  0
SECTION
  2
TABLES
  0
TABLE
  2
VPORT
 70
     2
  0
VPORT
  2
*ACTIVE
 70
     0
 10
0.0
 20
0.0
 11
1.0
 21
1.0
 12
-13.041931049021979
 22
-3.241033936168892
 13
0.0
 23
0.0
 14
0.5
 24
0.5
 15
0.5
 25
0.5
 16
0.0
 26
0.0
 36
1.0
 17
13.97683461487129
 27
3.7345275859903659
 37
0.0
 40
2.7822924881381699
 41
2.4581395348837201
 42
50.0
 43
0.0
 44
0.0
 50
0.0
 51
0.0
 71
     0
 72
   100
 73
     1
 74
     1
 75
     0
 76
     0
 77
     0
 78
     0
  0
ENDTAB
  0
TABLE
  2
LTYPE
 70
    18
  0
LTYPE
  2
CONTINUOUS
 70
     0
  3
Solid line
 72
    65
 73
     0
 40
0.0
  0
LTYPE
  2
HIDDEN
 70
     0
  3
__ __ __ __ __ __ __ __ __ __ __ __ __ __ __ __
 72
    65
 73
     2
 40
0.375
 49
0.25
 49
-0.125
  0
LTYPE
  2
PHANTOM2
 70
     0
  3
Phantom (.5x) ___ _ _ ___ _ _ ___ _ _ ___ _ _
 72
    65
 73
     6
 40
1.25
 49
0.625
 49
-0.125
 49
0.125
 49
-0.125
 49
0.125
 49
-0.125
  0
LTYPE
  2
CENTER
 70
     0
  3
Center ____ _ ____ _ ____ _ ____ _ ____ _ ____
 72
    65
 73
     4
 40
2.0
 49
1.25
 49
-0.25
 49
0.25
 49
-0.25
  0
LTYPE
  2
ASULTYPE
 70
     0
  3
Solid line
 72
    65
 73
     2
 40
3.0
 49
2.5
 49
0.5
  0
LTYPE
  2
ASVLTYPE
 70
     0
  3
__ __ __ __ __ __ __ __ __ __ __ __ __ __ __ __ __ __ __ __ __
 72
    65
 73
     2
 40
0.75
 49
0.5
 49
-0.25
  0
LTYPE
  2
AM_ISO02W050
 70
     0
  3
__ __ __ __ __ __ __ __ __ __ __ __ __ __ __
 72
    65
 73
     2
 40
7.5
 49
6.0
 49
-1.5
  0
LTYPE
  2
AM_ISO08W050
 70
     0
  3
____ . ____ . ____ . ____ . ____ . ____ . ____
 72
    65
 73
     4
 40
18.0
 49
12.0
 49
-1.5
 49
3.0
 49
-1.5
  0
LTYPE
  2
AM_ISO09W050
 70
     0
  3
_____ . . _____ . . _____ . . ____ .. ____
 72
    65
 73
     6
 40
22.5
 49
12.0
 49
-1.5
 49
3.0
 49
-1.5
 49
3.0
 49
-1.5
  0
LTYPE
  2
AMCONSTR
 70
     0
  3
_______________________
 72
    65
 73
     2
 40
9999.0
 49
9999.0
 49
0.0
  0
LTYPE
  2
AM_ISO08W050X2
 70
     0
  3
__ . __ . __ . __ . __ . __
 72
    65
 73
     4
 40
9.0
 49
6.0
 49
-0.75
 49
1.5
 49
-0.75
  0
LTYPE
  2
AM_ISO02W050X2
 70
     0
  3
 _ _ _ _ _ _ _ _ _ _ _ _
 72
    65
 73
     2
 40
3.75
 49
3.0
 49
-0.75
  0
LTYPE
  2
AMZIGZAG
 70
     0
  3
/\/-/\/-/\/-/\/-/\/-/\/
 72
    65
 73
     2
 40
11.0001
 49
0.0001
 49
-11.0
  0
LTYPE
  2
CENTER2
 70
     0
  3
Center (.5x) ___ _ ___ _ ___ _ ___ _ ___ _ ___
 72
    65
 73
     4
 40
1.125
 49
0.75
 49
-0.125
 49
0.125
 49
-0.125
  0
LTYPE
  2
HIDDEN2
 70
     0
  3
Hidden (.5x) _ _ _ _ _ _ _ _ _ _ _ _ _ _ _ _ _
 72
    65
 73
     2
 40
0.1875
 49
0.125
 49
-0.0625
  0
LTYPE
  2
AMZIGZAG2
 70
     0
  3
/\/-/\/-/\/-/\/-/\/-/\/
 72
    65
 73
     2
 40
0.4401
 49
0.0001
 49
-0.4400000000000001
  0
LTYPE
  2
ACANSTGB
 70
     0
  3
__ . . __ . .
 72
    65
 73
     6
 40
0.35433070866
 49
0.15748031496
 49
-0.03937007874
 49
0.03937007874
 49
-0.03937007874
 49
0.03937007874
 49
-0.03937007874
  0
LTYPE
  2
ACANSTGL
 70
     0
  3
_ _ _ _ _
 72
    65
 73
     2
 40
0.11811023622
 49
0.07874015748
 49
-0.03937007874
  0
ENDTAB
  0
TABLE
  2
LAYER
 70
     3
  0
LAYER
  2
0
 70
     0
 62
     7
  6
CONTINUOUS
  0
LAYER
  2
AM_VIS
 70
     0
 62
     7
  6
CONTINUOUS
  0
LAYER
  2
AM_HID
 70
     0
 62
     7
  6
HIDDEN
  0
ENDTAB
  0
TABLE
  2
STYLE
 70
     4
  0
STYLE
  2
STANDARD
 70
     0
 40
0.0
 41
1.0
 50
0.0
 71
     0
 42
0.2
  3
txt
  4

  0
STYLE
  2

 70
     1
 40
0.0
 41
1.0
 50
0.0
 71
     0
 42
0.2
  3
ltypeshp.shx
  4

  0
STYLE
  2
ACANSTS
 70
     0
 40
1.0
 41
1.0
 50
0.0
 71
     0
 42
0.2
  3
romans.shx
  4

  0
STYLE
  2
ACANSGDT
 70
     0
 40
0.0
 41
1.0
 50
0.0
 71
     0
 42
0.2
  3
amgdtans.shx
  4

  0
ENDTAB
  0
TABLE
  2
VIEW
 70
     0
  0
ENDTAB
  0
TABLE
  2
UCS
 70
     0
  0
ENDTAB
  0
TABLE
  2
APPID
 70
    13
  0
APPID
  2
ACAD
 70
     0
  0
APPID
  2
GENIUS_GENDIM_13
 70
     0
  0
APPID
  2
GENIUS_GENDTOL_13
 70
     0
  0
APPID
  2
GENIUS_GE3DTOL_13
 70
     0
  0
APPID
  2
MCAD_NO_VIS
 70
     0
  0
APPID
  2
ACAD_TEMP_GRAPHIC
 70
     0
  0
APPID
  2
AD_DRAW
 70
     0
  0
APPID
  2
ACATTRIBSERVICES
 70
     0
  0
APPID
  2
ASURF_PCURVE_APPNAME
 70
     0
  0
APPID
  2
AMG_3D2D_5_0
 70
     0
  0
APPID
  2
DESIGNERASSEMBLIES
 70
     0
  0
APPID
  2
ACADM_DIM_EDIT
 70
     0
  0
APPID
  2
AMDT_DM_ADJ
 70
     0
  0
ENDTAB
  0
TABLE
  2
DIMSTYLE
 70
     7
  0
DIMSTYLE
  2
STANDARD
 70
     0
  3

  4

  5

  6

  7

 40
1.0
 41
0.18
 42
0.0625
 43
0.38
 44
0.18
 45
0.0
 46
0.0
 47
0.0
 48
0.0
140
0.18
141
0.09
142
0.0
143
25.399999999999999
144
1.0
145
0.0
146
1.0
147
0.09
 71
     0
 72
     0
 73
     1
 74
     1
 75
     0
 76
     0
 77
     0
 78
     0
170
     0
171
     2
172
     0
173
     0
174
     0
175
     0
176
     0
177
     0
178
     0
  0
DIMSTYLE
  2
AM_ANSI
 70
     0
  3

  4
mm
  5

  6

  7

 40
1.0
 41
0.1
 42
0.05
 43
0.5
 44
0.1
 45
0.0
 46
0.0
 47
0.1
 48
0.1
140
0.12
141
0.0
142
0.0
143
25.399999999999999
144
1.0
145
0.0
146
0.71
147
0.06
 71
     0
 72
     0
 73
     1
 74
     1
 75
     0
 76
     0
 77
     0
 78
     7
170
     0
171
     2
172
     0
173
     0
174
     0
175
     0
176
   256
177
   256
178
     2
  0
DIMSTYLE
  2
AM_ANSI$3
 70
     0
  3

  4
mm
  5

  6

  7

 40
1.0
 41
0.1
 42
0.05
 43
0.5
 44
0.1
 45
0.0
 46
0.0
 47
0.1
 48
0.1
140
0.12
141
0.0
142
0.0
143
25.399999999999999
144
1.0
145
0.0
146
0.71
147
0.06
 71
     0
 72
     0
 73
     1
 74
     1
 75
     0
 76
     0
 77
     0
 78
     7
170
     0
171
     2
172
     0
173
     0
174
     0
175
     0
176
   256
177
   256
178
     2
  0
DIMSTYLE
  2
AM_ANSI$4
 70
     0
  3

  4
mm
  5

  6

  7

 40
1.0
 41
0.1
 42
0.05
 43
0.5
 44
0.1
 45
0.0
 46
0.0
 47
0.1
 48
0.1
140
0.12
141
0.0
142
0.0
143
25.399999999999999
144
1.0
145
0.0
146
0.71
147
0.06
 71
     0
 72
     0
 73
     1
 74
     1
 75
     0
 76
     0
 77
     0
 78
     7
170
     0
171
     2
172
     0
173
     0
174
     0
175
     0
176
   256
177
   256
178
     2
  0
DIMSTYLE
  2
AM_ANSI$7
 70
     0
  3

  4
mm
  5

  6

  7

 40
1.0
 41
0.1
 42
0.05
 43
0.5
 44
0.1
 45
0.0
 46
0.0
 47
0.1
 48
0.1
140
0.24
141
0.0
142
0.0
143
25.399999999999999
144
1.0
145
0.0
146
0.71
147
0.06
 71
     0
 72
     0
 73
     1
 74
     1
 75
     0
 76
     0
 77
     0
 78
     7
170
     0
171
     2
172
     0
173
     0
174
     0
175
     0
176
   256
177
   256
178
     2
  0
DIMSTYLE
  2
AM_ANSI$SF
 70
     0
  3

  4
mm
  5

  6

  7

 40
1.0
 41
0.1
 42
0.05
 43
0.5
 44
0.1
 45
0.0
 46
0.0
 47
0.1
 48
0.1
140
0.12
141
0.0
142
0.0
143
25.399999999999999
144
1.0
145
0.0
146
0.71
147
0.06
 71
     0
 72
     0
 73
     1
 74
     1
 75
     1
 76
     1
 77
     0
 78
     7
170
     0
171
     2
172
     0
173
     0
174
     0
175
     0
176
   256
177
   256
178
     2
  0
DIMSTYLE
  2
AM_ANSI$SH
 70
     0
  3

  4
mm
  5

  6
GENAXEH
  7

 40
1.0
 41
0.1
 42
0.05
 43
0.5
 44
0.1
 45
0.0
 46
0.0
 47
0.1
 48
0.1
140
0.12
141
0.0
142
0.0
143
25.399999999999999
144
1.0
145
0.0
146
0.71
147
0.06
 71
     0
 72
     0
 73
     1
 74
     1
 75
     1
 76
     1
 77
     0
 78
     7
170
     0
171
     2
172
     0
173
     1
174
     0
175
     0
176
   256
177
   256
178
     2
  0
ENDTAB
  0
ENDSEC
  0
SECTION
  2
BLOCKS
  0
BLOCK
  8
0
  2
$MODEL_SPACE
 70
     0
 10
0.0
 20
0.0
 30
0.0
  3
$MODEL_SPACE
  1

  0
ENDBLK
  5
A
  8
0
  0
BLOCK
 67
     1
  8
0
  2
$PAPER_SPACE
 70
     0
 10
0.0
 20
0.0
 30
0.0
  3
$PAPER_SPACE
  1

  0
ENDBLK
  5
F
 67
     1
  8
0
  0
BLOCK
  8
0
  2
*U0
 70
     1
 10
0.0
 20
0.0
 30
0.0
  3
*U0
  1

  0
ENDBLK
  5
110
  8
0
  0
BLOCK
  8
0
  2
GENAXEH
 70
     0
 10
0.0
 20
0.0
 30
0.0
  3
GENAXEH
  1

  0
LINE
  5
14E
  8
0
 10
-1.0
 20
0.0
 30
0.0
 11
1.0
 21
0.0
 31
0.0
  0
ENDBLK
  5
150
  8
0
  0
BLOCK
  8
0
  2
*U2
 70
     1
 10
0.0
 20
0.0
 30
0.0
  3
*U2
  1

  0
TEXT
  5
17A
  8
0
 10
1.7059809631742251
 20
0.7705431424495202
 30
0.0
 40
0.09375
  1
1.750
 50
90.0
  0
ENDBLK
  5
17C
  8
0
  0
ENDSEC
  0
SECTION
  2
ENTITIES
  0
LINE
  5
25
  8
AM_HID
 10
-0.505934901938975
 20
0.5059349019389763
 30
0.0
 11
-0.5818251372298207
 21
0.5818251372298229
 31
0.0
  0
LINE
  5
28
  8
AM_VIS
 10
-0.8228249999999999
 20
0.8228250000000013
 30
0.0
 11
-0.5818251372298207
 21
0.5818251372298225
 31
0.0
  0
LINE
  5
2A
  8
AM_VIS
 10
0.8228249999999999
 20
1.869211284899035
 30
0.0
 11
0.107995785835497
 21
1.869211284899035
 31
0.0
  0
LINE
  5
2B
  8
AM_VIS
 10
-0.1079957858354987
 20
1.869211284899035
 30
0.0
 11
-0.8228249999999999
 21
1.869211284899035
 31
0.0
  0
LINE
  5
2C
  8
AM_VIS
 10
-0.1079957858354987
 20
1.8692112844987769
 30
0.0
 11
0.0
 21
1.8692112844987769
 31
0.0
  0
LINE
  5
2D
  8
AM_VIS
 10
0.0
 20
1.869211284498778
 30
0.0
 11
0.107995785835497
 21
1.869211284498778
 31
0.0
  0
ARC
  5
2E
  8
AM_VIS
 10
0.0083382704834314
 20
1.4214582201642809
 30
0.0
 40
0.2935909238932109
 50
91.628210105780795
 51
130.70568439048171
  0
ARC
  5
2F
  8
AM_VIS
 10
-0.0083382704834332
 20
1.4214582201642769
 30
0.0
 40
0.2935909238932146
 50
49.29431560951862
 51
88.371789894219177
  0
ARC
  5
30
  8
AM_VIS
 10
0.0
 20
1.4184462848990349
 30
0.0
 40
0.290671875
 50
129.0723075591805
 51
230.92769244081961
  0
ARC
  5
31
  8
AM_VIS
 10
0.0083382704834225
 20
1.4154343496337649
 30
0.0
 40
0.2935909238931871
 50
229.2943156095165
 51
268.3717898942208
  0
CIRCLE
  5
32
  8
AM_VIS
 10
-0.0000000000000018
 20
1.4184462848990349
 30
0.0
 40
0.22359375
  0
ARC
  5
33
  8
AM_VIS
 10
-0.0083382704834243
 20
1.41543434963377
 30
0.0
 40
0.2935909238931929
 50
271.62821010577937
 51
310.70568439048299
  0
ARC
  5
34
  8
AM_VIS
 10
-0.0000000000000018
 20
1.418446284899034
 30
0.0
 40
0.290671875
 50
309.07230755918067
 51
50.927692440819577
  0
ARC
  5
35
  8
AM_VIS
 10
0.0
 20
0.0
 30
0.0
 40
0.8228249999999999
 50
180.0
 51
89.999999999999915
  0
LINE
  5
36
  8
AM_VIS
 10
-1.869211284899035
 20
0.8228250000000003
 30
0.0
 11
-1.869211284899035
 21
0.1079957858354983
 31
0.0
  0
LINE
  5
37
  8
AM_VIS
 10
-1.869211284899035
 20
-0.1079957858354987
 30
0.0
 11
-1.869211284899035
 21
-0.8228249999999995
 31
0.0
  0
ARC
  5
38
  8
AM_VIS
 10
0.0
 20
0.0
 30
0.0
 40
0.8228249999999999
 50
89.999999999999943
 51
180.0
  0
ARC
  5
39
  8
AM_VIS
 10
0.9576908679806361
 20
-0.2936513091857336
 30
0.0
 40
0.1788749999999995
 50
162.95318688338099
 51
225.0
  0
ARC
  5
3A
  8
AM_VIS
 10
0.2936513091857336
 20
-0.9576908679806347
 30
0.0
 40
0.178874999999999
 50
44.99999999999995
 51
107.04681311661911
  0
LINE
  5
3B
  8
AM_VIS
 10
0.547138422610475
 20
-0.8062374400762827
 30
0.0
 11
0.4711518774306711
 21
-0.8822239852560866
 31
0.0
  0
LINE
  5
3C
  8
AM_VIS
 10
0.8822239852560863
 20
-0.4711518774306716
 30
0.0
 11
0.8062374400762823
 21
-0.5471384226104754
 31
0.0
  0
LINE
  5
3D
  8
AM_VIS
 10
0.6766879313428369
 20
-0.6766879313438206
 30
0.0
 11
0.8062374400764814
 21
-0.5471384226106753
 31
0.0
  0
LINE
  5
3E
  8
AM_VIS
 10
0.547138422610674
 20
-0.8062374400764817
 30
0.0
 11
0.6766879313438193
 21
-0.6766879313428375
 31
0.0
  0
CIRCLE
  5
3F
  8
AM_VIS
 10
0.0
 20
0.0
 30
0.0
 40
0.7155000000000001
  0
LINE
  5
40
  8
AM_VIS
 10
-1.8692112844904081
 20
0.0000000000000009
 30
0.0
 11
-1.8692112844904081
 21
-0.1079957858354983
 31
0.0
  0
LINE
  5
41
  8
AM_VIS
 10
-1.8692112844904081
 20
0.1079957858354987
 30
0.0
 11
-1.8692112844904081
 21
0.0000000000000009
 31
0.0
  0
ARC
  5
42
  8
AM_VIS
 10
-1.42145822016428
 20
0.0083382704834327
 30
0.0
 40
0.2935909238932125
 50
181.62821010578091
 51
220.70568439048171
  0
ARC
  5
43
  8
AM_VIS
 10
-1.4214582201642769
 20
-0.0083382704834327
 30
0.0
 40
0.2935909238932162
 50
139.29431560951861
 51
178.37178989421889
  0
ARC
  5
44
  8
AM_VIS
 10
-1.4184462848990349
 20
0.0000000000000018
 30
0.0
 40
0.290671875
 50
219.0723075591805
 51
320.92769244081973
  0
ARC
  5
45
  8
AM_VIS
 10
-1.415434349633772
 20
0.0083382704834252
 30
0.0
 40
0.2935909238931936
 50
319.29431560951713
 51
358.37178989422051
  0
CIRCLE
  5
46
  8
AM_VIS
 10
-1.4184462848990349
 20
-0.0000000000000009
 30
0.0
 40
0.22359375
  0
ARC
  5
47
  8
AM_VIS
 10
-1.4154343496337749
 20
-0.0083382704834252
 30
0.0
 40
0.2935909238931967
 50
1.6282101057796079
 51
40.705684390482681
  0
ARC
  5
48
  8
AM_VIS
 10
-1.4184462848990349
 20
-0.0000000000000009
 30
0.0
 40
0.290671875
 50
39.072307559180622
 51
140.92769244081961
  0
LINE
  5
49
  8
AM_HID
 10
0.0
 20
-0.7154999999999987
 30
0.0
 11
-1.869211284899035
 21
-0.7154999999999996
 31
0.0
  0
LINE
  5
4A
  8
AM_HID
 10
-0.7155000000000005
 20
0.715500000000001
 30
0.0
 11
-1.869211284899035
 21
0.7155000000000005
 31
0.0
  0
LINE
  5
4B
  8
AM_VIS
 10
-0.8228249999999999
 20
0.8228250000000013
 30
0.0
 11
-0.8228249999999999
 21
1.869211284899035
 31
0.0
  0
LINE
  5
4C
  8
AM_VIS
 10
0.8228250000000016
 20
-0.0000000000000004
 30
0.0
 11
0.8228249999999999
 21
1.869211284899035
 31
0.0
  0
LINE
  5
4D
  8
AM_VIS
 10
0.0
 20
-0.8228249999999984
 30
0.0
 11
-1.869211284899035
 21
-0.8228249999999995
 31
0.0
  0
LINE
  5
4E
  8
AM_VIS
 10
-0.8228249999999999
 20
0.8228250000000013
 30
0.0
 11
-1.869211284899035
 21
0.8228250000000013
 31
0.0
  0
LINE
  5
4F
  8
AM_HID
 10
-0.7155000000000005
 20
0.7155000000000014
 30
0.0
 11
-0.7155000000000005
 21
1.869211284899035
 31
0.0
  0
LINE
  5
50
  8
AM_HID
 10
0.7155000000000005
 20
0.0
 30
0.0
 11
0.7155000000000005
 21
1.8692112848990341
 31
0.0
  0
LINE
  5
51
  8
AM_HID
 10
0.5185832744874475
 20
-0.8347925881993095
 30
0.0
 11
0.3224918916964583
 21
-0.6387012054083195
 31
0.0
  0
LINE
  5
52
  8
AM_HID
 10
0.8347925881993081
 20
-0.5185832744874502
 30
0.0
 11
0.638701205408319
 21
-0.3224918916964601
 31
0.0
  0
LINE
  5
53
  8
AM_VIS
 10
0.8822239852560863
 20
-0.4711518774306716
 30
0.0
 11
0.8312071424958915
 21
-0.4201350346704773
 31
0.0
  0
LINE
  5
54
  8
AM_VIS
 10
0.4201350346704765
 20
-0.8312071424958919
 30
0.0
 11
0.4711518774306711
 21
-0.8822239852560866
 31
0.0
  0
LINE
  5
157
  8
0
 10
0.8853249999999999
 20
1.869211284899035
 30
0.0
 11
1.8391059631742259
 21
1.869211284899035
 31
0.0
  0
LINE
  5
158
  8
0
 10
0.0625
 20
0.0
 30
0.0
 11
1.8391059631742239
 21
-0.0000000000000004
 31
0.0
  0
LINE
  5
159
  8
0
 10
1.659105963174226
 20
1.744211284899035
 30
0.0
 11
1.659105963174226
 21
1.2433556424495169
 31
0.0
  0
LINE
  5
15A
  8
0
 10
1.6591059631742251
 20
0.1249999999999996
 30
0.0
 11
1.6591059631742251
 21
0.6258556424495178
 31
0.0
  0
SOLID
  5
15B
  8
0
 10
1.6382726298408921
 20
1.744211284899035
 30
0.0
 11
1.6799392965075599
 21
1.744211284899035
 31
0.0
 12
1.659105963174226
 22
1.869211284899035
 32
0.0
 13
1.659105963174226
 23
1.869211284899035
 33
0.0
  0
SOLID
  5
15C
  8
0
 10
1.6382726298408909
 20
0.1249999999999996
 30
0.0
 11
1.679939296507559
 21
0.1249999999999996
 31
0.0
 12
1.6591059631742251
 22
-0.0000000000000004
 32
0.0
 13
1.6591059631742251
 23
-0.0000000000000004
 33
0.0
  0
INSERT
  5
15D
  8
0
  2
*U2
 10
0.0
 20
0.0
 30
0.0
  0
ENDSEC
  0
EOF
