  0
SECTION
  2
HEADER
  9
$ACADVER
  1
AC1009
  9
$INSBASE
 10
0.0
 20
0.0
 30
0.0
  9
$EXTMIN
 10
13.214708921943989
 20
1.089813079895632
 30
0.0
  9
$EXTMAX
 10
16.886149925277081
 20
6.4298130798956334
 30
0.0
  9
$LIMMIN
 10
0.0
 20
0.0
  9
$LIMMAX
 10
12.0
 20
9.0
  9
$ORTHOMODE
 70
     1
  9
$REGENMODE
 70
     0
  9
$FILLMODE
 70
     1
  9
$QTEXTMODE
 70
     0
  9
$MIRRTEXT
 70
     0
  9
$DRAGMODE
 70
     2
  9
$LTSCALE
 40
1.0
  9
$OSMODE
 70
    55
  9
$ATTMODE
 70
     1
  9
$TEXTSIZE
 40
0.2
  9
$TRACEWID
 40
0.05
  9
$TEXTSTYLE
  7
STANDARD
  9
$CLAYER
  8
0
  9
$CELTYPE
  6
BYLAYER
  9
$CECOLOR
 62
   256
  9
$DIMSCALE
 40
1.0
  9
$DIMASZ
 40
0.125
  9
$DIMEXO
 40
0.0625
  9
$DIMDLI
 40
0.38
  9
$DIMRND
 40
0.0
  9
$DIMDLE
 40
0.0
  9
$DIMEXE
 40
0.18
  9
$DIMTP
 40
0.0
  9
$DIMTM
 40
0.0
  9
$DIMTXT
 40
0.09375
  9
$DIMCEN
 40
-0.125
  9
$DIMTSZ
 40
0.0
  9
$DIMTOL
 70
     0
  9
$DIMLIM
 70
     0
  9
$DIMTIH
 70
     0
  9
$DIMTOH
 70
     0
  9
$DIMSE1
 70
     0
  9
$DIMSE2
 70
     0
  9
$DIMTAD
 70
     0
  9
$DIMZIN
 70
     3
  9
$DIMBLK
  1

  9
$DIMASO
 70
     0
  9
$DIMSHO
 70
     1
  9
$DIMPOST
  1

  9
$DIMAPOST
  1

  9
$DIMALT
 70
     0
  9
$DIMALTD
 70
     2
  9
$DIMALTF
 40
25.399999999999999
  9
$DIMLFAC
 40
1.0
  9
$DIMTOFL
 70
     1
  9
$DIMTVP
 40
0.0
  9
$DIMTIX
 70
     0
  9
$DIMSOXD
 70
     0
  9
$DIMSAH
 70
     0
  9
$DIMBLK1
  1

  9
$DIMBLK2
  1

  9
$DIMSTYLE
  2
STANDARD
  9
$DIMCLRD
 70
     0
  9
$DIMCLRE
 70
     0
  9
$DIMCLRT
 70
     0
  9
$DIMTFAC
 40
1.0
  9
$DIMGAP
 40
0.09
  9
$LUNITS
 70
     4
  9
$LUPREC
 70
     4
  9
$SKETCHINC
 40
0.1
  9
$FILLETRAD
 40
0.025
  9
$AUNITS
 70
     0
  9
$AUPREC
 70
     4
  9
$MENU
  1
.
  9
$ELEVATION
 40
0.0
  9
$PELEVATION
 40
0.0
  9
$THICKNESS
 40
0.0
  9
$LIMCHECK
 70
     0
  9
$BLIPMODE
 70
     0
  9
$CHAMFERA
 40
0.125
  9
$CHAMFERB
 40
0.5
  9
$SKPOLY
 70
     0
  9
$TDCREATE
 40
2451086.9109346061
  9
$TDUPDATE
 40
2453913.5803933102
  9
$TDINDWG
 40
0.0679843519
  9
$TDUSRTIMER
 40
0.0679843519
  9
$USRTIMER
 70
     1
  9
$ANGBASE
 50
0.0
  9
$ANGDIR
 70
     0
  9
$PDMODE
 70
    34
  9
$PDSIZE
 40
3.0
  9
$PLINEWID
 40
0.0
  9
$COORDS
 70
     1
  9
$SPLFRAME
 70
     0
  9
$SPLINETYPE
 70
     6
  9
$SPLINESEGS
 70
     8
  9
$ATTDIA
 70
     0
  9
$ATTREQ
 70
     1
  9
$HANDLING
 70
     1
  9
$HANDSEED
  5
93B
  9
$SURFTAB1
 70
     6
  9
$SURFTAB2
 70
     6
  9
$SURFTYPE
 70
     6
  9
$SURFU
 70
     6
  9
$SURFV
 70
     6
  9
$UCSNAME
  2

  9
$UCSORG
 10
0.0
 20
0.0
 30
0.0
  9
$UCSXDIR
 10
1.0
 20
0.0
 30
0.0
  9
$UCSYDIR
 10
0.0
 20
1.0
 30
0.0
  9
$PUCSNAME
  2

  9
$PUCSORG
 10
0.0
 20
0.0
 30
0.0
  9
$PUCSXDIR
 10
1.0
 20
0.0
 30
0.0
  9
$PUCSYDIR
 10
0.0
 20
1.0
 30
0.0
  9
$USERI1
 70
     0
  9
$USERI2
 70
     0
  9
$USERI3
 70
     0
  9
$USERI4
 70
     0
  9
$USERI5
 70
     0
  9
$USERR1
 40
0.0
  9
$USERR2
 40
0.0
  9
$USERR3
 40
0.0
  9
$USERR4
 40
0.0
  9
$USERR5
 40
0.0
  9
$WORLDVIEW
 70
     1
  9
$SHADEDGE
 70
     3
  9
$SHADEDIF
 70
    70
  9
$TILEMODE
 70
     1
  9
$MAXACTVP
 70
    48
  9
$PLIMCHECK
 70
     0
  9
$PEXTMIN
 10
14.07222128591884
 20
0.5967910317883991
 30
0.0
  9
$PEXTMAX
 10
17.2536513517936
 20
6.9228351280028662
 30
0.0
  9
$PLIMMIN
 10
-0.1579164520023376
 20
-0.2812499887361301
  9
$PLIMMAX
 10
10.84208330770177
 20
8.2187497709679782
  9
$UNITMODE
 70
     0
  9
$VISRETAIN
 70
     1
  9
$PLINEGEN
 70
     0
  9
$PSLTSCALE
 70
     1
  0
ENDSEC
  0
SECTION
  2
TABLES
  0
TABLE
  2
VPORT
 70
     2
  0
VPORT
  2
*ACTIVE
 70
     0
 10
0.0
 20
0.0
 11
1.0
 21
1.0
 12
-2.2022147091136319
 22
0.0
 13
0.0
 23
0.0
 14
0.5
 24
0.5
 15
0.5
 25
0.5
 16
0.0
 26
0.0
 36
1.0
 17
19.138649933021721
 27
3.7598130798956322
 37
0.0
 40
5.3400000199911286
 41
2.38716814159292
 42
50.0
 43
0.0
 44
0.0
 50
0.0
 51
0.0
 71
     0
 72
   100
 73
     1
 74
     1
 75
     0
 76
     0
 77
     0
 78
     0
  0
ENDTAB
  0
TABLE
  2
LTYPE
 70
    18
  0
LTYPE
  2
CONTINUOUS
 70
     0
  3
Solid line
 72
    65
 73
     0
 40
0.0
  0
LTYPE
  2
HIDDEN
 70
     0
  3
__ __ __ __ __ __ __ __ __ __ __ __ __ __ __ __
 72
    65
 73
     2
 40
0.375
 49
0.25
 49
-0.125
  0
LTYPE
  2
PHANTOM2
 70
     0
  3
Phantom (.5x) ___ _ _ ___ _ _ ___ _ _ ___ _ _
 72
    65
 73
     6
 40
1.25
 49
0.625
 49
-0.125
 49
0.125
 49
-0.125
 49
0.125
 49
-0.125
  0
LTYPE
  2
CENTER
 70
     0
  3
Center ____ _ ____ _ ____ _ ____ _ ____ _ ____
 72
    65
 73
     4
 40
2.0
 49
1.25
 49
-0.25
 49
0.25
 49
-0.25
  0
LTYPE
  2
ASULTYPE
 70
     0
  3
Solid line
 72
    65
 73
     2
 40
3.0
 49
2.5
 49
0.5
  0
LTYPE
  2
ASVLTYPE
 70
     0
  3
__ __ __ __ __ __ __ __ __ __ __ __ __ __ __ __ __ __ __ __ __
 72
    65
 73
     2
 40
0.75
 49
0.5
 49
-0.25
  0
LTYPE
  2
AM_ISO02W050
 70
     0
  3
__ __ __ __ __ __ __ __ __ __ __ __ __ __ __
 72
    65
 73
     2
 40
7.5
 49
6.0
 49
-1.5
  0
LTYPE
  2
AM_ISO08W050
 70
     0
  3
____ . ____ . ____ . ____ . ____ . ____ . ____
 72
    65
 73
     4
 40
18.0
 49
12.0
 49
-1.5
 49
3.0
 49
-1.5
  0
LTYPE
  2
AM_ISO09W050
 70
     0
  3
_____ . . _____ . . _____ . . ____ .. ____
 72
    65
 73
     6
 40
22.5
 49
12.0
 49
-1.5
 49
3.0
 49
-1.5
 49
3.0
 49
-1.5
  0
LTYPE
  2
AMCONSTR
 70
     0
  3
_______________________
 72
    65
 73
     2
 40
9999.0
 49
9999.0
 49
0.0
  0
LTYPE
  2
AM_ISO08W050X2
 70
     0
  3
__ . __ . __ . __ . __ . __
 72
    65
 73
     4
 40
9.0
 49
6.0
 49
-0.75
 49
1.5
 49
-0.75
  0
LTYPE
  2
AM_ISO02W050X2
 70
     0
  3
 _ _ _ _ _ _ _ _ _ _ _ _
 72
    65
 73
     2
 40
3.75
 49
3.0
 49
-0.75
  0
LTYPE
  2
AMZIGZAG
 70
     0
  3
/\/-/\/-/\/-/\/-/\/-/\/
 72
    65
 73
     2
 40
11.0001
 49
0.0001
 49
-11.0
  0
LTYPE
  2
CENTER2
 70
     0
  3
Center (.5x) ___ _ ___ _ ___ _ ___ _ ___ _ ___
 72
    65
 73
     4
 40
1.125
 49
0.75
 49
-0.125
 49
0.125
 49
-0.125
  0
LTYPE
  2
HIDDEN2
 70
     0
  3
Hidden (.5x) _ _ _ _ _ _ _ _ _ _ _ _ _ _ _ _ _
 72
    65
 73
     2
 40
0.1875
 49
0.125
 49
-0.0625
  0
LTYPE
  2
AMZIGZAG2
 70
     0
  3
/\/-/\/-/\/-/\/-/\/-/\/
 72
    65
 73
     2
 40
0.4401
 49
0.0001
 49
-0.4400000000000001
  0
LTYPE
  2
ACANSTGB
 70
     0
  3
__ . . __ . .
 72
    65
 73
     6
 40
0.35433070866
 49
0.15748031496
 49
-0.03937007874
 49
0.03937007874
 49
-0.03937007874
 49
0.03937007874
 49
-0.03937007874
  0
LTYPE
  2
ACANSTGL
 70
     0
  3
_ _ _ _ _
 72
    65
 73
     2
 40
0.11811023622
 49
0.07874015748
 49
-0.03937007874
  0
ENDTAB
  0
TABLE
  2
LAYER
 70
     4
  0
LAYER
  2
0
 70
     0
 62
     7
  6
CONTINUOUS
  0
LAYER
  2
AM_VIS
 70
     0
 62
     7
  6
CONTINUOUS
  0
LAYER
  2
AM_HID
 70
     0
 62
     7
  6
HIDDEN
  0
LAYER
  2
KEE10
 70
     0
 62
     7
  6
CONTINUOUS
  0
ENDTAB
  0
TABLE
  2
STYLE
 70
     5
  0
STYLE
  2
STANDARD
 70
     0
 40
0.0
 41
1.0
 50
0.0
 71
     0
 42
0.2
  3
txt
  4

  0
STYLE
  2

 70
     1
 40
0.0
 41
1.0
 50
0.0
 71
     0
 42
0.2
  3
ltypeshp.shx
  4

  0
STYLE
  2
ACANSTS
 70
     0
 40
1.0
 41
1.0
 50
0.0
 71
     0
 42
0.2
  3
romans.shx
  4

  0
STYLE
  2
ACANSGDT
 70
     0
 40
0.0
 41
1.0
 50
0.0
 71
     0
 42
0.2
  3
amgdtans.shx
  4

  0
STYLE
  2
ACANSTSB
 70
     0
 40
1.0
 41
1.0
 50
0.0
 71
     0
 42
0.2
  3
romans.shx
  4

  0
ENDTAB
  0
TABLE
  2
VIEW
 70
     0
  0
ENDTAB
  0
TABLE
  2
UCS
 70
     0
  0
ENDTAB
  0
TABLE
  2
APPID
 70
    13
  0
APPID
  2
ACAD
 70
     0
  0
APPID
  2
GENIUS_GENDIM_13
 70
     0
  0
APPID
  2
GENIUS_GENDTOL_13
 70
     0
  0
APPID
  2
GENIUS_GE3DTOL_13
 70
     0
  0
APPID
  2
MCAD_NO_VIS
 70
     0
  0
APPID
  2
ACAD_TEMP_GRAPHIC
 70
     0
  0
APPID
  2
AD_DRAW
 70
     0
  0
APPID
  2
ACATTRIBSERVICES
 70
     0
  0
APPID
  2
ASURF_PCURVE_APPNAME
 70
     0
  0
APPID
  2
AMG_3D2D_5_0
 70
     0
  0
APPID
  2
DESIGNERASSEMBLIES
 70
     0
  0
APPID
  2
ACADM_DIM_EDIT
 70
     0
  0
APPID
  2
AMDT_DM_ADJ
 70
     0
  0
ENDTAB
  0
TABLE
  2
DIMSTYLE
 70
     7
  0
DIMSTYLE
  2
STANDARD
 70
     0
  3

  4

  5

  6

  7

 40
1.0
 41
0.18
 42
0.0625
 43
0.38
 44
0.18
 45
0.0
 46
0.0
 47
0.0
 48
0.0
140
0.18
141
0.09
142
0.0
143
25.399999999999999
144
1.0
145
0.0
146
1.0
147
0.09
 71
     0
 72
     0
 73
     1
 74
     1
 75
     0
 76
     0
 77
     0
 78
     0
170
     0
171
     2
172
     0
173
     0
174
     0
175
     0
176
     0
177
     0
178
     0
  0
DIMSTYLE
  2
AM_ANSI
 70
     0
  3

  4
mm
  5

  6

  7

 40
1.0
 41
0.1
 42
0.05
 43
0.5
 44
0.1
 45
0.0
 46
0.0
 47
0.1
 48
0.1
140
0.12
141
0.0
142
0.0
143
25.399999999999999
144
1.0
145
0.0
146
0.71
147
0.06
 71
     0
 72
     0
 73
     1
 74
     1
 75
     0
 76
     0
 77
     0
 78
     7
170
     0
171
     2
172
     0
173
     0
174
     0
175
     0
176
   256
177
   256
178
     2
  0
DIMSTYLE
  2
AM_ANSI$3
 70
     0
  3

  4
mm
  5

  6

  7

 40
1.0
 41
0.1
 42
0.05
 43
0.5
 44
0.1
 45
0.0
 46
0.0
 47
0.1
 48
0.1
140
0.12
141
0.0
142
0.0
143
25.399999999999999
144
1.0
145
0.0
146
0.71
147
0.06
 71
     0
 72
     0
 73
     1
 74
     1
 75
     0
 76
     0
 77
     0
 78
     7
170
     0
171
     2
172
     0
173
     0
174
     0
175
     0
176
   256
177
   256
178
     2
  0
DIMSTYLE
  2
AM_ANSI$4
 70
     0
  3

  4
mm
  5

  6

  7

 40
1.0
 41
0.1
 42
0.05
 43
0.5
 44
0.1
 45
0.0
 46
0.0
 47
0.1
 48
0.1
140
0.12
141
0.0
142
0.0
143
25.399999999999999
144
1.0
145
0.0
146
0.71
147
0.06
 71
     0
 72
     0
 73
     1
 74
     1
 75
     0
 76
     0
 77
     0
 78
     7
170
     0
171
     2
172
     0
173
     0
174
     0
175
     0
176
   256
177
   256
178
     2
  0
DIMSTYLE
  2
AM_ANSI$7
 70
     0
  3

  4
mm
  5

  6

  7

 40
1.0
 41
0.1
 42
0.05
 43
0.5
 44
0.1
 45
0.0
 46
0.0
 47
0.1
 48
0.1
140
0.24
141
0.0
142
0.0
143
25.399999999999999
144
1.0
145
0.0
146
0.71
147
0.06
 71
     0
 72
     0
 73
     1
 74
     1
 75
     0
 76
     0
 77
     0
 78
     7
170
     0
171
     2
172
     0
173
     0
174
     0
175
     0
176
   256
177
   256
178
     2
  0
DIMSTYLE
  2
AM_ANSI$SF
 70
     0
  3

  4
mm
  5

  6

  7

 40
1.0
 41
0.1
 42
0.05
 43
0.5
 44
0.1
 45
0.0
 46
0.0
 47
0.1
 48
0.1
140
0.12
141
0.0
142
0.0
143
25.399999999999999
144
1.0
145
0.0
146
0.71
147
0.06
 71
     0
 72
     0
 73
     1
 74
     1
 75
     1
 76
     1
 77
     0
 78
     7
170
     0
171
     2
172
     0
173
     0
174
     0
175
     0
176
   256
177
   256
178
     2
  0
DIMSTYLE
  2
AM_ANSI$SH
 70
     0
  3

  4
mm
  5

  6
GENAXEH
  7

 40
1.0
 41
0.1
 42
0.05
 43
0.5
 44
0.1
 45
0.0
 46
0.0
 47
0.1
 48
0.1
140
0.12
141
0.0
142
0.0
143
25.399999999999999
144
1.0
145
0.0
146
0.71
147
0.06
 71
     0
 72
     0
 73
     1
 74
     1
 75
     1
 76
     1
 77
     0
 78
     7
170
     0
171
     2
172
     0
173
     1
174
     0
175
     0
176
   256
177
   256
178
     2
  0
ENDTAB
  0
ENDSEC
  0
SECTION
  2
BLOCKS
  0
BLOCK
  8
0
  2
$MODEL_SPACE
 70
     0
 10
0.0
 20
0.0
 30
0.0
  3
$MODEL_SPACE
  1

  0
ENDBLK
  5
A
  8
0
  0
BLOCK
 67
     1
  8
0
  2
$PAPER_SPACE
 70
     0
 10
0.0
 20
0.0
 30
0.0
  3
$PAPER_SPACE
  1

  0
ENDBLK
  5
F
 67
     1
  8
0
  0
BLOCK
  8
0
  2
*U0
 70
     1
 10
0.0
 20
0.0
 30
0.0
  3
*U0
  1

  0
ENDBLK
  5
117
  8
0
  0
BLOCK
  8
0
  2
GENAXEH
 70
     0
 10
0.0
 20
0.0
 30
0.0
  3
GENAXEH
  1

  0
LINE
  5
155
  8
0
 10
-1.0
 20
0.0
 30
0.0
 11
1.0
 21
0.0
 31
0.0
  0
ENDBLK
  5
157
  8
0
  0
BLOCK
  8
0
  2
_DOT
 70
     0
 10
0.0
 20
0.0
 30
0.0
  3
_DOT
  1

  0
POLYLINE
  5
15E
  8
0
  6
BYBLOCK
 62
     0
 66
     1
 10
0.0
 20
0.0
 30
0.0
 70
     1
 40
0.5
 41
0.5
  0
VERTEX
  5
15F
  8
0
  6
BYBLOCK
 62
     0
 10
-0.25
 20
0.0
 30
0.0
 42
1.0
  0
VERTEX
  5
160
  8
0
  6
BYBLOCK
 62
     0
 10
0.25
 20
0.0
 30
0.0
 42
1.0
  0
SEQEND
  5
161
  8
0
  6
BYBLOCK
 62
     0
  0
LINE
  5
162
  8
0
  6
BYBLOCK
 62
     0
 10
-0.5
 20
0.0
 30
0.0
 11
-1.0
 21
0.0
 31
0.0
  0
ENDBLK
  5
164
  8
0
  0
BLOCK
  8
0
  2
2D
 70
     0
 10
0.0
 20
0.0
 30
0.0
  3
2D
  1

  0
INSERT
  5
168
  8
0
  2
*U4
 10
0.0
 20
0.0
 30
0.0
  0
INSERT
  5
169
  8
0
  2
*U5
 10
0.0
 20
0.0
 30
0.0
  0
INSERT
  5
16A
  8
0
  2
*U6
 10
0.0
 20
0.0
 30
0.0
  0
ENDBLK
  5
16C
  8
0
  0
BLOCK
  8
0
  2
*U4
 70
     1
 10
0.0
 20
0.0
 30
0.0
  3
*U4
  1

  0
TEXT
  5
19C
  8
KEE10
 10
-0.167740653382606
 20
0.7944046258072062
 30
0.0
 40
0.140625
  1
KEE
  0
ENDBLK
  5
19E
  8
0
  0
BLOCK
  8
0
  2
*U5
 70
     1
 10
0.0
 20
0.0
 30
0.0
  3
*U5
  1

  0
TEXT
  5
1A0
  8
KEE10
 10
-0.308365653382606
 20
0.4858688129746218
 30
0.0
 40
0.140625
  1
KLAMP
  0
ENDBLK
  5
1A2
  8
0
  0
BLOCK
  8
0
  2
*U6
 70
     1
 10
0.0
 20
0.0
 30
0.0
  3
*U6
  1

  0
TEXT
  5
1A4
  8
KEE10
 10
-0.202896903382606
 20
0.2018753139112972
 30
0.0
 40
0.140625
  1
10-8
  0
ENDBLK
  5
1A6
  8
0
  0
BLOCK
  8
0
  2
*U7
 70
     1
 10
0.0
 20
0.0
 30
0.0
  3
*U7
  1

  0
TEXT
  5
1A8
  8
KEE10
 10
15.34473433970085
 20
5.9915261291008024
 30
0.0
 40
0.140625
  1
KEE
  0
ENDBLK
  5
1AA
  8
0
  0
BLOCK
  8
0
  2
*U8
 70
     1
 10
0.0
 20
0.0
 30
0.0
  3
*U8
  1

  0
TEXT
  5
1AC
  8
KEE10
 10
15.20410933970085
 20
5.682990316268218
 30
0.0
 40
0.140625
  1
KLAMP
  0
ENDBLK
  5
1AE
  8
0
  0
BLOCK
  8
0
  2
*U9
 70
     1
 10
0.0
 20
0.0
 30
0.0
  3
*U9
  1

  0
TEXT
  5
1B0
  8
0
 10
13.441583921943989
 20
3.5098130798956348
 30
0.0
 40
0.09375
  1
5-3/8"
 50
90.0
  0
ENDBLK
  5
1B2
  8
0
  0
ENDSEC
  0
SECTION
  2
ENTITIES
  0
POLYLINE
  8
AM_VIS
  5
1B3
  66
     1
 10
0.000000
 20
0.000000
 30
0.000000
  70
     8
  0
VERTEX
  8
AM_VIS
  5
1B4
 10
16.6986
 20
4.18156
 30
0.000000
  70
    32
  0
VERTEX
  8
AM_VIS
  5
1B5
 10
16.6986
 20
4.18156
 30
0.000000
  70
    32
  0
VERTEX
  8
AM_VIS
  5
1B6
 10
16.6986
 20
4.18156
 30
0.000000
  70
    32
  0
VERTEX
  8
AM_VIS
  5
1B7
 10
16.6986
 20
4.18156
 30
0.000000
  70
    32
  0
VERTEX
  8
AM_VIS
  5
1B8
 10
16.6986
 20
4.18156
 30
0.000000
  70
    32
  0
VERTEX
  8
AM_VIS
  5
1B9
 10
16.6986
 20
4.18156
 30
0.000000
  70
    32
  0
VERTEX
  8
AM_VIS
  5
1BA
 10
16.6986
 20
4.18156
 30
0.000000
  70
    32
  0
VERTEX
  8
AM_VIS
  5
1BB
 10
16.6986
 20
4.18155
 30
0.000000
  70
    32
  0
VERTEX
  8
AM_VIS
  5
1BC
 10
16.6986
 20
4.18155
 30
0.000000
  70
    32
  0
VERTEX
  8
AM_VIS
  5
1BD
 10
16.6986
 20
4.18155
 30
0.000000
  70
    32
  0
VERTEX
  8
AM_VIS
  5
1BE
 10
16.6986
 20
4.18154
 30
0.000000
  70
    32
  0
VERTEX
  8
AM_VIS
  5
1BF
 10
16.6986
 20
4.18154
 30
0.000000
  70
    32
  0
VERTEX
  8
AM_VIS
  5
1C0
 10
16.6986
 20
4.18153
 30
0.000000
  70
    32
  0
VERTEX
  8
AM_VIS
  5
1C1
 10
16.6986
 20
4.18153
 30
0.000000
  70
    32
  0
VERTEX
  8
AM_VIS
  5
1C2
 10
16.6986
 20
4.18152
 30
0.000000
  70
    32
  0
VERTEX
  8
AM_VIS
  5
1C3
 10
16.6986
 20
4.18152
 30
0.000000
  70
    32
  0
VERTEX
  8
AM_VIS
  5
1C4
 10
16.6986
 20
4.18151
 30
0.000000
  70
    32
  0
VERTEX
  8
AM_VIS
  5
1C5
 10
16.6986
 20
4.18150
 30
0.000000
  70
    32
  0
VERTEX
  8
AM_VIS
  5
1C6
 10
16.6986
 20
4.18150
 30
0.000000
  70
    32
  0
VERTEX
  8
AM_VIS
  5
1C7
 10
16.6986
 20
4.18149
 30
0.000000
  70
    32
  0
VERTEX
  8
AM_VIS
  5
1C8
 10
16.6986
 20
4.18148
 30
0.000000
  70
    32
  0
VERTEX
  8
AM_VIS
  5
1C9
 10
16.6986
 20
4.18147
 30
0.000000
  70
    32
  0
VERTEX
  8
AM_VIS
  5
1CA
 10
16.6986
 20
4.18146
 30
0.000000
  70
    32
  0
VERTEX
  8
AM_VIS
  5
1CB
 10
16.6986
 20
4.18145
 30
0.000000
  70
    32
  0
VERTEX
  8
AM_VIS
  5
1CC
 10
16.6986
 20
4.18145
 30
0.000000
  70
    32
  0
VERTEX
  8
AM_VIS
  5
1CD
 10
16.6986
 20
4.18143
 30
0.000000
  70
    32
  0
VERTEX
  8
AM_VIS
  5
1CE
 10
16.6986
 20
4.18142
 30
0.000000
  70
    32
  0
VERTEX
  8
AM_VIS
  5
1CF
 10
16.6986
 20
4.18141
 30
0.000000
  70
    32
  0
VERTEX
  8
AM_VIS
  5
1D0
 10
16.6985
 20
4.18140
 30
0.000000
  70
    32
  0
VERTEX
  8
AM_VIS
  5
1D1
 10
16.6985
 20
4.18139
 30
0.000000
  70
    32
  0
VERTEX
  8
AM_VIS
  5
1D2
 10
16.6985
 20
4.18138
 30
0.000000
  70
    32
  0
VERTEX
  8
AM_VIS
  5
1D3
 10
16.6985
 20
4.18137
 30
0.000000
  70
    32
  0
VERTEX
  8
AM_VIS
  5
1D4
 10
16.6985
 20
4.18135
 30
0.000000
  70
    32
  0
VERTEX
  8
AM_VIS
  5
1D5
 10
16.6985
 20
4.18134
 30
0.000000
  70
    32
  0
VERTEX
  8
AM_VIS
  5
1D6
 10
16.6985
 20
4.18132
 30
0.000000
  70
    32
  0
VERTEX
  8
AM_VIS
  5
1D7
 10
16.6985
 20
4.18131
 30
0.000000
  70
    32
  0
VERTEX
  8
AM_VIS
  5
1D8
 10
16.6985
 20
4.18130
 30
0.000000
  70
    32
  0
VERTEX
  8
AM_VIS
  5
1D9
 10
16.6985
 20
4.18128
 30
0.000000
  70
    32
  0
VERTEX
  8
AM_VIS
  5
1DA
 10
16.6985
 20
4.18127
 30
0.000000
  70
    32
  0
VERTEX
  8
AM_VIS
  5
1DB
 10
16.6985
 20
4.18125
 30
0.000000
  70
    32
  0
VERTEX
  8
AM_VIS
  5
1DC
 10
16.6984
 20
4.18123
 30
0.000000
  70
    32
  0
VERTEX
  8
AM_VIS
  5
1DD
 10
16.6984
 20
4.18122
 30
0.000000
  70
    32
  0
VERTEX
  8
AM_VIS
  5
1DE
 10
16.6984
 20
4.18120
 30
0.000000
  70
    32
  0
VERTEX
  8
AM_VIS
  5
1DF
 10
16.6984
 20
4.18118
 30
0.000000
  70
    32
  0
VERTEX
  8
AM_VIS
  5
1E0
 10
16.6984
 20
4.18116
 30
0.000000
  70
    32
  0
VERTEX
  8
AM_VIS
  5
1E1
 10
16.6984
 20
4.18115
 30
0.000000
  70
    32
  0
VERTEX
  8
AM_VIS
  5
1E2
 10
16.6984
 20
4.18113
 30
0.000000
  70
    32
  0
VERTEX
  8
AM_VIS
  5
1E3
 10
16.6984
 20
4.18111
 30
0.000000
  70
    32
  0
VERTEX
  8
AM_VIS
  5
1E4
 10
16.6984
 20
4.18109
 30
0.000000
  70
    32
  0
VERTEX
  8
AM_VIS
  5
1E5
 10
16.6983
 20
4.18107
 30
0.000000
  70
    32
  0
VERTEX
  8
AM_VIS
  5
1E6
 10
16.6983
 20
4.18105
 30
0.000000
  70
    32
  0
VERTEX
  8
AM_VIS
  5
1E7
 10
16.6983
 20
4.18103
 30
0.000000
  70
    32
  0
VERTEX
  8
AM_VIS
  5
1E8
 10
16.6983
 20
4.18100
 30
0.000000
  70
    32
  0
VERTEX
  8
AM_VIS
  5
1E9
 10
16.6983
 20
4.18098
 30
0.000000
  70
    32
  0
VERTEX
  8
AM_VIS
  5
1EA
 10
16.6983
 20
4.18096
 30
0.000000
  70
    32
  0
VERTEX
  8
AM_VIS
  5
1EB
 10
16.6983
 20
4.18094
 30
0.000000
  70
    32
  0
VERTEX
  8
AM_VIS
  5
1EC
 10
16.6982
 20
4.18092
 30
0.000000
  70
    32
  0
VERTEX
  8
AM_VIS
  5
1ED
 10
16.6982
 20
4.18089
 30
0.000000
  70
    32
  0
VERTEX
  8
AM_VIS
  5
1EE
 10
16.6982
 20
4.18087
 30
0.000000
  70
    32
  0
VERTEX
  8
AM_VIS
  5
1EF
 10
16.6982
 20
4.18084
 30
0.000000
  70
    32
  0
VERTEX
  8
AM_VIS
  5
1F0
 10
16.6982
 20
4.18082
 30
0.000000
  70
    32
  0
VERTEX
  8
AM_VIS
  5
1F1
 10
16.6982
 20
4.18080
 30
0.000000
  70
    32
  0
VERTEX
  8
AM_VIS
  5
1F2
 10
16.6982
 20
4.18077
 30
0.000000
  70
    32
  0
VERTEX
  8
AM_VIS
  5
1F3
 10
16.6981
 20
4.18074
 30
0.000000
  70
    32
  0
VERTEX
  8
AM_VIS
  5
1F4
 10
16.6981
 20
4.18072
 30
0.000000
  70
    32
  0
VERTEX
  8
AM_VIS
  5
1F5
 10
16.6981
 20
4.18069
 30
0.000000
  70
    32
  0
VERTEX
  8
AM_VIS
  5
1F6
 10
16.6981
 20
4.18067
 30
0.000000
  70
    32
  0
VERTEX
  8
AM_VIS
  5
1F7
 10
16.6981
 20
4.18064
 30
0.000000
  70
    32
  0
VERTEX
  8
AM_VIS
  5
1F8
 10
16.6981
 20
4.18061
 30
0.000000
  70
    32
  0
VERTEX
  8
AM_VIS
  5
1F9
 10
16.6980
 20
4.18058
 30
0.000000
  70
    32
  0
VERTEX
  8
AM_VIS
  5
1FA
 10
16.6980
 20
4.18055
 30
0.000000
  70
    32
  0
VERTEX
  8
AM_VIS
  5
1FB
 10
16.6980
 20
4.18052
 30
0.000000
  70
    32
  0
VERTEX
  8
AM_VIS
  5
1FC
 10
16.6980
 20
4.18050
 30
0.000000
  70
    32
  0
VERTEX
  8
AM_VIS
  5
1FD
 10
16.6980
 20
4.18047
 30
0.000000
  70
    32
  0
VERTEX
  8
AM_VIS
  5
1FE
 10
16.6979
 20
4.18044
 30
0.000000
  70
    32
  0
VERTEX
  8
AM_VIS
  5
1FF
 10
16.6979
 20
4.18041
 30
0.000000
  70
    32
  0
VERTEX
  8
AM_VIS
  5
200
 10
16.6979
 20
4.18037
 30
0.000000
  70
    32
  0
VERTEX
  8
AM_VIS
  5
201
 10
16.6979
 20
4.18034
 30
0.000000
  70
    32
  0
VERTEX
  8
AM_VIS
  5
202
 10
16.6979
 20
4.18031
 30
0.000000
  70
    32
  0
VERTEX
  8
AM_VIS
  5
203
 10
16.6978
 20
4.18028
 30
0.000000
  70
    32
  0
VERTEX
  8
AM_VIS
  5
204
 10
16.6978
 20
4.18025
 30
0.000000
  70
    32
  0
VERTEX
  8
AM_VIS
  5
205
 10
16.6978
 20
4.18021
 30
0.000000
  70
    32
  0
VERTEX
  8
AM_VIS
  5
206
 10
16.6978
 20
4.18018
 30
0.000000
  70
    32
  0
VERTEX
  8
AM_VIS
  5
207
 10
16.6978
 20
4.18015
 30
0.000000
  70
    32
  0
VERTEX
  8
AM_VIS
  5
208
 10
16.6977
 20
4.18011
 30
0.000000
  70
    32
  0
VERTEX
  8
AM_VIS
  5
209
 10
16.6977
 20
4.18008
 30
0.000000
  70
    32
  0
VERTEX
  8
AM_VIS
  5
20A
 10
16.6977
 20
4.18004
 30
0.000000
  70
    32
  0
VERTEX
  8
AM_VIS
  5
20B
 10
16.6977
 20
4.18001
 30
0.000000
  70
    32
  0
VERTEX
  8
AM_VIS
  5
20C
 10
16.6977
 20
4.17997
 30
0.000000
  70
    32
  0
VERTEX
  8
AM_VIS
  5
20D
 10
16.6976
 20
4.17994
 30
0.000000
  70
    32
  0
VERTEX
  8
AM_VIS
  5
20E
 10
16.6976
 20
4.17990
 30
0.000000
  70
    32
  0
VERTEX
  8
AM_VIS
  5
20F
 10
16.6976
 20
4.17987
 30
0.000000
  70
    32
  0
VERTEX
  8
AM_VIS
  5
210
 10
16.6976
 20
4.17983
 30
0.000000
  70
    32
  0
VERTEX
  8
AM_VIS
  5
211
 10
16.6975
 20
4.17979
 30
0.000000
  70
    32
  0
VERTEX
  8
AM_VIS
  5
212
 10
16.6975
 20
4.17975
 30
0.000000
  70
    32
  0
VERTEX
  8
AM_VIS
  5
213
 10
16.6975
 20
4.17971
 30
0.000000
  70
    32
  0
VERTEX
  8
AM_VIS
  5
214
 10
16.6975
 20
4.17968
 30
0.000000
  70
    32
  0
VERTEX
  8
AM_VIS
  5
215
 10
16.6974
 20
4.17964
 30
0.000000
  70
    32
  0
VERTEX
  8
AM_VIS
  5
216
 10
16.6974
 20
4.17960
 30
0.000000
  70
    32
  0
VERTEX
  8
AM_VIS
  5
217
 10
16.6974
 20
4.17956
 30
0.000000
  70
    32
  0
VERTEX
  8
AM_VIS
  5
218
 10
16.6974
 20
4.17952
 30
0.000000
  70
    32
  0
VERTEX
  8
AM_VIS
  5
219
 10
16.6973
 20
4.17948
 30
0.000000
  70
    32
  0
VERTEX
  8
AM_VIS
  5
21A
 10
16.6973
 20
4.17944
 30
0.000000
  70
    32
  0
VERTEX
  8
AM_VIS
  5
21B
 10
16.6973
 20
4.17940
 30
0.000000
  70
    32
  0
VERTEX
  8
AM_VIS
  5
21C
 10
16.6973
 20
4.17935
 30
0.000000
  70
    32
  0
VERTEX
  8
AM_VIS
  5
21D
 10
16.6972
 20
4.17931
 30
0.000000
  70
    32
  0
VERTEX
  8
AM_VIS
  5
21E
 10
16.6972
 20
4.17927
 30
0.000000
  70
    32
  0
VERTEX
  8
AM_VIS
  5
21F
 10
16.6972
 20
4.17923
 30
0.000000
  70
    32
  0
VERTEX
  8
AM_VIS
  5
220
 10
16.6971
 20
4.17918
 30
0.000000
  70
    32
  0
VERTEX
  8
AM_VIS
  5
221
 10
16.6971
 20
4.17914
 30
0.000000
  70
    32
  0
VERTEX
  8
AM_VIS
  5
222
 10
16.6971
 20
4.17910
 30
0.000000
  70
    32
  0
VERTEX
  8
AM_VIS
  5
223
 10
16.6971
 20
4.17905
 30
0.000000
  70
    32
  0
VERTEX
  8
AM_VIS
  5
224
 10
16.6970
 20
4.17901
 30
0.000000
  70
    32
  0
VERTEX
  8
AM_VIS
  5
225
 10
16.6970
 20
4.17896
 30
0.000000
  70
    32
  0
VERTEX
  8
AM_VIS
  5
226
 10
16.6970
 20
4.17892
 30
0.000000
  70
    32
  0
VERTEX
  8
AM_VIS
  5
227
 10
16.6969
 20
4.17887
 30
0.000000
  70
    32
  0
VERTEX
  8
AM_VIS
  5
228
 10
16.6969
 20
4.17882
 30
0.000000
  70
    32
  0
VERTEX
  8
AM_VIS
  5
229
 10
16.6969
 20
4.17878
 30
0.000000
  70
    32
  0
VERTEX
  8
AM_VIS
  5
22A
 10
16.6969
 20
4.17873
 30
0.000000
  70
    32
  0
VERTEX
  8
AM_VIS
  5
22B
 10
16.6968
 20
4.17868
 30
0.000000
  70
    32
  0
VERTEX
  8
AM_VIS
  5
22C
 10
16.6968
 20
4.17864
 30
0.000000
  70
    32
  0
VERTEX
  8
AM_VIS
  5
22D
 10
16.6968
 20
4.17859
 30
0.000000
  70
    32
  0
VERTEX
  8
AM_VIS
  5
22E
 10
16.6967
 20
4.17854
 30
0.000000
  70
    32
  0
VERTEX
  8
AM_VIS
  5
22F
 10
16.6967
 20
4.17849
 30
0.000000
  70
    32
  0
VERTEX
  8
AM_VIS
  5
230
 10
16.6967
 20
4.17844
 30
0.000000
  70
    32
  0
VERTEX
  8
AM_VIS
  5
231
 10
16.6966
 20
4.17839
 30
0.000000
  70
    32
  0
VERTEX
  8
AM_VIS
  5
232
 10
16.6966
 20
4.17834
 30
0.000000
  70
    32
  0
VERTEX
  8
AM_VIS
  5
233
 10
16.6966
 20
4.17829
 30
0.000000
  70
    32
  0
VERTEX
  8
AM_VIS
  5
234
 10
16.6965
 20
4.17824
 30
0.000000
  70
    32
  0
VERTEX
  8
AM_VIS
  5
235
 10
16.6965
 20
4.17819
 30
0.000000
  70
    32
  0
VERTEX
  8
AM_VIS
  5
236
 10
16.6965
 20
4.17814
 30
0.000000
  70
    32
  0
VERTEX
  8
AM_VIS
  5
237
 10
16.6964
 20
4.17809
 30
0.000000
  70
    32
  0
VERTEX
  8
AM_VIS
  5
238
 10
16.6964
 20
4.17804
 30
0.000000
  70
    32
  0
VERTEX
  8
AM_VIS
  5
239
 10
16.6964
 20
4.17798
 30
0.000000
  70
    32
  0
VERTEX
  8
AM_VIS
  5
23A
 10
16.6963
 20
4.17793
 30
0.000000
  70
    32
  0
VERTEX
  8
AM_VIS
  5
23B
 10
16.6963
 20
4.17788
 30
0.000000
  70
    32
  0
VERTEX
  8
AM_VIS
  5
23C
 10
16.6963
 20
4.17783
 30
0.000000
  70
    32
  0
VERTEX
  8
AM_VIS
  5
23D
 10
16.6962
 20
4.17777
 30
0.000000
  70
    32
  0
VERTEX
  8
AM_VIS
  5
23E
 10
16.6962
 20
4.17772
 30
0.000000
  70
    32
  0
VERTEX
  8
AM_VIS
  5
23F
 10
16.6962
 20
4.17766
 30
0.000000
  70
    32
  0
VERTEX
  8
AM_VIS
  5
240
 10
16.6961
 20
4.17761
 30
0.000000
  70
    32
  0
VERTEX
  8
AM_VIS
  5
241
 10
16.6961
 20
4.17756
 30
0.000000
  70
    32
  0
VERTEX
  8
AM_VIS
  5
242
 10
16.6961
 20
4.17750
 30
0.000000
  70
    32
  0
VERTEX
  8
AM_VIS
  5
243
 10
16.6960
 20
4.17744
 30
0.000000
  70
    32
  0
VERTEX
  8
AM_VIS
  5
244
 10
16.6960
 20
4.17739
 30
0.000000
  70
    32
  0
VERTEX
  8
AM_VIS
  5
245
 10
16.6959
 20
4.17733
 30
0.000000
  70
    32
  0
VERTEX
  8
AM_VIS
  5
246
 10
16.6959
 20
4.17728
 30
0.000000
  70
    32
  0
VERTEX
  8
AM_VIS
  5
247
 10
16.6959
 20
4.17722
 30
0.000000
  70
    32
  0
VERTEX
  8
AM_VIS
  5
248
 10
16.6958
 20
4.17716
 30
0.000000
  70
    32
  0
VERTEX
  8
AM_VIS
  5
249
 10
16.6958
 20
4.17710
 30
0.000000
  70
    32
  0
VERTEX
  8
AM_VIS
  5
24A
 10
16.6958
 20
4.17705
 30
0.000000
  70
    32
  0
VERTEX
  8
AM_VIS
  5
24B
 10
16.6957
 20
4.17699
 30
0.000000
  70
    32
  0
VERTEX
  8
AM_VIS
  5
24C
 10
16.6957
 20
4.17693
 30
0.000000
  70
    32
  0
VERTEX
  8
AM_VIS
  5
24D
 10
16.6956
 20
4.17687
 30
0.000000
  70
    32
  0
VERTEX
  8
AM_VIS
  5
24E
 10
16.6956
 20
4.17681
 30
0.000000
  70
    32
  0
VERTEX
  8
AM_VIS
  5
24F
 10
16.6956
 20
4.17675
 30
0.000000
  70
    32
  0
VERTEX
  8
AM_VIS
  5
250
 10
16.6955
 20
4.17669
 30
0.000000
  70
    32
  0
VERTEX
  8
AM_VIS
  5
251
 10
16.6955
 20
4.17663
 30
0.000000
  70
    32
  0
VERTEX
  8
AM_VIS
  5
252
 10
16.6954
 20
4.17657
 30
0.000000
  70
    32
  0
VERTEX
  8
AM_VIS
  5
253
 10
16.6954
 20
4.17651
 30
0.000000
  70
    32
  0
VERTEX
  8
AM_VIS
  5
254
 10
16.6954
 20
4.17645
 30
0.000000
  70
    32
  0
VERTEX
  8
AM_VIS
  5
255
 10
16.6953
 20
4.17639
 30
0.000000
  70
    32
  0
VERTEX
  8
AM_VIS
  5
256
 10
16.6953
 20
4.17633
 30
0.000000
  70
    32
  0
VERTEX
  8
AM_VIS
  5
257
 10
16.6952
 20
4.17626
 30
0.000000
  70
    32
  0
VERTEX
  8
AM_VIS
  5
258
 10
16.6952
 20
4.17620
 30
0.000000
  70
    32
  0
VERTEX
  8
AM_VIS
  5
259
 10
16.6952
 20
4.17614
 30
0.000000
  70
    32
  0
VERTEX
  8
AM_VIS
  5
25A
 10
16.6951
 20
4.17608
 30
0.000000
  70
    32
  0
VERTEX
  8
AM_VIS
  5
25B
 10
16.6951
 20
4.17601
 30
0.000000
  70
    32
  0
VERTEX
  8
AM_VIS
  5
25C
 10
16.6950
 20
4.17595
 30
0.000000
  70
    32
  0
VERTEX
  8
AM_VIS
  5
25D
 10
16.6950
 20
4.17588
 30
0.000000
  70
    32
  0
VERTEX
  8
AM_VIS
  5
25E
 10
16.6949
 20
4.17582
 30
0.000000
  70
    32
  0
VERTEX
  8
AM_VIS
  5
25F
 10
16.6949
 20
4.17576
 30
0.000000
  70
    32
  0
VERTEX
  8
AM_VIS
  5
260
 10
16.6949
 20
4.17569
 30
0.000000
  70
    32
  0
VERTEX
  8
AM_VIS
  5
261
 10
16.6948
 20
4.17563
 30
0.000000
  70
    32
  0
VERTEX
  8
AM_VIS
  5
262
 10
16.6948
 20
4.17556
 30
0.000000
  70
    32
  0
VERTEX
  8
AM_VIS
  5
263
 10
16.6947
 20
4.17549
 30
0.000000
  70
    32
  0
VERTEX
  8
AM_VIS
  5
264
 10
16.6947
 20
4.17543
 30
0.000000
  70
    32
  0
VERTEX
  8
AM_VIS
  5
265
 10
16.6946
 20
4.17536
 30
0.000000
  70
    32
  0
VERTEX
  8
AM_VIS
  5
266
 10
16.6946
 20
4.17530
 30
0.000000
  70
    32
  0
VERTEX
  8
AM_VIS
  5
267
 10
16.6945
 20
4.17523
 30
0.000000
  70
    32
  0
VERTEX
  8
AM_VIS
  5
268
 10
16.6945
 20
4.17516
 30
0.000000
  70
    32
  0
VERTEX
  8
AM_VIS
  5
269
 10
16.6945
 20
4.17509
 30
0.000000
  70
    32
  0
VERTEX
  8
AM_VIS
  5
26A
 10
16.6944
 20
4.17503
 30
0.000000
  70
    32
  0
VERTEX
  8
AM_VIS
  5
26B
 10
16.6944
 20
4.17496
 30
0.000000
  70
    32
  0
VERTEX
  8
AM_VIS
  5
26C
 10
16.6943
 20
4.17489
 30
0.000000
  70
    32
  0
VERTEX
  8
AM_VIS
  5
26D
 10
16.6943
 20
4.17482
 30
0.000000
  70
    32
  0
VERTEX
  8
AM_VIS
  5
26E
 10
16.6942
 20
4.17475
 30
0.000000
  70
    32
  0
VERTEX
  8
AM_VIS
  5
26F
 10
16.6942
 20
4.17468
 30
0.000000
  70
    32
  0
VERTEX
  8
AM_VIS
  5
270
 10
16.6941
 20
4.17461
 30
0.000000
  70
    32
  0
VERTEX
  8
AM_VIS
  5
271
 10
16.6941
 20
4.17454
 30
0.000000
  70
    32
  0
VERTEX
  8
AM_VIS
  5
272
 10
16.6940
 20
4.17447
 30
0.000000
  70
    32
  0
VERTEX
  8
AM_VIS
  5
273
 10
16.6940
 20
4.17440
 30
0.000000
  70
    32
  0
VERTEX
  8
AM_VIS
  5
274
 10
16.6939
 20
4.17433
 30
0.000000
  70
    32
  0
VERTEX
  8
AM_VIS
  5
275
 10
16.6939
 20
4.17426
 30
0.000000
  70
    32
  0
VERTEX
  8
AM_VIS
  5
276
 10
16.6938
 20
4.17419
 30
0.000000
  70
    32
  0
VERTEX
  8
AM_VIS
  5
277
 10
16.6938
 20
4.17412
 30
0.000000
  70
    32
  0
VERTEX
  8
AM_VIS
  5
278
 10
16.6937
 20
4.17405
 30
0.000000
  70
    32
  0
VERTEX
  8
AM_VIS
  5
279
 10
16.6937
 20
4.17397
 30
0.000000
  70
    32
  0
VERTEX
  8
AM_VIS
  5
27A
 10
16.6936
 20
4.17390
 30
0.000000
  70
    32
  0
VERTEX
  8
AM_VIS
  5
27B
 10
16.6936
 20
4.17383
 30
0.000000
  70
    32
  0
VERTEX
  8
AM_VIS
  5
27C
 10
16.6935
 20
4.17376
 30
0.000000
  70
    32
  0
VERTEX
  8
AM_VIS
  5
27D
 10
16.6935
 20
4.17368
 30
0.000000
  70
    32
  0
VERTEX
  8
AM_VIS
  5
27E
 10
16.6934
 20
4.17361
 30
0.000000
  70
    32
  0
VERTEX
  8
AM_VIS
  5
27F
 10
16.6934
 20
4.17354
 30
0.000000
  70
    32
  0
VERTEX
  8
AM_VIS
  5
280
 10
16.6933
 20
4.17346
 30
0.000000
  70
    32
  0
VERTEX
  8
AM_VIS
  5
281
 10
16.6933
 20
4.17339
 30
0.000000
  70
    32
  0
VERTEX
  8
AM_VIS
  5
282
 10
16.6932
 20
4.17331
 30
0.000000
  70
    32
  0
VERTEX
  8
AM_VIS
  5
283
 10
16.6932
 20
4.17324
 30
0.000000
  70
    32
  0
VERTEX
  8
AM_VIS
  5
284
 10
16.6931
 20
4.17316
 30
0.000000
  70
    32
  0
VERTEX
  8
AM_VIS
  5
285
 10
16.6931
 20
4.17309
 30
0.000000
  70
    32
  0
VERTEX
  8
AM_VIS
  5
286
 10
16.6930
 20
4.17301
 30
0.000000
  70
    32
  0
VERTEX
  8
AM_VIS
  5
287
 10
16.6930
 20
4.17294
 30
0.000000
  70
    32
  0
VERTEX
  8
AM_VIS
  5
288
 10
16.6929
 20
4.17286
 30
0.000000
  70
    32
  0
VERTEX
  8
AM_VIS
  5
289
 10
16.6929
 20
4.17278
 30
0.000000
  70
    32
  0
VERTEX
  8
AM_VIS
  5
28A
 10
16.6928
 20
4.17271
 30
0.000000
  70
    32
  0
VERTEX
  8
AM_VIS
  5
28B
 10
16.6928
 20
4.17263
 30
0.000000
  70
    32
  0
VERTEX
  8
AM_VIS
  5
28C
 10
16.6927
 20
4.17255
 30
0.000000
  70
    32
  0
VERTEX
  8
AM_VIS
  5
28D
 10
16.6926
 20
4.17247
 30
0.000000
  70
    32
  0
VERTEX
  8
AM_VIS
  5
28E
 10
16.6926
 20
4.17240
 30
0.000000
  70
    32
  0
VERTEX
  8
AM_VIS
  5
28F
 10
16.6925
 20
4.17232
 30
0.000000
  70
    32
  0
VERTEX
  8
AM_VIS
  5
290
 10
16.6925
 20
4.17224
 30
0.000000
  70
    32
  0
VERTEX
  8
AM_VIS
  5
291
 10
16.6924
 20
4.17216
 30
0.000000
  70
    32
  0
VERTEX
  8
AM_VIS
  5
292
 10
16.6924
 20
4.17208
 30
0.000000
  70
    32
  0
VERTEX
  8
AM_VIS
  5
293
 10
16.6923
 20
4.17200
 30
0.000000
  70
    32
  0
VERTEX
  8
AM_VIS
  5
294
 10
16.6923
 20
4.17192
 30
0.000000
  70
    32
  0
VERTEX
  8
AM_VIS
  5
295
 10
16.6922
 20
4.17185
 30
0.000000
  70
    32
  0
VERTEX
  8
AM_VIS
  5
296
 10
16.6921
 20
4.17177
 30
0.000000
  70
    32
  0
VERTEX
  8
AM_VIS
  5
297
 10
16.6921
 20
4.17169
 30
0.000000
  70
    32
  0
VERTEX
  8
AM_VIS
  5
298
 10
16.6920
 20
4.17161
 30
0.000000
  70
    32
  0
VERTEX
  8
AM_VIS
  5
299
 10
16.6920
 20
4.17152
 30
0.000000
  70
    32
  0
VERTEX
  8
AM_VIS
  5
29A
 10
16.6919
 20
4.17144
 30
0.000000
  70
    32
  0
VERTEX
  8
AM_VIS
  5
29B
 10
16.6919
 20
4.17136
 30
0.000000
  70
    32
  0
VERTEX
  8
AM_VIS
  5
29C
 10
16.6918
 20
4.17128
 30
0.000000
  70
    32
  0
VERTEX
  8
AM_VIS
  5
29D
 10
16.6917
 20
4.17120
 30
0.000000
  70
    32
  0
VERTEX
  8
AM_VIS
  5
29E
 10
16.6917
 20
4.17112
 30
0.000000
  70
    32
  0
VERTEX
  8
AM_VIS
  5
29F
 10
16.6916
 20
4.17104
 30
0.000000
  70
    32
  0
VERTEX
  8
AM_VIS
  5
2A0
 10
16.6916
 20
4.17095
 30
0.000000
  70
    32
  0
VERTEX
  8
AM_VIS
  5
2A1
 10
16.6915
 20
4.17087
 30
0.000000
  70
    32
  0
VERTEX
  8
AM_VIS
  5
2A2
 10
16.6914
 20
4.17079
 30
0.000000
  70
    32
  0
VERTEX
  8
AM_VIS
  5
2A3
 10
16.6914
 20
4.17071
 30
0.000000
  70
    32
  0
VERTEX
  8
AM_VIS
  5
2A4
 10
16.6913
 20
4.17062
 30
0.000000
  70
    32
  0
VERTEX
  8
AM_VIS
  5
2A5
 10
16.6913
 20
4.17054
 30
0.000000
  70
    32
  0
VERTEX
  8
AM_VIS
  5
2A6
 10
16.6912
 20
4.17046
 30
0.000000
  70
    32
  0
VERTEX
  8
AM_VIS
  5
2A7
 10
16.6911
 20
4.17037
 30
0.000000
  70
    32
  0
VERTEX
  8
AM_VIS
  5
2A8
 10
16.6911
 20
4.17029
 30
0.000000
  70
    32
  0
VERTEX
  8
AM_VIS
  5
2A9
 10
16.6910
 20
4.17020
 30
0.000000
  70
    32
  0
VERTEX
  8
AM_VIS
  5
2AA
 10
16.6910
 20
4.17012
 30
0.000000
  70
    32
  0
VERTEX
  8
AM_VIS
  5
2AB
 10
16.6909
 20
4.17004
 30
0.000000
  70
    32
  0
VERTEX
  8
AM_VIS
  5
2AC
 10
16.6908
 20
4.16995
 30
0.000000
  70
    32
  0
VERTEX
  8
AM_VIS
  5
2AD
 10
16.6908
 20
4.16987
 30
0.000000
  70
    32
  0
VERTEX
  8
AM_VIS
  5
2AE
 10
16.6907
 20
4.16978
 30
0.000000
  70
    32
  0
VERTEX
  8
AM_VIS
  5
2AF
 10
16.6906
 20
4.16969
 30
0.000000
  70
    32
  0
VERTEX
  8
AM_VIS
  5
2B0
 10
16.6906
 20
4.16961
 30
0.000000
  70
    32
  0
VERTEX
  8
AM_VIS
  5
2B1
 10
16.6905
 20
4.16952
 30
0.000000
  70
    32
  0
VERTEX
  8
AM_VIS
  5
2B2
 10
16.6905
 20
4.16944
 30
0.000000
  70
    32
  0
VERTEX
  8
AM_VIS
  5
2B3
 10
16.6904
 20
4.16935
 30
0.000000
  70
    32
  0
VERTEX
  8
AM_VIS
  5
2B4
 10
16.6903
 20
4.16926
 30
0.000000
  70
    32
  0
VERTEX
  8
AM_VIS
  5
2B5
 10
16.6903
 20
4.16918
 30
0.000000
  70
    32
  0
VERTEX
  8
AM_VIS
  5
2B6
 10
16.6902
 20
4.16909
 30
0.000000
  70
    32
  0
VERTEX
  8
AM_VIS
  5
2B7
 10
16.6901
 20
4.16900
 30
0.000000
  70
    32
  0
VERTEX
  8
AM_VIS
  5
2B8
 10
16.6901
 20
4.16891
 30
0.000000
  70
    32
  0
VERTEX
  8
AM_VIS
  5
2B9
 10
16.6900
 20
4.16883
 30
0.000000
  70
    32
  0
VERTEX
  8
AM_VIS
  5
2BA
 10
16.6899
 20
4.16874
 30
0.000000
  70
    32
  0
VERTEX
  8
AM_VIS
  5
2BB
 10
16.6899
 20
4.16865
 30
0.000000
  70
    32
  0
VERTEX
  8
AM_VIS
  5
2BC
 10
16.6898
 20
4.16856
 30
0.000000
  70
    32
  0
VERTEX
  8
AM_VIS
  5
2BD
 10
16.6897
 20
4.16847
 30
0.000000
  70
    32
  0
VERTEX
  8
AM_VIS
  5
2BE
 10
16.6897
 20
4.16838
 30
0.000000
  70
    32
  0
VERTEX
  8
AM_VIS
  5
2BF
 10
16.6896
 20
4.16830
 30
0.000000
  70
    32
  0
VERTEX
  8
AM_VIS
  5
2C0
 10
16.6895
 20
4.16821
 30
0.000000
  70
    32
  0
VERTEX
  8
AM_VIS
  5
2C1
 10
16.6895
 20
4.16812
 30
0.000000
  70
    32
  0
VERTEX
  8
AM_VIS
  5
2C2
 10
16.6894
 20
4.16803
 30
0.000000
  70
    32
  0
VERTEX
  8
AM_VIS
  5
2C3
 10
16.6893
 20
4.16794
 30
0.000000
  70
    32
  0
VERTEX
  8
AM_VIS
  5
2C4
 10
16.6893
 20
4.16785
 30
0.000000
  70
    32
  0
VERTEX
  8
AM_VIS
  5
2C5
 10
16.6892
 20
4.16776
 30
0.000000
  70
    32
  0
VERTEX
  8
AM_VIS
  5
2C6
 10
16.6891
 20
4.16767
 30
0.000000
  70
    32
  0
VERTEX
  8
AM_VIS
  5
2C7
 10
16.6891
 20
4.16758
 30
0.000000
  70
    32
  0
VERTEX
  8
AM_VIS
  5
2C8
 10
16.6890
 20
4.16749
 30
0.000000
  70
    32
  0
VERTEX
  8
AM_VIS
  5
2C9
 10
16.6889
 20
4.16740
 30
0.000000
  70
    32
  0
VERTEX
  8
AM_VIS
  5
2CA
 10
16.6888
 20
4.16731
 30
0.000000
  70
    32
  0
VERTEX
  8
AM_VIS
  5
2CB
 10
16.6888
 20
4.16721
 30
0.000000
  70
    32
  0
VERTEX
  8
AM_VIS
  5
2CC
 10
16.6887
 20
4.16712
 30
0.000000
  70
    32
  0
VERTEX
  8
AM_VIS
  5
2CD
 10
16.6886
 20
4.16703
 30
0.000000
  70
    32
  0
VERTEX
  8
AM_VIS
  5
2CE
 10
16.6886
 20
4.16694
 30
0.000000
  70
    32
  0
VERTEX
  8
AM_VIS
  5
2CF
 10
16.6885
 20
4.16685
 30
0.000000
  70
    32
  0
VERTEX
  8
AM_VIS
  5
2D0
 10
16.6884
 20
4.16676
 30
0.000000
  70
    32
  0
VERTEX
  8
AM_VIS
  5
2D1
 10
16.6884
 20
4.16667
 30
0.000000
  70
    32
  0
VERTEX
  8
AM_VIS
  5
2D2
 10
16.6883
 20
4.16658
 30
0.000000
  70
    32
  0
VERTEX
  8
AM_VIS
  5
2D3
 10
16.6882
 20
4.16648
 30
0.000000
  70
    32
  0
VERTEX
  8
AM_VIS
  5
2D4
 10
16.6881
 20
4.16639
 30
0.000000
  70
    32
  0
VERTEX
  8
AM_VIS
  5
2D5
 10
16.6881
 20
4.16630
 30
0.000000
  70
    32
  0
VERTEX
  8
AM_VIS
  5
2D6
 10
16.6880
 20
4.16621
 30
0.000000
  70
    32
  0
VERTEX
  8
AM_VIS
  5
2D7
 10
16.6879
 20
4.16612
 30
0.000000
  70
    32
  0
VERTEX
  8
AM_VIS
  5
2D8
 10
16.6879
 20
4.16602
 30
0.000000
  70
    32
  0
VERTEX
  8
AM_VIS
  5
2D9
 10
16.6878
 20
4.16593
 30
0.000000
  70
    32
  0
VERTEX
  8
AM_VIS
  5
2DA
 10
16.6877
 20
4.16584
 30
0.000000
  70
    32
  0
VERTEX
  8
AM_VIS
  5
2DB
 10
16.6876
 20
4.16574
 30
0.000000
  70
    32
  0
VERTEX
  8
AM_VIS
  5
2DC
 10
16.6876
 20
4.16565
 30
0.000000
  70
    32
  0
VERTEX
  8
AM_VIS
  5
2DD
 10
16.6875
 20
4.16556
 30
0.000000
  70
    32
  0
VERTEX
  8
AM_VIS
  5
2DE
 10
16.6874
 20
4.16547
 30
0.000000
  70
    32
  0
VERTEX
  8
AM_VIS
  5
2DF
 10
16.6873
 20
4.16537
 30
0.000000
  70
    32
  0
VERTEX
  8
AM_VIS
  5
2E0
 10
16.6873
 20
4.16528
 30
0.000000
  70
    32
  0
VERTEX
  8
AM_VIS
  5
2E1
 10
16.6872
 20
4.16519
 30
0.000000
  70
    32
  0
VERTEX
  8
AM_VIS
  5
2E2
 10
16.6871
 20
4.16509
 30
0.000000
  70
    32
  0
VERTEX
  8
AM_VIS
  5
2E3
 10
16.6870
 20
4.16500
 30
0.000000
  70
    32
  0
VERTEX
  8
AM_VIS
  5
2E4
 10
16.6870
 20
4.16491
 30
0.000000
  70
    32
  0
VERTEX
  8
AM_VIS
  5
2E5
 10
16.6869
 20
4.16481
 30
0.000000
  70
    32
  0
VERTEX
  8
AM_VIS
  5
2E6
 10
16.6868
 20
4.16472
 30
0.000000
  70
    32
  0
VERTEX
  8
AM_VIS
  5
2E7
 10
16.6867
 20
4.16463
 30
0.000000
  70
    32
  0
VERTEX
  8
AM_VIS
  5
2E8
 10
16.6867
 20
4.16453
 30
0.000000
  70
    32
  0
VERTEX
  8
AM_VIS
  5
2E9
 10
16.6866
 20
4.16444
 30
0.000000
  70
    32
  0
VERTEX
  8
AM_VIS
  5
2EA
 10
16.6865
 20
4.16434
 30
0.000000
  70
    32
  0
VERTEX
  8
AM_VIS
  5
2EB
 10
16.6864
 20
4.16425
 30
0.000000
  70
    32
  0
VERTEX
  8
AM_VIS
  5
2EC
 10
16.6864
 20
4.16416
 30
0.000000
  70
    32
  0
VERTEX
  8
AM_VIS
  5
2ED
 10
16.6863
 20
4.16406
 30
0.000000
  70
    32
  0
VERTEX
  8
AM_VIS
  5
2EE
 10
16.6862
 20
4.16397
 30
0.000000
  70
    32
  0
VERTEX
  8
AM_VIS
  5
2EF
 10
16.6861
 20
4.16387
 30
0.000000
  70
    32
  0
VERTEX
  8
AM_VIS
  5
2F0
 10
16.6860
 20
4.16378
 30
0.000000
  70
    32
  0
VERTEX
  8
AM_VIS
  5
2F1
 10
16.6860
 20
4.16368
 30
0.000000
  70
    32
  0
VERTEX
  8
AM_VIS
  5
2F2
 10
16.6859
 20
4.16359
 30
0.000000
  70
    32
  0
VERTEX
  8
AM_VIS
  5
2F3
 10
16.6858
 20
4.16350
 30
0.000000
  70
    32
  0
VERTEX
  8
AM_VIS
  5
2F4
 10
16.6857
 20
4.16340
 30
0.000000
  70
    32
  0
VERTEX
  8
AM_VIS
  5
2F5
 10
16.6857
 20
4.16331
 30
0.000000
  70
    32
  0
VERTEX
  8
AM_VIS
  5
2F6
 10
16.6856
 20
4.16321
 30
0.000000
  70
    32
  0
VERTEX
  8
AM_VIS
  5
2F7
 10
16.6855
 20
4.16312
 30
0.000000
  70
    32
  0
VERTEX
  8
AM_VIS
  5
2F8
 10
16.6854
 20
4.16302
 30
0.000000
  70
    32
  0
VERTEX
  8
AM_VIS
  5
2F9
 10
16.6853
 20
4.16293
 30
0.000000
  70
    32
  0
VERTEX
  8
AM_VIS
  5
2FA
 10
16.6853
 20
4.16283
 30
0.000000
  70
    32
  0
VERTEX
  8
AM_VIS
  5
2FB
 10
16.6852
 20
4.16274
 30
0.000000
  70
    32
  0
VERTEX
  8
AM_VIS
  5
2FC
 10
16.6851
 20
4.16264
 30
0.000000
  70
    32
  0
VERTEX
  8
AM_VIS
  5
2FD
 10
16.6850
 20
4.16255
 30
0.000000
  70
    32
  0
VERTEX
  8
AM_VIS
  5
2FE
 10
16.6849
 20
4.16245
 30
0.000000
  70
    32
  0
VERTEX
  8
AM_VIS
  5
2FF
 10
16.6849
 20
4.16236
 30
0.000000
  70
    32
  0
VERTEX
  8
AM_VIS
  5
300
 10
16.6848
 20
4.16226
 30
0.000000
  70
    32
  0
VERTEX
  8
AM_VIS
  5
301
 10
16.6847
 20
4.16217
 30
0.000000
  70
    32
  0
VERTEX
  8
AM_VIS
  5
302
 10
16.6846
 20
4.16207
 30
0.000000
  70
    32
  0
VERTEX
  8
AM_VIS
  5
303
 10
16.6845
 20
4.16198
 30
0.000000
  70
    32
  0
VERTEX
  8
AM_VIS
  5
304
 10
16.6845
 20
4.16188
 30
0.000000
  70
    32
  0
VERTEX
  8
AM_VIS
  5
305
 10
16.6844
 20
4.16179
 30
0.000000
  70
    32
  0
VERTEX
  8
AM_VIS
  5
306
 10
16.6843
 20
4.16169
 30
0.000000
  70
    32
  0
VERTEX
  8
AM_VIS
  5
307
 10
16.6842
 20
4.16160
 30
0.000000
  70
    32
  0
VERTEX
  8
AM_VIS
  5
308
 10
16.6841
 20
4.16150
 30
0.000000
  70
    32
  0
VERTEX
  8
AM_VIS
  5
309
 10
16.6840
 20
4.16141
 30
0.000000
  70
    32
  0
VERTEX
  8
AM_VIS
  5
30A
 10
16.6840
 20
4.16131
 30
0.000000
  70
    32
  0
VERTEX
  8
AM_VIS
  5
30B
 10
16.6839
 20
4.16122
 30
0.000000
  70
    32
  0
VERTEX
  8
AM_VIS
  5
30C
 10
16.6838
 20
4.16112
 30
0.000000
  70
    32
  0
VERTEX
  8
AM_VIS
  5
30D
 10
16.6837
 20
4.16103
 30
0.000000
  70
    32
  0
VERTEX
  8
AM_VIS
  5
30E
 10
16.6836
 20
4.16093
 30
0.000000
  70
    32
  0
VERTEX
  8
AM_VIS
  5
30F
 10
16.6835
 20
4.16083
 30
0.000000
  70
    32
  0
VERTEX
  8
AM_VIS
  5
310
 10
16.6835
 20
4.16074
 30
0.000000
  70
    32
  0
VERTEX
  8
AM_VIS
  5
311
 10
16.6834
 20
4.16064
 30
0.000000
  70
    32
  0
VERTEX
  8
AM_VIS
  5
312
 10
16.6833
 20
4.16055
 30
0.000000
  70
    32
  0
VERTEX
  8
AM_VIS
  5
313
 10
16.6832
 20
4.16045
 30
0.000000
  70
    32
  0
VERTEX
  8
AM_VIS
  5
314
 10
16.6831
 20
4.16036
 30
0.000000
  70
    32
  0
VERTEX
  8
AM_VIS
  5
315
 10
16.6830
 20
4.16026
 30
0.000000
  70
    32
  0
VERTEX
  8
AM_VIS
  5
316
 10
16.6830
 20
4.16017
 30
0.000000
  70
    32
  0
VERTEX
  8
AM_VIS
  5
317
 10
16.6829
 20
4.16007
 30
0.000000
  70
    32
  0
VERTEX
  8
AM_VIS
  5
318
 10
16.6828
 20
4.15998
 30
0.000000
  70
    32
  0
VERTEX
  8
AM_VIS
  5
319
 10
16.6827
 20
4.15988
 30
0.000000
  70
    32
  0
VERTEX
  8
AM_VIS
  5
31A
 10
16.6826
 20
4.15979
 30
0.000000
  70
    32
  0
VERTEX
  8
AM_VIS
  5
31B
 10
16.6825
 20
4.15969
 30
0.000000
  70
    32
  0
VERTEX
  8
AM_VIS
  5
31C
 10
16.6824
 20
4.15960
 30
0.000000
  70
    32
  0
VERTEX
  8
AM_VIS
  5
31D
 10
16.6823
 20
4.15950
 30
0.000000
  70
    32
  0
VERTEX
  8
AM_VIS
  5
31E
 10
16.6823
 20
4.15941
 30
0.000000
  70
    32
  0
VERTEX
  8
AM_VIS
  5
31F
 10
16.6822
 20
4.15931
 30
0.000000
  70
    32
  0
VERTEX
  8
AM_VIS
  5
320
 10
16.6821
 20
4.15922
 30
0.000000
  70
    32
  0
VERTEX
  8
AM_VIS
  5
321
 10
16.6820
 20
4.15912
 30
0.000000
  70
    32
  0
VERTEX
  8
AM_VIS
  5
322
 10
16.6819
 20
4.15903
 30
0.000000
  70
    32
  0
VERTEX
  8
AM_VIS
  5
323
 10
16.6818
 20
4.15893
 30
0.000000
  70
    32
  0
VERTEX
  8
AM_VIS
  5
324
 10
16.6817
 20
4.15884
 30
0.000000
  70
    32
  0
VERTEX
  8
AM_VIS
  5
325
 10
16.6816
 20
4.15874
 30
0.000000
  70
    32
  0
VERTEX
  8
AM_VIS
  5
326
 10
16.6816
 20
4.15865
 30
0.000000
  70
    32
  0
VERTEX
  8
AM_VIS
  5
327
 10
16.6815
 20
4.15855
 30
0.000000
  70
    32
  0
VERTEX
  8
AM_VIS
  5
328
 10
16.6814
 20
4.15846
 30
0.000000
  70
    32
  0
VERTEX
  8
AM_VIS
  5
329
 10
16.6813
 20
4.15836
 30
0.000000
  70
    32
  0
VERTEX
  8
AM_VIS
  5
32A
 10
16.6812
 20
4.15827
 30
0.000000
  70
    32
  0
VERTEX
  8
AM_VIS
  5
32B
 10
16.6811
 20
4.15817
 30
0.000000
  70
    32
  0
VERTEX
  8
AM_VIS
  5
32C
 10
16.6810
 20
4.15808
 30
0.000000
  70
    32
  0
VERTEX
  8
AM_VIS
  5
32D
 10
16.6809
 20
4.15799
 30
0.000000
  70
    32
  0
VERTEX
  8
AM_VIS
  5
32E
 10
16.6808
 20
4.15789
 30
0.000000
  70
    32
  0
VERTEX
  8
AM_VIS
  5
32F
 10
16.6808
 20
4.15780
 30
0.000000
  70
    32
  0
VERTEX
  8
AM_VIS
  5
330
 10
16.6807
 20
4.15770
 30
0.000000
  70
    32
  0
VERTEX
  8
AM_VIS
  5
331
 10
16.6806
 20
4.15761
 30
0.000000
  70
    32
  0
VERTEX
  8
AM_VIS
  5
332
 10
16.6805
 20
4.15751
 30
0.000000
  70
    32
  0
VERTEX
  8
AM_VIS
  5
333
 10
16.6804
 20
4.15742
 30
0.000000
  70
    32
  0
VERTEX
  8
AM_VIS
  5
334
 10
16.6803
 20
4.15733
 30
0.000000
  70
    32
  0
VERTEX
  8
AM_VIS
  5
335
 10
16.6802
 20
4.15723
 30
0.000000
  70
    32
  0
VERTEX
  8
AM_VIS
  5
336
 10
16.6801
 20
4.15714
 30
0.000000
  70
    32
  0
VERTEX
  8
AM_VIS
  5
337
 10
16.6800
 20
4.15704
 30
0.000000
  70
    32
  0
VERTEX
  8
AM_VIS
  5
338
 10
16.6799
 20
4.15695
 30
0.000000
  70
    32
  0
VERTEX
  8
AM_VIS
  5
339
 10
16.6798
 20
4.15686
 30
0.000000
  70
    32
  0
VERTEX
  8
AM_VIS
  5
33A
 10
16.6797
 20
4.15676
 30
0.000000
  70
    32
  0
VERTEX
  8
AM_VIS
  5
33B
 10
16.6797
 20
4.15667
 30
0.000000
  70
    32
  0
VERTEX
  8
AM_VIS
  5
33C
 10
16.6796
 20
4.15658
 30
0.000000
  70
    32
  0
VERTEX
  8
AM_VIS
  5
33D
 10
16.6795
 20
4.15648
 30
0.000000
  70
    32
  0
VERTEX
  8
AM_VIS
  5
33E
 10
16.6794
 20
4.15639
 30
0.000000
  70
    32
  0
VERTEX
  8
AM_VIS
  5
33F
 10
16.6793
 20
4.15630
 30
0.000000
  70
    32
  0
VERTEX
  8
AM_VIS
  5
340
 10
16.6792
 20
4.15620
 30
0.000000
  70
    32
  0
VERTEX
  8
AM_VIS
  5
341
 10
16.6791
 20
4.15611
 30
0.000000
  70
    32
  0
VERTEX
  8
AM_VIS
  5
342
 10
16.6790
 20
4.15602
 30
0.000000
  70
    32
  0
VERTEX
  8
AM_VIS
  5
343
 10
16.6789
 20
4.15593
 30
0.000000
  70
    32
  0
VERTEX
  8
AM_VIS
  5
344
 10
16.6788
 20
4.15583
 30
0.000000
  70
    32
  0
VERTEX
  8
AM_VIS
  5
345
 10
16.6787
 20
4.15574
 30
0.000000
  70
    32
  0
VERTEX
  8
AM_VIS
  5
346
 10
16.6786
 20
4.15565
 30
0.000000
  70
    32
  0
VERTEX
  8
AM_VIS
  5
347
 10
16.6785
 20
4.15556
 30
0.000000
  70
    32
  0
VERTEX
  8
AM_VIS
  5
348
 10
16.6784
 20
4.15546
 30
0.000000
  70
    32
  0
VERTEX
  8
AM_VIS
  5
349
 10
16.6783
 20
4.15537
 30
0.000000
  70
    32
  0
VERTEX
  8
AM_VIS
  5
34A
 10
16.6782
 20
4.15528
 30
0.000000
  70
    32
  0
VERTEX
  8
AM_VIS
  5
34B
 10
16.6781
 20
4.15519
 30
0.000000
  70
    32
  0
VERTEX
  8
AM_VIS
  5
34C
 10
16.6780
 20
4.15510
 30
0.000000
  70
    32
  0
VERTEX
  8
AM_VIS
  5
34D
 10
16.6779
 20
4.15501
 30
0.000000
  70
    32
  0
VERTEX
  8
AM_VIS
  5
34E
 10
16.6779
 20
4.15491
 30
0.000000
  70
    32
  0
VERTEX
  8
AM_VIS
  5
34F
 10
16.6778
 20
4.15482
 30
0.000000
  70
    32
  0
VERTEX
  8
AM_VIS
  5
350
 10
16.6777
 20
4.15473
 30
0.000000
  70
    32
  0
VERTEX
  8
AM_VIS
  5
351
 10
16.6776
 20
4.15464
 30
0.000000
  70
    32
  0
VERTEX
  8
AM_VIS
  5
352
 10
16.6775
 20
4.15455
 30
0.000000
  70
    32
  0
VERTEX
  8
AM_VIS
  5
353
 10
16.6774
 20
4.15446
 30
0.000000
  70
    32
  0
VERTEX
  8
AM_VIS
  5
354
 10
16.6773
 20
4.15437
 30
0.000000
  70
    32
  0
VERTEX
  8
AM_VIS
  5
355
 10
16.6772
 20
4.15428
 30
0.000000
  70
    32
  0
VERTEX
  8
AM_VIS
  5
356
 10
16.6771
 20
4.15419
 30
0.000000
  70
    32
  0
VERTEX
  8
AM_VIS
  5
357
 10
16.6770
 20
4.15410
 30
0.000000
  70
    32
  0
VERTEX
  8
AM_VIS
  5
358
 10
16.6769
 20
4.15401
 30
0.000000
  70
    32
  0
VERTEX
  8
AM_VIS
  5
359
 10
16.6768
 20
4.15392
 30
0.000000
  70
    32
  0
VERTEX
  8
AM_VIS
  5
35A
 10
16.6767
 20
4.15383
 30
0.000000
  70
    32
  0
VERTEX
  8
AM_VIS
  5
35B
 10
16.6766
 20
4.15374
 30
0.000000
  70
    32
  0
VERTEX
  8
AM_VIS
  5
35C
 10
16.6765
 20
4.15365
 30
0.000000
  70
    32
  0
VERTEX
  8
AM_VIS
  5
35D
 10
16.6764
 20
4.15356
 30
0.000000
  70
    32
  0
VERTEX
  8
AM_VIS
  5
35E
 10
16.6763
 20
4.15347
 30
0.000000
  70
    32
  0
VERTEX
  8
AM_VIS
  5
35F
 10
16.6762
 20
4.15338
 30
0.000000
  70
    32
  0
VERTEX
  8
AM_VIS
  5
360
 10
16.6761
 20
4.15329
 30
0.000000
  70
    32
  0
VERTEX
  8
AM_VIS
  5
361
 10
16.6760
 20
4.15320
 30
0.000000
  70
    32
  0
VERTEX
  8
AM_VIS
  5
362
 10
16.6759
 20
4.15311
 30
0.000000
  70
    32
  0
VERTEX
  8
AM_VIS
  5
363
 10
16.6758
 20
4.15302
 30
0.000000
  70
    32
  0
VERTEX
  8
AM_VIS
  5
364
 10
16.6757
 20
4.15293
 30
0.000000
  70
    32
  0
VERTEX
  8
AM_VIS
  5
365
 10
16.6756
 20
4.15285
 30
0.000000
  70
    32
  0
VERTEX
  8
AM_VIS
  5
366
 10
16.6755
 20
4.15276
 30
0.000000
  70
    32
  0
VERTEX
  8
AM_VIS
  5
367
 10
16.6754
 20
4.15267
 30
0.000000
  70
    32
  0
VERTEX
  8
AM_VIS
  5
368
 10
16.6753
 20
4.15258
 30
0.000000
  70
    32
  0
VERTEX
  8
AM_VIS
  5
369
 10
16.6752
 20
4.15249
 30
0.000000
  70
    32
  0
VERTEX
  8
AM_VIS
  5
36A
 10
16.6751
 20
4.15241
 30
0.000000
  70
    32
  0
VERTEX
  8
AM_VIS
  5
36B
 10
16.6750
 20
4.15232
 30
0.000000
  70
    32
  0
VERTEX
  8
AM_VIS
  5
36C
 10
16.6749
 20
4.15223
 30
0.000000
  70
    32
  0
VERTEX
  8
AM_VIS
  5
36D
 10
16.6748
 20
4.15215
 30
0.000000
  70
    32
  0
VERTEX
  8
AM_VIS
  5
36E
 10
16.6747
 20
4.15206
 30
0.000000
  70
    32
  0
VERTEX
  8
AM_VIS
  5
36F
 10
16.6745
 20
4.15197
 30
0.000000
  70
    32
  0
VERTEX
  8
AM_VIS
  5
370
 10
16.6744
 20
4.15189
 30
0.000000
  70
    32
  0
VERTEX
  8
AM_VIS
  5
371
 10
16.6743
 20
4.15180
 30
0.000000
  70
    32
  0
VERTEX
  8
AM_VIS
  5
372
 10
16.6742
 20
4.15171
 30
0.000000
  70
    32
  0
VERTEX
  8
AM_VIS
  5
373
 10
16.6741
 20
4.15163
 30
0.000000
  70
    32
  0
VERTEX
  8
AM_VIS
  5
374
 10
16.6740
 20
4.15154
 30
0.000000
  70
    32
  0
VERTEX
  8
AM_VIS
  5
375
 10
16.6739
 20
4.15146
 30
0.000000
  70
    32
  0
VERTEX
  8
AM_VIS
  5
376
 10
16.6738
 20
4.15137
 30
0.000000
  70
    32
  0
VERTEX
  8
AM_VIS
  5
377
 10
16.6737
 20
4.15129
 30
0.000000
  70
    32
  0
VERTEX
  8
AM_VIS
  5
378
 10
16.6736
 20
4.15120
 30
0.000000
  70
    32
  0
VERTEX
  8
AM_VIS
  5
379
 10
16.6735
 20
4.15112
 30
0.000000
  70
    32
  0
VERTEX
  8
AM_VIS
  5
37A
 10
16.6734
 20
4.15103
 30
0.000000
  70
    32
  0
VERTEX
  8
AM_VIS
  5
37B
 10
16.6733
 20
4.15095
 30
0.000000
  70
    32
  0
VERTEX
  8
AM_VIS
  5
37C
 10
16.6732
 20
4.15086
 30
0.000000
  70
    32
  0
VERTEX
  8
AM_VIS
  5
37D
 10
16.6731
 20
4.15078
 30
0.000000
  70
    32
  0
VERTEX
  8
AM_VIS
  5
37E
 10
16.6730
 20
4.15070
 30
0.000000
  70
    32
  0
VERTEX
  8
AM_VIS
  5
37F
 10
16.6729
 20
4.15061
 30
0.000000
  70
    32
  0
VERTEX
  8
AM_VIS
  5
380
 10
16.6728
 20
4.15053
 30
0.000000
  70
    32
  0
VERTEX
  8
AM_VIS
  5
381
 10
16.6726
 20
4.15044
 30
0.000000
  70
    32
  0
VERTEX
  8
AM_VIS
  5
382
 10
16.6725
 20
4.15036
 30
0.000000
  70
    32
  0
VERTEX
  8
AM_VIS
  5
383
 10
16.6724
 20
4.15028
 30
0.000000
  70
    32
  0
VERTEX
  8
AM_VIS
  5
384
 10
16.6723
 20
4.15020
 30
0.000000
  70
    32
  0
VERTEX
  8
AM_VIS
  5
385
 10
16.6722
 20
4.15011
 30
0.000000
  70
    32
  0
VERTEX
  8
AM_VIS
  5
386
 10
16.6721
 20
4.15003
 30
0.000000
  70
    32
  0
VERTEX
  8
AM_VIS
  5
387
 10
16.6720
 20
4.14995
 30
0.000000
  70
    32
  0
VERTEX
  8
AM_VIS
  5
388
 10
16.6719
 20
4.14987
 30
0.000000
  70
    32
  0
VERTEX
  8
AM_VIS
  5
389
 10
16.6718
 20
4.14978
 30
0.000000
  70
    32
  0
VERTEX
  8
AM_VIS
  5
38A
 10
16.6717
 20
4.14970
 30
0.000000
  70
    32
  0
VERTEX
  8
AM_VIS
  5
38B
 10
16.6715
 20
4.14962
 30
0.000000
  70
    32
  0
VERTEX
  8
AM_VIS
  5
38C
 10
16.6714
 20
4.14954
 30
0.000000
  70
    32
  0
VERTEX
  8
AM_VIS
  5
38D
 10
16.6713
 20
4.14946
 30
0.000000
  70
    32
  0
VERTEX
  8
AM_VIS
  5
38E
 10
16.6712
 20
4.14938
 30
0.000000
  70
    32
  0
VERTEX
  8
AM_VIS
  5
38F
 10
16.6711
 20
4.14930
 30
0.000000
  70
    32
  0
VERTEX
  8
AM_VIS
  5
390
 10
16.6710
 20
4.14922
 30
0.000000
  70
    32
  0
VERTEX
  8
AM_VIS
  5
391
 10
16.6709
 20
4.14914
 30
0.000000
  70
    32
  0
VERTEX
  8
AM_VIS
  5
392
 10
16.6708
 20
4.14906
 30
0.000000
  70
    32
  0
VERTEX
  8
AM_VIS
  5
393
 10
16.6707
 20
4.14898
 30
0.000000
  70
    32
  0
VERTEX
  8
AM_VIS
  5
394
 10
16.6705
 20
4.14890
 30
0.000000
  70
    32
  0
VERTEX
  8
AM_VIS
  5
395
 10
16.6704
 20
4.14882
 30
0.000000
  70
    32
  0
VERTEX
  8
AM_VIS
  5
396
 10
16.6703
 20
4.14874
 30
0.000000
  70
    32
  0
VERTEX
  8
AM_VIS
  5
397
 10
16.6702
 20
4.14867
 30
0.000000
  70
    32
  0
VERTEX
  8
AM_VIS
  5
398
 10
16.6701
 20
4.14859
 30
0.000000
  70
    32
  0
VERTEX
  8
AM_VIS
  5
399
 10
16.6700
 20
4.14851
 30
0.000000
  70
    32
  0
VERTEX
  8
AM_VIS
  5
39A
 10
16.6699
 20
4.14843
 30
0.000000
  70
    32
  0
VERTEX
  8
AM_VIS
  5
39B
 10
16.6697
 20
4.14836
 30
0.000000
  70
    32
  0
VERTEX
  8
AM_VIS
  5
39C
 10
16.6696
 20
4.14828
 30
0.000000
  70
    32
  0
VERTEX
  8
AM_VIS
  5
39D
 10
16.6695
 20
4.14820
 30
0.000000
  70
    32
  0
VERTEX
  8
AM_VIS
  5
39E
 10
16.6694
 20
4.14813
 30
0.000000
  70
    32
  0
VERTEX
  8
AM_VIS
  5
39F
 10
16.6693
 20
4.14805
 30
0.000000
  70
    32
  0
VERTEX
  8
AM_VIS
  5
3A0
 10
16.6692
 20
4.14798
 30
0.000000
  70
    32
  0
VERTEX
  8
AM_VIS
  5
3A1
 10
16.6690
 20
4.14790
 30
0.000000
  70
    32
  0
VERTEX
  8
AM_VIS
  5
3A2
 10
16.6689
 20
4.14783
 30
0.000000
  70
    32
  0
VERTEX
  8
AM_VIS
  5
3A3
 10
16.6688
 20
4.14775
 30
0.000000
  70
    32
  0
VERTEX
  8
AM_VIS
  5
3A4
 10
16.6687
 20
4.14768
 30
0.000000
  70
    32
  0
VERTEX
  8
AM_VIS
  5
3A5
 10
16.6686
 20
4.14761
 30
0.000000
  70
    32
  0
VERTEX
  8
AM_VIS
  5
3A6
 10
16.6685
 20
4.14753
 30
0.000000
  70
    32
  0
VERTEX
  8
AM_VIS
  5
3A7
 10
16.6683
 20
4.14746
 30
0.000000
  70
    32
  0
VERTEX
  8
AM_VIS
  5
3A8
 10
16.6682
 20
4.14739
 30
0.000000
  70
    32
  0
VERTEX
  8
AM_VIS
  5
3A9
 10
16.6681
 20
4.14732
 30
0.000000
  70
    32
  0
VERTEX
  8
AM_VIS
  5
3AA
 10
16.6680
 20
4.14724
 30
0.000000
  70
    32
  0
VERTEX
  8
AM_VIS
  5
3AB
 10
16.6679
 20
4.14717
 30
0.000000
  70
    32
  0
VERTEX
  8
AM_VIS
  5
3AC
 10
16.6678
 20
4.14710
 30
0.000000
  70
    32
  0
VERTEX
  8
AM_VIS
  5
3AD
 10
16.6676
 20
4.14703
 30
0.000000
  70
    32
  0
VERTEX
  8
AM_VIS
  5
3AE
 10
16.6675
 20
4.14696
 30
0.000000
  70
    32
  0
VERTEX
  8
AM_VIS
  5
3AF
 10
16.6674
 20
4.14689
 30
0.000000
  70
    32
  0
VERTEX
  8
AM_VIS
  5
3B0
 10
16.6673
 20
4.14682
 30
0.000000
  70
    32
  0
VERTEX
  8
AM_VIS
  5
3B1
 10
16.6672
 20
4.14675
 30
0.000000
  70
    32
  0
VERTEX
  8
AM_VIS
  5
3B2
 10
16.6670
 20
4.14668
 30
0.000000
  70
    32
  0
VERTEX
  8
AM_VIS
  5
3B3
 10
16.6669
 20
4.14662
 30
0.000000
  70
    32
  0
VERTEX
  8
AM_VIS
  5
3B4
 10
16.6668
 20
4.14655
 30
0.000000
  70
    32
  0
VERTEX
  8
AM_VIS
  5
3B5
 10
16.6667
 20
4.14648
 30
0.000000
  70
    32
  0
VERTEX
  8
AM_VIS
  5
3B6
 10
16.6666
 20
4.14641
 30
0.000000
  70
    32
  0
VERTEX
  8
AM_VIS
  5
3B7
 10
16.6664
 20
4.14635
 30
0.000000
  70
    32
  0
VERTEX
  8
AM_VIS
  5
3B8
 10
16.6663
 20
4.14628
 30
0.000000
  70
    32
  0
VERTEX
  8
AM_VIS
  5
3B9
 10
16.6662
 20
4.14622
 30
0.000000
  70
    32
  0
VERTEX
  8
AM_VIS
  5
3BA
 10
16.6661
 20
4.14615
 30
0.000000
  70
    32
  0
VERTEX
  8
AM_VIS
  5
3BB
 10
16.6659
 20
4.14609
 30
0.000000
  70
    32
  0
VERTEX
  8
AM_VIS
  5
3BC
 10
16.6658
 20
4.14602
 30
0.000000
  70
    32
  0
VERTEX
  8
AM_VIS
  5
3BD
 10
16.6657
 20
4.14596
 30
0.000000
  70
    32
  0
VERTEX
  8
AM_VIS
  5
3BE
 10
16.6656
 20
4.14590
 30
0.000000
  70
    32
  0
VERTEX
  8
AM_VIS
  5
3BF
 10
16.6655
 20
4.14583
 30
0.000000
  70
    32
  0
VERTEX
  8
AM_VIS
  5
3C0
 10
16.6653
 20
4.14577
 30
0.000000
  70
    32
  0
VERTEX
  8
AM_VIS
  5
3C1
 10
16.6652
 20
4.14571
 30
0.000000
  70
    32
  0
VERTEX
  8
AM_VIS
  5
3C2
 10
16.6651
 20
4.14565
 30
0.000000
  70
    32
  0
VERTEX
  8
AM_VIS
  5
3C3
 10
16.6650
 20
4.14559
 30
0.000000
  70
    32
  0
VERTEX
  8
AM_VIS
  5
3C4
 10
16.6648
 20
4.14553
 30
0.000000
  70
    32
  0
VERTEX
  8
AM_VIS
  5
3C5
 10
16.6647
 20
4.14547
 30
0.000000
  70
    32
  0
VERTEX
  8
AM_VIS
  5
3C6
 10
16.6646
 20
4.14541
 30
0.000000
  70
    32
  0
VERTEX
  8
AM_VIS
  5
3C7
 10
16.6645
 20
4.14535
 30
0.000000
  70
    32
  0
VERTEX
  8
AM_VIS
  5
3C8
 10
16.6643
 20
4.14529
 30
0.000000
  70
    32
  0
VERTEX
  8
AM_VIS
  5
3C9
 10
16.6642
 20
4.14523
 30
0.000000
  70
    32
  0
VERTEX
  8
AM_VIS
  5
3CA
 10
16.6641
 20
4.14517
 30
0.000000
  70
    32
  0
VERTEX
  8
AM_VIS
  5
3CB
 10
16.6640
 20
4.14512
 30
0.000000
  70
    32
  0
VERTEX
  8
AM_VIS
  5
3CC
 10
16.6638
 20
4.14506
 30
0.000000
  70
    32
  0
VERTEX
  8
AM_VIS
  5
3CD
 10
16.6637
 20
4.14500
 30
0.000000
  70
    32
  0
VERTEX
  8
AM_VIS
  5
3CE
 10
16.6636
 20
4.14495
 30
0.000000
  70
    32
  0
VERTEX
  8
AM_VIS
  5
3CF
 10
16.6635
 20
4.14489
 30
0.000000
  70
    32
  0
VERTEX
  8
AM_VIS
  5
3D0
 10
16.6633
 20
4.14484
 30
0.000000
  70
    32
  0
VERTEX
  8
AM_VIS
  5
3D1
 10
16.6632
 20
4.14479
 30
0.000000
  70
    32
  0
VERTEX
  8
AM_VIS
  5
3D2
 10
16.6631
 20
4.14473
 30
0.000000
  70
    32
  0
VERTEX
  8
AM_VIS
  5
3D3
 10
16.6629
 20
4.14468
 30
0.000000
  70
    32
  0
VERTEX
  8
AM_VIS
  5
3D4
 10
16.6628
 20
4.14463
 30
0.000000
  70
    32
  0
VERTEX
  8
AM_VIS
  5
3D5
 10
16.6627
 20
4.14458
 30
0.000000
  70
    32
  0
VERTEX
  8
AM_VIS
  5
3D6
 10
16.6626
 20
4.14453
 30
0.000000
  70
    32
  0
VERTEX
  8
AM_VIS
  5
3D7
 10
16.6624
 20
4.14448
 30
0.000000
  70
    32
  0
VERTEX
  8
AM_VIS
  5
3D8
 10
16.6623
 20
4.14443
 30
0.000000
  70
    32
  0
VERTEX
  8
AM_VIS
  5
3D9
 10
16.6622
 20
4.14438
 30
0.000000
  70
    32
  0
VERTEX
  8
AM_VIS
  5
3DA
 10
16.6620
 20
4.14433
 30
0.000000
  70
    32
  0
VERTEX
  8
AM_VIS
  5
3DB
 10
16.6619
 20
4.14428
 30
0.000000
  70
    32
  0
VERTEX
  8
AM_VIS
  5
3DC
 10
16.6618
 20
4.14423
 30
0.000000
  70
    32
  0
VERTEX
  8
AM_VIS
  5
3DD
 10
16.6617
 20
4.14419
 30
0.000000
  70
    32
  0
VERTEX
  8
AM_VIS
  5
3DE
 10
16.6615
 20
4.14414
 30
0.000000
  70
    32
  0
VERTEX
  8
AM_VIS
  5
3DF
 10
16.6614
 20
4.14409
 30
0.000000
  70
    32
  0
VERTEX
  8
AM_VIS
  5
3E0
 10
16.6613
 20
4.14405
 30
0.000000
  70
    32
  0
VERTEX
  8
AM_VIS
  5
3E1
 10
16.6611
 20
4.14401
 30
0.000000
  70
    32
  0
VERTEX
  8
AM_VIS
  5
3E2
 10
16.6610
 20
4.14396
 30
0.000000
  70
    32
  0
VERTEX
  8
AM_VIS
  5
3E3
 10
16.6609
 20
4.14392
 30
0.000000
  70
    32
  0
VERTEX
  8
AM_VIS
  5
3E4
 10
16.6608
 20
4.14388
 30
0.000000
  70
    32
  0
VERTEX
  8
AM_VIS
  5
3E5
 10
16.6606
 20
4.14383
 30
0.000000
  70
    32
  0
VERTEX
  8
AM_VIS
  5
3E6
 10
16.6605
 20
4.14379
 30
0.000000
  70
    32
  0
VERTEX
  8
AM_VIS
  5
3E7
 10
16.6604
 20
4.14375
 30
0.000000
  70
    32
  0
VERTEX
  8
AM_VIS
  5
3E8
 10
16.6602
 20
4.14371
 30
0.000000
  70
    32
  0
VERTEX
  8
AM_VIS
  5
3E9
 10
16.6601
 20
4.14367
 30
0.000000
  70
    32
  0
VERTEX
  8
AM_VIS
  5
3EA
 10
16.6600
 20
4.14363
 30
0.000000
  70
    32
  0
VERTEX
  8
AM_VIS
  5
3EB
 10
16.6598
 20
4.14360
 30
0.000000
  70
    32
  0
VERTEX
  8
AM_VIS
  5
3EC
 10
16.6597
 20
4.14356
 30
0.000000
  70
    32
  0
VERTEX
  8
AM_VIS
  5
3ED
 10
16.6596
 20
4.14352
 30
0.000000
  70
    32
  0
VERTEX
  8
AM_VIS
  5
3EE
 10
16.6594
 20
4.14349
 30
0.000000
  70
    32
  0
VERTEX
  8
AM_VIS
  5
3EF
 10
16.6593
 20
4.14345
 30
0.000000
  70
    32
  0
VERTEX
  8
AM_VIS
  5
3F0
 10
16.6592
 20
4.14342
 30
0.000000
  70
    32
  0
VERTEX
  8
AM_VIS
  5
3F1
 10
16.6590
 20
4.14338
 30
0.000000
  70
    32
  0
VERTEX
  8
AM_VIS
  5
3F2
 10
16.6589
 20
4.14335
 30
0.000000
  70
    32
  0
VERTEX
  8
AM_VIS
  5
3F3
 10
16.6588
 20
4.14332
 30
0.000000
  70
    32
  0
VERTEX
  8
AM_VIS
  5
3F4
 10
16.6586
 20
4.14329
 30
0.000000
  70
    32
  0
VERTEX
  8
AM_VIS
  5
3F5
 10
16.6585
 20
4.14325
 30
0.000000
  70
    32
  0
VERTEX
  8
AM_VIS
  5
3F6
 10
16.6584
 20
4.14322
 30
0.000000
  70
    32
  0
VERTEX
  8
AM_VIS
  5
3F7
 10
16.6582
 20
4.14319
 30
0.000000
  70
    32
  0
VERTEX
  8
AM_VIS
  5
3F8
 10
16.6581
 20
4.14316
 30
0.000000
  70
    32
  0
VERTEX
  8
AM_VIS
  5
3F9
 10
16.6580
 20
4.14314
 30
0.000000
  70
    32
  0
VERTEX
  8
AM_VIS
  5
3FA
 10
16.6578
 20
4.14311
 30
0.000000
  70
    32
  0
VERTEX
  8
AM_VIS
  5
3FB
 10
16.6577
 20
4.14308
 30
0.000000
  70
    32
  0
VERTEX
  8
AM_VIS
  5
3FC
 10
16.6576
 20
4.14306
 30
0.000000
  70
    32
  0
VERTEX
  8
AM_VIS
  5
3FD
 10
16.6574
 20
4.14303
 30
0.000000
  70
    32
  0
VERTEX
  8
AM_VIS
  5
3FE
 10
16.6573
 20
4.14301
 30
0.000000
  70
    32
  0
VERTEX
  8
AM_VIS
  5
3FF
 10
16.6571
 20
4.14298
 30
0.000000
  70
    32
  0
VERTEX
  8
AM_VIS
  5
400
 10
16.6570
 20
4.14296
 30
0.000000
  70
    32
  0
VERTEX
  8
AM_VIS
  5
401
 10
16.6569
 20
4.14294
 30
0.000000
  70
    32
  0
VERTEX
  8
AM_VIS
  5
402
 10
16.6567
 20
4.14291
 30
0.000000
  70
    32
  0
VERTEX
  8
AM_VIS
  5
403
 10
16.6566
 20
4.14289
 30
0.000000
  70
    32
  0
VERTEX
  8
AM_VIS
  5
404
 10
16.6565
 20
4.14287
 30
0.000000
  70
    32
  0
VERTEX
  8
AM_VIS
  5
405
 10
16.6563
 20
4.14285
 30
0.000000
  70
    32
  0
VERTEX
  8
AM_VIS
  5
406
 10
16.6562
 20
4.14284
 30
0.000000
  70
    32
  0
VERTEX
  8
AM_VIS
  5
407
 10
16.6560
 20
4.14282
 30
0.000000
  70
    32
  0
VERTEX
  8
AM_VIS
  5
408
 10
16.6559
 20
4.14280
 30
0.000000
  70
    32
  0
VERTEX
  8
AM_VIS
  5
409
 10
16.6558
 20
4.14279
 30
0.000000
  70
    32
  0
VERTEX
  8
AM_VIS
  5
40A
 10
16.6556
 20
4.14277
 30
0.000000
  70
    32
  0
VERTEX
  8
AM_VIS
  5
40B
 10
16.6555
 20
4.14276
 30
0.000000
  70
    32
  0
VERTEX
  8
AM_VIS
  5
40C
 10
16.6554
 20
4.14274
 30
0.000000
  70
    32
  0
VERTEX
  8
AM_VIS
  5
40D
 10
16.6552
 20
4.14273
 30
0.000000
  70
    32
  0
VERTEX
  8
AM_VIS
  5
40E
 10
16.6551
 20
4.14272
 30
0.000000
  70
    32
  0
VERTEX
  8
AM_VIS
  5
40F
 10
16.6549
 20
4.14271
 30
0.000000
  70
    32
  0
VERTEX
  8
AM_VIS
  5
410
 10
16.6548
 20
4.14270
 30
0.000000
  70
    32
  0
VERTEX
  8
AM_VIS
  5
411
 10
16.6547
 20
4.14269
 30
0.000000
  70
    32
  0
VERTEX
  8
AM_VIS
  5
412
 10
16.6545
 20
4.14268
 30
0.000000
  70
    32
  0
VERTEX
  8
AM_VIS
  5
413
 10
16.6544
 20
4.14267
 30
0.000000
  70
    32
  0
VERTEX
  8
AM_VIS
  5
414
 10
16.6542
 20
4.14267
 30
0.000000
  70
    32
  0
VERTEX
  8
AM_VIS
  5
415
 10
16.6541
 20
4.14266
 30
0.000000
  70
    32
  0
VERTEX
  8
AM_VIS
  5
416
 10
16.6539
 20
4.14266
 30
0.000000
  70
    32
  0
VERTEX
  8
AM_VIS
  5
417
 10
16.6538
 20
4.14265
 30
0.000000
  70
    32
  0
VERTEX
  8
AM_VIS
  5
418
 10
16.6537
 20
4.14265
 30
0.000000
  70
    32
  0
VERTEX
  8
AM_VIS
  5
419
 10
16.6535
 20
4.14265
 30
0.000000
  70
    32
  0
VERTEX
  8
AM_VIS
  5
41A
 10
16.6534
 20
4.14265
 30
0.000000
  70
    32
  0
VERTEX
  8
AM_VIS
  5
41B
 10
16.6532
 20
4.14265
 30
0.000000
  70
    32
  0
VERTEX
  8
AM_VIS
  5
41C
 10
16.6531
 20
4.14265
 30
0.000000
  70
    32
  0
VERTEX
  8
AM_VIS
  5
41D
 10
16.6530
 20
4.14265
 30
0.000000
  70
    32
  0
VERTEX
  8
AM_VIS
  5
41E
 10
16.6528
 20
4.14265
 30
0.000000
  70
    32
  0
VERTEX
  8
AM_VIS
  5
41F
 10
16.6527
 20
4.14265
 30
0.000000
  70
    32
  0
VERTEX
  8
AM_VIS
  5
420
 10
16.6525
 20
4.14266
 30
0.000000
  70
    32
  0
VERTEX
  8
AM_VIS
  5
421
 10
16.6524
 20
4.14266
 30
0.000000
  70
    32
  0
VERTEX
  8
AM_VIS
  5
422
 10
16.6522
 20
4.14267
 30
0.000000
  70
    32
  0
VERTEX
  8
AM_VIS
  5
423
 10
16.6521
 20
4.14268
 30
0.000000
  70
    32
  0
VERTEX
  8
AM_VIS
  5
424
 10
16.6519
 20
4.14269
 30
0.000000
  70
    32
  0
VERTEX
  8
AM_VIS
  5
425
 10
16.6518
 20
4.14270
 30
0.000000
  70
    32
  0
VERTEX
  8
AM_VIS
  5
426
 10
16.6517
 20
4.14271
 30
0.000000
  70
    32
  0
VERTEX
  8
AM_VIS
  5
427
 10
16.6515
 20
4.14272
 30
0.000000
  70
    32
  0
VERTEX
  8
AM_VIS
  5
428
 10
16.6514
 20
4.14273
 30
0.000000
  70
    32
  0
VERTEX
  8
AM_VIS
  5
429
 10
16.6512
 20
4.14275
 30
0.000000
  70
    32
  0
VERTEX
  8
AM_VIS
  5
42A
 10
16.6511
 20
4.14276
 30
0.000000
  70
    32
  0
VERTEX
  8
AM_VIS
  5
42B
 10
16.6509
 20
4.14278
 30
0.000000
  70
    32
  0
VERTEX
  8
AM_VIS
  5
42C
 10
16.6508
 20
4.14279
 30
0.000000
  70
    32
  0
VERTEX
  8
AM_VIS
  5
42D
 10
16.6506
 20
4.14281
 30
0.000000
  70
    32
  0
VERTEX
  8
AM_VIS
  5
42E
 10
16.6505
 20
4.14283
 30
0.000000
  70
    32
  0
VERTEX
  8
AM_VIS
  5
42F
 10
16.6503
 20
4.14285
 30
0.000000
  70
    32
  0
VERTEX
  8
AM_VIS
  5
430
 10
16.6502
 20
4.14287
 30
0.000000
  70
    32
  0
VERTEX
  8
AM_VIS
  5
431
 10
16.6500
 20
4.14289
 30
0.000000
  70
    32
  0
VERTEX
  8
AM_VIS
  5
432
 10
16.6499
 20
4.14292
 30
0.000000
  70
    32
  0
VERTEX
  8
AM_VIS
  5
433
 10
16.6497
 20
4.14294
 30
0.000000
  70
    32
  0
VERTEX
  8
AM_VIS
  5
434
 10
16.6496
 20
4.14297
 30
0.000000
  70
    32
  0
VERTEX
  8
AM_VIS
  5
435
 10
16.6495
 20
4.14299
 30
0.000000
  70
    32
  0
VERTEX
  8
AM_VIS
  5
436
 10
16.6493
 20
4.14302
 30
0.000000
  70
    32
  0
VERTEX
  8
AM_VIS
  5
437
 10
16.6492
 20
4.14305
 30
0.000000
  70
    32
  0
VERTEX
  8
AM_VIS
  5
438
 10
16.6490
 20
4.14308
 30
0.000000
  70
    32
  0
VERTEX
  8
AM_VIS
  5
439
 10
16.6489
 20
4.14311
 30
0.000000
  70
    32
  0
VERTEX
  8
AM_VIS
  5
43A
 10
16.6487
 20
4.14314
 30
0.000000
  70
    32
  0
VERTEX
  8
AM_VIS
  5
43B
 10
16.6486
 20
4.14318
 30
0.000000
  70
    32
  0
VERTEX
  8
AM_VIS
  5
43C
 10
16.6484
 20
4.14321
 30
0.000000
  70
    32
  0
VERTEX
  8
AM_VIS
  5
43D
 10
16.6483
 20
4.14325
 30
0.000000
  70
    32
  0
VERTEX
  8
AM_VIS
  5
43E
 10
16.6481
 20
4.14329
 30
0.000000
  70
    32
  0
VERTEX
  8
AM_VIS
  5
43F
 10
16.6480
 20
4.14332
 30
0.000000
  70
    32
  0
VERTEX
  8
AM_VIS
  5
440
 10
16.6478
 20
4.14336
 30
0.000000
  70
    32
  0
VERTEX
  8
AM_VIS
  5
441
 10
16.6477
 20
4.14341
 30
0.000000
  70
    32
  0
VERTEX
  8
AM_VIS
  5
442
 10
16.6475
 20
4.14345
 30
0.000000
  70
    32
  0
VERTEX
  8
AM_VIS
  5
443
 10
16.6474
 20
4.14349
 30
0.000000
  70
    32
  0
VERTEX
  8
AM_VIS
  5
444
 10
16.6472
 20
4.14354
 30
0.000000
  70
    32
  0
VERTEX
  8
AM_VIS
  5
445
 10
16.6471
 20
4.14358
 30
0.000000
  70
    32
  0
VERTEX
  8
AM_VIS
  5
446
 10
16.6469
 20
4.14363
 30
0.000000
  70
    32
  0
VERTEX
  8
AM_VIS
  5
447
 10
16.6468
 20
4.14368
 30
0.000000
  70
    32
  0
VERTEX
  8
AM_VIS
  5
448
 10
16.6466
 20
4.14373
 30
0.000000
  70
    32
  0
VERTEX
  8
AM_VIS
  5
449
 10
16.6464
 20
4.14378
 30
0.000000
  70
    32
  0
VERTEX
  8
AM_VIS
  5
44A
 10
16.6463
 20
4.14383
 30
0.000000
  70
    32
  0
VERTEX
  8
AM_VIS
  5
44B
 10
16.6461
 20
4.14388
 30
0.000000
  70
    32
  0
VERTEX
  8
AM_VIS
  5
44C
 10
16.6460
 20
4.14394
 30
0.000000
  70
    32
  0
VERTEX
  8
AM_VIS
  5
44D
 10
16.6458
 20
4.14399
 30
0.000000
  70
    32
  0
VERTEX
  8
AM_VIS
  5
44E
 10
16.6457
 20
4.14405
 30
0.000000
  70
    32
  0
VERTEX
  8
AM_VIS
  5
44F
 10
16.6455
 20
4.14411
 30
0.000000
  70
    32
  0
VERTEX
  8
AM_VIS
  5
450
 10
16.6454
 20
4.14417
 30
0.000000
  70
    32
  0
VERTEX
  8
AM_VIS
  5
451
 10
16.6452
 20
4.14423
 30
0.000000
  70
    32
  0
VERTEX
  8
AM_VIS
  5
452
 10
16.6451
 20
4.14429
 30
0.000000
  70
    32
  0
VERTEX
  8
AM_VIS
  5
453
 10
16.6449
 20
4.14436
 30
0.000000
  70
    32
  0
VERTEX
  8
AM_VIS
  5
454
 10
16.6448
 20
4.14442
 30
0.000000
  70
    32
  0
VERTEX
  8
AM_VIS
  5
455
 10
16.6446
 20
4.14449
 30
0.000000
  70
    32
  0
VERTEX
  8
AM_VIS
  5
456
 10
16.6445
 20
4.14456
 30
0.000000
  70
    32
  0
VERTEX
  8
AM_VIS
  5
457
 10
16.6443
 20
4.14463
 30
0.000000
  70
    32
  0
VERTEX
  8
AM_VIS
  5
458
 10
16.6441
 20
4.14470
 30
0.000000
  70
    32
  0
VERTEX
  8
AM_VIS
  5
459
 10
16.6440
 20
4.14477
 30
0.000000
  70
    32
  0
VERTEX
  8
AM_VIS
  5
45A
 10
16.6438
 20
4.14485
 30
0.000000
  70
    32
  0
VERTEX
  8
AM_VIS
  5
45B
 10
16.6437
 20
4.14492
 30
0.000000
  70
    32
  0
VERTEX
  8
AM_VIS
  5
45C
 10
16.6435
 20
4.14500
 30
0.000000
  70
    32
  0
VERTEX
  8
AM_VIS
  5
45D
 10
16.6434
 20
4.14508
 30
0.000000
  70
    32
  0
VERTEX
  8
AM_VIS
  5
45E
 10
16.6432
 20
4.14516
 30
0.000000
  70
    32
  0
VERTEX
  8
AM_VIS
  5
45F
 10
16.6431
 20
4.14524
 30
0.000000
  70
    32
  0
VERTEX
  8
AM_VIS
  5
460
 10
16.6429
 20
4.14532
 30
0.000000
  70
    32
  0
VERTEX
  8
AM_VIS
  5
461
 10
16.6428
 20
4.14541
 30
0.000000
  70
    32
  0
VERTEX
  8
AM_VIS
  5
462
 10
16.6426
 20
4.14549
 30
0.000000
  70
    32
  0
VERTEX
  8
AM_VIS
  5
463
 10
16.6424
 20
4.14558
 30
0.000000
  70
    32
  0
VERTEX
  8
AM_VIS
  5
464
 10
16.6423
 20
4.14567
 30
0.000000
  70
    32
  0
VERTEX
  8
AM_VIS
  5
465
 10
16.6421
 20
4.14576
 30
0.000000
  70
    32
  0
VERTEX
  8
AM_VIS
  5
466
 10
16.6420
 20
4.14585
 30
0.000000
  70
    32
  0
VERTEX
  8
AM_VIS
  5
467
 10
16.6418
 20
4.14594
 30
0.000000
  70
    32
  0
VERTEX
  8
AM_VIS
  5
468
 10
16.6417
 20
4.14604
 30
0.000000
  70
    32
  0
VERTEX
  8
AM_VIS
  5
469
 10
16.6415
 20
4.14613
 30
0.000000
  70
    32
  0
VERTEX
  8
AM_VIS
  5
46A
 10
16.6413
 20
4.14623
 30
0.000000
  70
    32
  0
VERTEX
  8
AM_VIS
  5
46B
 10
16.6412
 20
4.14633
 30
0.000000
  70
    32
  0
VERTEX
  8
AM_VIS
  5
46C
 10
16.6410
 20
4.14643
 30
0.000000
  70
    32
  0
VERTEX
  8
AM_VIS
  5
46D
 10
16.6409
 20
4.14654
 30
0.000000
  70
    32
  0
VERTEX
  8
AM_VIS
  5
46E
 10
16.6407
 20
4.14664
 30
0.000000
  70
    32
  0
VERTEX
  8
AM_VIS
  5
46F
 10
16.6406
 20
4.14675
 30
0.000000
  70
    32
  0
VERTEX
  8
AM_VIS
  5
470
 10
16.6404
 20
4.14685
 30
0.000000
  70
    32
  0
VERTEX
  8
AM_VIS
  5
471
 10
16.6402
 20
4.14696
 30
0.000000
  70
    32
  0
VERTEX
  8
AM_VIS
  5
472
 10
16.6401
 20
4.14707
 30
0.000000
  70
    32
  0
VERTEX
  8
AM_VIS
  5
473
 10
16.6399
 20
4.14719
 30
0.000000
  70
    32
  0
VERTEX
  8
AM_VIS
  5
474
 10
16.6398
 20
4.14730
 30
0.000000
  70
    32
  0
VERTEX
  8
AM_VIS
  5
475
 10
16.6396
 20
4.14742
 30
0.000000
  70
    32
  0
VERTEX
  8
AM_VIS
  5
476
 10
16.6395
 20
4.14753
 30
0.000000
  70
    32
  0
VERTEX
  8
AM_VIS
  5
477
 10
16.6393
 20
4.14765
 30
0.000000
  70
    32
  0
VERTEX
  8
AM_VIS
  5
478
 10
16.6391
 20
4.14777
 30
0.000000
  70
    32
  0
VERTEX
  8
AM_VIS
  5
479
 10
16.6390
 20
4.14790
 30
0.000000
  70
    32
  0
VERTEX
  8
AM_VIS
  5
47A
 10
16.6388
 20
4.14802
 30
0.000000
  70
    32
  0
VERTEX
  8
AM_VIS
  5
47B
 10
16.6387
 20
4.14814
 30
0.000000
  70
    32
  0
VERTEX
  8
AM_VIS
  5
47C
 10
16.6385
 20
4.14827
 30
0.000000
  70
    32
  0
VERTEX
  8
AM_VIS
  5
47D
 10
16.6383
 20
4.14840
 30
0.000000
  70
    32
  0
VERTEX
  8
AM_VIS
  5
47E
 10
16.6382
 20
4.14853
 30
0.000000
  70
    32
  0
VERTEX
  8
AM_VIS
  5
47F
 10
16.6380
 20
4.14866
 30
0.000000
  70
    32
  0
VERTEX
  8
AM_VIS
  5
480
 10
16.6379
 20
4.14880
 30
0.000000
  70
    32
  0
VERTEX
  8
AM_VIS
  5
481
 10
16.6377
 20
4.14894
 30
0.000000
  70
    32
  0
VERTEX
  8
AM_VIS
  5
482
 10
16.6376
 20
4.14907
 30
0.000000
  70
    32
  0
VERTEX
  8
AM_VIS
  5
483
 10
16.6374
 20
4.14921
 30
0.000000
  70
    32
  0
VERTEX
  8
AM_VIS
  5
484
 10
16.6372
 20
4.14935
 30
0.000000
  70
    32
  0
VERTEX
  8
AM_VIS
  5
485
 10
16.6371
 20
4.14950
 30
0.000000
  70
    32
  0
VERTEX
  8
AM_VIS
  5
486
 10
16.6369
 20
4.14964
 30
0.000000
  70
    32
  0
VERTEX
  8
AM_VIS
  5
487
 10
16.6368
 20
4.14979
 30
0.000000
  70
    32
  0
VERTEX
  8
AM_VIS
  5
488
 10
16.6366
 20
4.14993
 30
0.000000
  70
    32
  0
VERTEX
  8
AM_VIS
  5
489
 10
16.6364
 20
4.15008
 30
0.000000
  70
    32
  0
VERTEX
  8
AM_VIS
  5
48A
 10
16.6363
 20
4.15023
 30
0.000000
  70
    32
  0
VERTEX
  8
AM_VIS
  5
48B
 10
16.6361
 20
4.15039
 30
0.000000
  70
    32
  0
VERTEX
  8
AM_VIS
  5
48C
 10
16.6360
 20
4.15054
 30
0.000000
  70
    32
  0
VERTEX
  8
AM_VIS
  5
48D
 10
16.6358
 20
4.15070
 30
0.000000
  70
    32
  0
VERTEX
  8
AM_VIS
  5
48E
 10
16.6357
 20
4.15086
 30
0.000000
  70
    32
  0
VERTEX
  8
AM_VIS
  5
48F
 10
16.6355
 20
4.15102
 30
0.000000
  70
    32
  0
VERTEX
  8
AM_VIS
  5
490
 10
16.6353
 20
4.15118
 30
0.000000
  70
    32
  0
VERTEX
  8
AM_VIS
  5
491
 10
16.6352
 20
4.15134
 30
0.000000
  70
    32
  0
VERTEX
  8
AM_VIS
  5
492
 10
16.6350
 20
4.15150
 30
0.000000
  70
    32
  0
VERTEX
  8
AM_VIS
  5
493
 10
16.6349
 20
4.15167
 30
0.000000
  70
    32
  0
VERTEX
  8
AM_VIS
  5
494
 10
16.6347
 20
4.15184
 30
0.000000
  70
    32
  0
VERTEX
  8
AM_VIS
  5
495
 10
16.6346
 20
4.15201
 30
0.000000
  70
    32
  0
VERTEX
  8
AM_VIS
  5
496
 10
16.6344
 20
4.15218
 30
0.000000
  70
    32
  0
VERTEX
  8
AM_VIS
  5
497
 10
16.6342
 20
4.15235
 30
0.000000
  70
    32
  0
VERTEX
  8
AM_VIS
  5
498
 10
16.6341
 20
4.15253
 30
0.000000
  70
    32
  0
VERTEX
  8
AM_VIS
  5
499
 10
16.6339
 20
4.15271
 30
0.000000
  70
    32
  0
VERTEX
  8
AM_VIS
  5
49A
 10
16.6338
 20
4.15289
 30
0.000000
  70
    32
  0
VERTEX
  8
AM_VIS
  5
49B
 10
16.6336
 20
4.15307
 30
0.000000
  70
    32
  0
VERTEX
  8
AM_VIS
  5
49C
 10
16.6335
 20
4.15325
 30
0.000000
  70
    32
  0
VERTEX
  8
AM_VIS
  5
49D
 10
16.6333
 20
4.15343
 30
0.000000
  70
    32
  0
VERTEX
  8
AM_VIS
  5
49E
 10
16.6331
 20
4.15362
 30
0.000000
  70
    32
  0
VERTEX
  8
AM_VIS
  5
49F
 10
16.6330
 20
4.15381
 30
0.000000
  70
    32
  0
VERTEX
  8
AM_VIS
  5
4A0
 10
16.6328
 20
4.15400
 30
0.000000
  70
    32
  0
VERTEX
  8
AM_VIS
  5
4A1
 10
16.6327
 20
4.15419
 30
0.000000
  70
    32
  0
VERTEX
  8
AM_VIS
  5
4A2
 10
16.6325
 20
4.15438
 30
0.000000
  70
    32
  0
VERTEX
  8
AM_VIS
  5
4A3
 10
16.6324
 20
4.15458
 30
0.000000
  70
    32
  0
VERTEX
  8
AM_VIS
  5
4A4
 10
16.6322
 20
4.15477
 30
0.000000
  70
    32
  0
VERTEX
  8
AM_VIS
  5
4A5
 10
16.6321
 20
4.15497
 30
0.000000
  70
    32
  0
VERTEX
  8
AM_VIS
  5
4A6
 10
16.6319
 20
4.15517
 30
0.000000
  70
    32
  0
VERTEX
  8
AM_VIS
  5
4A7
 10
16.6317
 20
4.15537
 30
0.000000
  70
    32
  0
VERTEX
  8
AM_VIS
  5
4A8
 10
16.6316
 20
4.15558
 30
0.000000
  70
    32
  0
VERTEX
  8
AM_VIS
  5
4A9
 10
16.6314
 20
4.15578
 30
0.000000
  70
    32
  0
VERTEX
  8
AM_VIS
  5
4AA
 10
16.6313
 20
4.15599
 30
0.000000
  70
    32
  0
VERTEX
  8
AM_VIS
  5
4AB
 10
16.6311
 20
4.15620
 30
0.000000
  70
    32
  0
VERTEX
  8
AM_VIS
  5
4AC
 10
16.6310
 20
4.15641
 30
0.000000
  70
    32
  0
VERTEX
  8
AM_VIS
  5
4AD
 10
16.6308
 20
4.15662
 30
0.000000
  70
    32
  0
VERTEX
  8
AM_VIS
  5
4AE
 10
16.6307
 20
4.15684
 30
0.000000
  70
    32
  0
VERTEX
  8
AM_VIS
  5
4AF
 10
16.6305
 20
4.15706
 30
0.000000
  70
    32
  0
VERTEX
  8
AM_VIS
  5
4B0
 10
16.6304
 20
4.15728
 30
0.000000
  70
    32
  0
VERTEX
  8
AM_VIS
  5
4B1
 10
16.6302
 20
4.15750
 30
0.000000
  70
    32
  0
VERTEX
  8
AM_VIS
  5
4B2
 10
16.6300
 20
4.15772
 30
0.000000
  70
    32
  0
VERTEX
  8
AM_VIS
  5
4B3
 10
16.6299
 20
4.15794
 30
0.000000
  70
    32
  0
VERTEX
  8
AM_VIS
  5
4B4
 10
16.6297
 20
4.15817
 30
0.000000
  70
    32
  0
VERTEX
  8
AM_VIS
  5
4B5
 10
16.6296
 20
4.15840
 30
0.000000
  70
    32
  0
VERTEX
  8
AM_VIS
  5
4B6
 10
16.6294
 20
4.15863
 30
0.000000
  70
    32
  0
VERTEX
  8
AM_VIS
  5
4B7
 10
16.6293
 20
4.15886
 30
0.000000
  70
    32
  0
VERTEX
  8
AM_VIS
  5
4B8
 10
16.6291
 20
4.15909
 30
0.000000
  70
    32
  0
VERTEX
  8
AM_VIS
  5
4B9
 10
16.6290
 20
4.15933
 30
0.000000
  70
    32
  0
VERTEX
  8
AM_VIS
  5
4BA
 10
16.6288
 20
4.15957
 30
0.000000
  70
    32
  0
VERTEX
  8
AM_VIS
  5
4BB
 10
16.6287
 20
4.15981
 30
0.000000
  70
    32
  0
VERTEX
  8
AM_VIS
  5
4BC
 10
16.6285
 20
4.16005
 30
0.000000
  70
    32
  0
VERTEX
  8
AM_VIS
  5
4BD
 10
16.6284
 20
4.16029
 30
0.000000
  70
    32
  0
VERTEX
  8
AM_VIS
  5
4BE
 10
16.6282
 20
4.16054
 30
0.000000
  70
    32
  0
VERTEX
  8
AM_VIS
  5
4BF
 10
16.6281
 20
4.16079
 30
0.000000
  70
    32
  0
VERTEX
  8
AM_VIS
  5
4C0
 10
16.6279
 20
4.16104
 30
0.000000
  70
    32
  0
VERTEX
  8
AM_VIS
  5
4C1
 10
16.6278
 20
4.16129
 30
0.000000
  70
    32
  0
VERTEX
  8
AM_VIS
  5
4C2
 10
16.6276
 20
4.16154
 30
0.000000
  70
    32
  0
VERTEX
  8
AM_VIS
  5
4C3
 10
16.6275
 20
4.16180
 30
0.000000
  70
    32
  0
VERTEX
  8
AM_VIS
  5
4C4
 10
16.6273
 20
4.16205
 30
0.000000
  70
    32
  0
VERTEX
  8
AM_VIS
  5
4C5
 10
16.6272
 20
4.16231
 30
0.000000
  70
    32
  0
VERTEX
  8
AM_VIS
  5
4C6
 10
16.6270
 20
4.16257
 30
0.000000
  70
    32
  0
VERTEX
  8
AM_VIS
  5
4C7
 10
16.6269
 20
4.16284
 30
0.000000
  70
    32
  0
VERTEX
  8
AM_VIS
  5
4C8
 10
16.6267
 20
4.16310
 30
0.000000
  70
    32
  0
VERTEX
  8
AM_VIS
  5
4C9
 10
16.6266
 20
4.16337
 30
0.000000
  70
    32
  0
VERTEX
  8
AM_VIS
  5
4CA
 10
16.6264
 20
4.16364
 30
0.000000
  70
    32
  0
VERTEX
  8
AM_VIS
  5
4CB
 10
16.6263
 20
4.16391
 30
0.000000
  70
    32
  0
VERTEX
  8
AM_VIS
  5
4CC
 10
16.6261
 20
4.16418
 30
0.000000
  70
    32
  0
VERTEX
  8
AM_VIS
  5
4CD
 10
16.6260
 20
4.16446
 30
0.000000
  70
    32
  0
VERTEX
  8
AM_VIS
  5
4CE
 10
16.6258
 20
4.16474
 30
0.000000
  70
    32
  0
VERTEX
  8
AM_VIS
  5
4CF
 10
16.6257
 20
4.16502
 30
0.000000
  70
    32
  0
VERTEX
  8
AM_VIS
  5
4D0
 10
16.6255
 20
4.16530
 30
0.000000
  70
    32
  0
VERTEX
  8
AM_VIS
  5
4D1
 10
16.6254
 20
4.16558
 30
0.000000
  70
    32
  0
VERTEX
  8
AM_VIS
  5
4D2
 10
16.6252
 20
4.16587
 30
0.000000
  70
    32
  0
VERTEX
  8
AM_VIS
  5
4D3
 10
16.6251
 20
4.16615
 30
0.000000
  70
    32
  0
VERTEX
  8
AM_VIS
  5
4D4
 10
16.6249
 20
4.16644
 30
0.000000
  70
    32
  0
VERTEX
  8
AM_VIS
  5
4D5
 10
16.6248
 20
4.16673
 30
0.000000
  70
    32
  0
VERTEX
  8
AM_VIS
  5
4D6
 10
16.6246
 20
4.16703
 30
0.000000
  70
    32
  0
VERTEX
  8
AM_VIS
  5
4D7
 10
16.6245
 20
4.16732
 30
0.000000
  70
    32
  0
VERTEX
  8
AM_VIS
  5
4D8
 10
16.6244
 20
4.16762
 30
0.000000
  70
    32
  0
VERTEX
  8
AM_VIS
  5
4D9
 10
16.6242
 20
4.16792
 30
0.000000
  70
    32
  0
VERTEX
  8
AM_VIS
  5
4DA
 10
16.6241
 20
4.16822
 30
0.000000
  70
    32
  0
VERTEX
  8
AM_VIS
  5
4DB
 10
16.6239
 20
4.16853
 30
0.000000
  70
    32
  0
VERTEX
  8
AM_VIS
  5
4DC
 10
16.6238
 20
4.16883
 30
0.000000
  70
    32
  0
VERTEX
  8
AM_VIS
  5
4DD
 10
16.6236
 20
4.16914
 30
0.000000
  70
    32
  0
VERTEX
  8
AM_VIS
  5
4DE
 10
16.6235
 20
4.16945
 30
0.000000
  70
    32
  0
VERTEX
  8
AM_VIS
  5
4DF
 10
16.6233
 20
4.16976
 30
0.000000
  70
    32
  0
VERTEX
  8
AM_VIS
  5
4E0
 10
16.6232
 20
4.17008
 30
0.000000
  70
    32
  0
VERTEX
  8
AM_VIS
  5
4E1
 10
16.6231
 20
4.17039
 30
0.000000
  70
    32
  0
VERTEX
  8
AM_VIS
  5
4E2
 10
16.6229
 20
4.17071
 30
0.000000
  70
    32
  0
VERTEX
  8
AM_VIS
  5
4E3
 10
16.6228
 20
4.17103
 30
0.000000
  70
    32
  0
VERTEX
  8
AM_VIS
  5
4E4
 10
16.6226
 20
4.17135
 30
0.000000
  70
    32
  0
VERTEX
  8
AM_VIS
  5
4E5
 10
16.6225
 20
4.17167
 30
0.000000
  70
    32
  0
VERTEX
  8
AM_VIS
  5
4E6
 10
16.6223
 20
4.17200
 30
0.000000
  70
    32
  0
VERTEX
  8
AM_VIS
  5
4E7
 10
16.6222
 20
4.17232
 30
0.000000
  70
    32
  0
VERTEX
  8
AM_VIS
  5
4E8
 10
16.6221
 20
4.17265
 30
0.000000
  70
    32
  0
VERTEX
  8
AM_VIS
  5
4E9
 10
16.6219
 20
4.17298
 30
0.000000
  70
    32
  0
VERTEX
  8
AM_VIS
  5
4EA
 10
16.6218
 20
4.17331
 30
0.000000
  70
    32
  0
VERTEX
  8
AM_VIS
  5
4EB
 10
16.6216
 20
4.17364
 30
0.000000
  70
    32
  0
VERTEX
  8
AM_VIS
  5
4EC
 10
16.6215
 20
4.17398
 30
0.000000
  70
    32
  0
VERTEX
  8
AM_VIS
  5
4ED
 10
16.6214
 20
4.17431
 30
0.000000
  70
    32
  0
VERTEX
  8
AM_VIS
  5
4EE
 10
16.6212
 20
4.17465
 30
0.000000
  70
    32
  0
VERTEX
  8
AM_VIS
  5
4EF
 10
16.6211
 20
4.17499
 30
0.000000
  70
    32
  0
VERTEX
  8
AM_VIS
  5
4F0
 10
16.6210
 20
4.17533
 30
0.000000
  70
    32
  0
VERTEX
  8
AM_VIS
  5
4F1
 10
16.6208
 20
4.17567
 30
0.000000
  70
    32
  0
VERTEX
  8
AM_VIS
  5
4F2
 10
16.6207
 20
4.17602
 30
0.000000
  70
    32
  0
VERTEX
  8
AM_VIS
  5
4F3
 10
16.6206
 20
4.17636
 30
0.000000
  70
    32
  0
SEQEND
  8
AM_VIS
  5
4F4
  0
LINE
  5
27
  8
AM_VIS
 10
14.39864992527678
 20
6.4298130798956317
 30
0.0
 11
16.688701621104251
 21
6.4298130798956317
 31
0.0
  0
LINE
  5
28
  8
AM_VIS
 10
16.688701621104251
 20
6.4298130791716259
 30
0.0
 11
16.700031869819149
 21
6.4298130791716259
 31
0.0
  0
LINE
  5
29
  8
AM_VIS
 10
16.886149925277081
 20
6.2140016207577382
 30
0.0
 11
16.886149925277081
 21
6.1152057294383484
 31
0.0
  0
ARC
  5
2A
  8
AM_VIS
 10
16.948649925276008
 20
6.456063079894645
 30
0.0
 40
0.249999999998825
 50
186.0271665609543
 51
255.52248781418541
  0
LINE
  5
2B
  8
AM_VIS
 10
16.886149925276779
 20
6.1152057294383493
 30
0.0
 11
16.886149925276779
 21
5.4844204303529169
 31
0.0
  0
ARC
  5
2C
  8
AM_VIS
 10
16.948649925276779
 20
5.1435630798956327
 30
0.0
 40
0.2500000000000004
 50
104.4775121859299
 51
179.99999999999989
  0
LINE
  5
2D
  8
AM_VIS
 10
16.886149925277081
 20
5.4844204303529169
 30
0.0
 11
16.886149925277081
 21
5.385624539033528
 31
0.0
  0
ARC
  5
2E
  8
AM_HID
 10
17.539848003442209
 20
5.8067449022570337
 30
0.0
 40
1.0413275316429531
 50
180.3814134309674
 51
197.86249115412579
  0
ARC
  5
31
  8
AM_HID
 10
17.53984800344217
 20
5.7928812575342379
 30
0.0
 40
1.041327531642916
 50
162.1375088458739
 51
179.618586569033
  0
POLYLINE
  8
AM_VIS
  5
4F5
  66
     1
 10
0.000000
 20
0.000000
 30
0.000000
  70
     8
  0
VERTEX
  8
AM_VIS
  5
4F6
 10
16.6206
 20
3.34327
 30
0.000000
  70
    32
  0
VERTEX
  8
AM_VIS
  5
4F7
 10
16.6207
 20
3.34359
 30
0.000000
  70
    32
  0
VERTEX
  8
AM_VIS
  5
4F8
 10
16.6208
 20
3.34392
 30
0.000000
  70
    32
  0
VERTEX
  8
AM_VIS
  5
4F9
 10
16.6209
 20
3.34424
 30
0.000000
  70
    32
  0
VERTEX
  8
AM_VIS
  5
4FA
 10
16.6211
 20
3.34457
 30
0.000000
  70
    32
  0
VERTEX
  8
AM_VIS
  5
4FB
 10
16.6212
 20
3.34489
 30
0.000000
  70
    32
  0
VERTEX
  8
AM_VIS
  5
4FC
 10
16.6213
 20
3.34521
 30
0.000000
  70
    32
  0
VERTEX
  8
AM_VIS
  5
4FD
 10
16.6215
 20
3.34553
 30
0.000000
  70
    32
  0
VERTEX
  8
AM_VIS
  5
4FE
 10
16.6216
 20
3.34584
 30
0.000000
  70
    32
  0
VERTEX
  8
AM_VIS
  5
4FF
 10
16.6217
 20
3.34616
 30
0.000000
  70
    32
  0
VERTEX
  8
AM_VIS
  5
500
 10
16.6219
 20
3.34648
 30
0.000000
  70
    32
  0
VERTEX
  8
AM_VIS
  5
501
 10
16.6220
 20
3.34679
 30
0.000000
  70
    32
  0
VERTEX
  8
AM_VIS
  5
502
 10
16.6221
 20
3.34710
 30
0.000000
  70
    32
  0
VERTEX
  8
AM_VIS
  5
503
 10
16.6223
 20
3.34741
 30
0.000000
  70
    32
  0
VERTEX
  8
AM_VIS
  5
504
 10
16.6224
 20
3.34772
 30
0.000000
  70
    32
  0
VERTEX
  8
AM_VIS
  5
505
 10
16.6225
 20
3.34803
 30
0.000000
  70
    32
  0
VERTEX
  8
AM_VIS
  5
506
 10
16.6227
 20
3.34833
 30
0.000000
  70
    32
  0
VERTEX
  8
AM_VIS
  5
507
 10
16.6228
 20
3.34863
 30
0.000000
  70
    32
  0
VERTEX
  8
AM_VIS
  5
508
 10
16.6229
 20
3.34894
 30
0.000000
  70
    32
  0
VERTEX
  8
AM_VIS
  5
509
 10
16.6231
 20
3.34923
 30
0.000000
  70
    32
  0
VERTEX
  8
AM_VIS
  5
50A
 10
16.6232
 20
3.34953
 30
0.000000
  70
    32
  0
VERTEX
  8
AM_VIS
  5
50B
 10
16.6233
 20
3.34983
 30
0.000000
  70
    32
  0
VERTEX
  8
AM_VIS
  5
50C
 10
16.6235
 20
3.35012
 30
0.000000
  70
    32
  0
VERTEX
  8
AM_VIS
  5
50D
 10
16.6236
 20
3.35042
 30
0.000000
  70
    32
  0
VERTEX
  8
AM_VIS
  5
50E
 10
16.6237
 20
3.35071
 30
0.000000
  70
    32
  0
VERTEX
  8
AM_VIS
  5
50F
 10
16.6239
 20
3.35099
 30
0.000000
  70
    32
  0
VERTEX
  8
AM_VIS
  5
510
 10
16.6240
 20
3.35128
 30
0.000000
  70
    32
  0
VERTEX
  8
AM_VIS
  5
511
 10
16.6241
 20
3.35157
 30
0.000000
  70
    32
  0
VERTEX
  8
AM_VIS
  5
512
 10
16.6243
 20
3.35185
 30
0.000000
  70
    32
  0
VERTEX
  8
AM_VIS
  5
513
 10
16.6244
 20
3.35213
 30
0.000000
  70
    32
  0
VERTEX
  8
AM_VIS
  5
514
 10
16.6246
 20
3.35241
 30
0.000000
  70
    32
  0
VERTEX
  8
AM_VIS
  5
515
 10
16.6247
 20
3.35269
 30
0.000000
  70
    32
  0
VERTEX
  8
AM_VIS
  5
516
 10
16.6248
 20
3.35297
 30
0.000000
  70
    32
  0
VERTEX
  8
AM_VIS
  5
517
 10
16.6250
 20
3.35324
 30
0.000000
  70
    32
  0
VERTEX
  8
AM_VIS
  5
518
 10
16.6251
 20
3.35351
 30
0.000000
  70
    32
  0
VERTEX
  8
AM_VIS
  5
519
 10
16.6252
 20
3.35378
 30
0.000000
  70
    32
  0
VERTEX
  8
AM_VIS
  5
51A
 10
16.6254
 20
3.35405
 30
0.000000
  70
    32
  0
VERTEX
  8
AM_VIS
  5
51B
 10
16.6255
 20
3.35432
 30
0.000000
  70
    32
  0
VERTEX
  8
AM_VIS
  5
51C
 10
16.6257
 20
3.35459
 30
0.000000
  70
    32
  0
VERTEX
  8
AM_VIS
  5
51D
 10
16.6258
 20
3.35485
 30
0.000000
  70
    32
  0
VERTEX
  8
AM_VIS
  5
51E
 10
16.6259
 20
3.35511
 30
0.000000
  70
    32
  0
VERTEX
  8
AM_VIS
  5
51F
 10
16.6261
 20
3.35537
 30
0.000000
  70
    32
  0
VERTEX
  8
AM_VIS
  5
520
 10
16.6262
 20
3.35563
 30
0.000000
  70
    32
  0
VERTEX
  8
AM_VIS
  5
521
 10
16.6264
 20
3.35589
 30
0.000000
  70
    32
  0
VERTEX
  8
AM_VIS
  5
522
 10
16.6265
 20
3.35614
 30
0.000000
  70
    32
  0
VERTEX
  8
AM_VIS
  5
523
 10
16.6266
 20
3.35640
 30
0.000000
  70
    32
  0
VERTEX
  8
AM_VIS
  5
524
 10
16.6268
 20
3.35665
 30
0.000000
  70
    32
  0
VERTEX
  8
AM_VIS
  5
525
 10
16.6269
 20
3.35690
 30
0.000000
  70
    32
  0
VERTEX
  8
AM_VIS
  5
526
 10
16.6271
 20
3.35715
 30
0.000000
  70
    32
  0
VERTEX
  8
AM_VIS
  5
527
 10
16.6272
 20
3.35739
 30
0.000000
  70
    32
  0
VERTEX
  8
AM_VIS
  5
528
 10
16.6274
 20
3.35764
 30
0.000000
  70
    32
  0
VERTEX
  8
AM_VIS
  5
529
 10
16.6275
 20
3.35788
 30
0.000000
  70
    32
  0
VERTEX
  8
AM_VIS
  5
52A
 10
16.6276
 20
3.35812
 30
0.000000
  70
    32
  0
VERTEX
  8
AM_VIS
  5
52B
 10
16.6278
 20
3.35836
 30
0.000000
  70
    32
  0
VERTEX
  8
AM_VIS
  5
52C
 10
16.6279
 20
3.35860
 30
0.000000
  70
    32
  0
VERTEX
  8
AM_VIS
  5
52D
 10
16.6281
 20
3.35884
 30
0.000000
  70
    32
  0
VERTEX
  8
AM_VIS
  5
52E
 10
16.6282
 20
3.35907
 30
0.000000
  70
    32
  0
VERTEX
  8
AM_VIS
  5
52F
 10
16.6284
 20
3.35931
 30
0.000000
  70
    32
  0
VERTEX
  8
AM_VIS
  5
530
 10
16.6285
 20
3.35954
 30
0.000000
  70
    32
  0
VERTEX
  8
AM_VIS
  5
531
 10
16.6286
 20
3.35977
 30
0.000000
  70
    32
  0
VERTEX
  8
AM_VIS
  5
532
 10
16.6288
 20
3.35999
 30
0.000000
  70
    32
  0
VERTEX
  8
AM_VIS
  5
533
 10
16.6289
 20
3.36022
 30
0.000000
  70
    32
  0
VERTEX
  8
AM_VIS
  5
534
 10
16.6291
 20
3.36044
 30
0.000000
  70
    32
  0
VERTEX
  8
AM_VIS
  5
535
 10
16.6292
 20
3.36067
 30
0.000000
  70
    32
  0
VERTEX
  8
AM_VIS
  5
536
 10
16.6294
 20
3.36089
 30
0.000000
  70
    32
  0
VERTEX
  8
AM_VIS
  5
537
 10
16.6295
 20
3.36111
 30
0.000000
  70
    32
  0
VERTEX
  8
AM_VIS
  5
538
 10
16.6297
 20
3.36133
 30
0.000000
  70
    32
  0
VERTEX
  8
AM_VIS
  5
539
 10
16.6298
 20
3.36154
 30
0.000000
  70
    32
  0
VERTEX
  8
AM_VIS
  5
53A
 10
16.6299
 20
3.36176
 30
0.000000
  70
    32
  0
VERTEX
  8
AM_VIS
  5
53B
 10
16.6301
 20
3.36197
 30
0.000000
  70
    32
  0
VERTEX
  8
AM_VIS
  5
53C
 10
16.6302
 20
3.36218
 30
0.000000
  70
    32
  0
VERTEX
  8
AM_VIS
  5
53D
 10
16.6304
 20
3.36239
 30
0.000000
  70
    32
  0
VERTEX
  8
AM_VIS
  5
53E
 10
16.6305
 20
3.36260
 30
0.000000
  70
    32
  0
VERTEX
  8
AM_VIS
  5
53F
 10
16.6307
 20
3.36280
 30
0.000000
  70
    32
  0
VERTEX
  8
AM_VIS
  5
540
 10
16.6308
 20
3.36301
 30
0.000000
  70
    32
  0
VERTEX
  8
AM_VIS
  5
541
 10
16.6310
 20
3.36321
 30
0.000000
  70
    32
  0
VERTEX
  8
AM_VIS
  5
542
 10
16.6311
 20
3.36341
 30
0.000000
  70
    32
  0
VERTEX
  8
AM_VIS
  5
543
 10
16.6313
 20
3.36361
 30
0.000000
  70
    32
  0
VERTEX
  8
AM_VIS
  5
544
 10
16.6314
 20
3.36381
 30
0.000000
  70
    32
  0
VERTEX
  8
AM_VIS
  5
545
 10
16.6316
 20
3.36401
 30
0.000000
  70
    32
  0
VERTEX
  8
AM_VIS
  5
546
 10
16.6317
 20
3.36420
 30
0.000000
  70
    32
  0
VERTEX
  8
AM_VIS
  5
547
 10
16.6319
 20
3.36440
 30
0.000000
  70
    32
  0
VERTEX
  8
AM_VIS
  5
548
 10
16.6320
 20
3.36459
 30
0.000000
  70
    32
  0
VERTEX
  8
AM_VIS
  5
549
 10
16.6321
 20
3.36478
 30
0.000000
  70
    32
  0
VERTEX
  8
AM_VIS
  5
54A
 10
16.6323
 20
3.36496
 30
0.000000
  70
    32
  0
VERTEX
  8
AM_VIS
  5
54B
 10
16.6324
 20
3.36515
 30
0.000000
  70
    32
  0
VERTEX
  8
AM_VIS
  5
54C
 10
16.6326
 20
3.36534
 30
0.000000
  70
    32
  0
VERTEX
  8
AM_VIS
  5
54D
 10
16.6327
 20
3.36552
 30
0.000000
  70
    32
  0
VERTEX
  8
AM_VIS
  5
54E
 10
16.6329
 20
3.36570
 30
0.000000
  70
    32
  0
VERTEX
  8
AM_VIS
  5
54F
 10
16.6330
 20
3.36588
 30
0.000000
  70
    32
  0
VERTEX
  8
AM_VIS
  5
550
 10
16.6332
 20
3.36606
 30
0.000000
  70
    32
  0
VERTEX
  8
AM_VIS
  5
551
 10
16.6333
 20
3.36624
 30
0.000000
  70
    32
  0
VERTEX
  8
AM_VIS
  5
552
 10
16.6335
 20
3.36641
 30
0.000000
  70
    32
  0
VERTEX
  8
AM_VIS
  5
553
 10
16.6336
 20
3.36659
 30
0.000000
  70
    32
  0
VERTEX
  8
AM_VIS
  5
554
 10
16.6338
 20
3.36676
 30
0.000000
  70
    32
  0
VERTEX
  8
AM_VIS
  5
555
 10
16.6339
 20
3.36693
 30
0.000000
  70
    32
  0
VERTEX
  8
AM_VIS
  5
556
 10
16.6341
 20
3.36710
 30
0.000000
  70
    32
  0
VERTEX
  8
AM_VIS
  5
557
 10
16.6342
 20
3.36727
 30
0.000000
  70
    32
  0
VERTEX
  8
AM_VIS
  5
558
 10
16.6344
 20
3.36743
 30
0.000000
  70
    32
  0
VERTEX
  8
AM_VIS
  5
559
 10
16.6345
 20
3.36760
 30
0.000000
  70
    32
  0
VERTEX
  8
AM_VIS
  5
55A
 10
16.6347
 20
3.36776
 30
0.000000
  70
    32
  0
VERTEX
  8
AM_VIS
  5
55B
 10
16.6348
 20
3.36792
 30
0.000000
  70
    32
  0
VERTEX
  8
AM_VIS
  5
55C
 10
16.6350
 20
3.36808
 30
0.000000
  70
    32
  0
VERTEX
  8
AM_VIS
  5
55D
 10
16.6351
 20
3.36824
 30
0.000000
  70
    32
  0
VERTEX
  8
AM_VIS
  5
55E
 10
16.6353
 20
3.36839
 30
0.000000
  70
    32
  0
VERTEX
  8
AM_VIS
  5
55F
 10
16.6354
 20
3.36855
 30
0.000000
  70
    32
  0
VERTEX
  8
AM_VIS
  5
560
 10
16.6356
 20
3.36870
 30
0.000000
  70
    32
  0
VERTEX
  8
AM_VIS
  5
561
 10
16.6357
 20
3.36885
 30
0.000000
  70
    32
  0
VERTEX
  8
AM_VIS
  5
562
 10
16.6359
 20
3.36900
 30
0.000000
  70
    32
  0
VERTEX
  8
AM_VIS
  5
563
 10
16.6360
 20
3.36915
 30
0.000000
  70
    32
  0
VERTEX
  8
AM_VIS
  5
564
 10
16.6362
 20
3.36930
 30
0.000000
  70
    32
  0
VERTEX
  8
AM_VIS
  5
565
 10
16.6363
 20
3.36944
 30
0.000000
  70
    32
  0
VERTEX
  8
AM_VIS
  5
566
 10
16.6365
 20
3.36958
 30
0.000000
  70
    32
  0
VERTEX
  8
AM_VIS
  5
567
 10
16.6366
 20
3.36972
 30
0.000000
  70
    32
  0
VERTEX
  8
AM_VIS
  5
568
 10
16.6368
 20
3.36986
 30
0.000000
  70
    32
  0
VERTEX
  8
AM_VIS
  5
569
 10
16.6369
 20
3.37000
 30
0.000000
  70
    32
  0
VERTEX
  8
AM_VIS
  5
56A
 10
16.6371
 20
3.37014
 30
0.000000
  70
    32
  0
VERTEX
  8
AM_VIS
  5
56B
 10
16.6372
 20
3.37027
 30
0.000000
  70
    32
  0
VERTEX
  8
AM_VIS
  5
56C
 10
16.6374
 20
3.37041
 30
0.000000
  70
    32
  0
VERTEX
  8
AM_VIS
  5
56D
 10
16.6375
 20
3.37054
 30
0.000000
  70
    32
  0
VERTEX
  8
AM_VIS
  5
56E
 10
16.6377
 20
3.37067
 30
0.000000
  70
    32
  0
VERTEX
  8
AM_VIS
  5
56F
 10
16.6378
 20
3.37080
 30
0.000000
  70
    32
  0
VERTEX
  8
AM_VIS
  5
570
 10
16.6380
 20
3.37092
 30
0.000000
  70
    32
  0
VERTEX
  8
AM_VIS
  5
571
 10
16.6381
 20
3.37105
 30
0.000000
  70
    32
  0
VERTEX
  8
AM_VIS
  5
572
 10
16.6383
 20
3.37117
 30
0.000000
  70
    32
  0
VERTEX
  8
AM_VIS
  5
573
 10
16.6384
 20
3.37129
 30
0.000000
  70
    32
  0
VERTEX
  8
AM_VIS
  5
574
 10
16.6386
 20
3.37142
 30
0.000000
  70
    32
  0
VERTEX
  8
AM_VIS
  5
575
 10
16.6387
 20
3.37154
 30
0.000000
  70
    32
  0
VERTEX
  8
AM_VIS
  5
576
 10
16.6389
 20
3.37165
 30
0.000000
  70
    32
  0
VERTEX
  8
AM_VIS
  5
577
 10
16.6390
 20
3.37177
 30
0.000000
  70
    32
  0
VERTEX
  8
AM_VIS
  5
578
 10
16.6392
 20
3.37188
 30
0.000000
  70
    32
  0
VERTEX
  8
AM_VIS
  5
579
 10
16.6393
 20
3.37200
 30
0.000000
  70
    32
  0
VERTEX
  8
AM_VIS
  5
57A
 10
16.6395
 20
3.37211
 30
0.000000
  70
    32
  0
VERTEX
  8
AM_VIS
  5
57B
 10
16.6396
 20
3.37222
 30
0.000000
  70
    32
  0
VERTEX
  8
AM_VIS
  5
57C
 10
16.6398
 20
3.37233
 30
0.000000
  70
    32
  0
VERTEX
  8
AM_VIS
  5
57D
 10
16.6399
 20
3.37244
 30
0.000000
  70
    32
  0
VERTEX
  8
AM_VIS
  5
57E
 10
16.6401
 20
3.37254
 30
0.000000
  70
    32
  0
VERTEX
  8
AM_VIS
  5
57F
 10
16.6402
 20
3.37265
 30
0.000000
  70
    32
  0
VERTEX
  8
AM_VIS
  5
580
 10
16.6404
 20
3.37275
 30
0.000000
  70
    32
  0
VERTEX
  8
AM_VIS
  5
581
 10
16.6405
 20
3.37285
 30
0.000000
  70
    32
  0
VERTEX
  8
AM_VIS
  5
582
 10
16.6407
 20
3.37295
 30
0.000000
  70
    32
  0
VERTEX
  8
AM_VIS
  5
583
 10
16.6408
 20
3.37305
 30
0.000000
  70
    32
  0
VERTEX
  8
AM_VIS
  5
584
 10
16.6410
 20
3.37315
 30
0.000000
  70
    32
  0
VERTEX
  8
AM_VIS
  5
585
 10
16.6411
 20
3.37324
 30
0.000000
  70
    32
  0
VERTEX
  8
AM_VIS
  5
586
 10
16.6413
 20
3.37334
 30
0.000000
  70
    32
  0
VERTEX
  8
AM_VIS
  5
587
 10
16.6414
 20
3.37343
 30
0.000000
  70
    32
  0
VERTEX
  8
AM_VIS
  5
588
 10
16.6416
 20
3.37352
 30
0.000000
  70
    32
  0
VERTEX
  8
AM_VIS
  5
589
 10
16.6417
 20
3.37362
 30
0.000000
  70
    32
  0
VERTEX
  8
AM_VIS
  5
58A
 10
16.6419
 20
3.37370
 30
0.000000
  70
    32
  0
VERTEX
  8
AM_VIS
  5
58B
 10
16.6420
 20
3.37379
 30
0.000000
  70
    32
  0
VERTEX
  8
AM_VIS
  5
58C
 10
16.6421
 20
3.37388
 30
0.000000
  70
    32
  0
VERTEX
  8
AM_VIS
  5
58D
 10
16.6423
 20
3.37396
 30
0.000000
  70
    32
  0
VERTEX
  8
AM_VIS
  5
58E
 10
16.6424
 20
3.37405
 30
0.000000
  70
    32
  0
VERTEX
  8
AM_VIS
  5
58F
 10
16.6426
 20
3.37413
 30
0.000000
  70
    32
  0
VERTEX
  8
AM_VIS
  5
590
 10
16.6427
 20
3.37421
 30
0.000000
  70
    32
  0
VERTEX
  8
AM_VIS
  5
591
 10
16.6429
 20
3.37429
 30
0.000000
  70
    32
  0
VERTEX
  8
AM_VIS
  5
592
 10
16.6430
 20
3.37437
 30
0.000000
  70
    32
  0
VERTEX
  8
AM_VIS
  5
593
 10
16.6432
 20
3.37445
 30
0.000000
  70
    32
  0
VERTEX
  8
AM_VIS
  5
594
 10
16.6433
 20
3.37452
 30
0.000000
  70
    32
  0
VERTEX
  8
AM_VIS
  5
595
 10
16.6435
 20
3.37460
 30
0.000000
  70
    32
  0
VERTEX
  8
AM_VIS
  5
596
 10
16.6436
 20
3.37467
 30
0.000000
  70
    32
  0
VERTEX
  8
AM_VIS
  5
597
 10
16.6438
 20
3.37474
 30
0.000000
  70
    32
  0
VERTEX
  8
AM_VIS
  5
598
 10
16.6439
 20
3.37481
 30
0.000000
  70
    32
  0
VERTEX
  8
AM_VIS
  5
599
 10
16.6441
 20
3.37488
 30
0.000000
  70
    32
  0
VERTEX
  8
AM_VIS
  5
59A
 10
16.6442
 20
3.37495
 30
0.000000
  70
    32
  0
VERTEX
  8
AM_VIS
  5
59B
 10
16.6443
 20
3.37502
 30
0.000000
  70
    32
  0
VERTEX
  8
AM_VIS
  5
59C
 10
16.6445
 20
3.37508
 30
0.000000
  70
    32
  0
VERTEX
  8
AM_VIS
  5
59D
 10
16.6446
 20
3.37515
 30
0.000000
  70
    32
  0
VERTEX
  8
AM_VIS
  5
59E
 10
16.6448
 20
3.37521
 30
0.000000
  70
    32
  0
VERTEX
  8
AM_VIS
  5
59F
 10
16.6449
 20
3.37527
 30
0.000000
  70
    32
  0
VERTEX
  8
AM_VIS
  5
5A0
 10
16.6451
 20
3.37533
 30
0.000000
  70
    32
  0
VERTEX
  8
AM_VIS
  5
5A1
 10
16.6452
 20
3.37539
 30
0.000000
  70
    32
  0
VERTEX
  8
AM_VIS
  5
5A2
 10
16.6454
 20
3.37545
 30
0.000000
  70
    32
  0
VERTEX
  8
AM_VIS
  5
5A3
 10
16.6455
 20
3.37551
 30
0.000000
  70
    32
  0
VERTEX
  8
AM_VIS
  5
5A4
 10
16.6457
 20
3.37556
 30
0.000000
  70
    32
  0
VERTEX
  8
AM_VIS
  5
5A5
 10
16.6458
 20
3.37562
 30
0.000000
  70
    32
  0
VERTEX
  8
AM_VIS
  5
5A6
 10
16.6459
 20
3.37567
 30
0.000000
  70
    32
  0
VERTEX
  8
AM_VIS
  5
5A7
 10
16.6461
 20
3.37572
 30
0.000000
  70
    32
  0
VERTEX
  8
AM_VIS
  5
5A8
 10
16.6462
 20
3.37577
 30
0.000000
  70
    32
  0
VERTEX
  8
AM_VIS
  5
5A9
 10
16.6464
 20
3.37582
 30
0.000000
  70
    32
  0
VERTEX
  8
AM_VIS
  5
5AA
 10
16.6465
 20
3.37587
 30
0.000000
  70
    32
  0
VERTEX
  8
AM_VIS
  5
5AB
 10
16.6467
 20
3.37592
 30
0.000000
  70
    32
  0
VERTEX
  8
AM_VIS
  5
5AC
 10
16.6468
 20
3.37597
 30
0.000000
  70
    32
  0
VERTEX
  8
AM_VIS
  5
5AD
 10
16.6469
 20
3.37601
 30
0.000000
  70
    32
  0
VERTEX
  8
AM_VIS
  5
5AE
 10
16.6471
 20
3.37606
 30
0.000000
  70
    32
  0
VERTEX
  8
AM_VIS
  5
5AF
 10
16.6472
 20
3.37610
 30
0.000000
  70
    32
  0
VERTEX
  8
AM_VIS
  5
5B0
 10
16.6474
 20
3.37614
 30
0.000000
  70
    32
  0
VERTEX
  8
AM_VIS
  5
5B1
 10
16.6475
 20
3.37618
 30
0.000000
  70
    32
  0
VERTEX
  8
AM_VIS
  5
5B2
 10
16.6477
 20
3.37622
 30
0.000000
  70
    32
  0
VERTEX
  8
AM_VIS
  5
5B3
 10
16.6478
 20
3.37626
 30
0.000000
  70
    32
  0
VERTEX
  8
AM_VIS
  5
5B4
 10
16.6479
 20
3.37630
 30
0.000000
  70
    32
  0
VERTEX
  8
AM_VIS
  5
5B5
 10
16.6481
 20
3.37633
 30
0.000000
  70
    32
  0
VERTEX
  8
AM_VIS
  5
5B6
 10
16.6482
 20
3.37637
 30
0.000000
  70
    32
  0
VERTEX
  8
AM_VIS
  5
5B7
 10
16.6484
 20
3.37640
 30
0.000000
  70
    32
  0
VERTEX
  8
AM_VIS
  5
5B8
 10
16.6485
 20
3.37644
 30
0.000000
  70
    32
  0
VERTEX
  8
AM_VIS
  5
5B9
 10
16.6487
 20
3.37647
 30
0.000000
  70
    32
  0
VERTEX
  8
AM_VIS
  5
5BA
 10
16.6488
 20
3.37650
 30
0.000000
  70
    32
  0
VERTEX
  8
AM_VIS
  5
5BB
 10
16.6489
 20
3.37653
 30
0.000000
  70
    32
  0
VERTEX
  8
AM_VIS
  5
5BC
 10
16.6491
 20
3.37656
 30
0.000000
  70
    32
  0
VERTEX
  8
AM_VIS
  5
5BD
 10
16.6492
 20
3.37659
 30
0.000000
  70
    32
  0
VERTEX
  8
AM_VIS
  5
5BE
 10
16.6494
 20
3.37661
 30
0.000000
  70
    32
  0
VERTEX
  8
AM_VIS
  5
5BF
 10
16.6495
 20
3.37664
 30
0.000000
  70
    32
  0
VERTEX
  8
AM_VIS
  5
5C0
 10
16.6496
 20
3.37667
 30
0.000000
  70
    32
  0
VERTEX
  8
AM_VIS
  5
5C1
 10
16.6498
 20
3.37669
 30
0.000000
  70
    32
  0
VERTEX
  8
AM_VIS
  5
5C2
 10
16.6499
 20
3.37671
 30
0.000000
  70
    32
  0
VERTEX
  8
AM_VIS
  5
5C3
 10
16.6501
 20
3.37673
 30
0.000000
  70
    32
  0
VERTEX
  8
AM_VIS
  5
5C4
 10
16.6502
 20
3.37676
 30
0.000000
  70
    32
  0
VERTEX
  8
AM_VIS
  5
5C5
 10
16.6503
 20
3.37678
 30
0.000000
  70
    32
  0
VERTEX
  8
AM_VIS
  5
5C6
 10
16.6505
 20
3.37679
 30
0.000000
  70
    32
  0
VERTEX
  8
AM_VIS
  5
5C7
 10
16.6506
 20
3.37681
 30
0.000000
  70
    32
  0
VERTEX
  8
AM_VIS
  5
5C8
 10
16.6507
 20
3.37683
 30
0.000000
  70
    32
  0
VERTEX
  8
AM_VIS
  5
5C9
 10
16.6509
 20
3.37685
 30
0.000000
  70
    32
  0
VERTEX
  8
AM_VIS
  5
5CA
 10
16.6510
 20
3.37686
 30
0.000000
  70
    32
  0
VERTEX
  8
AM_VIS
  5
5CB
 10
16.6512
 20
3.37688
 30
0.000000
  70
    32
  0
VERTEX
  8
AM_VIS
  5
5CC
 10
16.6513
 20
3.37689
 30
0.000000
  70
    32
  0
VERTEX
  8
AM_VIS
  5
5CD
 10
16.6514
 20
3.37690
 30
0.000000
  70
    32
  0
VERTEX
  8
AM_VIS
  5
5CE
 10
16.6516
 20
3.37691
 30
0.000000
  70
    32
  0
VERTEX
  8
AM_VIS
  5
5CF
 10
16.6517
 20
3.37692
 30
0.000000
  70
    32
  0
VERTEX
  8
AM_VIS
  5
5D0
 10
16.6518
 20
3.37693
 30
0.000000
  70
    32
  0
VERTEX
  8
AM_VIS
  5
5D1
 10
16.6520
 20
3.37694
 30
0.000000
  70
    32
  0
VERTEX
  8
AM_VIS
  5
5D2
 10
16.6521
 20
3.37695
 30
0.000000
  70
    32
  0
VERTEX
  8
AM_VIS
  5
5D3
 10
16.6523
 20
3.37696
 30
0.000000
  70
    32
  0
VERTEX
  8
AM_VIS
  5
5D4
 10
16.6524
 20
3.37696
 30
0.000000
  70
    32
  0
VERTEX
  8
AM_VIS
  5
5D5
 10
16.6525
 20
3.37697
 30
0.000000
  70
    32
  0
VERTEX
  8
AM_VIS
  5
5D6
 10
16.6527
 20
3.37697
 30
0.000000
  70
    32
  0
VERTEX
  8
AM_VIS
  5
5D7
 10
16.6528
 20
3.37698
 30
0.000000
  70
    32
  0
VERTEX
  8
AM_VIS
  5
5D8
 10
16.6529
 20
3.37698
 30
0.000000
  70
    32
  0
VERTEX
  8
AM_VIS
  5
5D9
 10
16.6531
 20
3.37698
 30
0.000000
  70
    32
  0
VERTEX
  8
AM_VIS
  5
5DA
 10
16.6532
 20
3.37698
 30
0.000000
  70
    32
  0
VERTEX
  8
AM_VIS
  5
5DB
 10
16.6533
 20
3.37698
 30
0.000000
  70
    32
  0
VERTEX
  8
AM_VIS
  5
5DC
 10
16.6535
 20
3.37698
 30
0.000000
  70
    32
  0
VERTEX
  8
AM_VIS
  5
5DD
 10
16.6536
 20
3.37698
 30
0.000000
  70
    32
  0
VERTEX
  8
AM_VIS
  5
5DE
 10
16.6537
 20
3.37698
 30
0.000000
  70
    32
  0
VERTEX
  8
AM_VIS
  5
5DF
 10
16.6539
 20
3.37697
 30
0.000000
  70
    32
  0
VERTEX
  8
AM_VIS
  5
5E0
 10
16.6540
 20
3.37697
 30
0.000000
  70
    32
  0
VERTEX
  8
AM_VIS
  5
5E1
 10
16.6541
 20
3.37696
 30
0.000000
  70
    32
  0
VERTEX
  8
AM_VIS
  5
5E2
 10
16.6543
 20
3.37696
 30
0.000000
  70
    32
  0
VERTEX
  8
AM_VIS
  5
5E3
 10
16.6544
 20
3.37695
 30
0.000000
  70
    32
  0
VERTEX
  8
AM_VIS
  5
5E4
 10
16.6545
 20
3.37694
 30
0.000000
  70
    32
  0
VERTEX
  8
AM_VIS
  5
5E5
 10
16.6547
 20
3.37694
 30
0.000000
  70
    32
  0
VERTEX
  8
AM_VIS
  5
5E6
 10
16.6548
 20
3.37693
 30
0.000000
  70
    32
  0
VERTEX
  8
AM_VIS
  5
5E7
 10
16.6549
 20
3.37692
 30
0.000000
  70
    32
  0
VERTEX
  8
AM_VIS
  5
5E8
 10
16.6551
 20
3.37691
 30
0.000000
  70
    32
  0
VERTEX
  8
AM_VIS
  5
5E9
 10
16.6552
 20
3.37690
 30
0.000000
  70
    32
  0
VERTEX
  8
AM_VIS
  5
5EA
 10
16.6553
 20
3.37689
 30
0.000000
  70
    32
  0
VERTEX
  8
AM_VIS
  5
5EB
 10
16.6555
 20
3.37687
 30
0.000000
  70
    32
  0
VERTEX
  8
AM_VIS
  5
5EC
 10
16.6556
 20
3.37686
 30
0.000000
  70
    32
  0
VERTEX
  8
AM_VIS
  5
5ED
 10
16.6557
 20
3.37685
 30
0.000000
  70
    32
  0
VERTEX
  8
AM_VIS
  5
5EE
 10
16.6559
 20
3.37683
 30
0.000000
  70
    32
  0
VERTEX
  8
AM_VIS
  5
5EF
 10
16.6560
 20
3.37681
 30
0.000000
  70
    32
  0
VERTEX
  8
AM_VIS
  5
5F0
 10
16.6561
 20
3.37680
 30
0.000000
  70
    32
  0
VERTEX
  8
AM_VIS
  5
5F1
 10
16.6563
 20
3.37678
 30
0.000000
  70
    32
  0
VERTEX
  8
AM_VIS
  5
5F2
 10
16.6564
 20
3.37676
 30
0.000000
  70
    32
  0
VERTEX
  8
AM_VIS
  5
5F3
 10
16.6565
 20
3.37674
 30
0.000000
  70
    32
  0
VERTEX
  8
AM_VIS
  5
5F4
 10
16.6566
 20
3.37673
 30
0.000000
  70
    32
  0
VERTEX
  8
AM_VIS
  5
5F5
 10
16.6568
 20
3.37671
 30
0.000000
  70
    32
  0
VERTEX
  8
AM_VIS
  5
5F6
 10
16.6569
 20
3.37669
 30
0.000000
  70
    32
  0
VERTEX
  8
AM_VIS
  5
5F7
 10
16.6570
 20
3.37666
 30
0.000000
  70
    32
  0
VERTEX
  8
AM_VIS
  5
5F8
 10
16.6572
 20
3.37664
 30
0.000000
  70
    32
  0
VERTEX
  8
AM_VIS
  5
5F9
 10
16.6573
 20
3.37662
 30
0.000000
  70
    32
  0
VERTEX
  8
AM_VIS
  5
5FA
 10
16.6574
 20
3.37660
 30
0.000000
  70
    32
  0
VERTEX
  8
AM_VIS
  5
5FB
 10
16.6576
 20
3.37657
 30
0.000000
  70
    32
  0
VERTEX
  8
AM_VIS
  5
5FC
 10
16.6577
 20
3.37655
 30
0.000000
  70
    32
  0
VERTEX
  8
AM_VIS
  5
5FD
 10
16.6578
 20
3.37652
 30
0.000000
  70
    32
  0
VERTEX
  8
AM_VIS
  5
5FE
 10
16.6579
 20
3.37650
 30
0.000000
  70
    32
  0
VERTEX
  8
AM_VIS
  5
5FF
 10
16.6581
 20
3.37647
 30
0.000000
  70
    32
  0
VERTEX
  8
AM_VIS
  5
600
 10
16.6582
 20
3.37644
 30
0.000000
  70
    32
  0
VERTEX
  8
AM_VIS
  5
601
 10
16.6583
 20
3.37641
 30
0.000000
  70
    32
  0
VERTEX
  8
AM_VIS
  5
602
 10
16.6584
 20
3.37639
 30
0.000000
  70
    32
  0
VERTEX
  8
AM_VIS
  5
603
 10
16.6586
 20
3.37636
 30
0.000000
  70
    32
  0
VERTEX
  8
AM_VIS
  5
604
 10
16.6587
 20
3.37633
 30
0.000000
  70
    32
  0
VERTEX
  8
AM_VIS
  5
605
 10
16.6588
 20
3.37630
 30
0.000000
  70
    32
  0
VERTEX
  8
AM_VIS
  5
606
 10
16.6589
 20
3.37627
 30
0.000000
  70
    32
  0
VERTEX
  8
AM_VIS
  5
607
 10
16.6591
 20
3.37623
 30
0.000000
  70
    32
  0
VERTEX
  8
AM_VIS
  5
608
 10
16.6592
 20
3.37620
 30
0.000000
  70
    32
  0
VERTEX
  8
AM_VIS
  5
609
 10
16.6593
 20
3.37617
 30
0.000000
  70
    32
  0
VERTEX
  8
AM_VIS
  5
60A
 10
16.6595
 20
3.37614
 30
0.000000
  70
    32
  0
VERTEX
  8
AM_VIS
  5
60B
 10
16.6596
 20
3.37610
 30
0.000000
  70
    32
  0
VERTEX
  8
AM_VIS
  5
60C
 10
16.6597
 20
3.37607
 30
0.000000
  70
    32
  0
VERTEX
  8
AM_VIS
  5
60D
 10
16.6598
 20
3.37603
 30
0.000000
  70
    32
  0
VERTEX
  8
AM_VIS
  5
60E
 10
16.6600
 20
3.37600
 30
0.000000
  70
    32
  0
VERTEX
  8
AM_VIS
  5
60F
 10
16.6601
 20
3.37596
 30
0.000000
  70
    32
  0
VERTEX
  8
AM_VIS
  5
610
 10
16.6602
 20
3.37592
 30
0.000000
  70
    32
  0
VERTEX
  8
AM_VIS
  5
611
 10
16.6603
 20
3.37588
 30
0.000000
  70
    32
  0
VERTEX
  8
AM_VIS
  5
612
 10
16.6604
 20
3.37585
 30
0.000000
  70
    32
  0
VERTEX
  8
AM_VIS
  5
613
 10
16.6606
 20
3.37581
 30
0.000000
  70
    32
  0
VERTEX
  8
AM_VIS
  5
614
 10
16.6607
 20
3.37577
 30
0.000000
  70
    32
  0
VERTEX
  8
AM_VIS
  5
615
 10
16.6608
 20
3.37573
 30
0.000000
  70
    32
  0
VERTEX
  8
AM_VIS
  5
616
 10
16.6609
 20
3.37569
 30
0.000000
  70
    32
  0
VERTEX
  8
AM_VIS
  5
617
 10
16.6611
 20
3.37565
 30
0.000000
  70
    32
  0
VERTEX
  8
AM_VIS
  5
618
 10
16.6612
 20
3.37560
 30
0.000000
  70
    32
  0
VERTEX
  8
AM_VIS
  5
619
 10
16.6613
 20
3.37556
 30
0.000000
  70
    32
  0
VERTEX
  8
AM_VIS
  5
61A
 10
16.6614
 20
3.37552
 30
0.000000
  70
    32
  0
VERTEX
  8
AM_VIS
  5
61B
 10
16.6616
 20
3.37548
 30
0.000000
  70
    32
  0
VERTEX
  8
AM_VIS
  5
61C
 10
16.6617
 20
3.37543
 30
0.000000
  70
    32
  0
VERTEX
  8
AM_VIS
  5
61D
 10
16.6618
 20
3.37539
 30
0.000000
  70
    32
  0
VERTEX
  8
AM_VIS
  5
61E
 10
16.6619
 20
3.37534
 30
0.000000
  70
    32
  0
VERTEX
  8
AM_VIS
  5
61F
 10
16.6620
 20
3.37530
 30
0.000000
  70
    32
  0
VERTEX
  8
AM_VIS
  5
620
 10
16.6622
 20
3.37525
 30
0.000000
  70
    32
  0
VERTEX
  8
AM_VIS
  5
621
 10
16.6623
 20
3.37521
 30
0.000000
  70
    32
  0
VERTEX
  8
AM_VIS
  5
622
 10
16.6624
 20
3.37516
 30
0.000000
  70
    32
  0
VERTEX
  8
AM_VIS
  5
623
 10
16.6625
 20
3.37511
 30
0.000000
  70
    32
  0
VERTEX
  8
AM_VIS
  5
624
 10
16.6626
 20
3.37506
 30
0.000000
  70
    32
  0
VERTEX
  8
AM_VIS
  5
625
 10
16.6628
 20
3.37502
 30
0.000000
  70
    32
  0
VERTEX
  8
AM_VIS
  5
626
 10
16.6629
 20
3.37497
 30
0.000000
  70
    32
  0
VERTEX
  8
AM_VIS
  5
627
 10
16.6630
 20
3.37492
 30
0.000000
  70
    32
  0
VERTEX
  8
AM_VIS
  5
628
 10
16.6631
 20
3.37487
 30
0.000000
  70
    32
  0
VERTEX
  8
AM_VIS
  5
629
 10
16.6633
 20
3.37482
 30
0.000000
  70
    32
  0
VERTEX
  8
AM_VIS
  5
62A
 10
16.6634
 20
3.37477
 30
0.000000
  70
    32
  0
VERTEX
  8
AM_VIS
  5
62B
 10
16.6635
 20
3.37471
 30
0.000000
  70
    32
  0
VERTEX
  8
AM_VIS
  5
62C
 10
16.6636
 20
3.37466
 30
0.000000
  70
    32
  0
VERTEX
  8
AM_VIS
  5
62D
 10
16.6637
 20
3.37461
 30
0.000000
  70
    32
  0
VERTEX
  8
AM_VIS
  5
62E
 10
16.6638
 20
3.37456
 30
0.000000
  70
    32
  0
VERTEX
  8
AM_VIS
  5
62F
 10
16.6640
 20
3.37451
 30
0.000000
  70
    32
  0
VERTEX
  8
AM_VIS
  5
630
 10
16.6641
 20
3.37445
 30
0.000000
  70
    32
  0
VERTEX
  8
AM_VIS
  5
631
 10
16.6642
 20
3.37440
 30
0.000000
  70
    32
  0
VERTEX
  8
AM_VIS
  5
632
 10
16.6643
 20
3.37434
 30
0.000000
  70
    32
  0
VERTEX
  8
AM_VIS
  5
633
 10
16.6644
 20
3.37429
 30
0.000000
  70
    32
  0
VERTEX
  8
AM_VIS
  5
634
 10
16.6646
 20
3.37423
 30
0.000000
  70
    32
  0
VERTEX
  8
AM_VIS
  5
635
 10
16.6647
 20
3.37418
 30
0.000000
  70
    32
  0
VERTEX
  8
AM_VIS
  5
636
 10
16.6648
 20
3.37412
 30
0.000000
  70
    32
  0
VERTEX
  8
AM_VIS
  5
637
 10
16.6649
 20
3.37406
 30
0.000000
  70
    32
  0
VERTEX
  8
AM_VIS
  5
638
 10
16.6650
 20
3.37401
 30
0.000000
  70
    32
  0
VERTEX
  8
AM_VIS
  5
639
 10
16.6651
 20
3.37395
 30
0.000000
  70
    32
  0
VERTEX
  8
AM_VIS
  5
63A
 10
16.6653
 20
3.37389
 30
0.000000
  70
    32
  0
VERTEX
  8
AM_VIS
  5
63B
 10
16.6654
 20
3.37383
 30
0.000000
  70
    32
  0
VERTEX
  8
AM_VIS
  5
63C
 10
16.6655
 20
3.37378
 30
0.000000
  70
    32
  0
VERTEX
  8
AM_VIS
  5
63D
 10
16.6656
 20
3.37372
 30
0.000000
  70
    32
  0
VERTEX
  8
AM_VIS
  5
63E
 10
16.6657
 20
3.37366
 30
0.000000
  70
    32
  0
VERTEX
  8
AM_VIS
  5
63F
 10
16.6658
 20
3.37360
 30
0.000000
  70
    32
  0
VERTEX
  8
AM_VIS
  5
640
 10
16.6659
 20
3.37354
 30
0.000000
  70
    32
  0
VERTEX
  8
AM_VIS
  5
641
 10
16.6661
 20
3.37348
 30
0.000000
  70
    32
  0
VERTEX
  8
AM_VIS
  5
642
 10
16.6662
 20
3.37342
 30
0.000000
  70
    32
  0
VERTEX
  8
AM_VIS
  5
643
 10
16.6663
 20
3.37335
 30
0.000000
  70
    32
  0
VERTEX
  8
AM_VIS
  5
644
 10
16.6664
 20
3.37329
 30
0.000000
  70
    32
  0
VERTEX
  8
AM_VIS
  5
645
 10
16.6665
 20
3.37323
 30
0.000000
  70
    32
  0
VERTEX
  8
AM_VIS
  5
646
 10
16.6666
 20
3.37317
 30
0.000000
  70
    32
  0
VERTEX
  8
AM_VIS
  5
647
 10
16.6667
 20
3.37311
 30
0.000000
  70
    32
  0
VERTEX
  8
AM_VIS
  5
648
 10
16.6669
 20
3.37304
 30
0.000000
  70
    32
  0
VERTEX
  8
AM_VIS
  5
649
 10
16.6670
 20
3.37298
 30
0.000000
  70
    32
  0
VERTEX
  8
AM_VIS
  5
64A
 10
16.6671
 20
3.37292
 30
0.000000
  70
    32
  0
VERTEX
  8
AM_VIS
  5
64B
 10
16.6672
 20
3.37285
 30
0.000000
  70
    32
  0
VERTEX
  8
AM_VIS
  5
64C
 10
16.6673
 20
3.37279
 30
0.000000
  70
    32
  0
VERTEX
  8
AM_VIS
  5
64D
 10
16.6674
 20
3.37272
 30
0.000000
  70
    32
  0
VERTEX
  8
AM_VIS
  5
64E
 10
16.6675
 20
3.37266
 30
0.000000
  70
    32
  0
VERTEX
  8
AM_VIS
  5
64F
 10
16.6676
 20
3.37259
 30
0.000000
  70
    32
  0
VERTEX
  8
AM_VIS
  5
650
 10
16.6677
 20
3.37253
 30
0.000000
  70
    32
  0
VERTEX
  8
AM_VIS
  5
651
 10
16.6679
 20
3.37246
 30
0.000000
  70
    32
  0
VERTEX
  8
AM_VIS
  5
652
 10
16.6680
 20
3.37239
 30
0.000000
  70
    32
  0
VERTEX
  8
AM_VIS
  5
653
 10
16.6681
 20
3.37233
 30
0.000000
  70
    32
  0
VERTEX
  8
AM_VIS
  5
654
 10
16.6682
 20
3.37226
 30
0.000000
  70
    32
  0
VERTEX
  8
AM_VIS
  5
655
 10
16.6683
 20
3.37219
 30
0.000000
  70
    32
  0
VERTEX
  8
AM_VIS
  5
656
 10
16.6684
 20
3.37213
 30
0.000000
  70
    32
  0
VERTEX
  8
AM_VIS
  5
657
 10
16.6685
 20
3.37206
 30
0.000000
  70
    32
  0
VERTEX
  8
AM_VIS
  5
658
 10
16.6686
 20
3.37199
 30
0.000000
  70
    32
  0
VERTEX
  8
AM_VIS
  5
659
 10
16.6687
 20
3.37192
 30
0.000000
  70
    32
  0
VERTEX
  8
AM_VIS
  5
65A
 10
16.6688
 20
3.37185
 30
0.000000
  70
    32
  0
VERTEX
  8
AM_VIS
  5
65B
 10
16.6690
 20
3.37178
 30
0.000000
  70
    32
  0
VERTEX
  8
AM_VIS
  5
65C
 10
16.6691
 20
3.37171
 30
0.000000
  70
    32
  0
VERTEX
  8
AM_VIS
  5
65D
 10
16.6692
 20
3.37164
 30
0.000000
  70
    32
  0
VERTEX
  8
AM_VIS
  5
65E
 10
16.6693
 20
3.37157
 30
0.000000
  70
    32
  0
VERTEX
  8
AM_VIS
  5
65F
 10
16.6694
 20
3.37150
 30
0.000000
  70
    32
  0
VERTEX
  8
AM_VIS
  5
660
 10
16.6695
 20
3.37143
 30
0.000000
  70
    32
  0
VERTEX
  8
AM_VIS
  5
661
 10
16.6696
 20
3.37136
 30
0.000000
  70
    32
  0
VERTEX
  8
AM_VIS
  5
662
 10
16.6697
 20
3.37129
 30
0.000000
  70
    32
  0
VERTEX
  8
AM_VIS
  5
663
 10
16.6698
 20
3.37122
 30
0.000000
  70
    32
  0
VERTEX
  8
AM_VIS
  5
664
 10
16.6699
 20
3.37115
 30
0.000000
  70
    32
  0
VERTEX
  8
AM_VIS
  5
665
 10
16.6700
 20
3.37107
 30
0.000000
  70
    32
  0
VERTEX
  8
AM_VIS
  5
666
 10
16.6701
 20
3.37100
 30
0.000000
  70
    32
  0
VERTEX
  8
AM_VIS
  5
667
 10
16.6702
 20
3.37093
 30
0.000000
  70
    32
  0
VERTEX
  8
AM_VIS
  5
668
 10
16.6704
 20
3.37085
 30
0.000000
  70
    32
  0
VERTEX
  8
AM_VIS
  5
669
 10
16.6705
 20
3.37078
 30
0.000000
  70
    32
  0
VERTEX
  8
AM_VIS
  5
66A
 10
16.6706
 20
3.37070
 30
0.000000
  70
    32
  0
VERTEX
  8
AM_VIS
  5
66B
 10
16.6707
 20
3.37063
 30
0.000000
  70
    32
  0
VERTEX
  8
AM_VIS
  5
66C
 10
16.6708
 20
3.37056
 30
0.000000
  70
    32
  0
VERTEX
  8
AM_VIS
  5
66D
 10
16.6709
 20
3.37048
 30
0.000000
  70
    32
  0
VERTEX
  8
AM_VIS
  5
66E
 10
16.6710
 20
3.37040
 30
0.000000
  70
    32
  0
VERTEX
  8
AM_VIS
  5
66F
 10
16.6711
 20
3.37033
 30
0.000000
  70
    32
  0
VERTEX
  8
AM_VIS
  5
670
 10
16.6712
 20
3.37025
 30
0.000000
  70
    32
  0
VERTEX
  8
AM_VIS
  5
671
 10
16.6713
 20
3.37018
 30
0.000000
  70
    32
  0
VERTEX
  8
AM_VIS
  5
672
 10
16.6714
 20
3.37010
 30
0.000000
  70
    32
  0
VERTEX
  8
AM_VIS
  5
673
 10
16.6715
 20
3.37002
 30
0.000000
  70
    32
  0
VERTEX
  8
AM_VIS
  5
674
 10
16.6716
 20
3.36994
 30
0.000000
  70
    32
  0
VERTEX
  8
AM_VIS
  5
675
 10
16.6717
 20
3.36987
 30
0.000000
  70
    32
  0
VERTEX
  8
AM_VIS
  5
676
 10
16.6718
 20
3.36979
 30
0.000000
  70
    32
  0
VERTEX
  8
AM_VIS
  5
677
 10
16.6719
 20
3.36971
 30
0.000000
  70
    32
  0
VERTEX
  8
AM_VIS
  5
678
 10
16.6721
 20
3.36963
 30
0.000000
  70
    32
  0
VERTEX
  8
AM_VIS
  5
679
 10
16.6722
 20
3.36955
 30
0.000000
  70
    32
  0
VERTEX
  8
AM_VIS
  5
67A
 10
16.6723
 20
3.36947
 30
0.000000
  70
    32
  0
VERTEX
  8
AM_VIS
  5
67B
 10
16.6724
 20
3.36939
 30
0.000000
  70
    32
  0
VERTEX
  8
AM_VIS
  5
67C
 10
16.6725
 20
3.36931
 30
0.000000
  70
    32
  0
VERTEX
  8
AM_VIS
  5
67D
 10
16.6726
 20
3.36923
 30
0.000000
  70
    32
  0
VERTEX
  8
AM_VIS
  5
67E
 10
16.6727
 20
3.36915
 30
0.000000
  70
    32
  0
VERTEX
  8
AM_VIS
  5
67F
 10
16.6728
 20
3.36907
 30
0.000000
  70
    32
  0
VERTEX
  8
AM_VIS
  5
680
 10
16.6729
 20
3.36899
 30
0.000000
  70
    32
  0
VERTEX
  8
AM_VIS
  5
681
 10
16.6730
 20
3.36891
 30
0.000000
  70
    32
  0
VERTEX
  8
AM_VIS
  5
682
 10
16.6731
 20
3.36883
 30
0.000000
  70
    32
  0
VERTEX
  8
AM_VIS
  5
683
 10
16.6732
 20
3.36875
 30
0.000000
  70
    32
  0
VERTEX
  8
AM_VIS
  5
684
 10
16.6733
 20
3.36867
 30
0.000000
  70
    32
  0
VERTEX
  8
AM_VIS
  5
685
 10
16.6734
 20
3.36858
 30
0.000000
  70
    32
  0
VERTEX
  8
AM_VIS
  5
686
 10
16.6735
 20
3.36850
 30
0.000000
  70
    32
  0
VERTEX
  8
AM_VIS
  5
687
 10
16.6736
 20
3.36842
 30
0.000000
  70
    32
  0
VERTEX
  8
AM_VIS
  5
688
 10
16.6737
 20
3.36833
 30
0.000000
  70
    32
  0
VERTEX
  8
AM_VIS
  5
689
 10
16.6738
 20
3.36825
 30
0.000000
  70
    32
  0
VERTEX
  8
AM_VIS
  5
68A
 10
16.6739
 20
3.36817
 30
0.000000
  70
    32
  0
VERTEX
  8
AM_VIS
  5
68B
 10
16.6740
 20
3.36808
 30
0.000000
  70
    32
  0
VERTEX
  8
AM_VIS
  5
68C
 10
16.6741
 20
3.36800
 30
0.000000
  70
    32
  0
VERTEX
  8
AM_VIS
  5
68D
 10
16.6742
 20
3.36792
 30
0.000000
  70
    32
  0
VERTEX
  8
AM_VIS
  5
68E
 10
16.6743
 20
3.36783
 30
0.000000
  70
    32
  0
VERTEX
  8
AM_VIS
  5
68F
 10
16.6744
 20
3.36775
 30
0.000000
  70
    32
  0
VERTEX
  8
AM_VIS
  5
690
 10
16.6745
 20
3.36766
 30
0.000000
  70
    32
  0
VERTEX
  8
AM_VIS
  5
691
 10
16.6746
 20
3.36758
 30
0.000000
  70
    32
  0
VERTEX
  8
AM_VIS
  5
692
 10
16.6747
 20
3.36749
 30
0.000000
  70
    32
  0
VERTEX
  8
AM_VIS
  5
693
 10
16.6748
 20
3.36740
 30
0.000000
  70
    32
  0
VERTEX
  8
AM_VIS
  5
694
 10
16.6749
 20
3.36732
 30
0.000000
  70
    32
  0
VERTEX
  8
AM_VIS
  5
695
 10
16.6750
 20
3.36723
 30
0.000000
  70
    32
  0
VERTEX
  8
AM_VIS
  5
696
 10
16.6751
 20
3.36715
 30
0.000000
  70
    32
  0
VERTEX
  8
AM_VIS
  5
697
 10
16.6752
 20
3.36706
 30
0.000000
  70
    32
  0
VERTEX
  8
AM_VIS
  5
698
 10
16.6754
 20
3.36697
 30
0.000000
  70
    32
  0
VERTEX
  8
AM_VIS
  5
699
 10
16.6755
 20
3.36689
 30
0.000000
  70
    32
  0
VERTEX
  8
AM_VIS
  5
69A
 10
16.6756
 20
3.36680
 30
0.000000
  70
    32
  0
VERTEX
  8
AM_VIS
  5
69B
 10
16.6757
 20
3.36671
 30
0.000000
  70
    32
  0
VERTEX
  8
AM_VIS
  5
69C
 10
16.6758
 20
3.36662
 30
0.000000
  70
    32
  0
VERTEX
  8
AM_VIS
  5
69D
 10
16.6759
 20
3.36653
 30
0.000000
  70
    32
  0
VERTEX
  8
AM_VIS
  5
69E
 10
16.6760
 20
3.36645
 30
0.000000
  70
    32
  0
VERTEX
  8
AM_VIS
  5
69F
 10
16.6761
 20
3.36636
 30
0.000000
  70
    32
  0
VERTEX
  8
AM_VIS
  5
6A0
 10
16.6762
 20
3.36627
 30
0.000000
  70
    32
  0
VERTEX
  8
AM_VIS
  5
6A1
 10
16.6763
 20
3.36618
 30
0.000000
  70
    32
  0
VERTEX
  8
AM_VIS
  5
6A2
 10
16.6764
 20
3.36609
 30
0.000000
  70
    32
  0
VERTEX
  8
AM_VIS
  5
6A3
 10
16.6765
 20
3.36600
 30
0.000000
  70
    32
  0
VERTEX
  8
AM_VIS
  5
6A4
 10
16.6765
 20
3.36591
 30
0.000000
  70
    32
  0
VERTEX
  8
AM_VIS
  5
6A5
 10
16.6766
 20
3.36582
 30
0.000000
  70
    32
  0
VERTEX
  8
AM_VIS
  5
6A6
 10
16.6767
 20
3.36573
 30
0.000000
  70
    32
  0
VERTEX
  8
AM_VIS
  5
6A7
 10
16.6768
 20
3.36564
 30
0.000000
  70
    32
  0
VERTEX
  8
AM_VIS
  5
6A8
 10
16.6769
 20
3.36555
 30
0.000000
  70
    32
  0
VERTEX
  8
AM_VIS
  5
6A9
 10
16.6770
 20
3.36546
 30
0.000000
  70
    32
  0
VERTEX
  8
AM_VIS
  5
6AA
 10
16.6771
 20
3.36537
 30
0.000000
  70
    32
  0
VERTEX
  8
AM_VIS
  5
6AB
 10
16.6772
 20
3.36528
 30
0.000000
  70
    32
  0
VERTEX
  8
AM_VIS
  5
6AC
 10
16.6773
 20
3.36519
 30
0.000000
  70
    32
  0
VERTEX
  8
AM_VIS
  5
6AD
 10
16.6774
 20
3.36510
 30
0.000000
  70
    32
  0
VERTEX
  8
AM_VIS
  5
6AE
 10
16.6775
 20
3.36501
 30
0.000000
  70
    32
  0
VERTEX
  8
AM_VIS
  5
6AF
 10
16.6776
 20
3.36492
 30
0.000000
  70
    32
  0
VERTEX
  8
AM_VIS
  5
6B0
 10
16.6777
 20
3.36483
 30
0.000000
  70
    32
  0
VERTEX
  8
AM_VIS
  5
6B1
 10
16.6778
 20
3.36473
 30
0.000000
  70
    32
  0
VERTEX
  8
AM_VIS
  5
6B2
 10
16.6779
 20
3.36464
 30
0.000000
  70
    32
  0
VERTEX
  8
AM_VIS
  5
6B3
 10
16.6780
 20
3.36455
 30
0.000000
  70
    32
  0
VERTEX
  8
AM_VIS
  5
6B4
 10
16.6781
 20
3.36446
 30
0.000000
  70
    32
  0
VERTEX
  8
AM_VIS
  5
6B5
 10
16.6782
 20
3.36437
 30
0.000000
  70
    32
  0
VERTEX
  8
AM_VIS
  5
6B6
 10
16.6783
 20
3.36427
 30
0.000000
  70
    32
  0
VERTEX
  8
AM_VIS
  5
6B7
 10
16.6784
 20
3.36418
 30
0.000000
  70
    32
  0
VERTEX
  8
AM_VIS
  5
6B8
 10
16.6785
 20
3.36409
 30
0.000000
  70
    32
  0
VERTEX
  8
AM_VIS
  5
6B9
 10
16.6786
 20
3.36399
 30
0.000000
  70
    32
  0
VERTEX
  8
AM_VIS
  5
6BA
 10
16.6787
 20
3.36390
 30
0.000000
  70
    32
  0
VERTEX
  8
AM_VIS
  5
6BB
 10
16.6788
 20
3.36381
 30
0.000000
  70
    32
  0
VERTEX
  8
AM_VIS
  5
6BC
 10
16.6789
 20
3.36371
 30
0.000000
  70
    32
  0
VERTEX
  8
AM_VIS
  5
6BD
 10
16.6790
 20
3.36362
 30
0.000000
  70
    32
  0
VERTEX
  8
AM_VIS
  5
6BE
 10
16.6791
 20
3.36353
 30
0.000000
  70
    32
  0
VERTEX
  8
AM_VIS
  5
6BF
 10
16.6792
 20
3.36343
 30
0.000000
  70
    32
  0
VERTEX
  8
AM_VIS
  5
6C0
 10
16.6793
 20
3.36334
 30
0.000000
  70
    32
  0
VERTEX
  8
AM_VIS
  5
6C1
 10
16.6794
 20
3.36325
 30
0.000000
  70
    32
  0
VERTEX
  8
AM_VIS
  5
6C2
 10
16.6795
 20
3.36315
 30
0.000000
  70
    32
  0
VERTEX
  8
AM_VIS
  5
6C3
 10
16.6795
 20
3.36306
 30
0.000000
  70
    32
  0
VERTEX
  8
AM_VIS
  5
6C4
 10
16.6796
 20
3.36296
 30
0.000000
  70
    32
  0
VERTEX
  8
AM_VIS
  5
6C5
 10
16.6797
 20
3.36287
 30
0.000000
  70
    32
  0
VERTEX
  8
AM_VIS
  5
6C6
 10
16.6798
 20
3.36277
 30
0.000000
  70
    32
  0
VERTEX
  8
AM_VIS
  5
6C7
 10
16.6799
 20
3.36268
 30
0.000000
  70
    32
  0
VERTEX
  8
AM_VIS
  5
6C8
 10
16.6800
 20
3.36258
 30
0.000000
  70
    32
  0
VERTEX
  8
AM_VIS
  5
6C9
 10
16.6801
 20
3.36249
 30
0.000000
  70
    32
  0
VERTEX
  8
AM_VIS
  5
6CA
 10
16.6802
 20
3.36239
 30
0.000000
  70
    32
  0
VERTEX
  8
AM_VIS
  5
6CB
 10
16.6803
 20
3.36230
 30
0.000000
  70
    32
  0
VERTEX
  8
AM_VIS
  5
6CC
 10
16.6804
 20
3.36220
 30
0.000000
  70
    32
  0
VERTEX
  8
AM_VIS
  5
6CD
 10
16.6805
 20
3.36211
 30
0.000000
  70
    32
  0
VERTEX
  8
AM_VIS
  5
6CE
 10
16.6806
 20
3.36201
 30
0.000000
  70
    32
  0
VERTEX
  8
AM_VIS
  5
6CF
 10
16.6807
 20
3.36191
 30
0.000000
  70
    32
  0
VERTEX
  8
AM_VIS
  5
6D0
 10
16.6808
 20
3.36182
 30
0.000000
  70
    32
  0
VERTEX
  8
AM_VIS
  5
6D1
 10
16.6808
 20
3.36172
 30
0.000000
  70
    32
  0
VERTEX
  8
AM_VIS
  5
6D2
 10
16.6809
 20
3.36163
 30
0.000000
  70
    32
  0
VERTEX
  8
AM_VIS
  5
6D3
 10
16.6810
 20
3.36153
 30
0.000000
  70
    32
  0
VERTEX
  8
AM_VIS
  5
6D4
 10
16.6811
 20
3.36143
 30
0.000000
  70
    32
  0
VERTEX
  8
AM_VIS
  5
6D5
 10
16.6812
 20
3.36134
 30
0.000000
  70
    32
  0
VERTEX
  8
AM_VIS
  5
6D6
 10
16.6813
 20
3.36124
 30
0.000000
  70
    32
  0
VERTEX
  8
AM_VIS
  5
6D7
 10
16.6814
 20
3.36115
 30
0.000000
  70
    32
  0
VERTEX
  8
AM_VIS
  5
6D8
 10
16.6815
 20
3.36105
 30
0.000000
  70
    32
  0
VERTEX
  8
AM_VIS
  5
6D9
 10
16.6816
 20
3.36095
 30
0.000000
  70
    32
  0
VERTEX
  8
AM_VIS
  5
6DA
 10
16.6817
 20
3.36086
 30
0.000000
  70
    32
  0
VERTEX
  8
AM_VIS
  5
6DB
 10
16.6818
 20
3.36076
 30
0.000000
  70
    32
  0
VERTEX
  8
AM_VIS
  5
6DC
 10
16.6818
 20
3.36066
 30
0.000000
  70
    32
  0
VERTEX
  8
AM_VIS
  5
6DD
 10
16.6819
 20
3.36057
 30
0.000000
  70
    32
  0
VERTEX
  8
AM_VIS
  5
6DE
 10
16.6820
 20
3.36047
 30
0.000000
  70
    32
  0
VERTEX
  8
AM_VIS
  5
6DF
 10
16.6821
 20
3.36037
 30
0.000000
  70
    32
  0
VERTEX
  8
AM_VIS
  5
6E0
 10
16.6822
 20
3.36027
 30
0.000000
  70
    32
  0
VERTEX
  8
AM_VIS
  5
6E1
 10
16.6823
 20
3.36018
 30
0.000000
  70
    32
  0
VERTEX
  8
AM_VIS
  5
6E2
 10
16.6824
 20
3.36008
 30
0.000000
  70
    32
  0
VERTEX
  8
AM_VIS
  5
6E3
 10
16.6825
 20
3.35998
 30
0.000000
  70
    32
  0
VERTEX
  8
AM_VIS
  5
6E4
 10
16.6826
 20
3.35989
 30
0.000000
  70
    32
  0
VERTEX
  8
AM_VIS
  5
6E5
 10
16.6826
 20
3.35979
 30
0.000000
  70
    32
  0
VERTEX
  8
AM_VIS
  5
6E6
 10
16.6827
 20
3.35969
 30
0.000000
  70
    32
  0
VERTEX
  8
AM_VIS
  5
6E7
 10
16.6828
 20
3.35959
 30
0.000000
  70
    32
  0
VERTEX
  8
AM_VIS
  5
6E8
 10
16.6829
 20
3.35950
 30
0.000000
  70
    32
  0
VERTEX
  8
AM_VIS
  5
6E9
 10
16.6830
 20
3.35940
 30
0.000000
  70
    32
  0
VERTEX
  8
AM_VIS
  5
6EA
 10
16.6831
 20
3.35930
 30
0.000000
  70
    32
  0
VERTEX
  8
AM_VIS
  5
6EB
 10
16.6832
 20
3.35920
 30
0.000000
  70
    32
  0
VERTEX
  8
AM_VIS
  5
6EC
 10
16.6833
 20
3.35910
 30
0.000000
  70
    32
  0
VERTEX
  8
AM_VIS
  5
6ED
 10
16.6833
 20
3.35901
 30
0.000000
  70
    32
  0
VERTEX
  8
AM_VIS
  5
6EE
 10
16.6834
 20
3.35891
 30
0.000000
  70
    32
  0
VERTEX
  8
AM_VIS
  5
6EF
 10
16.6835
 20
3.35881
 30
0.000000
  70
    32
  0
VERTEX
  8
AM_VIS
  5
6F0
 10
16.6836
 20
3.35871
 30
0.000000
  70
    32
  0
VERTEX
  8
AM_VIS
  5
6F1
 10
16.6837
 20
3.35862
 30
0.000000
  70
    32
  0
VERTEX
  8
AM_VIS
  5
6F2
 10
16.6838
 20
3.35852
 30
0.000000
  70
    32
  0
VERTEX
  8
AM_VIS
  5
6F3
 10
16.6839
 20
3.35842
 30
0.000000
  70
    32
  0
VERTEX
  8
AM_VIS
  5
6F4
 10
16.6839
 20
3.35832
 30
0.000000
  70
    32
  0
VERTEX
  8
AM_VIS
  5
6F5
 10
16.6840
 20
3.35822
 30
0.000000
  70
    32
  0
VERTEX
  8
AM_VIS
  5
6F6
 10
16.6841
 20
3.35813
 30
0.000000
  70
    32
  0
VERTEX
  8
AM_VIS
  5
6F7
 10
16.6842
 20
3.35803
 30
0.000000
  70
    32
  0
VERTEX
  8
AM_VIS
  5
6F8
 10
16.6843
 20
3.35793
 30
0.000000
  70
    32
  0
VERTEX
  8
AM_VIS
  5
6F9
 10
16.6844
 20
3.35783
 30
0.000000
  70
    32
  0
VERTEX
  8
AM_VIS
  5
6FA
 10
16.6845
 20
3.35774
 30
0.000000
  70
    32
  0
VERTEX
  8
AM_VIS
  5
6FB
 10
16.6845
 20
3.35764
 30
0.000000
  70
    32
  0
VERTEX
  8
AM_VIS
  5
6FC
 10
16.6846
 20
3.35754
 30
0.000000
  70
    32
  0
VERTEX
  8
AM_VIS
  5
6FD
 10
16.6847
 20
3.35744
 30
0.000000
  70
    32
  0
VERTEX
  8
AM_VIS
  5
6FE
 10
16.6848
 20
3.35734
 30
0.000000
  70
    32
  0
VERTEX
  8
AM_VIS
  5
6FF
 10
16.6849
 20
3.35725
 30
0.000000
  70
    32
  0
VERTEX
  8
AM_VIS
  5
700
 10
16.6850
 20
3.35715
 30
0.000000
  70
    32
  0
VERTEX
  8
AM_VIS
  5
701
 10
16.6850
 20
3.35705
 30
0.000000
  70
    32
  0
VERTEX
  8
AM_VIS
  5
702
 10
16.6851
 20
3.35695
 30
0.000000
  70
    32
  0
VERTEX
  8
AM_VIS
  5
703
 10
16.6852
 20
3.35685
 30
0.000000
  70
    32
  0
VERTEX
  8
AM_VIS
  5
704
 10
16.6853
 20
3.35676
 30
0.000000
  70
    32
  0
VERTEX
  8
AM_VIS
  5
705
 10
16.6854
 20
3.35666
 30
0.000000
  70
    32
  0
VERTEX
  8
AM_VIS
  5
706
 10
16.6855
 20
3.35656
 30
0.000000
  70
    32
  0
VERTEX
  8
AM_VIS
  5
707
 10
16.6855
 20
3.35646
 30
0.000000
  70
    32
  0
VERTEX
  8
AM_VIS
  5
708
 10
16.6856
 20
3.35636
 30
0.000000
  70
    32
  0
VERTEX
  8
AM_VIS
  5
709
 10
16.6857
 20
3.35627
 30
0.000000
  70
    32
  0
VERTEX
  8
AM_VIS
  5
70A
 10
16.6858
 20
3.35617
 30
0.000000
  70
    32
  0
VERTEX
  8
AM_VIS
  5
70B
 10
16.6859
 20
3.35607
 30
0.000000
  70
    32
  0
VERTEX
  8
AM_VIS
  5
70C
 10
16.6859
 20
3.35597
 30
0.000000
  70
    32
  0
VERTEX
  8
AM_VIS
  5
70D
 10
16.6860
 20
3.35588
 30
0.000000
  70
    32
  0
VERTEX
  8
AM_VIS
  5
70E
 10
16.6861
 20
3.35578
 30
0.000000
  70
    32
  0
VERTEX
  8
AM_VIS
  5
70F
 10
16.6862
 20
3.35568
 30
0.000000
  70
    32
  0
VERTEX
  8
AM_VIS
  5
710
 10
16.6863
 20
3.35558
 30
0.000000
  70
    32
  0
VERTEX
  8
AM_VIS
  5
711
 10
16.6863
 20
3.35549
 30
0.000000
  70
    32
  0
VERTEX
  8
AM_VIS
  5
712
 10
16.6864
 20
3.35539
 30
0.000000
  70
    32
  0
VERTEX
  8
AM_VIS
  5
713
 10
16.6865
 20
3.35529
 30
0.000000
  70
    32
  0
VERTEX
  8
AM_VIS
  5
714
 10
16.6866
 20
3.35519
 30
0.000000
  70
    32
  0
VERTEX
  8
AM_VIS
  5
715
 10
16.6867
 20
3.35510
 30
0.000000
  70
    32
  0
VERTEX
  8
AM_VIS
  5
716
 10
16.6867
 20
3.35500
 30
0.000000
  70
    32
  0
VERTEX
  8
AM_VIS
  5
717
 10
16.6868
 20
3.35490
 30
0.000000
  70
    32
  0
VERTEX
  8
AM_VIS
  5
718
 10
16.6869
 20
3.35481
 30
0.000000
  70
    32
  0
VERTEX
  8
AM_VIS
  5
719
 10
16.6870
 20
3.35471
 30
0.000000
  70
    32
  0
VERTEX
  8
AM_VIS
  5
71A
 10
16.6870
 20
3.35461
 30
0.000000
  70
    32
  0
VERTEX
  8
AM_VIS
  5
71B
 10
16.6871
 20
3.35452
 30
0.000000
  70
    32
  0
VERTEX
  8
AM_VIS
  5
71C
 10
16.6872
 20
3.35442
 30
0.000000
  70
    32
  0
VERTEX
  8
AM_VIS
  5
71D
 10
16.6873
 20
3.35432
 30
0.000000
  70
    32
  0
VERTEX
  8
AM_VIS
  5
71E
 10
16.6874
 20
3.35423
 30
0.000000
  70
    32
  0
VERTEX
  8
AM_VIS
  5
71F
 10
16.6874
 20
3.35413
 30
0.000000
  70
    32
  0
VERTEX
  8
AM_VIS
  5
720
 10
16.6875
 20
3.35403
 30
0.000000
  70
    32
  0
VERTEX
  8
AM_VIS
  5
721
 10
16.6876
 20
3.35394
 30
0.000000
  70
    32
  0
VERTEX
  8
AM_VIS
  5
722
 10
16.6877
 20
3.35384
 30
0.000000
  70
    32
  0
VERTEX
  8
AM_VIS
  5
723
 10
16.6877
 20
3.35374
 30
0.000000
  70
    32
  0
VERTEX
  8
AM_VIS
  5
724
 10
16.6878
 20
3.35365
 30
0.000000
  70
    32
  0
VERTEX
  8
AM_VIS
  5
725
 10
16.6879
 20
3.35355
 30
0.000000
  70
    32
  0
VERTEX
  8
AM_VIS
  5
726
 10
16.6880
 20
3.35346
 30
0.000000
  70
    32
  0
VERTEX
  8
AM_VIS
  5
727
 10
16.6880
 20
3.35336
 30
0.000000
  70
    32
  0
VERTEX
  8
AM_VIS
  5
728
 10
16.6881
 20
3.35326
 30
0.000000
  70
    32
  0
VERTEX
  8
AM_VIS
  5
729
 10
16.6882
 20
3.35317
 30
0.000000
  70
    32
  0
VERTEX
  8
AM_VIS
  5
72A
 10
16.6883
 20
3.35307
 30
0.000000
  70
    32
  0
VERTEX
  8
AM_VIS
  5
72B
 10
16.6883
 20
3.35298
 30
0.000000
  70
    32
  0
VERTEX
  8
AM_VIS
  5
72C
 10
16.6884
 20
3.35288
 30
0.000000
  70
    32
  0
VERTEX
  8
AM_VIS
  5
72D
 10
16.6885
 20
3.35279
 30
0.000000
  70
    32
  0
VERTEX
  8
AM_VIS
  5
72E
 10
16.6886
 20
3.35269
 30
0.000000
  70
    32
  0
VERTEX
  8
AM_VIS
  5
72F
 10
16.6886
 20
3.35260
 30
0.000000
  70
    32
  0
VERTEX
  8
AM_VIS
  5
730
 10
16.6887
 20
3.35250
 30
0.000000
  70
    32
  0
VERTEX
  8
AM_VIS
  5
731
 10
16.6888
 20
3.35241
 30
0.000000
  70
    32
  0
VERTEX
  8
AM_VIS
  5
732
 10
16.6889
 20
3.35231
 30
0.000000
  70
    32
  0
VERTEX
  8
AM_VIS
  5
733
 10
16.6889
 20
3.35222
 30
0.000000
  70
    32
  0
VERTEX
  8
AM_VIS
  5
734
 10
16.6890
 20
3.35212
 30
0.000000
  70
    32
  0
VERTEX
  8
AM_VIS
  5
735
 10
16.6891
 20
3.35203
 30
0.000000
  70
    32
  0
VERTEX
  8
AM_VIS
  5
736
 10
16.6891
 20
3.35194
 30
0.000000
  70
    32
  0
VERTEX
  8
AM_VIS
  5
737
 10
16.6892
 20
3.35184
 30
0.000000
  70
    32
  0
VERTEX
  8
AM_VIS
  5
738
 10
16.6893
 20
3.35175
 30
0.000000
  70
    32
  0
VERTEX
  8
AM_VIS
  5
739
 10
16.6894
 20
3.35165
 30
0.000000
  70
    32
  0
VERTEX
  8
AM_VIS
  5
73A
 10
16.6894
 20
3.35156
 30
0.000000
  70
    32
  0
VERTEX
  8
AM_VIS
  5
73B
 10
16.6895
 20
3.35147
 30
0.000000
  70
    32
  0
VERTEX
  8
AM_VIS
  5
73C
 10
16.6896
 20
3.35137
 30
0.000000
  70
    32
  0
VERTEX
  8
AM_VIS
  5
73D
 10
16.6896
 20
3.35128
 30
0.000000
  70
    32
  0
VERTEX
  8
AM_VIS
  5
73E
 10
16.6897
 20
3.35119
 30
0.000000
  70
    32
  0
VERTEX
  8
AM_VIS
  5
73F
 10
16.6898
 20
3.35110
 30
0.000000
  70
    32
  0
VERTEX
  8
AM_VIS
  5
740
 10
16.6898
 20
3.35100
 30
0.000000
  70
    32
  0
VERTEX
  8
AM_VIS
  5
741
 10
16.6899
 20
3.35091
 30
0.000000
  70
    32
  0
VERTEX
  8
AM_VIS
  5
742
 10
16.6900
 20
3.35082
 30
0.000000
  70
    32
  0
VERTEX
  8
AM_VIS
  5
743
 10
16.6901
 20
3.35073
 30
0.000000
  70
    32
  0
VERTEX
  8
AM_VIS
  5
744
 10
16.6901
 20
3.35063
 30
0.000000
  70
    32
  0
VERTEX
  8
AM_VIS
  5
745
 10
16.6902
 20
3.35054
 30
0.000000
  70
    32
  0
VERTEX
  8
AM_VIS
  5
746
 10
16.6903
 20
3.35045
 30
0.000000
  70
    32
  0
VERTEX
  8
AM_VIS
  5
747
 10
16.6903
 20
3.35036
 30
0.000000
  70
    32
  0
VERTEX
  8
AM_VIS
  5
748
 10
16.6904
 20
3.35027
 30
0.000000
  70
    32
  0
VERTEX
  8
AM_VIS
  5
749
 10
16.6905
 20
3.35018
 30
0.000000
  70
    32
  0
VERTEX
  8
AM_VIS
  5
74A
 10
16.6905
 20
3.35008
 30
0.000000
  70
    32
  0
VERTEX
  8
AM_VIS
  5
74B
 10
16.6906
 20
3.34999
 30
0.000000
  70
    32
  0
VERTEX
  8
AM_VIS
  5
74C
 10
16.6907
 20
3.34990
 30
0.000000
  70
    32
  0
VERTEX
  8
AM_VIS
  5
74D
 10
16.6907
 20
3.34981
 30
0.000000
  70
    32
  0
VERTEX
  8
AM_VIS
  5
74E
 10
16.6908
 20
3.34972
 30
0.000000
  70
    32
  0
VERTEX
  8
AM_VIS
  5
74F
 10
16.6909
 20
3.34963
 30
0.000000
  70
    32
  0
VERTEX
  8
AM_VIS
  5
750
 10
16.6909
 20
3.34954
 30
0.000000
  70
    32
  0
VERTEX
  8
AM_VIS
  5
751
 10
16.6910
 20
3.34945
 30
0.000000
  70
    32
  0
VERTEX
  8
AM_VIS
  5
752
 10
16.6911
 20
3.34936
 30
0.000000
  70
    32
  0
VERTEX
  8
AM_VIS
  5
753
 10
16.6911
 20
3.34927
 30
0.000000
  70
    32
  0
VERTEX
  8
AM_VIS
  5
754
 10
16.6912
 20
3.34918
 30
0.000000
  70
    32
  0
VERTEX
  8
AM_VIS
  5
755
 10
16.6913
 20
3.34910
 30
0.000000
  70
    32
  0
VERTEX
  8
AM_VIS
  5
756
 10
16.6913
 20
3.34901
 30
0.000000
  70
    32
  0
VERTEX
  8
AM_VIS
  5
757
 10
16.6914
 20
3.34892
 30
0.000000
  70
    32
  0
VERTEX
  8
AM_VIS
  5
758
 10
16.6914
 20
3.34883
 30
0.000000
  70
    32
  0
VERTEX
  8
AM_VIS
  5
759
 10
16.6915
 20
3.34874
 30
0.000000
  70
    32
  0
VERTEX
  8
AM_VIS
  5
75A
 10
16.6916
 20
3.34865
 30
0.000000
  70
    32
  0
VERTEX
  8
AM_VIS
  5
75B
 10
16.6916
 20
3.34857
 30
0.000000
  70
    32
  0
VERTEX
  8
AM_VIS
  5
75C
 10
16.6917
 20
3.34848
 30
0.000000
  70
    32
  0
VERTEX
  8
AM_VIS
  5
75D
 10
16.6918
 20
3.34839
 30
0.000000
  70
    32
  0
VERTEX
  8
AM_VIS
  5
75E
 10
16.6918
 20
3.34830
 30
0.000000
  70
    32
  0
VERTEX
  8
AM_VIS
  5
75F
 10
16.6919
 20
3.34822
 30
0.000000
  70
    32
  0
VERTEX
  8
AM_VIS
  5
760
 10
16.6919
 20
3.34813
 30
0.000000
  70
    32
  0
VERTEX
  8
AM_VIS
  5
761
 10
16.6920
 20
3.34804
 30
0.000000
  70
    32
  0
VERTEX
  8
AM_VIS
  5
762
 10
16.6921
 20
3.34796
 30
0.000000
  70
    32
  0
VERTEX
  8
AM_VIS
  5
763
 10
16.6921
 20
3.34787
 30
0.000000
  70
    32
  0
VERTEX
  8
AM_VIS
  5
764
 10
16.6922
 20
3.34779
 30
0.000000
  70
    32
  0
VERTEX
  8
AM_VIS
  5
765
 10
16.6923
 20
3.34770
 30
0.000000
  70
    32
  0
VERTEX
  8
AM_VIS
  5
766
 10
16.6923
 20
3.34762
 30
0.000000
  70
    32
  0
VERTEX
  8
AM_VIS
  5
767
 10
16.6924
 20
3.34753
 30
0.000000
  70
    32
  0
VERTEX
  8
AM_VIS
  5
768
 10
16.6924
 20
3.34745
 30
0.000000
  70
    32
  0
VERTEX
  8
AM_VIS
  5
769
 10
16.6925
 20
3.34736
 30
0.000000
  70
    32
  0
VERTEX
  8
AM_VIS
  5
76A
 10
16.6926
 20
3.34728
 30
0.000000
  70
    32
  0
VERTEX
  8
AM_VIS
  5
76B
 10
16.6926
 20
3.34719
 30
0.000000
  70
    32
  0
VERTEX
  8
AM_VIS
  5
76C
 10
16.6927
 20
3.34711
 30
0.000000
  70
    32
  0
VERTEX
  8
AM_VIS
  5
76D
 10
16.6927
 20
3.34703
 30
0.000000
  70
    32
  0
VERTEX
  8
AM_VIS
  5
76E
 10
16.6928
 20
3.34694
 30
0.000000
  70
    32
  0
VERTEX
  8
AM_VIS
  5
76F
 10
16.6928
 20
3.34686
 30
0.000000
  70
    32
  0
VERTEX
  8
AM_VIS
  5
770
 10
16.6929
 20
3.34678
 30
0.000000
  70
    32
  0
VERTEX
  8
AM_VIS
  5
771
 10
16.6930
 20
3.34669
 30
0.000000
  70
    32
  0
VERTEX
  8
AM_VIS
  5
772
 10
16.6930
 20
3.34661
 30
0.000000
  70
    32
  0
VERTEX
  8
AM_VIS
  5
773
 10
16.6931
 20
3.34653
 30
0.000000
  70
    32
  0
VERTEX
  8
AM_VIS
  5
774
 10
16.6931
 20
3.34645
 30
0.000000
  70
    32
  0
VERTEX
  8
AM_VIS
  5
775
 10
16.6932
 20
3.34637
 30
0.000000
  70
    32
  0
VERTEX
  8
AM_VIS
  5
776
 10
16.6932
 20
3.34629
 30
0.000000
  70
    32
  0
VERTEX
  8
AM_VIS
  5
777
 10
16.6933
 20
3.34620
 30
0.000000
  70
    32
  0
VERTEX
  8
AM_VIS
  5
778
 10
16.6934
 20
3.34612
 30
0.000000
  70
    32
  0
VERTEX
  8
AM_VIS
  5
779
 10
16.6934
 20
3.34604
 30
0.000000
  70
    32
  0
VERTEX
  8
AM_VIS
  5
77A
 10
16.6935
 20
3.34596
 30
0.000000
  70
    32
  0
VERTEX
  8
AM_VIS
  5
77B
 10
16.6935
 20
3.34588
 30
0.000000
  70
    32
  0
VERTEX
  8
AM_VIS
  5
77C
 10
16.6936
 20
3.34581
 30
0.000000
  70
    32
  0
VERTEX
  8
AM_VIS
  5
77D
 10
16.6936
 20
3.34573
 30
0.000000
  70
    32
  0
VERTEX
  8
AM_VIS
  5
77E
 10
16.6937
 20
3.34565
 30
0.000000
  70
    32
  0
VERTEX
  8
AM_VIS
  5
77F
 10
16.6937
 20
3.34557
 30
0.000000
  70
    32
  0
VERTEX
  8
AM_VIS
  5
780
 10
16.6938
 20
3.34549
 30
0.000000
  70
    32
  0
VERTEX
  8
AM_VIS
  5
781
 10
16.6939
 20
3.34542
 30
0.000000
  70
    32
  0
VERTEX
  8
AM_VIS
  5
782
 10
16.6939
 20
3.34534
 30
0.000000
  70
    32
  0
VERTEX
  8
AM_VIS
  5
783
 10
16.6940
 20
3.34526
 30
0.000000
  70
    32
  0
VERTEX
  8
AM_VIS
  5
784
 10
16.6940
 20
3.34519
 30
0.000000
  70
    32
  0
VERTEX
  8
AM_VIS
  5
785
 10
16.6941
 20
3.34511
 30
0.000000
  70
    32
  0
VERTEX
  8
AM_VIS
  5
786
 10
16.6941
 20
3.34503
 30
0.000000
  70
    32
  0
VERTEX
  8
AM_VIS
  5
787
 10
16.6942
 20
3.34496
 30
0.000000
  70
    32
  0
VERTEX
  8
AM_VIS
  5
788
 10
16.6942
 20
3.34488
 30
0.000000
  70
    32
  0
VERTEX
  8
AM_VIS
  5
789
 10
16.6943
 20
3.34481
 30
0.000000
  70
    32
  0
VERTEX
  8
AM_VIS
  5
78A
 10
16.6943
 20
3.34473
 30
0.000000
  70
    32
  0
VERTEX
  8
AM_VIS
  5
78B
 10
16.6944
 20
3.34466
 30
0.000000
  70
    32
  0
VERTEX
  8
AM_VIS
  5
78C
 10
16.6944
 20
3.34459
 30
0.000000
  70
    32
  0
VERTEX
  8
AM_VIS
  5
78D
 10
16.6945
 20
3.34451
 30
0.000000
  70
    32
  0
VERTEX
  8
AM_VIS
  5
78E
 10
16.6945
 20
3.34444
 30
0.000000
  70
    32
  0
VERTEX
  8
AM_VIS
  5
78F
 10
16.6946
 20
3.34437
 30
0.000000
  70
    32
  0
VERTEX
  8
AM_VIS
  5
790
 10
16.6946
 20
3.34430
 30
0.000000
  70
    32
  0
VERTEX
  8
AM_VIS
  5
791
 10
16.6947
 20
3.34422
 30
0.000000
  70
    32
  0
VERTEX
  8
AM_VIS
  5
792
 10
16.6947
 20
3.34415
 30
0.000000
  70
    32
  0
VERTEX
  8
AM_VIS
  5
793
 10
16.6948
 20
3.34408
 30
0.000000
  70
    32
  0
VERTEX
  8
AM_VIS
  5
794
 10
16.6948
 20
3.34401
 30
0.000000
  70
    32
  0
VERTEX
  8
AM_VIS
  5
795
 10
16.6949
 20
3.34394
 30
0.000000
  70
    32
  0
VERTEX
  8
AM_VIS
  5
796
 10
16.6949
 20
3.34387
 30
0.000000
  70
    32
  0
VERTEX
  8
AM_VIS
  5
797
 10
16.6949
 20
3.34380
 30
0.000000
  70
    32
  0
VERTEX
  8
AM_VIS
  5
798
 10
16.6950
 20
3.34373
 30
0.000000
  70
    32
  0
VERTEX
  8
AM_VIS
  5
799
 10
16.6950
 20
3.34366
 30
0.000000
  70
    32
  0
VERTEX
  8
AM_VIS
  5
79A
 10
16.6951
 20
3.34359
 30
0.000000
  70
    32
  0
VERTEX
  8
AM_VIS
  5
79B
 10
16.6951
 20
3.34353
 30
0.000000
  70
    32
  0
VERTEX
  8
AM_VIS
  5
79C
 10
16.6952
 20
3.34346
 30
0.000000
  70
    32
  0
VERTEX
  8
AM_VIS
  5
79D
 10
16.6952
 20
3.34339
 30
0.000000
  70
    32
  0
VERTEX
  8
AM_VIS
  5
79E
 10
16.6953
 20
3.34332
 30
0.000000
  70
    32
  0
VERTEX
  8
AM_VIS
  5
79F
 10
16.6953
 20
3.34326
 30
0.000000
  70
    32
  0
VERTEX
  8
AM_VIS
  5
7A0
 10
16.6954
 20
3.34319
 30
0.000000
  70
    32
  0
VERTEX
  8
AM_VIS
  5
7A1
 10
16.6954
 20
3.34313
 30
0.000000
  70
    32
  0
VERTEX
  8
AM_VIS
  5
7A2
 10
16.6954
 20
3.34306
 30
0.000000
  70
    32
  0
VERTEX
  8
AM_VIS
  5
7A3
 10
16.6955
 20
3.34300
 30
0.000000
  70
    32
  0
VERTEX
  8
AM_VIS
  5
7A4
 10
16.6955
 20
3.34293
 30
0.000000
  70
    32
  0
VERTEX
  8
AM_VIS
  5
7A5
 10
16.6956
 20
3.34287
 30
0.000000
  70
    32
  0
VERTEX
  8
AM_VIS
  5
7A6
 10
16.6956
 20
3.34280
 30
0.000000
  70
    32
  0
VERTEX
  8
AM_VIS
  5
7A7
 10
16.6957
 20
3.34274
 30
0.000000
  70
    32
  0
VERTEX
  8
AM_VIS
  5
7A8
 10
16.6957
 20
3.34268
 30
0.000000
  70
    32
  0
VERTEX
  8
AM_VIS
  5
7A9
 10
16.6957
 20
3.34261
 30
0.000000
  70
    32
  0
VERTEX
  8
AM_VIS
  5
7AA
 10
16.6958
 20
3.34255
 30
0.000000
  70
    32
  0
VERTEX
  8
AM_VIS
  5
7AB
 10
16.6958
 20
3.34249
 30
0.000000
  70
    32
  0
VERTEX
  8
AM_VIS
  5
7AC
 10
16.6959
 20
3.34243
 30
0.000000
  70
    32
  0
VERTEX
  8
AM_VIS
  5
7AD
 10
16.6959
 20
3.34237
 30
0.000000
  70
    32
  0
VERTEX
  8
AM_VIS
  5
7AE
 10
16.6959
 20
3.34230
 30
0.000000
  70
    32
  0
VERTEX
  8
AM_VIS
  5
7AF
 10
16.6960
 20
3.34224
 30
0.000000
  70
    32
  0
VERTEX
  8
AM_VIS
  5
7B0
 10
16.6960
 20
3.34218
 30
0.000000
  70
    32
  0
VERTEX
  8
AM_VIS
  5
7B1
 10
16.6961
 20
3.34212
 30
0.000000
  70
    32
  0
VERTEX
  8
AM_VIS
  5
7B2
 10
16.6961
 20
3.34206
 30
0.000000
  70
    32
  0
VERTEX
  8
AM_VIS
  5
7B3
 10
16.6961
 20
3.34201
 30
0.000000
  70
    32
  0
VERTEX
  8
AM_VIS
  5
7B4
 10
16.6962
 20
3.34195
 30
0.000000
  70
    32
  0
VERTEX
  8
AM_VIS
  5
7B5
 10
16.6962
 20
3.34189
 30
0.000000
  70
    32
  0
VERTEX
  8
AM_VIS
  5
7B6
 10
16.6963
 20
3.34183
 30
0.000000
  70
    32
  0
VERTEX
  8
AM_VIS
  5
7B7
 10
16.6963
 20
3.34177
 30
0.000000
  70
    32
  0
VERTEX
  8
AM_VIS
  5
7B8
 10
16.6963
 20
3.34172
 30
0.000000
  70
    32
  0
VERTEX
  8
AM_VIS
  5
7B9
 10
16.6964
 20
3.34166
 30
0.000000
  70
    32
  0
VERTEX
  8
AM_VIS
  5
7BA
 10
16.6964
 20
3.34160
 30
0.000000
  70
    32
  0
VERTEX
  8
AM_VIS
  5
7BB
 10
16.6964
 20
3.34155
 30
0.000000
  70
    32
  0
VERTEX
  8
AM_VIS
  5
7BC
 10
16.6965
 20
3.34149
 30
0.000000
  70
    32
  0
VERTEX
  8
AM_VIS
  5
7BD
 10
16.6965
 20
3.34144
 30
0.000000
  70
    32
  0
VERTEX
  8
AM_VIS
  5
7BE
 10
16.6965
 20
3.34138
 30
0.000000
  70
    32
  0
VERTEX
  8
AM_VIS
  5
7BF
 10
16.6966
 20
3.34133
 30
0.000000
  70
    32
  0
VERTEX
  8
AM_VIS
  5
7C0
 10
16.6966
 20
3.34128
 30
0.000000
  70
    32
  0
VERTEX
  8
AM_VIS
  5
7C1
 10
16.6966
 20
3.34122
 30
0.000000
  70
    32
  0
VERTEX
  8
AM_VIS
  5
7C2
 10
16.6967
 20
3.34117
 30
0.000000
  70
    32
  0
VERTEX
  8
AM_VIS
  5
7C3
 10
16.6967
 20
3.34112
 30
0.000000
  70
    32
  0
VERTEX
  8
AM_VIS
  5
7C4
 10
16.6967
 20
3.34107
 30
0.000000
  70
    32
  0
VERTEX
  8
AM_VIS
  5
7C5
 10
16.6968
 20
3.34101
 30
0.000000
  70
    32
  0
VERTEX
  8
AM_VIS
  5
7C6
 10
16.6968
 20
3.34096
 30
0.000000
  70
    32
  0
VERTEX
  8
AM_VIS
  5
7C7
 10
16.6968
 20
3.34091
 30
0.000000
  70
    32
  0
VERTEX
  8
AM_VIS
  5
7C8
 10
16.6969
 20
3.34086
 30
0.000000
  70
    32
  0
VERTEX
  8
AM_VIS
  5
7C9
 10
16.6969
 20
3.34081
 30
0.000000
  70
    32
  0
VERTEX
  8
AM_VIS
  5
7CA
 10
16.6969
 20
3.34076
 30
0.000000
  70
    32
  0
VERTEX
  8
AM_VIS
  5
7CB
 10
16.6970
 20
3.34071
 30
0.000000
  70
    32
  0
VERTEX
  8
AM_VIS
  5
7CC
 10
16.6970
 20
3.34066
 30
0.000000
  70
    32
  0
VERTEX
  8
AM_VIS
  5
7CD
 10
16.6970
 20
3.34062
 30
0.000000
  70
    32
  0
VERTEX
  8
AM_VIS
  5
7CE
 10
16.6971
 20
3.34057
 30
0.000000
  70
    32
  0
VERTEX
  8
AM_VIS
  5
7CF
 10
16.6971
 20
3.34052
 30
0.000000
  70
    32
  0
VERTEX
  8
AM_VIS
  5
7D0
 10
16.6971
 20
3.34047
 30
0.000000
  70
    32
  0
VERTEX
  8
AM_VIS
  5
7D1
 10
16.6972
 20
3.34043
 30
0.000000
  70
    32
  0
VERTEX
  8
AM_VIS
  5
7D2
 10
16.6972
 20
3.34038
 30
0.000000
  70
    32
  0
VERTEX
  8
AM_VIS
  5
7D3
 10
16.6972
 20
3.34033
 30
0.000000
  70
    32
  0
VERTEX
  8
AM_VIS
  5
7D4
 10
16.6972
 20
3.34029
 30
0.000000
  70
    32
  0
VERTEX
  8
AM_VIS
  5
7D5
 10
16.6973
 20
3.34024
 30
0.000000
  70
    32
  0
VERTEX
  8
AM_VIS
  5
7D6
 10
16.6973
 20
3.34020
 30
0.000000
  70
    32
  0
VERTEX
  8
AM_VIS
  5
7D7
 10
16.6973
 20
3.34016
 30
0.000000
  70
    32
  0
VERTEX
  8
AM_VIS
  5
7D8
 10
16.6974
 20
3.34011
 30
0.000000
  70
    32
  0
VERTEX
  8
AM_VIS
  5
7D9
 10
16.6974
 20
3.34007
 30
0.000000
  70
    32
  0
VERTEX
  8
AM_VIS
  5
7DA
 10
16.6974
 20
3.34003
 30
0.000000
  70
    32
  0
VERTEX
  8
AM_VIS
  5
7DB
 10
16.6974
 20
3.33998
 30
0.000000
  70
    32
  0
VERTEX
  8
AM_VIS
  5
7DC
 10
16.6975
 20
3.33994
 30
0.000000
  70
    32
  0
VERTEX
  8
AM_VIS
  5
7DD
 10
16.6975
 20
3.33990
 30
0.000000
  70
    32
  0
VERTEX
  8
AM_VIS
  5
7DE
 10
16.6975
 20
3.33986
 30
0.000000
  70
    32
  0
VERTEX
  8
AM_VIS
  5
7DF
 10
16.6975
 20
3.33982
 30
0.000000
  70
    32
  0
VERTEX
  8
AM_VIS
  5
7E0
 10
16.6976
 20
3.33978
 30
0.000000
  70
    32
  0
VERTEX
  8
AM_VIS
  5
7E1
 10
16.6976
 20
3.33974
 30
0.000000
  70
    32
  0
VERTEX
  8
AM_VIS
  5
7E2
 10
16.6976
 20
3.33970
 30
0.000000
  70
    32
  0
VERTEX
  8
AM_VIS
  5
7E3
 10
16.6976
 20
3.33966
 30
0.000000
  70
    32
  0
VERTEX
  8
AM_VIS
  5
7E4
 10
16.6977
 20
3.33962
 30
0.000000
  70
    32
  0
VERTEX
  8
AM_VIS
  5
7E5
 10
16.6977
 20
3.33959
 30
0.000000
  70
    32
  0
VERTEX
  8
AM_VIS
  5
7E6
 10
16.6977
 20
3.33955
 30
0.000000
  70
    32
  0
VERTEX
  8
AM_VIS
  5
7E7
 10
16.6977
 20
3.33951
 30
0.000000
  70
    32
  0
VERTEX
  8
AM_VIS
  5
7E8
 10
16.6978
 20
3.33947
 30
0.000000
  70
    32
  0
VERTEX
  8
AM_VIS
  5
7E9
 10
16.6978
 20
3.33944
 30
0.000000
  70
    32
  0
VERTEX
  8
AM_VIS
  5
7EA
 10
16.6978
 20
3.33940
 30
0.000000
  70
    32
  0
VERTEX
  8
AM_VIS
  5
7EB
 10
16.6978
 20
3.33937
 30
0.000000
  70
    32
  0
VERTEX
  8
AM_VIS
  5
7EC
 10
16.6979
 20
3.33933
 30
0.000000
  70
    32
  0
VERTEX
  8
AM_VIS
  5
7ED
 10
16.6979
 20
3.33930
 30
0.000000
  70
    32
  0
VERTEX
  8
AM_VIS
  5
7EE
 10
16.6979
 20
3.33926
 30
0.000000
  70
    32
  0
VERTEX
  8
AM_VIS
  5
7EF
 10
16.6979
 20
3.33923
 30
0.000000
  70
    32
  0
VERTEX
  8
AM_VIS
  5
7F0
 10
16.6979
 20
3.33920
 30
0.000000
  70
    32
  0
VERTEX
  8
AM_VIS
  5
7F1
 10
16.6980
 20
3.33917
 30
0.000000
  70
    32
  0
VERTEX
  8
AM_VIS
  5
7F2
 10
16.6980
 20
3.33913
 30
0.000000
  70
    32
  0
VERTEX
  8
AM_VIS
  5
7F3
 10
16.6980
 20
3.33910
 30
0.000000
  70
    32
  0
VERTEX
  8
AM_VIS
  5
7F4
 10
16.6980
 20
3.33907
 30
0.000000
  70
    32
  0
VERTEX
  8
AM_VIS
  5
7F5
 10
16.6980
 20
3.33904
 30
0.000000
  70
    32
  0
VERTEX
  8
AM_VIS
  5
7F6
 10
16.6981
 20
3.33901
 30
0.000000
  70
    32
  0
VERTEX
  8
AM_VIS
  5
7F7
 10
16.6981
 20
3.33898
 30
0.000000
  70
    32
  0
VERTEX
  8
AM_VIS
  5
7F8
 10
16.6981
 20
3.33895
 30
0.000000
  70
    32
  0
VERTEX
  8
AM_VIS
  5
7F9
 10
16.6981
 20
3.33892
 30
0.000000
  70
    32
  0
VERTEX
  8
AM_VIS
  5
7FA
 10
16.6981
 20
3.33889
 30
0.000000
  70
    32
  0
VERTEX
  8
AM_VIS
  5
7FB
 10
16.6981
 20
3.33887
 30
0.000000
  70
    32
  0
VERTEX
  8
AM_VIS
  5
7FC
 10
16.6982
 20
3.33884
 30
0.000000
  70
    32
  0
VERTEX
  8
AM_VIS
  5
7FD
 10
16.6982
 20
3.33881
 30
0.000000
  70
    32
  0
VERTEX
  8
AM_VIS
  5
7FE
 10
16.6982
 20
3.33879
 30
0.000000
  70
    32
  0
VERTEX
  8
AM_VIS
  5
7FF
 10
16.6982
 20
3.33876
 30
0.000000
  70
    32
  0
VERTEX
  8
AM_VIS
  5
800
 10
16.6982
 20
3.33873
 30
0.000000
  70
    32
  0
VERTEX
  8
AM_VIS
  5
801
 10
16.6982
 20
3.33871
 30
0.000000
  70
    32
  0
VERTEX
  8
AM_VIS
  5
802
 10
16.6983
 20
3.33868
 30
0.000000
  70
    32
  0
VERTEX
  8
AM_VIS
  5
803
 10
16.6983
 20
3.33866
 30
0.000000
  70
    32
  0
VERTEX
  8
AM_VIS
  5
804
 10
16.6983
 20
3.33864
 30
0.000000
  70
    32
  0
VERTEX
  8
AM_VIS
  5
805
 10
16.6983
 20
3.33861
 30
0.000000
  70
    32
  0
VERTEX
  8
AM_VIS
  5
806
 10
16.6983
 20
3.33859
 30
0.000000
  70
    32
  0
VERTEX
  8
AM_VIS
  5
807
 10
16.6983
 20
3.33857
 30
0.000000
  70
    32
  0
VERTEX
  8
AM_VIS
  5
808
 10
16.6983
 20
3.33855
 30
0.000000
  70
    32
  0
VERTEX
  8
AM_VIS
  5
809
 10
16.6984
 20
3.33853
 30
0.000000
  70
    32
  0
VERTEX
  8
AM_VIS
  5
80A
 10
16.6984
 20
3.33851
 30
0.000000
  70
    32
  0
VERTEX
  8
AM_VIS
  5
80B
 10
16.6984
 20
3.33848
 30
0.000000
  70
    32
  0
VERTEX
  8
AM_VIS
  5
80C
 10
16.6984
 20
3.33846
 30
0.000000
  70
    32
  0
VERTEX
  8
AM_VIS
  5
80D
 10
16.6984
 20
3.33845
 30
0.000000
  70
    32
  0
VERTEX
  8
AM_VIS
  5
80E
 10
16.6984
 20
3.33843
 30
0.000000
  70
    32
  0
VERTEX
  8
AM_VIS
  5
80F
 10
16.6984
 20
3.33841
 30
0.000000
  70
    32
  0
VERTEX
  8
AM_VIS
  5
810
 10
16.6984
 20
3.33839
 30
0.000000
  70
    32
  0
VERTEX
  8
AM_VIS
  5
811
 10
16.6985
 20
3.33837
 30
0.000000
  70
    32
  0
VERTEX
  8
AM_VIS
  5
812
 10
16.6985
 20
3.33836
 30
0.000000
  70
    32
  0
VERTEX
  8
AM_VIS
  5
813
 10
16.6985
 20
3.33834
 30
0.000000
  70
    32
  0
VERTEX
  8
AM_VIS
  5
814
 10
16.6985
 20
3.33832
 30
0.000000
  70
    32
  0
VERTEX
  8
AM_VIS
  5
815
 10
16.6985
 20
3.33831
 30
0.000000
  70
    32
  0
VERTEX
  8
AM_VIS
  5
816
 10
16.6985
 20
3.33829
 30
0.000000
  70
    32
  0
VERTEX
  8
AM_VIS
  5
817
 10
16.6985
 20
3.33828
 30
0.000000
  70
    32
  0
VERTEX
  8
AM_VIS
  5
818
 10
16.6985
 20
3.33826
 30
0.000000
  70
    32
  0
VERTEX
  8
AM_VIS
  5
819
 10
16.6985
 20
3.33825
 30
0.000000
  70
    32
  0
VERTEX
  8
AM_VIS
  5
81A
 10
16.6985
 20
3.33824
 30
0.000000
  70
    32
  0
VERTEX
  8
AM_VIS
  5
81B
 10
16.6985
 20
3.33822
 30
0.000000
  70
    32
  0
VERTEX
  8
AM_VIS
  5
81C
 10
16.6986
 20
3.33821
 30
0.000000
  70
    32
  0
VERTEX
  8
AM_VIS
  5
81D
 10
16.6986
 20
3.33820
 30
0.000000
  70
    32
  0
VERTEX
  8
AM_VIS
  5
81E
 10
16.6986
 20
3.33819
 30
0.000000
  70
    32
  0
VERTEX
  8
AM_VIS
  5
81F
 10
16.6986
 20
3.33818
 30
0.000000
  70
    32
  0
VERTEX
  8
AM_VIS
  5
820
 10
16.6986
 20
3.33817
 30
0.000000
  70
    32
  0
VERTEX
  8
AM_VIS
  5
821
 10
16.6986
 20
3.33816
 30
0.000000
  70
    32
  0
VERTEX
  8
AM_VIS
  5
822
 10
16.6986
 20
3.33815
 30
0.000000
  70
    32
  0
VERTEX
  8
AM_VIS
  5
823
 10
16.6986
 20
3.33814
 30
0.000000
  70
    32
  0
VERTEX
  8
AM_VIS
  5
824
 10
16.6986
 20
3.33813
 30
0.000000
  70
    32
  0
VERTEX
  8
AM_VIS
  5
825
 10
16.6986
 20
3.33812
 30
0.000000
  70
    32
  0
VERTEX
  8
AM_VIS
  5
826
 10
16.6986
 20
3.33812
 30
0.000000
  70
    32
  0
VERTEX
  8
AM_VIS
  5
827
 10
16.6986
 20
3.33811
 30
0.000000
  70
    32
  0
VERTEX
  8
AM_VIS
  5
828
 10
16.6986
 20
3.33810
 30
0.000000
  70
    32
  0
VERTEX
  8
AM_VIS
  5
829
 10
16.6986
 20
3.33810
 30
0.000000
  70
    32
  0
VERTEX
  8
AM_VIS
  5
82A
 10
16.6986
 20
3.33809
 30
0.000000
  70
    32
  0
VERTEX
  8
AM_VIS
  5
82B
 10
16.6986
 20
3.33809
 30
0.000000
  70
    32
  0
VERTEX
  8
AM_VIS
  5
82C
 10
16.6986
 20
3.33808
 30
0.000000
  70
    32
  0
VERTEX
  8
AM_VIS
  5
82D
 10
16.6986
 20
3.33808
 30
0.000000
  70
    32
  0
VERTEX
  8
AM_VIS
  5
82E
 10
16.6986
 20
3.33807
 30
0.000000
  70
    32
  0
VERTEX
  8
AM_VIS
  5
82F
 10
16.6986
 20
3.33807
 30
0.000000
  70
    32
  0
VERTEX
  8
AM_VIS
  5
830
 10
16.6986
 20
3.33807
 30
0.000000
  70
    32
  0
VERTEX
  8
AM_VIS
  5
831
 10
16.6986
 20
3.33807
 30
0.000000
  70
    32
  0
VERTEX
  8
AM_VIS
  5
832
 10
16.6986
 20
3.33806
 30
0.000000
  70
    32
  0
VERTEX
  8
AM_VIS
  5
833
 10
16.6986
 20
3.33806
 30
0.000000
  70
    32
  0
VERTEX
  8
AM_VIS
  5
834
 10
16.6986
 20
3.33806
 30
0.000000
  70
    32
  0
VERTEX
  8
AM_VIS
  5
835
 10
16.6986
 20
3.33806
 30
0.000000
  70
    32
  0
SEQEND
  8
AM_VIS
  5
836
  0
LINE
  5
33
  8
AM_VIS
 10
14.39864992527678
 20
1.0898130798956329
 30
0.0
 11
16.688701621104251
 21
1.089813079895632
 31
0.0
  0
LINE
  5
34
  8
AM_VIS
 10
16.688701621104251
 20
1.0898130806196371
 30
0.0
 11
16.700031869819149
 21
1.0898130806196371
 31
0.0
  0
ARC
  5
35
  8
AM_VIS
 10
16.948649925276008
 20
1.063563079896618
 30
0.0
 40
0.2499999999988248
 50
104.4775121858145
 51
173.97283343904559
  0
LINE
  5
36
  8
AM_VIS
 10
16.886149925277081
 20
1.4044204303529151
 30
0.0
 11
16.886149925277081
 21
1.3056245390335259
 31
0.0
  0
LINE
  5
37
  8
AM_VIS
 10
16.886149925276779
 20
1.4044204303529151
 30
0.0
 11
16.886149925276779
 21
2.035205729438347
 31
0.0
  0
LINE
  5
38
  8
AM_VIS
 10
16.886149925277081
 20
2.1340016207577368
 30
0.0
 11
16.886149925277081
 21
2.035205729438347
 31
0.0
  0
ARC
  5
39
  8
AM_VIS
 10
16.948649925276779
 20
2.3760630798956321
 30
0.0
 40
0.2500000000000007
 50
180.0
 51
255.52248781406979
  0
ARC
  5
3A
  8
AM_HID
 10
17.539848003442192
 20
1.72674490225703
 30
0.0
 40
1.0413275316429389
 50
180.3814134309672
 51
197.86249115412591
  0
ARC
  5
3B
  8
AM_HID
 10
17.539848003442199
 20
1.7128812575342329
 30
0.0
 40
1.0413275316429409
 50
162.13750884587409
 51
179.6185865690328
  0
ARC
  5
3C
  8
AM_VIS
 10
15.548649925276781
 20
3.7598130798956362
 30
0.0
 40
1.149999999999999
 50
269.99999999999989
 51
89.999999999999957
  0
ARC
  5
3D
  8
AM_VIS
 10
15.548649925276781
 20
3.7598130798956362
 30
0.0
 40
1.149999999999999
 50
89.999999999999957
 51
269.99999999999989
  0
CIRCLE
  5
3E
  8
AM_VIS
 10
15.548649925276781
 20
3.759813079895634
 30
0.0
 40
1.0
  0
ARC
  5
3F
  8
AM_VIS
 10
16.785313152473272
 20
3.1035630798955882
 30
0.0
 40
0.2500000000000493
 50
90.000000000001975
 51
110.28272816228591
  0
LINE
  5
40
  8
AM_VIS
 10
16.886149925277081
 20
3.759813079896607
 30
0.0
 11
16.886149925277081
 21
3.5037534401348469
 31
0.0
  0
POLYLINE
  8
AM_HID
  5
837
  66
     1
 10
0.000000
 20
0.000000
 30
0.000000
  70
     8
  0
VERTEX
  8
AM_HID
  5
838
 10
16.6887
 20
3.60888
 30
0.000000
  70
    32
  0
VERTEX
  8
AM_HID
  5
839
 10
16.6889
 20
3.61003
 30
0.000000
  70
    32
  0
VERTEX
  8
AM_HID
  5
83A
 10
16.6890
 20
3.61118
 30
0.000000
  70
    32
  0
VERTEX
  8
AM_HID
  5
83B
 10
16.6892
 20
3.61233
 30
0.000000
  70
    32
  0
VERTEX
  8
AM_HID
  5
83C
 10
16.6893
 20
3.61348
 30
0.000000
  70
    32
  0
VERTEX
  8
AM_HID
  5
83D
 10
16.6895
 20
3.61463
 30
0.000000
  70
    32
  0
VERTEX
  8
AM_HID
  5
83E
 10
16.6896
 20
3.61578
 30
0.000000
  70
    32
  0
VERTEX
  8
AM_HID
  5
83F
 10
16.6898
 20
3.61693
 30
0.000000
  70
    32
  0
VERTEX
  8
AM_HID
  5
840
 10
16.6899
 20
3.61808
 30
0.000000
  70
    32
  0
VERTEX
  8
AM_HID
  5
841
 10
16.6900
 20
3.61923
 30
0.000000
  70
    32
  0
VERTEX
  8
AM_HID
  5
842
 10
16.6902
 20
3.62038
 30
0.000000
  70
    32
  0
VERTEX
  8
AM_HID
  5
843
 10
16.6903
 20
3.62153
 30
0.000000
  70
    32
  0
VERTEX
  8
AM_HID
  5
844
 10
16.6905
 20
3.62268
 30
0.000000
  70
    32
  0
VERTEX
  8
AM_HID
  5
845
 10
16.6906
 20
3.62383
 30
0.000000
  70
    32
  0
VERTEX
  8
AM_HID
  5
846
 10
16.6908
 20
3.62498
 30
0.000000
  70
    32
  0
VERTEX
  8
AM_HID
  5
847
 10
16.6909
 20
3.62613
 30
0.000000
  70
    32
  0
VERTEX
  8
AM_HID
  5
848
 10
16.6911
 20
3.62728
 30
0.000000
  70
    32
  0
VERTEX
  8
AM_HID
  5
849
 10
16.6912
 20
3.62844
 30
0.000000
  70
    32
  0
VERTEX
  8
AM_HID
  5
84A
 10
16.6913
 20
3.62959
 30
0.000000
  70
    32
  0
VERTEX
  8
AM_HID
  5
84B
 10
16.6915
 20
3.63074
 30
0.000000
  70
    32
  0
VERTEX
  8
AM_HID
  5
84C
 10
16.6916
 20
3.63189
 30
0.000000
  70
    32
  0
VERTEX
  8
AM_HID
  5
84D
 10
16.6918
 20
3.63304
 30
0.000000
  70
    32
  0
VERTEX
  8
AM_HID
  5
84E
 10
16.6919
 20
3.63419
 30
0.000000
  70
    32
  0
VERTEX
  8
AM_HID
  5
84F
 10
16.6920
 20
3.63534
 30
0.000000
  70
    32
  0
VERTEX
  8
AM_HID
  5
850
 10
16.6922
 20
3.63650
 30
0.000000
  70
    32
  0
VERTEX
  8
AM_HID
  5
851
 10
16.6923
 20
3.63765
 30
0.000000
  70
    32
  0
VERTEX
  8
AM_HID
  5
852
 10
16.6924
 20
3.63880
 30
0.000000
  70
    32
  0
VERTEX
  8
AM_HID
  5
853
 10
16.6926
 20
3.63995
 30
0.000000
  70
    32
  0
VERTEX
  8
AM_HID
  5
854
 10
16.6927
 20
3.64111
 30
0.000000
  70
    32
  0
VERTEX
  8
AM_HID
  5
855
 10
16.6928
 20
3.64226
 30
0.000000
  70
    32
  0
VERTEX
  8
AM_HID
  5
856
 10
16.6930
 20
3.64341
 30
0.000000
  70
    32
  0
VERTEX
  8
AM_HID
  5
857
 10
16.6931
 20
3.64457
 30
0.000000
  70
    32
  0
VERTEX
  8
AM_HID
  5
858
 10
16.6932
 20
3.64572
 30
0.000000
  70
    32
  0
VERTEX
  8
AM_HID
  5
859
 10
16.6934
 20
3.64688
 30
0.000000
  70
    32
  0
VERTEX
  8
AM_HID
  5
85A
 10
16.6935
 20
3.64803
 30
0.000000
  70
    32
  0
VERTEX
  8
AM_HID
  5
85B
 10
16.6936
 20
3.64919
 30
0.000000
  70
    32
  0
VERTEX
  8
AM_HID
  5
85C
 10
16.6937
 20
3.65034
 30
0.000000
  70
    32
  0
VERTEX
  8
AM_HID
  5
85D
 10
16.6939
 20
3.65150
 30
0.000000
  70
    32
  0
VERTEX
  8
AM_HID
  5
85E
 10
16.6940
 20
3.65266
 30
0.000000
  70
    32
  0
VERTEX
  8
AM_HID
  5
85F
 10
16.6941
 20
3.65382
 30
0.000000
  70
    32
  0
VERTEX
  8
AM_HID
  5
860
 10
16.6942
 20
3.65497
 30
0.000000
  70
    32
  0
VERTEX
  8
AM_HID
  5
861
 10
16.6943
 20
3.65613
 30
0.000000
  70
    32
  0
VERTEX
  8
AM_HID
  5
862
 10
16.6945
 20
3.65729
 30
0.000000
  70
    32
  0
VERTEX
  8
AM_HID
  5
863
 10
16.6946
 20
3.65845
 30
0.000000
  70
    32
  0
VERTEX
  8
AM_HID
  5
864
 10
16.6947
 20
3.65961
 30
0.000000
  70
    32
  0
VERTEX
  8
AM_HID
  5
865
 10
16.6948
 20
3.66077
 30
0.000000
  70
    32
  0
VERTEX
  8
AM_HID
  5
866
 10
16.6949
 20
3.66194
 30
0.000000
  70
    32
  0
VERTEX
  8
AM_HID
  5
867
 10
16.6951
 20
3.66310
 30
0.000000
  70
    32
  0
VERTEX
  8
AM_HID
  5
868
 10
16.6952
 20
3.66426
 30
0.000000
  70
    32
  0
VERTEX
  8
AM_HID
  5
869
 10
16.6953
 20
3.66543
 30
0.000000
  70
    32
  0
VERTEX
  8
AM_HID
  5
86A
 10
16.6954
 20
3.66659
 30
0.000000
  70
    32
  0
VERTEX
  8
AM_HID
  5
86B
 10
16.6955
 20
3.66776
 30
0.000000
  70
    32
  0
VERTEX
  8
AM_HID
  5
86C
 10
16.6956
 20
3.66892
 30
0.000000
  70
    32
  0
VERTEX
  8
AM_HID
  5
86D
 10
16.6957
 20
3.67009
 30
0.000000
  70
    32
  0
VERTEX
  8
AM_HID
  5
86E
 10
16.6958
 20
3.67126
 30
0.000000
  70
    32
  0
VERTEX
  8
AM_HID
  5
86F
 10
16.6959
 20
3.67242
 30
0.000000
  70
    32
  0
VERTEX
  8
AM_HID
  5
870
 10
16.6960
 20
3.67359
 30
0.000000
  70
    32
  0
VERTEX
  8
AM_HID
  5
871
 10
16.6961
 20
3.67476
 30
0.000000
  70
    32
  0
VERTEX
  8
AM_HID
  5
872
 10
16.6962
 20
3.67593
 30
0.000000
  70
    32
  0
VERTEX
  8
AM_HID
  5
873
 10
16.6963
 20
3.67711
 30
0.000000
  70
    32
  0
VERTEX
  8
AM_HID
  5
874
 10
16.6964
 20
3.67828
 30
0.000000
  70
    32
  0
VERTEX
  8
AM_HID
  5
875
 10
16.6965
 20
3.67945
 30
0.000000
  70
    32
  0
VERTEX
  8
AM_HID
  5
876
 10
16.6966
 20
3.68063
 30
0.000000
  70
    32
  0
VERTEX
  8
AM_HID
  5
877
 10
16.6967
 20
3.68180
 30
0.000000
  70
    32
  0
VERTEX
  8
AM_HID
  5
878
 10
16.6968
 20
3.68298
 30
0.000000
  70
    32
  0
VERTEX
  8
AM_HID
  5
879
 10
16.6969
 20
3.68416
 30
0.000000
  70
    32
  0
VERTEX
  8
AM_HID
  5
87A
 10
16.6970
 20
3.68533
 30
0.000000
  70
    32
  0
VERTEX
  8
AM_HID
  5
87B
 10
16.6971
 20
3.68651
 30
0.000000
  70
    32
  0
VERTEX
  8
AM_HID
  5
87C
 10
16.6972
 20
3.68769
 30
0.000000
  70
    32
  0
VERTEX
  8
AM_HID
  5
87D
 10
16.6973
 20
3.68888
 30
0.000000
  70
    32
  0
VERTEX
  8
AM_HID
  5
87E
 10
16.6974
 20
3.69006
 30
0.000000
  70
    32
  0
VERTEX
  8
AM_HID
  5
87F
 10
16.6975
 20
3.69124
 30
0.000000
  70
    32
  0
VERTEX
  8
AM_HID
  5
880
 10
16.6976
 20
3.69243
 30
0.000000
  70
    32
  0
VERTEX
  8
AM_HID
  5
881
 10
16.6976
 20
3.69361
 30
0.000000
  70
    32
  0
VERTEX
  8
AM_HID
  5
882
 10
16.6977
 20
3.69480
 30
0.000000
  70
    32
  0
VERTEX
  8
AM_HID
  5
883
 10
16.6978
 20
3.69599
 30
0.000000
  70
    32
  0
VERTEX
  8
AM_HID
  5
884
 10
16.6979
 20
3.69718
 30
0.000000
  70
    32
  0
VERTEX
  8
AM_HID
  5
885
 10
16.6980
 20
3.69837
 30
0.000000
  70
    32
  0
VERTEX
  8
AM_HID
  5
886
 10
16.6980
 20
3.69956
 30
0.000000
  70
    32
  0
VERTEX
  8
AM_HID
  5
887
 10
16.6981
 20
3.70075
 30
0.000000
  70
    32
  0
VERTEX
  8
AM_HID
  5
888
 10
16.6982
 20
3.70195
 30
0.000000
  70
    32
  0
VERTEX
  8
AM_HID
  5
889
 10
16.6983
 20
3.70314
 30
0.000000
  70
    32
  0
VERTEX
  8
AM_HID
  5
88A
 10
16.6983
 20
3.70434
 30
0.000000
  70
    32
  0
VERTEX
  8
AM_HID
  5
88B
 10
16.6984
 20
3.70554
 30
0.000000
  70
    32
  0
VERTEX
  8
AM_HID
  5
88C
 10
16.6985
 20
3.70674
 30
0.000000
  70
    32
  0
VERTEX
  8
AM_HID
  5
88D
 10
16.6986
 20
3.70794
 30
0.000000
  70
    32
  0
VERTEX
  8
AM_HID
  5
88E
 10
16.6986
 20
3.70914
 30
0.000000
  70
    32
  0
VERTEX
  8
AM_HID
  5
88F
 10
16.6987
 20
3.71034
 30
0.000000
  70
    32
  0
VERTEX
  8
AM_HID
  5
890
 10
16.6987
 20
3.71155
 30
0.000000
  70
    32
  0
VERTEX
  8
AM_HID
  5
891
 10
16.6988
 20
3.71275
 30
0.000000
  70
    32
  0
VERTEX
  8
AM_HID
  5
892
 10
16.6989
 20
3.71396
 30
0.000000
  70
    32
  0
VERTEX
  8
AM_HID
  5
893
 10
16.6989
 20
3.71517
 30
0.000000
  70
    32
  0
VERTEX
  8
AM_HID
  5
894
 10
16.6990
 20
3.71638
 30
0.000000
  70
    32
  0
VERTEX
  8
AM_HID
  5
895
 10
16.6990
 20
3.71759
 30
0.000000
  70
    32
  0
VERTEX
  8
AM_HID
  5
896
 10
16.6991
 20
3.71881
 30
0.000000
  70
    32
  0
VERTEX
  8
AM_HID
  5
897
 10
16.6992
 20
3.72002
 30
0.000000
  70
    32
  0
VERTEX
  8
AM_HID
  5
898
 10
16.6992
 20
3.72124
 30
0.000000
  70
    32
  0
VERTEX
  8
AM_HID
  5
899
 10
16.6993
 20
3.72246
 30
0.000000
  70
    32
  0
VERTEX
  8
AM_HID
  5
89A
 10
16.6993
 20
3.72367
 30
0.000000
  70
    32
  0
VERTEX
  8
AM_HID
  5
89B
 10
16.6994
 20
3.72490
 30
0.000000
  70
    32
  0
VERTEX
  8
AM_HID
  5
89C
 10
16.6994
 20
3.72612
 30
0.000000
  70
    32
  0
VERTEX
  8
AM_HID
  5
89D
 10
16.6994
 20
3.72734
 30
0.000000
  70
    32
  0
VERTEX
  8
AM_HID
  5
89E
 10
16.6995
 20
3.72857
 30
0.000000
  70
    32
  0
VERTEX
  8
AM_HID
  5
89F
 10
16.6995
 20
3.72980
 30
0.000000
  70
    32
  0
VERTEX
  8
AM_HID
  5
8A0
 10
16.6996
 20
3.73103
 30
0.000000
  70
    32
  0
VERTEX
  8
AM_HID
  5
8A1
 10
16.6996
 20
3.73226
 30
0.000000
  70
    32
  0
VERTEX
  8
AM_HID
  5
8A2
 10
16.6996
 20
3.73349
 30
0.000000
  70
    32
  0
VERTEX
  8
AM_HID
  5
8A3
 10
16.6997
 20
3.73473
 30
0.000000
  70
    32
  0
VERTEX
  8
AM_HID
  5
8A4
 10
16.6997
 20
3.73596
 30
0.000000
  70
    32
  0
VERTEX
  8
AM_HID
  5
8A5
 10
16.6997
 20
3.73720
 30
0.000000
  70
    32
  0
VERTEX
  8
AM_HID
  5
8A6
 10
16.6998
 20
3.73844
 30
0.000000
  70
    32
  0
VERTEX
  8
AM_HID
  5
8A7
 10
16.6998
 20
3.73968
 30
0.000000
  70
    32
  0
VERTEX
  8
AM_HID
  5
8A8
 10
16.6998
 20
3.74093
 30
0.000000
  70
    32
  0
VERTEX
  8
AM_HID
  5
8A9
 10
16.6999
 20
3.74217
 30
0.000000
  70
    32
  0
VERTEX
  8
AM_HID
  5
8AA
 10
16.6999
 20
3.74342
 30
0.000000
  70
    32
  0
VERTEX
  8
AM_HID
  5
8AB
 10
16.6999
 20
3.74467
 30
0.000000
  70
    32
  0
VERTEX
  8
AM_HID
  5
8AC
 10
16.6999
 20
3.74592
 30
0.000000
  70
    32
  0
VERTEX
  8
AM_HID
  5
8AD
 10
16.6999
 20
3.74717
 30
0.000000
  70
    32
  0
VERTEX
  8
AM_HID
  5
8AE
 10
16.7000
 20
3.74843
 30
0.000000
  70
    32
  0
VERTEX
  8
AM_HID
  5
8AF
 10
16.7000
 20
3.74968
 30
0.000000
  70
    32
  0
VERTEX
  8
AM_HID
  5
8B0
 10
16.7000
 20
3.75094
 30
0.000000
  70
    32
  0
VERTEX
  8
AM_HID
  5
8B1
 10
16.7000
 20
3.75220
 30
0.000000
  70
    32
  0
VERTEX
  8
AM_HID
  5
8B2
 10
16.7000
 20
3.75347
 30
0.000000
  70
    32
  0
VERTEX
  8
AM_HID
  5
8B3
 10
16.7000
 20
3.75473
 30
0.000000
  70
    32
  0
VERTEX
  8
AM_HID
  5
8B4
 10
16.7000
 20
3.75600
 30
0.000000
  70
    32
  0
VERTEX
  8
AM_HID
  5
8B5
 10
16.7000
 20
3.75727
 30
0.000000
  70
    32
  0
VERTEX
  8
AM_HID
  5
8B6
 10
16.7000
 20
3.75854
 30
0.000000
  70
    32
  0
VERTEX
  8
AM_HID
  5
8B7
 10
16.7000
 20
3.75981
 30
0.000000
  70
    32
  0
SEQEND
  8
AM_HID
  5
8B8
  0
ARC
  5
42
  8
AM_HID
 10
17.69124402675968
 20
3.7146260872601631
 30
0.0
 40
1.197272427413292
 50
162.61736628898481
 51
167.1556347230362
  0
ARC
  5
43
  8
AM_HID
 10
17.691244026759751
 20
3.8050000725311381
 30
0.0
 40
1.197272427413371
 50
192.84436527696451
 51
197.3826337110151
  0
POLYLINE
  8
AM_HID
  5
8B9
  66
     1
 10
0.000000
 20
0.000000
 30
0.000000
  70
     8
  0
VERTEX
  8
AM_HID
  5
8BA
 10
16.7000
 20
3.75981
 30
0.000000
  70
    32
  0
VERTEX
  8
AM_HID
  5
8BB
 10
16.7000
 20
3.76109
 30
0.000000
  70
    32
  0
VERTEX
  8
AM_HID
  5
8BC
 10
16.7000
 20
3.76236
 30
0.000000
  70
    32
  0
VERTEX
  8
AM_HID
  5
8BD
 10
16.7000
 20
3.76363
 30
0.000000
  70
    32
  0
VERTEX
  8
AM_HID
  5
8BE
 10
16.7000
 20
3.76489
 30
0.000000
  70
    32
  0
VERTEX
  8
AM_HID
  5
8BF
 10
16.7000
 20
3.76616
 30
0.000000
  70
    32
  0
VERTEX
  8
AM_HID
  5
8C0
 10
16.7000
 20
3.76742
 30
0.000000
  70
    32
  0
VERTEX
  8
AM_HID
  5
8C1
 10
16.7000
 20
3.76868
 30
0.000000
  70
    32
  0
VERTEX
  8
AM_HID
  5
8C2
 10
16.7000
 20
3.76994
 30
0.000000
  70
    32
  0
VERTEX
  8
AM_HID
  5
8C3
 10
16.7000
 20
3.77120
 30
0.000000
  70
    32
  0
VERTEX
  8
AM_HID
  5
8C4
 10
16.6999
 20
3.77245
 30
0.000000
  70
    32
  0
VERTEX
  8
AM_HID
  5
8C5
 10
16.6999
 20
3.77371
 30
0.000000
  70
    32
  0
VERTEX
  8
AM_HID
  5
8C6
 10
16.6999
 20
3.77496
 30
0.000000
  70
    32
  0
VERTEX
  8
AM_HID
  5
8C7
 10
16.6999
 20
3.77621
 30
0.000000
  70
    32
  0
VERTEX
  8
AM_HID
  5
8C8
 10
16.6999
 20
3.77745
 30
0.000000
  70
    32
  0
VERTEX
  8
AM_HID
  5
8C9
 10
16.6998
 20
3.77870
 30
0.000000
  70
    32
  0
VERTEX
  8
AM_HID
  5
8CA
 10
16.6998
 20
3.77994
 30
0.000000
  70
    32
  0
VERTEX
  8
AM_HID
  5
8CB
 10
16.6998
 20
3.78119
 30
0.000000
  70
    32
  0
VERTEX
  8
AM_HID
  5
8CC
 10
16.6997
 20
3.78243
 30
0.000000
  70
    32
  0
VERTEX
  8
AM_HID
  5
8CD
 10
16.6997
 20
3.78366
 30
0.000000
  70
    32
  0
VERTEX
  8
AM_HID
  5
8CE
 10
16.6997
 20
3.78490
 30
0.000000
  70
    32
  0
VERTEX
  8
AM_HID
  5
8CF
 10
16.6996
 20
3.78613
 30
0.000000
  70
    32
  0
VERTEX
  8
AM_HID
  5
8D0
 10
16.6996
 20
3.78737
 30
0.000000
  70
    32
  0
VERTEX
  8
AM_HID
  5
8D1
 10
16.6996
 20
3.78860
 30
0.000000
  70
    32
  0
VERTEX
  8
AM_HID
  5
8D2
 10
16.6995
 20
3.78983
 30
0.000000
  70
    32
  0
VERTEX
  8
AM_HID
  5
8D3
 10
16.6995
 20
3.79106
 30
0.000000
  70
    32
  0
VERTEX
  8
AM_HID
  5
8D4
 10
16.6994
 20
3.79228
 30
0.000000
  70
    32
  0
VERTEX
  8
AM_HID
  5
8D5
 10
16.6994
 20
3.79351
 30
0.000000
  70
    32
  0
VERTEX
  8
AM_HID
  5
8D6
 10
16.6994
 20
3.79473
 30
0.000000
  70
    32
  0
VERTEX
  8
AM_HID
  5
8D7
 10
16.6993
 20
3.79595
 30
0.000000
  70
    32
  0
VERTEX
  8
AM_HID
  5
8D8
 10
16.6993
 20
3.79717
 30
0.000000
  70
    32
  0
VERTEX
  8
AM_HID
  5
8D9
 10
16.6992
 20
3.79839
 30
0.000000
  70
    32
  0
VERTEX
  8
AM_HID
  5
8DA
 10
16.6992
 20
3.79961
 30
0.000000
  70
    32
  0
VERTEX
  8
AM_HID
  5
8DB
 10
16.6991
 20
3.80082
 30
0.000000
  70
    32
  0
VERTEX
  8
AM_HID
  5
8DC
 10
16.6990
 20
3.80203
 30
0.000000
  70
    32
  0
VERTEX
  8
AM_HID
  5
8DD
 10
16.6990
 20
3.80325
 30
0.000000
  70
    32
  0
VERTEX
  8
AM_HID
  5
8DE
 10
16.6989
 20
3.80446
 30
0.000000
  70
    32
  0
VERTEX
  8
AM_HID
  5
8DF
 10
16.6989
 20
3.80567
 30
0.000000
  70
    32
  0
VERTEX
  8
AM_HID
  5
8E0
 10
16.6988
 20
3.80687
 30
0.000000
  70
    32
  0
VERTEX
  8
AM_HID
  5
8E1
 10
16.6987
 20
3.80808
 30
0.000000
  70
    32
  0
VERTEX
  8
AM_HID
  5
8E2
 10
16.6987
 20
3.80928
 30
0.000000
  70
    32
  0
VERTEX
  8
AM_HID
  5
8E3
 10
16.6986
 20
3.81049
 30
0.000000
  70
    32
  0
VERTEX
  8
AM_HID
  5
8E4
 10
16.6986
 20
3.81169
 30
0.000000
  70
    32
  0
VERTEX
  8
AM_HID
  5
8E5
 10
16.6985
 20
3.81289
 30
0.000000
  70
    32
  0
VERTEX
  8
AM_HID
  5
8E6
 10
16.6984
 20
3.81409
 30
0.000000
  70
    32
  0
VERTEX
  8
AM_HID
  5
8E7
 10
16.6983
 20
3.81529
 30
0.000000
  70
    32
  0
VERTEX
  8
AM_HID
  5
8E8
 10
16.6983
 20
3.81649
 30
0.000000
  70
    32
  0
VERTEX
  8
AM_HID
  5
8E9
 10
16.6982
 20
3.81768
 30
0.000000
  70
    32
  0
VERTEX
  8
AM_HID
  5
8EA
 10
16.6981
 20
3.81887
 30
0.000000
  70
    32
  0
VERTEX
  8
AM_HID
  5
8EB
 10
16.6980
 20
3.82007
 30
0.000000
  70
    32
  0
VERTEX
  8
AM_HID
  5
8EC
 10
16.6980
 20
3.82126
 30
0.000000
  70
    32
  0
VERTEX
  8
AM_HID
  5
8ED
 10
16.6979
 20
3.82245
 30
0.000000
  70
    32
  0
VERTEX
  8
AM_HID
  5
8EE
 10
16.6978
 20
3.82364
 30
0.000000
  70
    32
  0
VERTEX
  8
AM_HID
  5
8EF
 10
16.6977
 20
3.82483
 30
0.000000
  70
    32
  0
VERTEX
  8
AM_HID
  5
8F0
 10
16.6976
 20
3.82601
 30
0.000000
  70
    32
  0
VERTEX
  8
AM_HID
  5
8F1
 10
16.6976
 20
3.82720
 30
0.000000
  70
    32
  0
VERTEX
  8
AM_HID
  5
8F2
 10
16.6975
 20
3.82838
 30
0.000000
  70
    32
  0
VERTEX
  8
AM_HID
  5
8F3
 10
16.6974
 20
3.82957
 30
0.000000
  70
    32
  0
VERTEX
  8
AM_HID
  5
8F4
 10
16.6973
 20
3.83075
 30
0.000000
  70
    32
  0
VERTEX
  8
AM_HID
  5
8F5
 10
16.6972
 20
3.83193
 30
0.000000
  70
    32
  0
VERTEX
  8
AM_HID
  5
8F6
 10
16.6971
 20
3.83311
 30
0.000000
  70
    32
  0
VERTEX
  8
AM_HID
  5
8F7
 10
16.6970
 20
3.83429
 30
0.000000
  70
    32
  0
VERTEX
  8
AM_HID
  5
8F8
 10
16.6969
 20
3.83547
 30
0.000000
  70
    32
  0
VERTEX
  8
AM_HID
  5
8F9
 10
16.6968
 20
3.83665
 30
0.000000
  70
    32
  0
VERTEX
  8
AM_HID
  5
8FA
 10
16.6967
 20
3.83782
 30
0.000000
  70
    32
  0
VERTEX
  8
AM_HID
  5
8FB
 10
16.6966
 20
3.83900
 30
0.000000
  70
    32
  0
VERTEX
  8
AM_HID
  5
8FC
 10
16.6965
 20
3.84017
 30
0.000000
  70
    32
  0
VERTEX
  8
AM_HID
  5
8FD
 10
16.6964
 20
3.84135
 30
0.000000
  70
    32
  0
VERTEX
  8
AM_HID
  5
8FE
 10
16.6963
 20
3.84252
 30
0.000000
  70
    32
  0
VERTEX
  8
AM_HID
  5
8FF
 10
16.6962
 20
3.84369
 30
0.000000
  70
    32
  0
VERTEX
  8
AM_HID
  5
900
 10
16.6961
 20
3.84486
 30
0.000000
  70
    32
  0
VERTEX
  8
AM_HID
  5
901
 10
16.6960
 20
3.84603
 30
0.000000
  70
    32
  0
VERTEX
  8
AM_HID
  5
902
 10
16.6959
 20
3.84720
 30
0.000000
  70
    32
  0
VERTEX
  8
AM_HID
  5
903
 10
16.6958
 20
3.84837
 30
0.000000
  70
    32
  0
VERTEX
  8
AM_HID
  5
904
 10
16.6957
 20
3.84954
 30
0.000000
  70
    32
  0
VERTEX
  8
AM_HID
  5
905
 10
16.6956
 20
3.85070
 30
0.000000
  70
    32
  0
VERTEX
  8
AM_HID
  5
906
 10
16.6955
 20
3.85187
 30
0.000000
  70
    32
  0
VERTEX
  8
AM_HID
  5
907
 10
16.6954
 20
3.85304
 30
0.000000
  70
    32
  0
VERTEX
  8
AM_HID
  5
908
 10
16.6953
 20
3.85420
 30
0.000000
  70
    32
  0
VERTEX
  8
AM_HID
  5
909
 10
16.6952
 20
3.85536
 30
0.000000
  70
    32
  0
VERTEX
  8
AM_HID
  5
90A
 10
16.6951
 20
3.85653
 30
0.000000
  70
    32
  0
VERTEX
  8
AM_HID
  5
90B
 10
16.6949
 20
3.85769
 30
0.000000
  70
    32
  0
VERTEX
  8
AM_HID
  5
90C
 10
16.6948
 20
3.85885
 30
0.000000
  70
    32
  0
VERTEX
  8
AM_HID
  5
90D
 10
16.6947
 20
3.86001
 30
0.000000
  70
    32
  0
VERTEX
  8
AM_HID
  5
90E
 10
16.6946
 20
3.86117
 30
0.000000
  70
    32
  0
VERTEX
  8
AM_HID
  5
90F
 10
16.6945
 20
3.86233
 30
0.000000
  70
    32
  0
VERTEX
  8
AM_HID
  5
910
 10
16.6943
 20
3.86349
 30
0.000000
  70
    32
  0
VERTEX
  8
AM_HID
  5
911
 10
16.6942
 20
3.86465
 30
0.000000
  70
    32
  0
VERTEX
  8
AM_HID
  5
912
 10
16.6941
 20
3.86581
 30
0.000000
  70
    32
  0
VERTEX
  8
AM_HID
  5
913
 10
16.6940
 20
3.86697
 30
0.000000
  70
    32
  0
VERTEX
  8
AM_HID
  5
914
 10
16.6939
 20
3.86812
 30
0.000000
  70
    32
  0
VERTEX
  8
AM_HID
  5
915
 10
16.6937
 20
3.86928
 30
0.000000
  70
    32
  0
VERTEX
  8
AM_HID
  5
916
 10
16.6936
 20
3.87044
 30
0.000000
  70
    32
  0
VERTEX
  8
AM_HID
  5
917
 10
16.6935
 20
3.87159
 30
0.000000
  70
    32
  0
VERTEX
  8
AM_HID
  5
918
 10
16.6934
 20
3.87275
 30
0.000000
  70
    32
  0
VERTEX
  8
AM_HID
  5
919
 10
16.6932
 20
3.87390
 30
0.000000
  70
    32
  0
VERTEX
  8
AM_HID
  5
91A
 10
16.6931
 20
3.87506
 30
0.000000
  70
    32
  0
VERTEX
  8
AM_HID
  5
91B
 10
16.6930
 20
3.87621
 30
0.000000
  70
    32
  0
VERTEX
  8
AM_HID
  5
91C
 10
16.6928
 20
3.87737
 30
0.000000
  70
    32
  0
VERTEX
  8
AM_HID
  5
91D
 10
16.6927
 20
3.87852
 30
0.000000
  70
    32
  0
VERTEX
  8
AM_HID
  5
91E
 10
16.6926
 20
3.87967
 30
0.000000
  70
    32
  0
VERTEX
  8
AM_HID
  5
91F
 10
16.6924
 20
3.88083
 30
0.000000
  70
    32
  0
VERTEX
  8
AM_HID
  5
920
 10
16.6923
 20
3.88198
 30
0.000000
  70
    32
  0
VERTEX
  8
AM_HID
  5
921
 10
16.6922
 20
3.88313
 30
0.000000
  70
    32
  0
VERTEX
  8
AM_HID
  5
922
 10
16.6920
 20
3.88428
 30
0.000000
  70
    32
  0
VERTEX
  8
AM_HID
  5
923
 10
16.6919
 20
3.88543
 30
0.000000
  70
    32
  0
VERTEX
  8
AM_HID
  5
924
 10
16.6918
 20
3.88659
 30
0.000000
  70
    32
  0
VERTEX
  8
AM_HID
  5
925
 10
16.6916
 20
3.88774
 30
0.000000
  70
    32
  0
VERTEX
  8
AM_HID
  5
926
 10
16.6915
 20
3.88889
 30
0.000000
  70
    32
  0
VERTEX
  8
AM_HID
  5
927
 10
16.6913
 20
3.89004
 30
0.000000
  70
    32
  0
VERTEX
  8
AM_HID
  5
928
 10
16.6912
 20
3.89119
 30
0.000000
  70
    32
  0
VERTEX
  8
AM_HID
  5
929
 10
16.6911
 20
3.89234
 30
0.000000
  70
    32
  0
VERTEX
  8
AM_HID
  5
92A
 10
16.6909
 20
3.89349
 30
0.000000
  70
    32
  0
VERTEX
  8
AM_HID
  5
92B
 10
16.6908
 20
3.89464
 30
0.000000
  70
    32
  0
VERTEX
  8
AM_HID
  5
92C
 10
16.6906
 20
3.89579
 30
0.000000
  70
    32
  0
VERTEX
  8
AM_HID
  5
92D
 10
16.6905
 20
3.89694
 30
0.000000
  70
    32
  0
VERTEX
  8
AM_HID
  5
92E
 10
16.6903
 20
3.89809
 30
0.000000
  70
    32
  0
VERTEX
  8
AM_HID
  5
92F
 10
16.6902
 20
3.89924
 30
0.000000
  70
    32
  0
VERTEX
  8
AM_HID
  5
930
 10
16.6900
 20
3.90039
 30
0.000000
  70
    32
  0
VERTEX
  8
AM_HID
  5
931
 10
16.6899
 20
3.90155
 30
0.000000
  70
    32
  0
VERTEX
  8
AM_HID
  5
932
 10
16.6898
 20
3.90270
 30
0.000000
  70
    32
  0
VERTEX
  8
AM_HID
  5
933
 10
16.6896
 20
3.90385
 30
0.000000
  70
    32
  0
VERTEX
  8
AM_HID
  5
934
 10
16.6895
 20
3.90500
 30
0.000000
  70
    32
  0
VERTEX
  8
AM_HID
  5
935
 10
16.6893
 20
3.90615
 30
0.000000
  70
    32
  0
VERTEX
  8
AM_HID
  5
936
 10
16.6892
 20
3.90730
 30
0.000000
  70
    32
  0
VERTEX
  8
AM_HID
  5
937
 10
16.6890
 20
3.90845
 30
0.000000
  70
    32
  0
VERTEX
  8
AM_HID
  5
938
 10
16.6889
 20
3.90960
 30
0.000000
  70
    32
  0
VERTEX
  8
AM_HID
  5
939
 10
16.6887
 20
3.91075
 30
0.000000
  70
    32
  0
SEQEND
  8
AM_HID
  5
93A
  0
ARC
  5
45
  8
AM_VIS
 10
16.785313152473261
 20
4.4160630798956291
 30
0.0
 40
0.2499999999999973
 50
249.71727183771199
 51
270.0
  0
LINE
  5
46
  8
AM_VIS
 10
16.886149925276779
 20
3.3535630798956371
 30
0.0
 11
16.886149925276779
 21
3.5037534401348469
 31
0.0
  0
LINE
  5
47
  8
AM_VIS
 10
16.886149925276779
 20
4.0158727196564232
 30
0.0
 11
16.886149925276779
 21
4.1660630798956317
 31
0.0
  0
LINE
  5
48
  8
AM_VIS
 10
16.886149925277081
 20
4.0158727196564232
 30
0.0
 11
16.886149925277081
 21
3.7598130798946618
 31
0.0
  0
LINE
  5
49
  8
AM_VIS
 10
16.698649925276779
 20
5.1435630798956327
 30
0.0
 11
16.698649925276779
 21
4.1815647109207248
 31
0.0
  0
LINE
  5
4A
  8
AM_VIS
 10
14.39864992527678
 20
6.4298130798956317
 30
0.0
 11
14.39864992527678
 21
3.7598130798956348
 31
0.0
  0
LINE
  5
4B
  8
AM_HID
 10
16.548649925276781
 20
6.1123130798956327
 30
0.0
 11
16.886149925276779
 21
6.1123130798956327
 31
0.0
  0
LINE
  5
4C
  8
AM_HID
 10
16.548649925276781
 20
5.4873130798956327
 30
0.0
 11
16.886149925276779
 21
5.4873130798956327
 31
0.0
  0
LINE
  5
4D
  8
AM_VIS
 10
16.698649925276779
 20
3.3380614488705458
 30
0.0
 11
16.698649925276779
 21
2.3760630798956308
 31
0.0
  0
LINE
  5
4E
  8
AM_VIS
 10
14.39864992527678
 20
3.7598130798956362
 30
0.0
 11
14.39864992527678
 21
1.0898130798956329
 31
0.0
  0
LINE
  5
4F
  8
AM_HID
 10
16.886149925276779
 20
1.407313079895631
 30
0.0
 11
16.548649925276781
 21
1.407313079895631
 31
0.0
  0
LINE
  5
50
  8
AM_HID
 10
16.886149925276779
 20
2.0323130798956308
 30
0.0
 11
16.548649925276781
 21
2.0323130798956308
 31
0.0
  0
LINE
  5
51
  8
AM_HID
 10
14.548649925276781
 20
3.7598130798956362
 30
0.0
 11
14.548649925276781
 21
6.4298130798956317
 31
0.0
  0
LINE
  5
52
  8
AM_HID
 10
16.548649925276781
 20
4.0723130798956371
 30
0.0
 11
16.548649925276781
 21
5.4873130798956327
 31
0.0
  0
LINE
  5
53
  8
AM_HID
 10
16.548649925276781
 20
6.1123130798956318
 30
0.0
 11
16.548649925276781
 21
6.4298130798956317
 31
0.0
  0
LINE
  5
54
  8
AM_HID
 10
14.548649925276781
 20
1.0898130798956329
 30
0.0
 11
14.548649925276781
 21
3.7598130798956362
 31
0.0
  0
LINE
  5
55
  8
AM_HID
 10
16.548649925276781
 20
1.089813079895632
 30
0.0
 11
16.548649925276781
 21
1.4073130798956319
 31
0.0
  0
LINE
  5
56
  8
AM_HID
 10
16.548649925276781
 20
2.0323130798956308
 30
0.0
 11
16.548649925276781
 21
3.4473130798956371
 31
0.0
  0
LINE
  5
57
  8
AM_VIS
 10
16.785313152473261
 20
3.3535630798956371
 30
0.0
 11
16.886149925276779
 21
3.3535630798956371
 31
0.0
  0
LINE
  5
58
  8
AM_VIS
 10
16.886149925276779
 20
4.1660630798956344
 30
0.0
 11
16.785313152473261
 21
4.1660630798956344
 31
0.0
  0
LINE
  5
59
  8
AM_HID
 10
16.548649925276781
 20
4.0723130798956371
 30
0.0
 11
16.886149925276779
 21
4.0723130798956371
 31
0.0
  0
LINE
  5
5A
  8
AM_HID
 10
16.548649925276781
 20
3.4473130798956371
 30
0.0
 11
16.886149925276779
 21
3.447313079895638
 31
0.0
  0
INSERT
  5
174
  8
0
  2
*U7
 10
0.0
 20
0.0
 30
0.0
  0
INSERT
  5
175
  8
0
  2
*U8
 10
0.0
 20
0.0
 30
0.0
  0
LINE
  5
177
  8
0
 10
14.33614992527678
 20
6.4298130798956317
 30
0.0
 11
13.214708921943989
 21
6.4298130798956334
 31
0.0
  0
LINE
  5
178
  8
0
 10
14.33614992527678
 20
1.0898130798956329
 30
0.0
 11
13.214708921943989
 21
1.0898130798956329
 31
0.0
  0
LINE
  5
179
  8
0
 10
13.394708921943989
 20
6.3048130798956334
 30
0.0
 11
13.394708921943989
 21
4.0998130798956334
 31
0.0
  0
LINE
  5
17A
  8
0
 10
13.39470892194398
 20
1.2148130798956329
 30
0.0
 11
13.39470892194398
 21
3.4198130798956332
 31
0.0
  0
SOLID
  5
17B
  8
0
 10
13.37387558861065
 20
6.3048130798956334
 30
0.0
 11
13.41554225527732
 21
6.3048130798956334
 31
0.0
 12
13.394708921943989
 22
6.4298130798956334
 32
0.0
 13
13.394708921943989
 23
6.4298130798956334
 33
0.0
  0
SOLID
  5
17C
  8
0
 10
13.37387558861065
 20
1.2148130798956329
 30
0.0
 11
13.41554225527732
 21
1.2148130798956329
 31
0.0
 12
13.39470892194398
 22
1.0898130798956329
 32
0.0
 13
13.39470892194398
 23
1.0898130798956329
 33
0.0
  0
INSERT
  5
17D
  8
0
  2
*U9
 10
0.0
 20
0.0
 30
0.0
  0
ENDSEC
  0
EOF
