  0
SECTION
  2
HEADER
  9
$ACADVER
  1
AC1009
  9
$INSBASE
 10
0.0
 20
0.0
 30
0.0
  9
$EXTMIN
 10
10.636666556091001
 20
-0.0585295250030669
 30
0.0
  9
$EXTMAX
 10
17.066257123672361
 20
6.5341693516235511
 30
0.0
  9
$LIMMIN
 10
0.0
 20
0.0
  9
$LIMMAX
 10
12.0
 20
9.0
  9
$ORTHOMODE
 70
     1
  9
$REGENMODE
 70
     0
  9
$FILLMODE
 70
     1
  9
$QTEXTMODE
 70
     0
  9
$MIRRTEXT
 70
     0
  9
$DRAGMODE
 70
     2
  9
$LTSCALE
 40
1.0
  9
$OSMODE
 70
    55
  9
$ATTMODE
 70
     1
  9
$TEXTSIZE
 40
0.2
  9
$TRACEWID
 40
0.05
  9
$TEXTSTYLE
  7
STANDARD
  9
$CLAYER
  8
0
  9
$CELTYPE
  6
BYLAYER
  9
$CECOLOR
 62
   256
  9
$DIMSCALE
 40
1.0
  9
$DIMASZ
 40
0.125
  9
$DIMEXO
 40
0.0625
  9
$DIMDLI
 40
0.38
  9
$DIMRND
 40
0.0
  9
$DIMDLE
 40
0.0
  9
$DIMEXE
 40
0.18
  9
$DIMTP
 40
0.0
  9
$DIMTM
 40
0.0
  9
$DIMTXT
 40
0.09375
  9
$DIMCEN
 40
-0.125
  9
$DIMTSZ
 40
0.0
  9
$DIMTOL
 70
     0
  9
$DIMLIM
 70
     0
  9
$DIMTIH
 70
     0
  9
$DIMTOH
 70
     0
  9
$DIMSE1
 70
     0
  9
$DIMSE2
 70
     0
  9
$DIMTAD
 70
     0
  9
$DIMZIN
 70
     3
  9
$DIMBLK
  1

  9
$DIMASO
 70
     0
  9
$DIMSHO
 70
     1
  9
$DIMPOST
  1

  9
$DIMAPOST
  1

  9
$DIMALT
 70
     0
  9
$DIMALTD
 70
     2
  9
$DIMALTF
 40
25.399999999999999
  9
$DIMLFAC
 40
1.0
  9
$DIMTOFL
 70
     1
  9
$DIMTVP
 40
0.0
  9
$DIMTIX
 70
     0
  9
$DIMSOXD
 70
     0
  9
$DIMSAH
 70
     0
  9
$DIMBLK1
  1

  9
$DIMBLK2
  1

  9
$DIMSTYLE
  2
STANDARD
  9
$DIMCLRD
 70
     0
  9
$DIMCLRE
 70
     0
  9
$DIMCLRT
 70
     0
  9
$DIMTFAC
 40
1.0
  9
$DIMGAP
 40
0.09
  9
$LUNITS
 70
     4
  9
$LUPREC
 70
     4
  9
$SKETCHINC
 40
0.1
  9
$FILLETRAD
 40
0.0
  9
$AUNITS
 70
     0
  9
$AUPREC
 70
     4
  9
$MENU
  1
.
  9
$ELEVATION
 40
0.0
  9
$PELEVATION
 40
0.0
  9
$THICKNESS
 40
0.0
  9
$LIMCHECK
 70
     0
  9
$BLIPMODE
 70
     0
  9
$CHAMFERA
 40
0.125
  9
$CHAMFERB
 40
0.5
  9
$SKPOLY
 70
     0
  9
$TDCREATE
 40
2451086.9109346061
  9
$TDUPDATE
 40
2453913.579694849
  9
$TDINDWG
 40
1.1553456365999999
  9
$TDUSRTIMER
 40
1.1553456365999999
  9
$USRTIMER
 70
     1
  9
$ANGBASE
 50
0.0
  9
$ANGDIR
 70
     0
  9
$PDMODE
 70
    34
  9
$PDSIZE
 40
3.0
  9
$PLINEWID
 40
0.0
  9
$COORDS
 70
     1
  9
$SPLFRAME
 70
     0
  9
$SPLINETYPE
 70
     6
  9
$SPLINESEGS
 70
     8
  9
$ATTDIA
 70
     0
  9
$ATTREQ
 70
     1
  9
$HANDLING
 70
     1
  9
$HANDSEED
  5
BB3
  9
$SURFTAB1
 70
     6
  9
$SURFTAB2
 70
     6
  9
$SURFTYPE
 70
     6
  9
$SURFU
 70
     6
  9
$SURFV
 70
     6
  9
$UCSNAME
  2

  9
$UCSORG
 10
0.0
 20
0.0
 30
0.0
  9
$UCSXDIR
 10
1.0
 20
0.0
 30
0.0
  9
$UCSYDIR
 10
0.0
 20
1.0
 30
0.0
  9
$PUCSNAME
  2

  9
$PUCSORG
 10
0.0
 20
0.0
 30
0.0
  9
$PUCSXDIR
 10
1.0
 20
0.0
 30
0.0
  9
$PUCSYDIR
 10
0.0
 20
1.0
 30
0.0
  9
$USERI1
 70
     0
  9
$USERI2
 70
     0
  9
$USERI3
 70
     0
  9
$USERI4
 70
     0
  9
$USERI5
 70
     0
  9
$USERR1
 40
0.0
  9
$USERR2
 40
0.0
  9
$USERR3
 40
0.0
  9
$USERR4
 40
0.0
  9
$USERR5
 40
0.0
  9
$WORLDVIEW
 70
     1
  9
$SHADEDGE
 70
     3
  9
$SHADEDIF
 70
    70
  9
$TILEMODE
 70
     1
  9
$MAXACTVP
 70
    48
  9
$PLIMCHECK
 70
     0
  9
$PEXTMIN
 10
10.196683879665001
 20
2.203722123778141
 30
0.0
  9
$PEXTMAX
 10
15.876302761037
 20
6.9308573148542871
 30
0.0
  9
$PLIMMIN
 10
-0.1579164520023376
 20
-0.2812499887361301
  9
$PLIMMAX
 10
10.84208330770177
 20
8.2187497709679782
  9
$UNITMODE
 70
     0
  9
$VISRETAIN
 70
     1
  9
$PLINEGEN
 70
     0
  9
$PSLTSCALE
 70
     1
  0
ENDSEC
  0
SECTION
  2
TABLES
  0
TABLE
  2
VPORT
 70
     2
  0
VPORT
  2
*ACTIVE
 70
     0
 10
0.0
 20
0.0
 11
1.0
 21
1.0
 12
0.9354082385919345
 22
-1.3479930501515189
 13
0.0
 23
0.0
 14
0.5
 24
0.5
 15
0.5
 25
0.5
 16
0.0
 26
0.0
 36
1.0
 17
14.12843039771527
 27
4.5672897193162134
 37
0.0
 40
7.8715411121764687
 41
2.38716814159292
 42
50.0
 43
0.0
 44
0.0
 50
0.0
 51
0.0
 71
     0
 72
   100
 73
     1
 74
     1
 75
     0
 76
     0
 77
     0
 78
     0
  0
ENDTAB
  0
TABLE
  2
LTYPE
 70
    18
  0
LTYPE
  2
CONTINUOUS
 70
     0
  3
Solid line
 72
    65
 73
     0
 40
0.0
  0
LTYPE
  2
HIDDEN
 70
     0
  3
__ __ __ __ __ __ __ __ __ __ __ __ __ __ __ __
 72
    65
 73
     2
 40
0.375
 49
0.25
 49
-0.125
  0
LTYPE
  2
PHANTOM2
 70
     0
  3
Phantom (.5x) ___ _ _ ___ _ _ ___ _ _ ___ _ _
 72
    65
 73
     6
 40
1.25
 49
0.625
 49
-0.125
 49
0.125
 49
-0.125
 49
0.125
 49
-0.125
  0
LTYPE
  2
CENTER
 70
     0
  3
Center ____ _ ____ _ ____ _ ____ _ ____ _ ____
 72
    65
 73
     4
 40
2.0
 49
1.25
 49
-0.25
 49
0.25
 49
-0.25
  0
LTYPE
  2
ASULTYPE
 70
     0
  3
Solid line
 72
    65
 73
     2
 40
3.0
 49
2.5
 49
0.5
  0
LTYPE
  2
ASVLTYPE
 70
     0
  3
__ __ __ __ __ __ __ __ __ __ __ __ __ __ __ __ __ __ __ __ __
 72
    65
 73
     2
 40
0.75
 49
0.5
 49
-0.25
  0
LTYPE
  2
AM_ISO02W050
 70
     0
  3
__ __ __ __ __ __ __ __ __ __ __ __ __ __ __
 72
    65
 73
     2
 40
7.5
 49
6.0
 49
-1.5
  0
LTYPE
  2
AM_ISO08W050
 70
     0
  3
____ . ____ . ____ . ____ . ____ . ____ . ____
 72
    65
 73
     4
 40
18.0
 49
12.0
 49
-1.5
 49
3.0
 49
-1.5
  0
LTYPE
  2
AM_ISO09W050
 70
     0
  3
_____ . . _____ . . _____ . . ____ .. ____
 72
    65
 73
     6
 40
22.5
 49
12.0
 49
-1.5
 49
3.0
 49
-1.5
 49
3.0
 49
-1.5
  0
LTYPE
  2
AMCONSTR
 70
     0
  3
_______________________
 72
    65
 73
     2
 40
9999.0
 49
9999.0
 49
0.0
  0
LTYPE
  2
AM_ISO08W050X2
 70
     0
  3
__ . __ . __ . __ . __ . __
 72
    65
 73
     4
 40
9.0
 49
6.0
 49
-0.75
 49
1.5
 49
-0.75
  0
LTYPE
  2
AM_ISO02W050X2
 70
     0
  3
 _ _ _ _ _ _ _ _ _ _ _ _
 72
    65
 73
     2
 40
3.75
 49
3.0
 49
-0.75
  0
LTYPE
  2
AMZIGZAG
 70
     0
  3
/\/-/\/-/\/-/\/-/\/-/\/
 72
    65
 73
     2
 40
11.0001
 49
0.0001
 49
-11.0
  0
LTYPE
  2
CENTER2
 70
     0
  3
Center (.5x) ___ _ ___ _ ___ _ ___ _ ___ _ ___
 72
    65
 73
     4
 40
1.125
 49
0.75
 49
-0.125
 49
0.125
 49
-0.125
  0
LTYPE
  2
HIDDEN2
 70
     0
  3
Hidden (.5x) _ _ _ _ _ _ _ _ _ _ _ _ _ _ _ _ _
 72
    65
 73
     2
 40
0.1875
 49
0.125
 49
-0.0625
  0
LTYPE
  2
AMZIGZAG2
 70
     0
  3
/\/-/\/-/\/-/\/-/\/-/\/
 72
    65
 73
     2
 40
0.4401
 49
0.0001
 49
-0.4400000000000001
  0
LTYPE
  2
ACANSTGB
 70
     0
  3
__ . . __ . .
 72
    65
 73
     6
 40
0.35433070866
 49
0.15748031496
 49
-0.03937007874
 49
0.03937007874
 49
-0.03937007874
 49
0.03937007874
 49
-0.03937007874
  0
LTYPE
  2
ACANSTGL
 70
     0
  3
_ _ _ _ _
 72
    65
 73
     2
 40
0.11811023622
 49
0.07874015748
 49
-0.03937007874
  0
ENDTAB
  0
TABLE
  2
LAYER
 70
     3
  0
LAYER
  2
0
 70
     0
 62
     7
  6
CONTINUOUS
  0
LAYER
  2
AM_VIS
 70
     0
 62
     7
  6
CONTINUOUS
  0
LAYER
  2
AM_HID
 70
     0
 62
     7
  6
HIDDEN
  0
ENDTAB
  0
TABLE
  2
STYLE
 70
     4
  0
STYLE
  2
STANDARD
 70
     0
 40
0.0
 41
1.0
 50
0.0
 71
     0
 42
0.2
  3
txt
  4

  0
STYLE
  2

 70
     1
 40
0.0
 41
1.0
 50
0.0
 71
     0
 42
0.2
  3
ltypeshp.shx
  4

  0
STYLE
  2
ACANSTS
 70
     0
 40
1.0
 41
1.0
 50
0.0
 71
     0
 42
0.2
  3
romans.shx
  4

  0
STYLE
  2
ACANSGDT
 70
     0
 40
0.0
 41
1.0
 50
0.0
 71
     0
 42
0.2
  3
amgdtans.shx
  4

  0
ENDTAB
  0
TABLE
  2
VIEW
 70
     0
  0
ENDTAB
  0
TABLE
  2
UCS
 70
     0
  0
ENDTAB
  0
TABLE
  2
APPID
 70
    13
  0
APPID
  2
ACAD
 70
     0
  0
APPID
  2
GENIUS_GENDIM_13
 70
     0
  0
APPID
  2
GENIUS_GENDTOL_13
 70
     0
  0
APPID
  2
GENIUS_GE3DTOL_13
 70
     0
  0
APPID
  2
MCAD_NO_VIS
 70
     0
  0
APPID
  2
ACAD_TEMP_GRAPHIC
 70
     0
  0
APPID
  2
AD_DRAW
 70
     0
  0
APPID
  2
ACATTRIBSERVICES
 70
     0
  0
APPID
  2
ASURF_PCURVE_APPNAME
 70
     0
  0
APPID
  2
AMG_3D2D_5_0
 70
     0
  0
APPID
  2
DESIGNERASSEMBLIES
 70
     0
  0
APPID
  2
ACADM_DIM_EDIT
 70
     0
  0
APPID
  2
AMDT_DM_ADJ
 70
     0
  0
ENDTAB
  0
TABLE
  2
DIMSTYLE
 70
     7
  0
DIMSTYLE
  2
STANDARD
 70
     0
  3

  4

  5

  6

  7

 40
1.0
 41
0.18
 42
0.0625
 43
0.38
 44
0.18
 45
0.0
 46
0.0
 47
0.0
 48
0.0
140
0.18
141
0.09
142
0.0
143
25.399999999999999
144
1.0
145
0.0
146
1.0
147
0.09
 71
     0
 72
     0
 73
     1
 74
     1
 75
     0
 76
     0
 77
     0
 78
     0
170
     0
171
     2
172
     0
173
     0
174
     0
175
     0
176
     0
177
     0
178
     0
  0
DIMSTYLE
  2
AM_ANSI
 70
     0
  3

  4
mm
  5

  6

  7

 40
1.0
 41
0.1
 42
0.05
 43
0.5
 44
0.1
 45
0.0
 46
0.0
 47
0.1
 48
0.1
140
0.12
141
0.0
142
0.0
143
25.399999999999999
144
1.0
145
0.0
146
0.71
147
0.06
 71
     0
 72
     0
 73
     1
 74
     1
 75
     0
 76
     0
 77
     0
 78
     7
170
     0
171
     2
172
     0
173
     0
174
     0
175
     0
176
   256
177
   256
178
     2
  0
DIMSTYLE
  2
AM_ANSI$3
 70
     0
  3

  4
mm
  5

  6

  7

 40
1.0
 41
0.1
 42
0.05
 43
0.5
 44
0.1
 45
0.0
 46
0.0
 47
0.1
 48
0.1
140
0.12
141
0.0
142
0.0
143
25.399999999999999
144
1.0
145
0.0
146
0.71
147
0.06
 71
     0
 72
     0
 73
     1
 74
     1
 75
     0
 76
     0
 77
     0
 78
     7
170
     0
171
     2
172
     0
173
     0
174
     0
175
     0
176
   256
177
   256
178
     2
  0
DIMSTYLE
  2
AM_ANSI$4
 70
     0
  3

  4
mm
  5

  6

  7

 40
1.0
 41
0.1
 42
0.05
 43
0.5
 44
0.1
 45
0.0
 46
0.0
 47
0.1
 48
0.1
140
0.12
141
0.0
142
0.0
143
25.399999999999999
144
1.0
145
0.0
146
0.71
147
0.06
 71
     0
 72
     0
 73
     1
 74
     1
 75
     0
 76
     0
 77
     0
 78
     7
170
     0
171
     2
172
     0
173
     0
174
     0
175
     0
176
   256
177
   256
178
     2
  0
DIMSTYLE
  2
AM_ANSI$7
 70
     0
  3

  4
mm
  5

  6

  7

 40
1.0
 41
0.1
 42
0.05
 43
0.5
 44
0.1
 45
0.0
 46
0.0
 47
0.1
 48
0.1
140
0.24
141
0.0
142
0.0
143
25.399999999999999
144
1.0
145
0.0
146
0.71
147
0.06
 71
     0
 72
     0
 73
     1
 74
     1
 75
     0
 76
     0
 77
     0
 78
     7
170
     0
171
     2
172
     0
173
     0
174
     0
175
     0
176
   256
177
   256
178
     2
  0
DIMSTYLE
  2
AM_ANSI$SF
 70
     0
  3

  4
mm
  5

  6

  7

 40
1.0
 41
0.1
 42
0.05
 43
0.5
 44
0.1
 45
0.0
 46
0.0
 47
0.1
 48
0.1
140
0.12
141
0.0
142
0.0
143
25.399999999999999
144
1.0
145
0.0
146
0.71
147
0.06
 71
     0
 72
     0
 73
     1
 74
     1
 75
     1
 76
     1
 77
     0
 78
     7
170
     0
171
     2
172
     0
173
     0
174
     0
175
     0
176
   256
177
   256
178
     2
  0
DIMSTYLE
  2
AM_ANSI$SH
 70
     0
  3

  4
mm
  5

  6
GENAXEH
  7

 40
1.0
 41
0.1
 42
0.05
 43
0.5
 44
0.1
 45
0.0
 46
0.0
 47
0.1
 48
0.1
140
0.12
141
0.0
142
0.0
143
25.399999999999999
144
1.0
145
0.0
146
0.71
147
0.06
 71
     0
 72
     0
 73
     1
 74
     1
 75
     1
 76
     1
 77
     0
 78
     7
170
     0
171
     2
172
     0
173
     1
174
     0
175
     0
176
   256
177
   256
178
     2
  0
ENDTAB
  0
ENDSEC
  0
SECTION
  2
BLOCKS
  0
BLOCK
  8
0
  2
$MODEL_SPACE
 70
     0
 10
0.0
 20
0.0
 30
0.0
  3
$MODEL_SPACE
  1

  0
ENDBLK
  5
A
  8
0
  0
BLOCK
 67
     1
  8
0
  2
$PAPER_SPACE
 70
     0
 10
0.0
 20
0.0
 30
0.0
  3
$PAPER_SPACE
  1

  0
ENDBLK
  5
F
 67
     1
  8
0
  0
BLOCK
  8
0
  2
*U0
 70
     1
 10
0.0
 20
0.0
 30
0.0
  3
*U0
  1

  0
ENDBLK
  5
113
  8
0
  0
BLOCK
  8
0
  2
GENAXEH
 70
     0
 10
0.0
 20
0.0
 30
0.0
  3
GENAXEH
  1

  0
LINE
  5
151
  8
0
 10
-1.0
 20
0.0
 30
0.0
 11
1.0
 21
0.0
 31
0.0
  0
ENDBLK
  5
153
  8
0
  0
BLOCK
  8
0
  2
*U2
 70
     1
 10
0.0
 20
0.0
 30
0.0
  3
*U2
  1

  0
TEXT
  5
180
  8
0
 10
14.85541175491395
 20
1.090446593619814
 30
0.0
 40
0.09375
  1
60°
 50
36.865966090363052
  0
ENDBLK
  5
182
  8
0
  0
BLOCK
  8
0
  2
*U3
 70
     1
 10
0.0
 20
0.0
 30
0.0
  3
*U3
  1

  0
TEXT
  5
184
  8
0
 10
14.56620390093372
 20
1.182637146059647
 30
0.0
 40
0.09375
  1
30° TO 
 50
36.866
  0
ENDBLK
  5
186
  8
0
  0
ENDSEC
  0
SECTION
  2
ENTITIES
  0
LINE
  5
25
  8
AM_VIS
 10
12.936666556091
 20
3.3601197304119661
 30
0.0
 11
12.14497446401157
 21
4.7313706578440424
 31
0.0
  0
LINE
  5
27
  8
AM_HID
 10
12.14497446401211
 20
4.731370657843109
 30
0.0
 11
11.786666556090999
 21
5.3519781591161752
 31
0.0
  0
LINE
  5
2A
  8
AM_VIS
 10
14.25252225746519
 20
2.6004100870088749
 30
0.0
 11
15.40252225746519
 21
4.5922685157130827
 31
0.0
  0
POLYLINE
  8
AM_VIS
  5
187
  66
     1
 10
0.000000
 20
0.000000
 30
0.000000
  70
     8
  0
VERTEX
  8
AM_VIS
  5
188
 10
12.1985
 20
5.11418
 30
0.000000
  70
    32
  0
VERTEX
  8
AM_VIS
  5
189
 10
12.1983
 20
5.11262
 30
0.000000
  70
    32
  0
VERTEX
  8
AM_VIS
  5
18A
 10
12.1980
 20
5.11106
 30
0.000000
  70
    32
  0
VERTEX
  8
AM_VIS
  5
18B
 10
12.1977
 20
5.10950
 30
0.000000
  70
    32
  0
VERTEX
  8
AM_VIS
  5
18C
 10
12.1974
 20
5.10795
 30
0.000000
  70
    32
  0
VERTEX
  8
AM_VIS
  5
18D
 10
12.1971
 20
5.10640
 30
0.000000
  70
    32
  0
VERTEX
  8
AM_VIS
  5
18E
 10
12.1968
 20
5.10486
 30
0.000000
  70
    32
  0
VERTEX
  8
AM_VIS
  5
18F
 10
12.1965
 20
5.10331
 30
0.000000
  70
    32
  0
VERTEX
  8
AM_VIS
  5
190
 10
12.1962
 20
5.10177
 30
0.000000
  70
    32
  0
VERTEX
  8
AM_VIS
  5
191
 10
12.1959
 20
5.10024
 30
0.000000
  70
    32
  0
VERTEX
  8
AM_VIS
  5
192
 10
12.1956
 20
5.09870
 30
0.000000
  70
    32
  0
VERTEX
  8
AM_VIS
  5
193
 10
12.1952
 20
5.09718
 30
0.000000
  70
    32
  0
VERTEX
  8
AM_VIS
  5
194
 10
12.1949
 20
5.09565
 30
0.000000
  70
    32
  0
VERTEX
  8
AM_VIS
  5
195
 10
12.1946
 20
5.09413
 30
0.000000
  70
    32
  0
VERTEX
  8
AM_VIS
  5
196
 10
12.1943
 20
5.09260
 30
0.000000
  70
    32
  0
VERTEX
  8
AM_VIS
  5
197
 10
12.1940
 20
5.09109
 30
0.000000
  70
    32
  0
VERTEX
  8
AM_VIS
  5
198
 10
12.1937
 20
5.08957
 30
0.000000
  70
    32
  0
VERTEX
  8
AM_VIS
  5
199
 10
12.1933
 20
5.08806
 30
0.000000
  70
    32
  0
VERTEX
  8
AM_VIS
  5
19A
 10
12.1930
 20
5.08655
 30
0.000000
  70
    32
  0
VERTEX
  8
AM_VIS
  5
19B
 10
12.1927
 20
5.08505
 30
0.000000
  70
    32
  0
VERTEX
  8
AM_VIS
  5
19C
 10
12.1923
 20
5.08355
 30
0.000000
  70
    32
  0
VERTEX
  8
AM_VIS
  5
19D
 10
12.1920
 20
5.08205
 30
0.000000
  70
    32
  0
VERTEX
  8
AM_VIS
  5
19E
 10
12.1917
 20
5.08055
 30
0.000000
  70
    32
  0
VERTEX
  8
AM_VIS
  5
19F
 10
12.1913
 20
5.07906
 30
0.000000
  70
    32
  0
VERTEX
  8
AM_VIS
  5
1A0
 10
12.1910
 20
5.07757
 30
0.000000
  70
    32
  0
VERTEX
  8
AM_VIS
  5
1A1
 10
12.1907
 20
5.07608
 30
0.000000
  70
    32
  0
VERTEX
  8
AM_VIS
  5
1A2
 10
12.1903
 20
5.07460
 30
0.000000
  70
    32
  0
VERTEX
  8
AM_VIS
  5
1A3
 10
12.1900
 20
5.07312
 30
0.000000
  70
    32
  0
VERTEX
  8
AM_VIS
  5
1A4
 10
12.1896
 20
5.07164
 30
0.000000
  70
    32
  0
VERTEX
  8
AM_VIS
  5
1A5
 10
12.1893
 20
5.07016
 30
0.000000
  70
    32
  0
VERTEX
  8
AM_VIS
  5
1A6
 10
12.1889
 20
5.06869
 30
0.000000
  70
    32
  0
VERTEX
  8
AM_VIS
  5
1A7
 10
12.1886
 20
5.06722
 30
0.000000
  70
    32
  0
VERTEX
  8
AM_VIS
  5
1A8
 10
12.1882
 20
5.06575
 30
0.000000
  70
    32
  0
VERTEX
  8
AM_VIS
  5
1A9
 10
12.1879
 20
5.06429
 30
0.000000
  70
    32
  0
VERTEX
  8
AM_VIS
  5
1AA
 10
12.1875
 20
5.06282
 30
0.000000
  70
    32
  0
VERTEX
  8
AM_VIS
  5
1AB
 10
12.1871
 20
5.06136
 30
0.000000
  70
    32
  0
VERTEX
  8
AM_VIS
  5
1AC
 10
12.1868
 20
5.05991
 30
0.000000
  70
    32
  0
VERTEX
  8
AM_VIS
  5
1AD
 10
12.1864
 20
5.05845
 30
0.000000
  70
    32
  0
VERTEX
  8
AM_VIS
  5
1AE
 10
12.1861
 20
5.05700
 30
0.000000
  70
    32
  0
VERTEX
  8
AM_VIS
  5
1AF
 10
12.1857
 20
5.05555
 30
0.000000
  70
    32
  0
VERTEX
  8
AM_VIS
  5
1B0
 10
12.1853
 20
5.05410
 30
0.000000
  70
    32
  0
VERTEX
  8
AM_VIS
  5
1B1
 10
12.1850
 20
5.05266
 30
0.000000
  70
    32
  0
VERTEX
  8
AM_VIS
  5
1B2
 10
12.1846
 20
5.05122
 30
0.000000
  70
    32
  0
VERTEX
  8
AM_VIS
  5
1B3
 10
12.1842
 20
5.04978
 30
0.000000
  70
    32
  0
VERTEX
  8
AM_VIS
  5
1B4
 10
12.1839
 20
5.04834
 30
0.000000
  70
    32
  0
VERTEX
  8
AM_VIS
  5
1B5
 10
12.1835
 20
5.04691
 30
0.000000
  70
    32
  0
VERTEX
  8
AM_VIS
  5
1B6
 10
12.1831
 20
5.04548
 30
0.000000
  70
    32
  0
VERTEX
  8
AM_VIS
  5
1B7
 10
12.1827
 20
5.04405
 30
0.000000
  70
    32
  0
VERTEX
  8
AM_VIS
  5
1B8
 10
12.1823
 20
5.04262
 30
0.000000
  70
    32
  0
VERTEX
  8
AM_VIS
  5
1B9
 10
12.1820
 20
5.04119
 30
0.000000
  70
    32
  0
VERTEX
  8
AM_VIS
  5
1BA
 10
12.1816
 20
5.03977
 30
0.000000
  70
    32
  0
VERTEX
  8
AM_VIS
  5
1BB
 10
12.1812
 20
5.03835
 30
0.000000
  70
    32
  0
VERTEX
  8
AM_VIS
  5
1BC
 10
12.1808
 20
5.03693
 30
0.000000
  70
    32
  0
VERTEX
  8
AM_VIS
  5
1BD
 10
12.1804
 20
5.03552
 30
0.000000
  70
    32
  0
VERTEX
  8
AM_VIS
  5
1BE
 10
12.1801
 20
5.03410
 30
0.000000
  70
    32
  0
VERTEX
  8
AM_VIS
  5
1BF
 10
12.1797
 20
5.03269
 30
0.000000
  70
    32
  0
VERTEX
  8
AM_VIS
  5
1C0
 10
12.1793
 20
5.03128
 30
0.000000
  70
    32
  0
VERTEX
  8
AM_VIS
  5
1C1
 10
12.1789
 20
5.02988
 30
0.000000
  70
    32
  0
VERTEX
  8
AM_VIS
  5
1C2
 10
12.1785
 20
5.02847
 30
0.000000
  70
    32
  0
VERTEX
  8
AM_VIS
  5
1C3
 10
12.1781
 20
5.02707
 30
0.000000
  70
    32
  0
VERTEX
  8
AM_VIS
  5
1C4
 10
12.1777
 20
5.02567
 30
0.000000
  70
    32
  0
VERTEX
  8
AM_VIS
  5
1C5
 10
12.1773
 20
5.02427
 30
0.000000
  70
    32
  0
VERTEX
  8
AM_VIS
  5
1C6
 10
12.1770
 20
5.02287
 30
0.000000
  70
    32
  0
VERTEX
  8
AM_VIS
  5
1C7
 10
12.1766
 20
5.02148
 30
0.000000
  70
    32
  0
VERTEX
  8
AM_VIS
  5
1C8
 10
12.1762
 20
5.02009
 30
0.000000
  70
    32
  0
VERTEX
  8
AM_VIS
  5
1C9
 10
12.1758
 20
5.01869
 30
0.000000
  70
    32
  0
VERTEX
  8
AM_VIS
  5
1CA
 10
12.1754
 20
5.01731
 30
0.000000
  70
    32
  0
VERTEX
  8
AM_VIS
  5
1CB
 10
12.1750
 20
5.01592
 30
0.000000
  70
    32
  0
VERTEX
  8
AM_VIS
  5
1CC
 10
12.1746
 20
5.01453
 30
0.000000
  70
    32
  0
VERTEX
  8
AM_VIS
  5
1CD
 10
12.1742
 20
5.01315
 30
0.000000
  70
    32
  0
VERTEX
  8
AM_VIS
  5
1CE
 10
12.1738
 20
5.01177
 30
0.000000
  70
    32
  0
VERTEX
  8
AM_VIS
  5
1CF
 10
12.1734
 20
5.01039
 30
0.000000
  70
    32
  0
VERTEX
  8
AM_VIS
  5
1D0
 10
12.1730
 20
5.00901
 30
0.000000
  70
    32
  0
VERTEX
  8
AM_VIS
  5
1D1
 10
12.1726
 20
5.00764
 30
0.000000
  70
    32
  0
VERTEX
  8
AM_VIS
  5
1D2
 10
12.1722
 20
5.00626
 30
0.000000
  70
    32
  0
VERTEX
  8
AM_VIS
  5
1D3
 10
12.1718
 20
5.00489
 30
0.000000
  70
    32
  0
VERTEX
  8
AM_VIS
  5
1D4
 10
12.1714
 20
5.00352
 30
0.000000
  70
    32
  0
VERTEX
  8
AM_VIS
  5
1D5
 10
12.1710
 20
5.00215
 30
0.000000
  70
    32
  0
VERTEX
  8
AM_VIS
  5
1D6
 10
12.1706
 20
5.00079
 30
0.000000
  70
    32
  0
VERTEX
  8
AM_VIS
  5
1D7
 10
12.1702
 20
4.99942
 30
0.000000
  70
    32
  0
VERTEX
  8
AM_VIS
  5
1D8
 10
12.1698
 20
4.99806
 30
0.000000
  70
    32
  0
VERTEX
  8
AM_VIS
  5
1D9
 10
12.1694
 20
4.99669
 30
0.000000
  70
    32
  0
VERTEX
  8
AM_VIS
  5
1DA
 10
12.1690
 20
4.99533
 30
0.000000
  70
    32
  0
VERTEX
  8
AM_VIS
  5
1DB
 10
12.1686
 20
4.99397
 30
0.000000
  70
    32
  0
VERTEX
  8
AM_VIS
  5
1DC
 10
12.1682
 20
4.99262
 30
0.000000
  70
    32
  0
VERTEX
  8
AM_VIS
  5
1DD
 10
12.1678
 20
4.99126
 30
0.000000
  70
    32
  0
VERTEX
  8
AM_VIS
  5
1DE
 10
12.1674
 20
4.98991
 30
0.000000
  70
    32
  0
VERTEX
  8
AM_VIS
  5
1DF
 10
12.1670
 20
4.98855
 30
0.000000
  70
    32
  0
VERTEX
  8
AM_VIS
  5
1E0
 10
12.1666
 20
4.98720
 30
0.000000
  70
    32
  0
VERTEX
  8
AM_VIS
  5
1E1
 10
12.1661
 20
4.98585
 30
0.000000
  70
    32
  0
VERTEX
  8
AM_VIS
  5
1E2
 10
12.1657
 20
4.98450
 30
0.000000
  70
    32
  0
VERTEX
  8
AM_VIS
  5
1E3
 10
12.1653
 20
4.98315
 30
0.000000
  70
    32
  0
VERTEX
  8
AM_VIS
  5
1E4
 10
12.1649
 20
4.98181
 30
0.000000
  70
    32
  0
VERTEX
  8
AM_VIS
  5
1E5
 10
12.1645
 20
4.98046
 30
0.000000
  70
    32
  0
VERTEX
  8
AM_VIS
  5
1E6
 10
12.1641
 20
4.97912
 30
0.000000
  70
    32
  0
VERTEX
  8
AM_VIS
  5
1E7
 10
12.1637
 20
4.97778
 30
0.000000
  70
    32
  0
VERTEX
  8
AM_VIS
  5
1E8
 10
12.1633
 20
4.97645
 30
0.000000
  70
    32
  0
VERTEX
  8
AM_VIS
  5
1E9
 10
12.1629
 20
4.97511
 30
0.000000
  70
    32
  0
VERTEX
  8
AM_VIS
  5
1EA
 10
12.1625
 20
4.97378
 30
0.000000
  70
    32
  0
VERTEX
  8
AM_VIS
  5
1EB
 10
12.1621
 20
4.97246
 30
0.000000
  70
    32
  0
VERTEX
  8
AM_VIS
  5
1EC
 10
12.1617
 20
4.97113
 30
0.000000
  70
    32
  0
VERTEX
  8
AM_VIS
  5
1ED
 10
12.1613
 20
4.96981
 30
0.000000
  70
    32
  0
VERTEX
  8
AM_VIS
  5
1EE
 10
12.1609
 20
4.96849
 30
0.000000
  70
    32
  0
VERTEX
  8
AM_VIS
  5
1EF
 10
12.1605
 20
4.96717
 30
0.000000
  70
    32
  0
VERTEX
  8
AM_VIS
  5
1F0
 10
12.1601
 20
4.96586
 30
0.000000
  70
    32
  0
VERTEX
  8
AM_VIS
  5
1F1
 10
12.1597
 20
4.96455
 30
0.000000
  70
    32
  0
VERTEX
  8
AM_VIS
  5
1F2
 10
12.1593
 20
4.96324
 30
0.000000
  70
    32
  0
VERTEX
  8
AM_VIS
  5
1F3
 10
12.1589
 20
4.96193
 30
0.000000
  70
    32
  0
VERTEX
  8
AM_VIS
  5
1F4
 10
12.1585
 20
4.96063
 30
0.000000
  70
    32
  0
VERTEX
  8
AM_VIS
  5
1F5
 10
12.1582
 20
4.95933
 30
0.000000
  70
    32
  0
VERTEX
  8
AM_VIS
  5
1F6
 10
12.1578
 20
4.95803
 30
0.000000
  70
    32
  0
VERTEX
  8
AM_VIS
  5
1F7
 10
12.1574
 20
4.95673
 30
0.000000
  70
    32
  0
VERTEX
  8
AM_VIS
  5
1F8
 10
12.1570
 20
4.95544
 30
0.000000
  70
    32
  0
VERTEX
  8
AM_VIS
  5
1F9
 10
12.1566
 20
4.95415
 30
0.000000
  70
    32
  0
VERTEX
  8
AM_VIS
  5
1FA
 10
12.1562
 20
4.95286
 30
0.000000
  70
    32
  0
VERTEX
  8
AM_VIS
  5
1FB
 10
12.1558
 20
4.95158
 30
0.000000
  70
    32
  0
VERTEX
  8
AM_VIS
  5
1FC
 10
12.1554
 20
4.95030
 30
0.000000
  70
    32
  0
VERTEX
  8
AM_VIS
  5
1FD
 10
12.1551
 20
4.94902
 30
0.000000
  70
    32
  0
VERTEX
  8
AM_VIS
  5
1FE
 10
12.1547
 20
4.94774
 30
0.000000
  70
    32
  0
VERTEX
  8
AM_VIS
  5
1FF
 10
12.1543
 20
4.94647
 30
0.000000
  70
    32
  0
VERTEX
  8
AM_VIS
  5
200
 10
12.1539
 20
4.94519
 30
0.000000
  70
    32
  0
VERTEX
  8
AM_VIS
  5
201
 10
12.1535
 20
4.94392
 30
0.000000
  70
    32
  0
VERTEX
  8
AM_VIS
  5
202
 10
12.1532
 20
4.94266
 30
0.000000
  70
    32
  0
VERTEX
  8
AM_VIS
  5
203
 10
12.1528
 20
4.94139
 30
0.000000
  70
    32
  0
VERTEX
  8
AM_VIS
  5
204
 10
12.1524
 20
4.94013
 30
0.000000
  70
    32
  0
VERTEX
  8
AM_VIS
  5
205
 10
12.1520
 20
4.93887
 30
0.000000
  70
    32
  0
VERTEX
  8
AM_VIS
  5
206
 10
12.1517
 20
4.93762
 30
0.000000
  70
    32
  0
VERTEX
  8
AM_VIS
  5
207
 10
12.1513
 20
4.93636
 30
0.000000
  70
    32
  0
VERTEX
  8
AM_VIS
  5
208
 10
12.1509
 20
4.93511
 30
0.000000
  70
    32
  0
VERTEX
  8
AM_VIS
  5
209
 10
12.1506
 20
4.93386
 30
0.000000
  70
    32
  0
VERTEX
  8
AM_VIS
  5
20A
 10
12.1502
 20
4.93262
 30
0.000000
  70
    32
  0
VERTEX
  8
AM_VIS
  5
20B
 10
12.1498
 20
4.93137
 30
0.000000
  70
    32
  0
VERTEX
  8
AM_VIS
  5
20C
 10
12.1495
 20
4.93013
 30
0.000000
  70
    32
  0
VERTEX
  8
AM_VIS
  5
20D
 10
12.1491
 20
4.92889
 30
0.000000
  70
    32
  0
VERTEX
  8
AM_VIS
  5
20E
 10
12.1488
 20
4.92765
 30
0.000000
  70
    32
  0
VERTEX
  8
AM_VIS
  5
20F
 10
12.1484
 20
4.92642
 30
0.000000
  70
    32
  0
VERTEX
  8
AM_VIS
  5
210
 10
12.1480
 20
4.92519
 30
0.000000
  70
    32
  0
VERTEX
  8
AM_VIS
  5
211
 10
12.1477
 20
4.92396
 30
0.000000
  70
    32
  0
VERTEX
  8
AM_VIS
  5
212
 10
12.1473
 20
4.92273
 30
0.000000
  70
    32
  0
VERTEX
  8
AM_VIS
  5
213
 10
12.1470
 20
4.92151
 30
0.000000
  70
    32
  0
VERTEX
  8
AM_VIS
  5
214
 10
12.1466
 20
4.92029
 30
0.000000
  70
    32
  0
VERTEX
  8
AM_VIS
  5
215
 10
12.1463
 20
4.91907
 30
0.000000
  70
    32
  0
VERTEX
  8
AM_VIS
  5
216
 10
12.1459
 20
4.91785
 30
0.000000
  70
    32
  0
VERTEX
  8
AM_VIS
  5
217
 10
12.1456
 20
4.91663
 30
0.000000
  70
    32
  0
VERTEX
  8
AM_VIS
  5
218
 10
12.1453
 20
4.91542
 30
0.000000
  70
    32
  0
VERTEX
  8
AM_VIS
  5
219
 10
12.1449
 20
4.91421
 30
0.000000
  70
    32
  0
VERTEX
  8
AM_VIS
  5
21A
 10
12.1446
 20
4.91300
 30
0.000000
  70
    32
  0
VERTEX
  8
AM_VIS
  5
21B
 10
12.1443
 20
4.91180
 30
0.000000
  70
    32
  0
VERTEX
  8
AM_VIS
  5
21C
 10
12.1439
 20
4.91060
 30
0.000000
  70
    32
  0
VERTEX
  8
AM_VIS
  5
21D
 10
12.1436
 20
4.90940
 30
0.000000
  70
    32
  0
VERTEX
  8
AM_VIS
  5
21E
 10
12.1433
 20
4.90820
 30
0.000000
  70
    32
  0
VERTEX
  8
AM_VIS
  5
21F
 10
12.1430
 20
4.90700
 30
0.000000
  70
    32
  0
VERTEX
  8
AM_VIS
  5
220
 10
12.1426
 20
4.90581
 30
0.000000
  70
    32
  0
VERTEX
  8
AM_VIS
  5
221
 10
12.1423
 20
4.90462
 30
0.000000
  70
    32
  0
VERTEX
  8
AM_VIS
  5
222
 10
12.1420
 20
4.90343
 30
0.000000
  70
    32
  0
VERTEX
  8
AM_VIS
  5
223
 10
12.1417
 20
4.90224
 30
0.000000
  70
    32
  0
VERTEX
  8
AM_VIS
  5
224
 10
12.1414
 20
4.90106
 30
0.000000
  70
    32
  0
VERTEX
  8
AM_VIS
  5
225
 10
12.1411
 20
4.89988
 30
0.000000
  70
    32
  0
VERTEX
  8
AM_VIS
  5
226
 10
12.1407
 20
4.89870
 30
0.000000
  70
    32
  0
VERTEX
  8
AM_VIS
  5
227
 10
12.1404
 20
4.89752
 30
0.000000
  70
    32
  0
VERTEX
  8
AM_VIS
  5
228
 10
12.1401
 20
4.89634
 30
0.000000
  70
    32
  0
VERTEX
  8
AM_VIS
  5
229
 10
12.1398
 20
4.89517
 30
0.000000
  70
    32
  0
VERTEX
  8
AM_VIS
  5
22A
 10
12.1395
 20
4.89400
 30
0.000000
  70
    32
  0
VERTEX
  8
AM_VIS
  5
22B
 10
12.1392
 20
4.89283
 30
0.000000
  70
    32
  0
VERTEX
  8
AM_VIS
  5
22C
 10
12.1389
 20
4.89166
 30
0.000000
  70
    32
  0
VERTEX
  8
AM_VIS
  5
22D
 10
12.1387
 20
4.89050
 30
0.000000
  70
    32
  0
VERTEX
  8
AM_VIS
  5
22E
 10
12.1384
 20
4.88934
 30
0.000000
  70
    32
  0
VERTEX
  8
AM_VIS
  5
22F
 10
12.1381
 20
4.88818
 30
0.000000
  70
    32
  0
VERTEX
  8
AM_VIS
  5
230
 10
12.1378
 20
4.88702
 30
0.000000
  70
    32
  0
VERTEX
  8
AM_VIS
  5
231
 10
12.1375
 20
4.88587
 30
0.000000
  70
    32
  0
VERTEX
  8
AM_VIS
  5
232
 10
12.1372
 20
4.88471
 30
0.000000
  70
    32
  0
VERTEX
  8
AM_VIS
  5
233
 10
12.1370
 20
4.88356
 30
0.000000
  70
    32
  0
VERTEX
  8
AM_VIS
  5
234
 10
12.1367
 20
4.88241
 30
0.000000
  70
    32
  0
VERTEX
  8
AM_VIS
  5
235
 10
12.1364
 20
4.88127
 30
0.000000
  70
    32
  0
VERTEX
  8
AM_VIS
  5
236
 10
12.1362
 20
4.88012
 30
0.000000
  70
    32
  0
VERTEX
  8
AM_VIS
  5
237
 10
12.1359
 20
4.87898
 30
0.000000
  70
    32
  0
VERTEX
  8
AM_VIS
  5
238
 10
12.1356
 20
4.87784
 30
0.000000
  70
    32
  0
VERTEX
  8
AM_VIS
  5
239
 10
12.1354
 20
4.87670
 30
0.000000
  70
    32
  0
VERTEX
  8
AM_VIS
  5
23A
 10
12.1351
 20
4.87556
 30
0.000000
  70
    32
  0
VERTEX
  8
AM_VIS
  5
23B
 10
12.1349
 20
4.87443
 30
0.000000
  70
    32
  0
VERTEX
  8
AM_VIS
  5
23C
 10
12.1346
 20
4.87330
 30
0.000000
  70
    32
  0
VERTEX
  8
AM_VIS
  5
23D
 10
12.1344
 20
4.87217
 30
0.000000
  70
    32
  0
VERTEX
  8
AM_VIS
  5
23E
 10
12.1341
 20
4.87104
 30
0.000000
  70
    32
  0
VERTEX
  8
AM_VIS
  5
23F
 10
12.1339
 20
4.86992
 30
0.000000
  70
    32
  0
VERTEX
  8
AM_VIS
  5
240
 10
12.1337
 20
4.86879
 30
0.000000
  70
    32
  0
VERTEX
  8
AM_VIS
  5
241
 10
12.1334
 20
4.86767
 30
0.000000
  70
    32
  0
VERTEX
  8
AM_VIS
  5
242
 10
12.1332
 20
4.86655
 30
0.000000
  70
    32
  0
VERTEX
  8
AM_VIS
  5
243
 10
12.1330
 20
4.86543
 30
0.000000
  70
    32
  0
VERTEX
  8
AM_VIS
  5
244
 10
12.1328
 20
4.86432
 30
0.000000
  70
    32
  0
VERTEX
  8
AM_VIS
  5
245
 10
12.1325
 20
4.86320
 30
0.000000
  70
    32
  0
VERTEX
  8
AM_VIS
  5
246
 10
12.1323
 20
4.86209
 30
0.000000
  70
    32
  0
VERTEX
  8
AM_VIS
  5
247
 10
12.1321
 20
4.86098
 30
0.000000
  70
    32
  0
VERTEX
  8
AM_VIS
  5
248
 10
12.1319
 20
4.85988
 30
0.000000
  70
    32
  0
VERTEX
  8
AM_VIS
  5
249
 10
12.1317
 20
4.85877
 30
0.000000
  70
    32
  0
VERTEX
  8
AM_VIS
  5
24A
 10
12.1315
 20
4.85767
 30
0.000000
  70
    32
  0
VERTEX
  8
AM_VIS
  5
24B
 10
12.1313
 20
4.85657
 30
0.000000
  70
    32
  0
VERTEX
  8
AM_VIS
  5
24C
 10
12.1311
 20
4.85547
 30
0.000000
  70
    32
  0
VERTEX
  8
AM_VIS
  5
24D
 10
12.1309
 20
4.85437
 30
0.000000
  70
    32
  0
VERTEX
  8
AM_VIS
  5
24E
 10
12.1307
 20
4.85327
 30
0.000000
  70
    32
  0
VERTEX
  8
AM_VIS
  5
24F
 10
12.1305
 20
4.85218
 30
0.000000
  70
    32
  0
VERTEX
  8
AM_VIS
  5
250
 10
12.1304
 20
4.85109
 30
0.000000
  70
    32
  0
VERTEX
  8
AM_VIS
  5
251
 10
12.1302
 20
4.85000
 30
0.000000
  70
    32
  0
VERTEX
  8
AM_VIS
  5
252
 10
12.1300
 20
4.84891
 30
0.000000
  70
    32
  0
VERTEX
  8
AM_VIS
  5
253
 10
12.1298
 20
4.84783
 30
0.000000
  70
    32
  0
VERTEX
  8
AM_VIS
  5
254
 10
12.1297
 20
4.84674
 30
0.000000
  70
    32
  0
VERTEX
  8
AM_VIS
  5
255
 10
12.1295
 20
4.84566
 30
0.000000
  70
    32
  0
VERTEX
  8
AM_VIS
  5
256
 10
12.1294
 20
4.84458
 30
0.000000
  70
    32
  0
VERTEX
  8
AM_VIS
  5
257
 10
12.1292
 20
4.84350
 30
0.000000
  70
    32
  0
VERTEX
  8
AM_VIS
  5
258
 10
12.1290
 20
4.84242
 30
0.000000
  70
    32
  0
VERTEX
  8
AM_VIS
  5
259
 10
12.1289
 20
4.84135
 30
0.000000
  70
    32
  0
VERTEX
  8
AM_VIS
  5
25A
 10
12.1288
 20
4.84028
 30
0.000000
  70
    32
  0
VERTEX
  8
AM_VIS
  5
25B
 10
12.1286
 20
4.83921
 30
0.000000
  70
    32
  0
VERTEX
  8
AM_VIS
  5
25C
 10
12.1285
 20
4.83814
 30
0.000000
  70
    32
  0
VERTEX
  8
AM_VIS
  5
25D
 10
12.1284
 20
4.83707
 30
0.000000
  70
    32
  0
VERTEX
  8
AM_VIS
  5
25E
 10
12.1282
 20
4.83600
 30
0.000000
  70
    32
  0
VERTEX
  8
AM_VIS
  5
25F
 10
12.1281
 20
4.83494
 30
0.000000
  70
    32
  0
VERTEX
  8
AM_VIS
  5
260
 10
12.1280
 20
4.83388
 30
0.000000
  70
    32
  0
VERTEX
  8
AM_VIS
  5
261
 10
12.1279
 20
4.83282
 30
0.000000
  70
    32
  0
VERTEX
  8
AM_VIS
  5
262
 10
12.1278
 20
4.83176
 30
0.000000
  70
    32
  0
VERTEX
  8
AM_VIS
  5
263
 10
12.1277
 20
4.83070
 30
0.000000
  70
    32
  0
VERTEX
  8
AM_VIS
  5
264
 10
12.1276
 20
4.82965
 30
0.000000
  70
    32
  0
VERTEX
  8
AM_VIS
  5
265
 10
12.1275
 20
4.82860
 30
0.000000
  70
    32
  0
VERTEX
  8
AM_VIS
  5
266
 10
12.1274
 20
4.82754
 30
0.000000
  70
    32
  0
VERTEX
  8
AM_VIS
  5
267
 10
12.1273
 20
4.82649
 30
0.000000
  70
    32
  0
VERTEX
  8
AM_VIS
  5
268
 10
12.1272
 20
4.82545
 30
0.000000
  70
    32
  0
VERTEX
  8
AM_VIS
  5
269
 10
12.1271
 20
4.82440
 30
0.000000
  70
    32
  0
VERTEX
  8
AM_VIS
  5
26A
 10
12.1270
 20
4.82336
 30
0.000000
  70
    32
  0
VERTEX
  8
AM_VIS
  5
26B
 10
12.1270
 20
4.82231
 30
0.000000
  70
    32
  0
VERTEX
  8
AM_VIS
  5
26C
 10
12.1269
 20
4.82127
 30
0.000000
  70
    32
  0
VERTEX
  8
AM_VIS
  5
26D
 10
12.1268
 20
4.82023
 30
0.000000
  70
    32
  0
VERTEX
  8
AM_VIS
  5
26E
 10
12.1268
 20
4.81920
 30
0.000000
  70
    32
  0
VERTEX
  8
AM_VIS
  5
26F
 10
12.1267
 20
4.81816
 30
0.000000
  70
    32
  0
VERTEX
  8
AM_VIS
  5
270
 10
12.1267
 20
4.81713
 30
0.000000
  70
    32
  0
VERTEX
  8
AM_VIS
  5
271
 10
12.1266
 20
4.81609
 30
0.000000
  70
    32
  0
VERTEX
  8
AM_VIS
  5
272
 10
12.1266
 20
4.81506
 30
0.000000
  70
    32
  0
VERTEX
  8
AM_VIS
  5
273
 10
12.1266
 20
4.81403
 30
0.000000
  70
    32
  0
VERTEX
  8
AM_VIS
  5
274
 10
12.1265
 20
4.81301
 30
0.000000
  70
    32
  0
VERTEX
  8
AM_VIS
  5
275
 10
12.1265
 20
4.81198
 30
0.000000
  70
    32
  0
VERTEX
  8
AM_VIS
  5
276
 10
12.1265
 20
4.81096
 30
0.000000
  70
    32
  0
VERTEX
  8
AM_VIS
  5
277
 10
12.1265
 20
4.80993
 30
0.000000
  70
    32
  0
VERTEX
  8
AM_VIS
  5
278
 10
12.1265
 20
4.80891
 30
0.000000
  70
    32
  0
VERTEX
  8
AM_VIS
  5
279
 10
12.1264
 20
4.80788
 30
0.000000
  70
    32
  0
VERTEX
  8
AM_VIS
  5
27A
 10
12.1264
 20
4.80686
 30
0.000000
  70
    32
  0
VERTEX
  8
AM_VIS
  5
27B
 10
12.1265
 20
4.80584
 30
0.000000
  70
    32
  0
VERTEX
  8
AM_VIS
  5
27C
 10
12.1265
 20
4.80481
 30
0.000000
  70
    32
  0
VERTEX
  8
AM_VIS
  5
27D
 10
12.1265
 20
4.80379
 30
0.000000
  70
    32
  0
VERTEX
  8
AM_VIS
  5
27E
 10
12.1265
 20
4.80277
 30
0.000000
  70
    32
  0
VERTEX
  8
AM_VIS
  5
27F
 10
12.1265
 20
4.80174
 30
0.000000
  70
    32
  0
VERTEX
  8
AM_VIS
  5
280
 10
12.1265
 20
4.80072
 30
0.000000
  70
    32
  0
VERTEX
  8
AM_VIS
  5
281
 10
12.1266
 20
4.79970
 30
0.000000
  70
    32
  0
VERTEX
  8
AM_VIS
  5
282
 10
12.1266
 20
4.79868
 30
0.000000
  70
    32
  0
VERTEX
  8
AM_VIS
  5
283
 10
12.1267
 20
4.79766
 30
0.000000
  70
    32
  0
VERTEX
  8
AM_VIS
  5
284
 10
12.1267
 20
4.79664
 30
0.000000
  70
    32
  0
VERTEX
  8
AM_VIS
  5
285
 10
12.1268
 20
4.79562
 30
0.000000
  70
    32
  0
VERTEX
  8
AM_VIS
  5
286
 10
12.1268
 20
4.79460
 30
0.000000
  70
    32
  0
VERTEX
  8
AM_VIS
  5
287
 10
12.1269
 20
4.79358
 30
0.000000
  70
    32
  0
VERTEX
  8
AM_VIS
  5
288
 10
12.1270
 20
4.79256
 30
0.000000
  70
    32
  0
VERTEX
  8
AM_VIS
  5
289
 10
12.1271
 20
4.79155
 30
0.000000
  70
    32
  0
VERTEX
  8
AM_VIS
  5
28A
 10
12.1271
 20
4.79053
 30
0.000000
  70
    32
  0
VERTEX
  8
AM_VIS
  5
28B
 10
12.1272
 20
4.78951
 30
0.000000
  70
    32
  0
VERTEX
  8
AM_VIS
  5
28C
 10
12.1273
 20
4.78850
 30
0.000000
  70
    32
  0
VERTEX
  8
AM_VIS
  5
28D
 10
12.1274
 20
4.78748
 30
0.000000
  70
    32
  0
VERTEX
  8
AM_VIS
  5
28E
 10
12.1275
 20
4.78647
 30
0.000000
  70
    32
  0
VERTEX
  8
AM_VIS
  5
28F
 10
12.1277
 20
4.78546
 30
0.000000
  70
    32
  0
VERTEX
  8
AM_VIS
  5
290
 10
12.1278
 20
4.78444
 30
0.000000
  70
    32
  0
VERTEX
  8
AM_VIS
  5
291
 10
12.1279
 20
4.78343
 30
0.000000
  70
    32
  0
VERTEX
  8
AM_VIS
  5
292
 10
12.1280
 20
4.78242
 30
0.000000
  70
    32
  0
VERTEX
  8
AM_VIS
  5
293
 10
12.1282
 20
4.78141
 30
0.000000
  70
    32
  0
VERTEX
  8
AM_VIS
  5
294
 10
12.1283
 20
4.78040
 30
0.000000
  70
    32
  0
VERTEX
  8
AM_VIS
  5
295
 10
12.1285
 20
4.77939
 30
0.000000
  70
    32
  0
VERTEX
  8
AM_VIS
  5
296
 10
12.1286
 20
4.77839
 30
0.000000
  70
    32
  0
VERTEX
  8
AM_VIS
  5
297
 10
12.1288
 20
4.77738
 30
0.000000
  70
    32
  0
VERTEX
  8
AM_VIS
  5
298
 10
12.1290
 20
4.77637
 30
0.000000
  70
    32
  0
VERTEX
  8
AM_VIS
  5
299
 10
12.1291
 20
4.77537
 30
0.000000
  70
    32
  0
VERTEX
  8
AM_VIS
  5
29A
 10
12.1293
 20
4.77437
 30
0.000000
  70
    32
  0
VERTEX
  8
AM_VIS
  5
29B
 10
12.1295
 20
4.77336
 30
0.000000
  70
    32
  0
VERTEX
  8
AM_VIS
  5
29C
 10
12.1297
 20
4.77236
 30
0.000000
  70
    32
  0
VERTEX
  8
AM_VIS
  5
29D
 10
12.1299
 20
4.77136
 30
0.000000
  70
    32
  0
VERTEX
  8
AM_VIS
  5
29E
 10
12.1301
 20
4.77036
 30
0.000000
  70
    32
  0
VERTEX
  8
AM_VIS
  5
29F
 10
12.1303
 20
4.76937
 30
0.000000
  70
    32
  0
VERTEX
  8
AM_VIS
  5
2A0
 10
12.1306
 20
4.76837
 30
0.000000
  70
    32
  0
VERTEX
  8
AM_VIS
  5
2A1
 10
12.1308
 20
4.76737
 30
0.000000
  70
    32
  0
VERTEX
  8
AM_VIS
  5
2A2
 10
12.1310
 20
4.76638
 30
0.000000
  70
    32
  0
VERTEX
  8
AM_VIS
  5
2A3
 10
12.1313
 20
4.76539
 30
0.000000
  70
    32
  0
VERTEX
  8
AM_VIS
  5
2A4
 10
12.1315
 20
4.76440
 30
0.000000
  70
    32
  0
VERTEX
  8
AM_VIS
  5
2A5
 10
12.1318
 20
4.76341
 30
0.000000
  70
    32
  0
VERTEX
  8
AM_VIS
  5
2A6
 10
12.1321
 20
4.76242
 30
0.000000
  70
    32
  0
VERTEX
  8
AM_VIS
  5
2A7
 10
12.1324
 20
4.76143
 30
0.000000
  70
    32
  0
VERTEX
  8
AM_VIS
  5
2A8
 10
12.1326
 20
4.76044
 30
0.000000
  70
    32
  0
VERTEX
  8
AM_VIS
  5
2A9
 10
12.1329
 20
4.75946
 30
0.000000
  70
    32
  0
VERTEX
  8
AM_VIS
  5
2AA
 10
12.1332
 20
4.75847
 30
0.000000
  70
    32
  0
VERTEX
  8
AM_VIS
  5
2AB
 10
12.1335
 20
4.75749
 30
0.000000
  70
    32
  0
VERTEX
  8
AM_VIS
  5
2AC
 10
12.1338
 20
4.75651
 30
0.000000
  70
    32
  0
VERTEX
  8
AM_VIS
  5
2AD
 10
12.1342
 20
4.75553
 30
0.000000
  70
    32
  0
VERTEX
  8
AM_VIS
  5
2AE
 10
12.1345
 20
4.75456
 30
0.000000
  70
    32
  0
VERTEX
  8
AM_VIS
  5
2AF
 10
12.1348
 20
4.75359
 30
0.000000
  70
    32
  0
VERTEX
  8
AM_VIS
  5
2B0
 10
12.1352
 20
4.75262
 30
0.000000
  70
    32
  0
VERTEX
  8
AM_VIS
  5
2B1
 10
12.1355
 20
4.75166
 30
0.000000
  70
    32
  0
VERTEX
  8
AM_VIS
  5
2B2
 10
12.1359
 20
4.75070
 30
0.000000
  70
    32
  0
VERTEX
  8
AM_VIS
  5
2B3
 10
12.1362
 20
4.74975
 30
0.000000
  70
    32
  0
VERTEX
  8
AM_VIS
  5
2B4
 10
12.1366
 20
4.74879
 30
0.000000
  70
    32
  0
VERTEX
  8
AM_VIS
  5
2B5
 10
12.1370
 20
4.74784
 30
0.000000
  70
    32
  0
VERTEX
  8
AM_VIS
  5
2B6
 10
12.1374
 20
4.74690
 30
0.000000
  70
    32
  0
VERTEX
  8
AM_VIS
  5
2B7
 10
12.1377
 20
4.74596
 30
0.000000
  70
    32
  0
VERTEX
  8
AM_VIS
  5
2B8
 10
12.1381
 20
4.74502
 30
0.000000
  70
    32
  0
VERTEX
  8
AM_VIS
  5
2B9
 10
12.1386
 20
4.74408
 30
0.000000
  70
    32
  0
VERTEX
  8
AM_VIS
  5
2BA
 10
12.1390
 20
4.74315
 30
0.000000
  70
    32
  0
VERTEX
  8
AM_VIS
  5
2BB
 10
12.1394
 20
4.74222
 30
0.000000
  70
    32
  0
VERTEX
  8
AM_VIS
  5
2BC
 10
12.1398
 20
4.74130
 30
0.000000
  70
    32
  0
VERTEX
  8
AM_VIS
  5
2BD
 10
12.1402
 20
4.74038
 30
0.000000
  70
    32
  0
VERTEX
  8
AM_VIS
  5
2BE
 10
12.1407
 20
4.73946
 30
0.000000
  70
    32
  0
VERTEX
  8
AM_VIS
  5
2BF
 10
12.1411
 20
4.73855
 30
0.000000
  70
    32
  0
VERTEX
  8
AM_VIS
  5
2C0
 10
12.1416
 20
4.73764
 30
0.000000
  70
    32
  0
VERTEX
  8
AM_VIS
  5
2C1
 10
12.1420
 20
4.73673
 30
0.000000
  70
    32
  0
VERTEX
  8
AM_VIS
  5
2C2
 10
12.1425
 20
4.73583
 30
0.000000
  70
    32
  0
VERTEX
  8
AM_VIS
  5
2C3
 10
12.1430
 20
4.73493
 30
0.000000
  70
    32
  0
VERTEX
  8
AM_VIS
  5
2C4
 10
12.1435
 20
4.73403
 30
0.000000
  70
    32
  0
VERTEX
  8
AM_VIS
  5
2C5
 10
12.1440
 20
4.73314
 30
0.000000
  70
    32
  0
VERTEX
  8
AM_VIS
  5
2C6
 10
12.1445
 20
4.73225
 30
0.000000
  70
    32
  0
VERTEX
  8
AM_VIS
  5
2C7
 10
12.1450
 20
4.73137
 30
0.000000
  70
    32
  0
SEQEND
  8
AM_VIS
  5
2C8
  0
ARC
  5
2C
  8
AM_HID
 10
30.020032971348659
 20
12.52557298330775
 30
0.0
 40
19.305474277934248
 50
206.5077833299552
 51
207.76117397063979
  0
POLYLINE
  8
AM_HID
  5
2C9
  66
     1
 10
0.000000
 20
0.000000
 30
0.000000
  70
     8
  0
VERTEX
  8
AM_HID
  5
2CA
 10
12.7441
 20
3.90917
 30
0.000000
  70
    32
  0
VERTEX
  8
AM_HID
  5
2CB
 10
12.7427
 20
3.91190
 30
0.000000
  70
    32
  0
VERTEX
  8
AM_HID
  5
2CC
 10
12.7414
 20
3.91464
 30
0.000000
  70
    32
  0
VERTEX
  8
AM_HID
  5
2CD
 10
12.7400
 20
3.91737
 30
0.000000
  70
    32
  0
VERTEX
  8
AM_HID
  5
2CE
 10
12.7386
 20
3.92011
 30
0.000000
  70
    32
  0
VERTEX
  8
AM_HID
  5
2CF
 10
12.7373
 20
3.92285
 30
0.000000
  70
    32
  0
VERTEX
  8
AM_HID
  5
2D0
 10
12.7359
 20
3.92559
 30
0.000000
  70
    32
  0
VERTEX
  8
AM_HID
  5
2D1
 10
12.7346
 20
3.92833
 30
0.000000
  70
    32
  0
VERTEX
  8
AM_HID
  5
2D2
 10
12.7332
 20
3.93107
 30
0.000000
  70
    32
  0
VERTEX
  8
AM_HID
  5
2D3
 10
12.7319
 20
3.93382
 30
0.000000
  70
    32
  0
VERTEX
  8
AM_HID
  5
2D4
 10
12.7305
 20
3.93656
 30
0.000000
  70
    32
  0
VERTEX
  8
AM_HID
  5
2D5
 10
12.7291
 20
3.93930
 30
0.000000
  70
    32
  0
VERTEX
  8
AM_HID
  5
2D6
 10
12.7278
 20
3.94205
 30
0.000000
  70
    32
  0
VERTEX
  8
AM_HID
  5
2D7
 10
12.7264
 20
3.94479
 30
0.000000
  70
    32
  0
VERTEX
  8
AM_HID
  5
2D8
 10
12.7251
 20
3.94753
 30
0.000000
  70
    32
  0
VERTEX
  8
AM_HID
  5
2D9
 10
12.7237
 20
3.95028
 30
0.000000
  70
    32
  0
VERTEX
  8
AM_HID
  5
2DA
 10
12.7224
 20
3.95302
 30
0.000000
  70
    32
  0
VERTEX
  8
AM_HID
  5
2DB
 10
12.7210
 20
3.95576
 30
0.000000
  70
    32
  0
VERTEX
  8
AM_HID
  5
2DC
 10
12.7197
 20
3.95850
 30
0.000000
  70
    32
  0
VERTEX
  8
AM_HID
  5
2DD
 10
12.7183
 20
3.96125
 30
0.000000
  70
    32
  0
VERTEX
  8
AM_HID
  5
2DE
 10
12.7170
 20
3.96399
 30
0.000000
  70
    32
  0
VERTEX
  8
AM_HID
  5
2DF
 10
12.7156
 20
3.96672
 30
0.000000
  70
    32
  0
VERTEX
  8
AM_HID
  5
2E0
 10
12.7143
 20
3.96946
 30
0.000000
  70
    32
  0
VERTEX
  8
AM_HID
  5
2E1
 10
12.7130
 20
3.97220
 30
0.000000
  70
    32
  0
VERTEX
  8
AM_HID
  5
2E2
 10
12.7116
 20
3.97493
 30
0.000000
  70
    32
  0
VERTEX
  8
AM_HID
  5
2E3
 10
12.7103
 20
3.97767
 30
0.000000
  70
    32
  0
VERTEX
  8
AM_HID
  5
2E4
 10
12.7089
 20
3.98040
 30
0.000000
  70
    32
  0
VERTEX
  8
AM_HID
  5
2E5
 10
12.7076
 20
3.98313
 30
0.000000
  70
    32
  0
VERTEX
  8
AM_HID
  5
2E6
 10
12.7063
 20
3.98586
 30
0.000000
  70
    32
  0
VERTEX
  8
AM_HID
  5
2E7
 10
12.7049
 20
3.98858
 30
0.000000
  70
    32
  0
VERTEX
  8
AM_HID
  5
2E8
 10
12.7036
 20
3.99130
 30
0.000000
  70
    32
  0
VERTEX
  8
AM_HID
  5
2E9
 10
12.7023
 20
3.99403
 30
0.000000
  70
    32
  0
VERTEX
  8
AM_HID
  5
2EA
 10
12.7009
 20
3.99674
 30
0.000000
  70
    32
  0
VERTEX
  8
AM_HID
  5
2EB
 10
12.6996
 20
3.99946
 30
0.000000
  70
    32
  0
VERTEX
  8
AM_HID
  5
2EC
 10
12.6983
 20
4.00217
 30
0.000000
  70
    32
  0
VERTEX
  8
AM_HID
  5
2ED
 10
12.6970
 20
4.00488
 30
0.000000
  70
    32
  0
VERTEX
  8
AM_HID
  5
2EE
 10
12.6957
 20
4.00759
 30
0.000000
  70
    32
  0
VERTEX
  8
AM_HID
  5
2EF
 10
12.6944
 20
4.01029
 30
0.000000
  70
    32
  0
VERTEX
  8
AM_HID
  5
2F0
 10
12.6930
 20
4.01299
 30
0.000000
  70
    32
  0
VERTEX
  8
AM_HID
  5
2F1
 10
12.6917
 20
4.01570
 30
0.000000
  70
    32
  0
VERTEX
  8
AM_HID
  5
2F2
 10
12.6904
 20
4.01841
 30
0.000000
  70
    32
  0
VERTEX
  8
AM_HID
  5
2F3
 10
12.6891
 20
4.02114
 30
0.000000
  70
    32
  0
VERTEX
  8
AM_HID
  5
2F4
 10
12.6878
 20
4.02387
 30
0.000000
  70
    32
  0
VERTEX
  8
AM_HID
  5
2F5
 10
12.6864
 20
4.02662
 30
0.000000
  70
    32
  0
VERTEX
  8
AM_HID
  5
2F6
 10
12.6851
 20
4.02937
 30
0.000000
  70
    32
  0
VERTEX
  8
AM_HID
  5
2F7
 10
12.6838
 20
4.03213
 30
0.000000
  70
    32
  0
VERTEX
  8
AM_HID
  5
2F8
 10
12.6824
 20
4.03490
 30
0.000000
  70
    32
  0
VERTEX
  8
AM_HID
  5
2F9
 10
12.6811
 20
4.03768
 30
0.000000
  70
    32
  0
VERTEX
  8
AM_HID
  5
2FA
 10
12.6797
 20
4.04046
 30
0.000000
  70
    32
  0
VERTEX
  8
AM_HID
  5
2FB
 10
12.6784
 20
4.04326
 30
0.000000
  70
    32
  0
VERTEX
  8
AM_HID
  5
2FC
 10
12.6770
 20
4.04606
 30
0.000000
  70
    32
  0
VERTEX
  8
AM_HID
  5
2FD
 10
12.6757
 20
4.04887
 30
0.000000
  70
    32
  0
VERTEX
  8
AM_HID
  5
2FE
 10
12.6743
 20
4.05169
 30
0.000000
  70
    32
  0
VERTEX
  8
AM_HID
  5
2FF
 10
12.6730
 20
4.05452
 30
0.000000
  70
    32
  0
VERTEX
  8
AM_HID
  5
300
 10
12.6716
 20
4.05735
 30
0.000000
  70
    32
  0
VERTEX
  8
AM_HID
  5
301
 10
12.6702
 20
4.06020
 30
0.000000
  70
    32
  0
VERTEX
  8
AM_HID
  5
302
 10
12.6689
 20
4.06305
 30
0.000000
  70
    32
  0
VERTEX
  8
AM_HID
  5
303
 10
12.6675
 20
4.06591
 30
0.000000
  70
    32
  0
VERTEX
  8
AM_HID
  5
304
 10
12.6661
 20
4.06877
 30
0.000000
  70
    32
  0
VERTEX
  8
AM_HID
  5
305
 10
12.6648
 20
4.07165
 30
0.000000
  70
    32
  0
VERTEX
  8
AM_HID
  5
306
 10
12.6634
 20
4.07453
 30
0.000000
  70
    32
  0
VERTEX
  8
AM_HID
  5
307
 10
12.6620
 20
4.07742
 30
0.000000
  70
    32
  0
VERTEX
  8
AM_HID
  5
308
 10
12.6606
 20
4.08031
 30
0.000000
  70
    32
  0
VERTEX
  8
AM_HID
  5
309
 10
12.6592
 20
4.08322
 30
0.000000
  70
    32
  0
VERTEX
  8
AM_HID
  5
30A
 10
12.6579
 20
4.08613
 30
0.000000
  70
    32
  0
VERTEX
  8
AM_HID
  5
30B
 10
12.6565
 20
4.08905
 30
0.000000
  70
    32
  0
VERTEX
  8
AM_HID
  5
30C
 10
12.6551
 20
4.09197
 30
0.000000
  70
    32
  0
VERTEX
  8
AM_HID
  5
30D
 10
12.6537
 20
4.09491
 30
0.000000
  70
    32
  0
VERTEX
  8
AM_HID
  5
30E
 10
12.6523
 20
4.09785
 30
0.000000
  70
    32
  0
VERTEX
  8
AM_HID
  5
30F
 10
12.6509
 20
4.10079
 30
0.000000
  70
    32
  0
VERTEX
  8
AM_HID
  5
310
 10
12.6495
 20
4.10375
 30
0.000000
  70
    32
  0
VERTEX
  8
AM_HID
  5
311
 10
12.6481
 20
4.10671
 30
0.000000
  70
    32
  0
VERTEX
  8
AM_HID
  5
312
 10
12.6467
 20
4.10968
 30
0.000000
  70
    32
  0
VERTEX
  8
AM_HID
  5
313
 10
12.6453
 20
4.11265
 30
0.000000
  70
    32
  0
VERTEX
  8
AM_HID
  5
314
 10
12.6439
 20
4.11563
 30
0.000000
  70
    32
  0
VERTEX
  8
AM_HID
  5
315
 10
12.6425
 20
4.11862
 30
0.000000
  70
    32
  0
VERTEX
  8
AM_HID
  5
316
 10
12.6410
 20
4.12161
 30
0.000000
  70
    32
  0
VERTEX
  8
AM_HID
  5
317
 10
12.6396
 20
4.12461
 30
0.000000
  70
    32
  0
VERTEX
  8
AM_HID
  5
318
 10
12.6382
 20
4.12761
 30
0.000000
  70
    32
  0
VERTEX
  8
AM_HID
  5
319
 10
12.6368
 20
4.13063
 30
0.000000
  70
    32
  0
VERTEX
  8
AM_HID
  5
31A
 10
12.6354
 20
4.13364
 30
0.000000
  70
    32
  0
VERTEX
  8
AM_HID
  5
31B
 10
12.6340
 20
4.13667
 30
0.000000
  70
    32
  0
VERTEX
  8
AM_HID
  5
31C
 10
12.6325
 20
4.13970
 30
0.000000
  70
    32
  0
VERTEX
  8
AM_HID
  5
31D
 10
12.6311
 20
4.14273
 30
0.000000
  70
    32
  0
VERTEX
  8
AM_HID
  5
31E
 10
12.6297
 20
4.14578
 30
0.000000
  70
    32
  0
VERTEX
  8
AM_HID
  5
31F
 10
12.6283
 20
4.14882
 30
0.000000
  70
    32
  0
VERTEX
  8
AM_HID
  5
320
 10
12.6269
 20
4.15188
 30
0.000000
  70
    32
  0
VERTEX
  8
AM_HID
  5
321
 10
12.6254
 20
4.15493
 30
0.000000
  70
    32
  0
VERTEX
  8
AM_HID
  5
322
 10
12.6240
 20
4.15800
 30
0.000000
  70
    32
  0
VERTEX
  8
AM_HID
  5
323
 10
12.6226
 20
4.16107
 30
0.000000
  70
    32
  0
VERTEX
  8
AM_HID
  5
324
 10
12.6211
 20
4.16414
 30
0.000000
  70
    32
  0
VERTEX
  8
AM_HID
  5
325
 10
12.6197
 20
4.16722
 30
0.000000
  70
    32
  0
VERTEX
  8
AM_HID
  5
326
 10
12.6183
 20
4.17031
 30
0.000000
  70
    32
  0
VERTEX
  8
AM_HID
  5
327
 10
12.6169
 20
4.17340
 30
0.000000
  70
    32
  0
VERTEX
  8
AM_HID
  5
328
 10
12.6154
 20
4.17650
 30
0.000000
  70
    32
  0
VERTEX
  8
AM_HID
  5
329
 10
12.6140
 20
4.17960
 30
0.000000
  70
    32
  0
VERTEX
  8
AM_HID
  5
32A
 10
12.6126
 20
4.18270
 30
0.000000
  70
    32
  0
VERTEX
  8
AM_HID
  5
32B
 10
12.6111
 20
4.18581
 30
0.000000
  70
    32
  0
VERTEX
  8
AM_HID
  5
32C
 10
12.6097
 20
4.18893
 30
0.000000
  70
    32
  0
VERTEX
  8
AM_HID
  5
32D
 10
12.6083
 20
4.19205
 30
0.000000
  70
    32
  0
VERTEX
  8
AM_HID
  5
32E
 10
12.6068
 20
4.19517
 30
0.000000
  70
    32
  0
VERTEX
  8
AM_HID
  5
32F
 10
12.6054
 20
4.19830
 30
0.000000
  70
    32
  0
VERTEX
  8
AM_HID
  5
330
 10
12.6039
 20
4.20144
 30
0.000000
  70
    32
  0
VERTEX
  8
AM_HID
  5
331
 10
12.6025
 20
4.20458
 30
0.000000
  70
    32
  0
VERTEX
  8
AM_HID
  5
332
 10
12.6011
 20
4.20772
 30
0.000000
  70
    32
  0
VERTEX
  8
AM_HID
  5
333
 10
12.5996
 20
4.21087
 30
0.000000
  70
    32
  0
VERTEX
  8
AM_HID
  5
334
 10
12.5982
 20
4.21402
 30
0.000000
  70
    32
  0
VERTEX
  8
AM_HID
  5
335
 10
12.5968
 20
4.21717
 30
0.000000
  70
    32
  0
VERTEX
  8
AM_HID
  5
336
 10
12.5953
 20
4.22033
 30
0.000000
  70
    32
  0
VERTEX
  8
AM_HID
  5
337
 10
12.5939
 20
4.22350
 30
0.000000
  70
    32
  0
VERTEX
  8
AM_HID
  5
338
 10
12.5925
 20
4.22666
 30
0.000000
  70
    32
  0
VERTEX
  8
AM_HID
  5
339
 10
12.5910
 20
4.22983
 30
0.000000
  70
    32
  0
VERTEX
  8
AM_HID
  5
33A
 10
12.5896
 20
4.23301
 30
0.000000
  70
    32
  0
VERTEX
  8
AM_HID
  5
33B
 10
12.5881
 20
4.23619
 30
0.000000
  70
    32
  0
VERTEX
  8
AM_HID
  5
33C
 10
12.5867
 20
4.23937
 30
0.000000
  70
    32
  0
VERTEX
  8
AM_HID
  5
33D
 10
12.5853
 20
4.24256
 30
0.000000
  70
    32
  0
VERTEX
  8
AM_HID
  5
33E
 10
12.5838
 20
4.24574
 30
0.000000
  70
    32
  0
VERTEX
  8
AM_HID
  5
33F
 10
12.5824
 20
4.24894
 30
0.000000
  70
    32
  0
VERTEX
  8
AM_HID
  5
340
 10
12.5810
 20
4.25213
 30
0.000000
  70
    32
  0
VERTEX
  8
AM_HID
  5
341
 10
12.5795
 20
4.25533
 30
0.000000
  70
    32
  0
VERTEX
  8
AM_HID
  5
342
 10
12.5781
 20
4.25853
 30
0.000000
  70
    32
  0
VERTEX
  8
AM_HID
  5
343
 10
12.5767
 20
4.26174
 30
0.000000
  70
    32
  0
VERTEX
  8
AM_HID
  5
344
 10
12.5752
 20
4.26495
 30
0.000000
  70
    32
  0
VERTEX
  8
AM_HID
  5
345
 10
12.5738
 20
4.26816
 30
0.000000
  70
    32
  0
VERTEX
  8
AM_HID
  5
346
 10
12.5724
 20
4.27137
 30
0.000000
  70
    32
  0
VERTEX
  8
AM_HID
  5
347
 10
12.5709
 20
4.27459
 30
0.000000
  70
    32
  0
VERTEX
  8
AM_HID
  5
348
 10
12.5695
 20
4.27781
 30
0.000000
  70
    32
  0
VERTEX
  8
AM_HID
  5
349
 10
12.5681
 20
4.28103
 30
0.000000
  70
    32
  0
VERTEX
  8
AM_HID
  5
34A
 10
12.5667
 20
4.28426
 30
0.000000
  70
    32
  0
VERTEX
  8
AM_HID
  5
34B
 10
12.5652
 20
4.28749
 30
0.000000
  70
    32
  0
VERTEX
  8
AM_HID
  5
34C
 10
12.5638
 20
4.29072
 30
0.000000
  70
    32
  0
VERTEX
  8
AM_HID
  5
34D
 10
12.5624
 20
4.29395
 30
0.000000
  70
    32
  0
VERTEX
  8
AM_HID
  5
34E
 10
12.5610
 20
4.29718
 30
0.000000
  70
    32
  0
VERTEX
  8
AM_HID
  5
34F
 10
12.5595
 20
4.30042
 30
0.000000
  70
    32
  0
VERTEX
  8
AM_HID
  5
350
 10
12.5581
 20
4.30366
 30
0.000000
  70
    32
  0
VERTEX
  8
AM_HID
  5
351
 10
12.5567
 20
4.30690
 30
0.000000
  70
    32
  0
VERTEX
  8
AM_HID
  5
352
 10
12.5553
 20
4.31014
 30
0.000000
  70
    32
  0
VERTEX
  8
AM_HID
  5
353
 10
12.5539
 20
4.31339
 30
0.000000
  70
    32
  0
VERTEX
  8
AM_HID
  5
354
 10
12.5525
 20
4.31663
 30
0.000000
  70
    32
  0
VERTEX
  8
AM_HID
  5
355
 10
12.5510
 20
4.31988
 30
0.000000
  70
    32
  0
VERTEX
  8
AM_HID
  5
356
 10
12.5496
 20
4.32313
 30
0.000000
  70
    32
  0
VERTEX
  8
AM_HID
  5
357
 10
12.5482
 20
4.32638
 30
0.000000
  70
    32
  0
VERTEX
  8
AM_HID
  5
358
 10
12.5468
 20
4.32963
 30
0.000000
  70
    32
  0
VERTEX
  8
AM_HID
  5
359
 10
12.5454
 20
4.33289
 30
0.000000
  70
    32
  0
VERTEX
  8
AM_HID
  5
35A
 10
12.5440
 20
4.33614
 30
0.000000
  70
    32
  0
VERTEX
  8
AM_HID
  5
35B
 10
12.5426
 20
4.33940
 30
0.000000
  70
    32
  0
VERTEX
  8
AM_HID
  5
35C
 10
12.5412
 20
4.34266
 30
0.000000
  70
    32
  0
VERTEX
  8
AM_HID
  5
35D
 10
12.5398
 20
4.34591
 30
0.000000
  70
    32
  0
VERTEX
  8
AM_HID
  5
35E
 10
12.5384
 20
4.34917
 30
0.000000
  70
    32
  0
VERTEX
  8
AM_HID
  5
35F
 10
12.5370
 20
4.35243
 30
0.000000
  70
    32
  0
VERTEX
  8
AM_HID
  5
360
 10
12.5357
 20
4.35569
 30
0.000000
  70
    32
  0
VERTEX
  8
AM_HID
  5
361
 10
12.5343
 20
4.35895
 30
0.000000
  70
    32
  0
VERTEX
  8
AM_HID
  5
362
 10
12.5329
 20
4.36221
 30
0.000000
  70
    32
  0
VERTEX
  8
AM_HID
  5
363
 10
12.5315
 20
4.36548
 30
0.000000
  70
    32
  0
VERTEX
  8
AM_HID
  5
364
 10
12.5301
 20
4.36874
 30
0.000000
  70
    32
  0
VERTEX
  8
AM_HID
  5
365
 10
12.5287
 20
4.37200
 30
0.000000
  70
    32
  0
VERTEX
  8
AM_HID
  5
366
 10
12.5274
 20
4.37526
 30
0.000000
  70
    32
  0
VERTEX
  8
AM_HID
  5
367
 10
12.5260
 20
4.37852
 30
0.000000
  70
    32
  0
VERTEX
  8
AM_HID
  5
368
 10
12.5246
 20
4.38179
 30
0.000000
  70
    32
  0
VERTEX
  8
AM_HID
  5
369
 10
12.5233
 20
4.38505
 30
0.000000
  70
    32
  0
VERTEX
  8
AM_HID
  5
36A
 10
12.5219
 20
4.38831
 30
0.000000
  70
    32
  0
VERTEX
  8
AM_HID
  5
36B
 10
12.5205
 20
4.39157
 30
0.000000
  70
    32
  0
VERTEX
  8
AM_HID
  5
36C
 10
12.5192
 20
4.39484
 30
0.000000
  70
    32
  0
VERTEX
  8
AM_HID
  5
36D
 10
12.5178
 20
4.39810
 30
0.000000
  70
    32
  0
VERTEX
  8
AM_HID
  5
36E
 10
12.5165
 20
4.40136
 30
0.000000
  70
    32
  0
VERTEX
  8
AM_HID
  5
36F
 10
12.5151
 20
4.40462
 30
0.000000
  70
    32
  0
VERTEX
  8
AM_HID
  5
370
 10
12.5138
 20
4.40788
 30
0.000000
  70
    32
  0
VERTEX
  8
AM_HID
  5
371
 10
12.5124
 20
4.41114
 30
0.000000
  70
    32
  0
VERTEX
  8
AM_HID
  5
372
 10
12.5111
 20
4.41440
 30
0.000000
  70
    32
  0
VERTEX
  8
AM_HID
  5
373
 10
12.5098
 20
4.41765
 30
0.000000
  70
    32
  0
VERTEX
  8
AM_HID
  5
374
 10
12.5084
 20
4.42091
 30
0.000000
  70
    32
  0
VERTEX
  8
AM_HID
  5
375
 10
12.5071
 20
4.42417
 30
0.000000
  70
    32
  0
VERTEX
  8
AM_HID
  5
376
 10
12.5058
 20
4.42742
 30
0.000000
  70
    32
  0
VERTEX
  8
AM_HID
  5
377
 10
12.5045
 20
4.43067
 30
0.000000
  70
    32
  0
VERTEX
  8
AM_HID
  5
378
 10
12.5032
 20
4.43392
 30
0.000000
  70
    32
  0
VERTEX
  8
AM_HID
  5
379
 10
12.5018
 20
4.43717
 30
0.000000
  70
    32
  0
VERTEX
  8
AM_HID
  5
37A
 10
12.5005
 20
4.44042
 30
0.000000
  70
    32
  0
VERTEX
  8
AM_HID
  5
37B
 10
12.4992
 20
4.44367
 30
0.000000
  70
    32
  0
VERTEX
  8
AM_HID
  5
37C
 10
12.4979
 20
4.44691
 30
0.000000
  70
    32
  0
VERTEX
  8
AM_HID
  5
37D
 10
12.4966
 20
4.45016
 30
0.000000
  70
    32
  0
VERTEX
  8
AM_HID
  5
37E
 10
12.4953
 20
4.45340
 30
0.000000
  70
    32
  0
VERTEX
  8
AM_HID
  5
37F
 10
12.4940
 20
4.45664
 30
0.000000
  70
    32
  0
VERTEX
  8
AM_HID
  5
380
 10
12.4927
 20
4.45988
 30
0.000000
  70
    32
  0
VERTEX
  8
AM_HID
  5
381
 10
12.4915
 20
4.46311
 30
0.000000
  70
    32
  0
VERTEX
  8
AM_HID
  5
382
 10
12.4902
 20
4.46635
 30
0.000000
  70
    32
  0
VERTEX
  8
AM_HID
  5
383
 10
12.4889
 20
4.46958
 30
0.000000
  70
    32
  0
VERTEX
  8
AM_HID
  5
384
 10
12.4876
 20
4.47280
 30
0.000000
  70
    32
  0
VERTEX
  8
AM_HID
  5
385
 10
12.4864
 20
4.47603
 30
0.000000
  70
    32
  0
VERTEX
  8
AM_HID
  5
386
 10
12.4851
 20
4.47925
 30
0.000000
  70
    32
  0
VERTEX
  8
AM_HID
  5
387
 10
12.4839
 20
4.48248
 30
0.000000
  70
    32
  0
VERTEX
  8
AM_HID
  5
388
 10
12.4826
 20
4.48569
 30
0.000000
  70
    32
  0
VERTEX
  8
AM_HID
  5
389
 10
12.4814
 20
4.48891
 30
0.000000
  70
    32
  0
VERTEX
  8
AM_HID
  5
38A
 10
12.4801
 20
4.49212
 30
0.000000
  70
    32
  0
VERTEX
  8
AM_HID
  5
38B
 10
12.4789
 20
4.49533
 30
0.000000
  70
    32
  0
VERTEX
  8
AM_HID
  5
38C
 10
12.4776
 20
4.49854
 30
0.000000
  70
    32
  0
VERTEX
  8
AM_HID
  5
38D
 10
12.4764
 20
4.50174
 30
0.000000
  70
    32
  0
VERTEX
  8
AM_HID
  5
38E
 10
12.4752
 20
4.50494
 30
0.000000
  70
    32
  0
VERTEX
  8
AM_HID
  5
38F
 10
12.4740
 20
4.50814
 30
0.000000
  70
    32
  0
VERTEX
  8
AM_HID
  5
390
 10
12.4728
 20
4.51133
 30
0.000000
  70
    32
  0
VERTEX
  8
AM_HID
  5
391
 10
12.4715
 20
4.51452
 30
0.000000
  70
    32
  0
VERTEX
  8
AM_HID
  5
392
 10
12.4703
 20
4.51771
 30
0.000000
  70
    32
  0
VERTEX
  8
AM_HID
  5
393
 10
12.4691
 20
4.52089
 30
0.000000
  70
    32
  0
VERTEX
  8
AM_HID
  5
394
 10
12.4679
 20
4.52407
 30
0.000000
  70
    32
  0
VERTEX
  8
AM_HID
  5
395
 10
12.4668
 20
4.52725
 30
0.000000
  70
    32
  0
VERTEX
  8
AM_HID
  5
396
 10
12.4656
 20
4.53042
 30
0.000000
  70
    32
  0
VERTEX
  8
AM_HID
  5
397
 10
12.4644
 20
4.53359
 30
0.000000
  70
    32
  0
VERTEX
  8
AM_HID
  5
398
 10
12.4632
 20
4.53675
 30
0.000000
  70
    32
  0
VERTEX
  8
AM_HID
  5
399
 10
12.4621
 20
4.53991
 30
0.000000
  70
    32
  0
VERTEX
  8
AM_HID
  5
39A
 10
12.4609
 20
4.54307
 30
0.000000
  70
    32
  0
VERTEX
  8
AM_HID
  5
39B
 10
12.4597
 20
4.54622
 30
0.000000
  70
    32
  0
VERTEX
  8
AM_HID
  5
39C
 10
12.4586
 20
4.54936
 30
0.000000
  70
    32
  0
VERTEX
  8
AM_HID
  5
39D
 10
12.4574
 20
4.55251
 30
0.000000
  70
    32
  0
VERTEX
  8
AM_HID
  5
39E
 10
12.4563
 20
4.55565
 30
0.000000
  70
    32
  0
VERTEX
  8
AM_HID
  5
39F
 10
12.4552
 20
4.55881
 30
0.000000
  70
    32
  0
VERTEX
  8
AM_HID
  5
3A0
 10
12.4540
 20
4.56197
 30
0.000000
  70
    32
  0
VERTEX
  8
AM_HID
  5
3A1
 10
12.4529
 20
4.56515
 30
0.000000
  70
    32
  0
VERTEX
  8
AM_HID
  5
3A2
 10
12.4517
 20
4.56834
 30
0.000000
  70
    32
  0
VERTEX
  8
AM_HID
  5
3A3
 10
12.4506
 20
4.57154
 30
0.000000
  70
    32
  0
VERTEX
  8
AM_HID
  5
3A4
 10
12.4494
 20
4.57474
 30
0.000000
  70
    32
  0
VERTEX
  8
AM_HID
  5
3A5
 10
12.4483
 20
4.57796
 30
0.000000
  70
    32
  0
VERTEX
  8
AM_HID
  5
3A6
 10
12.4472
 20
4.58119
 30
0.000000
  70
    32
  0
VERTEX
  8
AM_HID
  5
3A7
 10
12.4460
 20
4.58443
 30
0.000000
  70
    32
  0
VERTEX
  8
AM_HID
  5
3A8
 10
12.4449
 20
4.58768
 30
0.000000
  70
    32
  0
VERTEX
  8
AM_HID
  5
3A9
 10
12.4437
 20
4.59094
 30
0.000000
  70
    32
  0
VERTEX
  8
AM_HID
  5
3AA
 10
12.4426
 20
4.59421
 30
0.000000
  70
    32
  0
VERTEX
  8
AM_HID
  5
3AB
 10
12.4415
 20
4.59749
 30
0.000000
  70
    32
  0
VERTEX
  8
AM_HID
  5
3AC
 10
12.4403
 20
4.60078
 30
0.000000
  70
    32
  0
VERTEX
  8
AM_HID
  5
3AD
 10
12.4392
 20
4.60408
 30
0.000000
  70
    32
  0
VERTEX
  8
AM_HID
  5
3AE
 10
12.4381
 20
4.60739
 30
0.000000
  70
    32
  0
VERTEX
  8
AM_HID
  5
3AF
 10
12.4369
 20
4.61070
 30
0.000000
  70
    32
  0
VERTEX
  8
AM_HID
  5
3B0
 10
12.4358
 20
4.61403
 30
0.000000
  70
    32
  0
VERTEX
  8
AM_HID
  5
3B1
 10
12.4347
 20
4.61736
 30
0.000000
  70
    32
  0
VERTEX
  8
AM_HID
  5
3B2
 10
12.4336
 20
4.62071
 30
0.000000
  70
    32
  0
VERTEX
  8
AM_HID
  5
3B3
 10
12.4325
 20
4.62406
 30
0.000000
  70
    32
  0
VERTEX
  8
AM_HID
  5
3B4
 10
12.4313
 20
4.62742
 30
0.000000
  70
    32
  0
VERTEX
  8
AM_HID
  5
3B5
 10
12.4302
 20
4.63079
 30
0.000000
  70
    32
  0
VERTEX
  8
AM_HID
  5
3B6
 10
12.4291
 20
4.63416
 30
0.000000
  70
    32
  0
VERTEX
  8
AM_HID
  5
3B7
 10
12.4280
 20
4.63755
 30
0.000000
  70
    32
  0
VERTEX
  8
AM_HID
  5
3B8
 10
12.4269
 20
4.64094
 30
0.000000
  70
    32
  0
VERTEX
  8
AM_HID
  5
3B9
 10
12.4258
 20
4.64434
 30
0.000000
  70
    32
  0
VERTEX
  8
AM_HID
  5
3BA
 10
12.4247
 20
4.64775
 30
0.000000
  70
    32
  0
VERTEX
  8
AM_HID
  5
3BB
 10
12.4236
 20
4.65116
 30
0.000000
  70
    32
  0
VERTEX
  8
AM_HID
  5
3BC
 10
12.4225
 20
4.65459
 30
0.000000
  70
    32
  0
VERTEX
  8
AM_HID
  5
3BD
 10
12.4214
 20
4.65801
 30
0.000000
  70
    32
  0
VERTEX
  8
AM_HID
  5
3BE
 10
12.4203
 20
4.66145
 30
0.000000
  70
    32
  0
VERTEX
  8
AM_HID
  5
3BF
 10
12.4193
 20
4.66490
 30
0.000000
  70
    32
  0
VERTEX
  8
AM_HID
  5
3C0
 10
12.4182
 20
4.66835
 30
0.000000
  70
    32
  0
VERTEX
  8
AM_HID
  5
3C1
 10
12.4171
 20
4.67180
 30
0.000000
  70
    32
  0
VERTEX
  8
AM_HID
  5
3C2
 10
12.4160
 20
4.67527
 30
0.000000
  70
    32
  0
VERTEX
  8
AM_HID
  5
3C3
 10
12.4150
 20
4.67874
 30
0.000000
  70
    32
  0
VERTEX
  8
AM_HID
  5
3C4
 10
12.4139
 20
4.68221
 30
0.000000
  70
    32
  0
VERTEX
  8
AM_HID
  5
3C5
 10
12.4129
 20
4.68570
 30
0.000000
  70
    32
  0
VERTEX
  8
AM_HID
  5
3C6
 10
12.4118
 20
4.68918
 30
0.000000
  70
    32
  0
VERTEX
  8
AM_HID
  5
3C7
 10
12.4108
 20
4.69268
 30
0.000000
  70
    32
  0
VERTEX
  8
AM_HID
  5
3C8
 10
12.4097
 20
4.69618
 30
0.000000
  70
    32
  0
VERTEX
  8
AM_HID
  5
3C9
 10
12.4087
 20
4.69968
 30
0.000000
  70
    32
  0
VERTEX
  8
AM_HID
  5
3CA
 10
12.4077
 20
4.70320
 30
0.000000
  70
    32
  0
VERTEX
  8
AM_HID
  5
3CB
 10
12.4067
 20
4.70671
 30
0.000000
  70
    32
  0
VERTEX
  8
AM_HID
  5
3CC
 10
12.4056
 20
4.71023
 30
0.000000
  70
    32
  0
VERTEX
  8
AM_HID
  5
3CD
 10
12.4046
 20
4.71376
 30
0.000000
  70
    32
  0
VERTEX
  8
AM_HID
  5
3CE
 10
12.4036
 20
4.71729
 30
0.000000
  70
    32
  0
VERTEX
  8
AM_HID
  5
3CF
 10
12.4026
 20
4.72083
 30
0.000000
  70
    32
  0
VERTEX
  8
AM_HID
  5
3D0
 10
12.4016
 20
4.72437
 30
0.000000
  70
    32
  0
VERTEX
  8
AM_HID
  5
3D1
 10
12.4007
 20
4.72792
 30
0.000000
  70
    32
  0
VERTEX
  8
AM_HID
  5
3D2
 10
12.3997
 20
4.73147
 30
0.000000
  70
    32
  0
VERTEX
  8
AM_HID
  5
3D3
 10
12.3987
 20
4.73502
 30
0.000000
  70
    32
  0
VERTEX
  8
AM_HID
  5
3D4
 10
12.3978
 20
4.73858
 30
0.000000
  70
    32
  0
VERTEX
  8
AM_HID
  5
3D5
 10
12.3968
 20
4.74214
 30
0.000000
  70
    32
  0
VERTEX
  8
AM_HID
  5
3D6
 10
12.3958
 20
4.74571
 30
0.000000
  70
    32
  0
VERTEX
  8
AM_HID
  5
3D7
 10
12.3949
 20
4.74928
 30
0.000000
  70
    32
  0
VERTEX
  8
AM_HID
  5
3D8
 10
12.3940
 20
4.75285
 30
0.000000
  70
    32
  0
VERTEX
  8
AM_HID
  5
3D9
 10
12.3930
 20
4.75643
 30
0.000000
  70
    32
  0
VERTEX
  8
AM_HID
  5
3DA
 10
12.3921
 20
4.76001
 30
0.000000
  70
    32
  0
VERTEX
  8
AM_HID
  5
3DB
 10
12.3912
 20
4.76359
 30
0.000000
  70
    32
  0
VERTEX
  8
AM_HID
  5
3DC
 10
12.3903
 20
4.76718
 30
0.000000
  70
    32
  0
VERTEX
  8
AM_HID
  5
3DD
 10
12.3894
 20
4.77077
 30
0.000000
  70
    32
  0
VERTEX
  8
AM_HID
  5
3DE
 10
12.3885
 20
4.77436
 30
0.000000
  70
    32
  0
VERTEX
  8
AM_HID
  5
3DF
 10
12.3876
 20
4.77796
 30
0.000000
  70
    32
  0
VERTEX
  8
AM_HID
  5
3E0
 10
12.3868
 20
4.78156
 30
0.000000
  70
    32
  0
VERTEX
  8
AM_HID
  5
3E1
 10
12.3859
 20
4.78516
 30
0.000000
  70
    32
  0
VERTEX
  8
AM_HID
  5
3E2
 10
12.3850
 20
4.78876
 30
0.000000
  70
    32
  0
VERTEX
  8
AM_HID
  5
3E3
 10
12.3842
 20
4.79236
 30
0.000000
  70
    32
  0
VERTEX
  8
AM_HID
  5
3E4
 10
12.3834
 20
4.79597
 30
0.000000
  70
    32
  0
VERTEX
  8
AM_HID
  5
3E5
 10
12.3825
 20
4.79958
 30
0.000000
  70
    32
  0
VERTEX
  8
AM_HID
  5
3E6
 10
12.3817
 20
4.80319
 30
0.000000
  70
    32
  0
VERTEX
  8
AM_HID
  5
3E7
 10
12.3809
 20
4.80680
 30
0.000000
  70
    32
  0
VERTEX
  8
AM_HID
  5
3E8
 10
12.3801
 20
4.81042
 30
0.000000
  70
    32
  0
VERTEX
  8
AM_HID
  5
3E9
 10
12.3793
 20
4.81403
 30
0.000000
  70
    32
  0
VERTEX
  8
AM_HID
  5
3EA
 10
12.3786
 20
4.81765
 30
0.000000
  70
    32
  0
VERTEX
  8
AM_HID
  5
3EB
 10
12.3778
 20
4.82127
 30
0.000000
  70
    32
  0
VERTEX
  8
AM_HID
  5
3EC
 10
12.3770
 20
4.82489
 30
0.000000
  70
    32
  0
VERTEX
  8
AM_HID
  5
3ED
 10
12.3763
 20
4.82851
 30
0.000000
  70
    32
  0
VERTEX
  8
AM_HID
  5
3EE
 10
12.3756
 20
4.83213
 30
0.000000
  70
    32
  0
VERTEX
  8
AM_HID
  5
3EF
 10
12.3748
 20
4.83575
 30
0.000000
  70
    32
  0
VERTEX
  8
AM_HID
  5
3F0
 10
12.3741
 20
4.83937
 30
0.000000
  70
    32
  0
VERTEX
  8
AM_HID
  5
3F1
 10
12.3734
 20
4.84299
 30
0.000000
  70
    32
  0
VERTEX
  8
AM_HID
  5
3F2
 10
12.3727
 20
4.84661
 30
0.000000
  70
    32
  0
VERTEX
  8
AM_HID
  5
3F3
 10
12.3721
 20
4.85023
 30
0.000000
  70
    32
  0
VERTEX
  8
AM_HID
  5
3F4
 10
12.3714
 20
4.85385
 30
0.000000
  70
    32
  0
VERTEX
  8
AM_HID
  5
3F5
 10
12.3707
 20
4.85747
 30
0.000000
  70
    32
  0
VERTEX
  8
AM_HID
  5
3F6
 10
12.3701
 20
4.86110
 30
0.000000
  70
    32
  0
VERTEX
  8
AM_HID
  5
3F7
 10
12.3695
 20
4.86471
 30
0.000000
  70
    32
  0
VERTEX
  8
AM_HID
  5
3F8
 10
12.3688
 20
4.86833
 30
0.000000
  70
    32
  0
VERTEX
  8
AM_HID
  5
3F9
 10
12.3682
 20
4.87195
 30
0.000000
  70
    32
  0
VERTEX
  8
AM_HID
  5
3FA
 10
12.3676
 20
4.87557
 30
0.000000
  70
    32
  0
VERTEX
  8
AM_HID
  5
3FB
 10
12.3670
 20
4.87918
 30
0.000000
  70
    32
  0
VERTEX
  8
AM_HID
  5
3FC
 10
12.3665
 20
4.88280
 30
0.000000
  70
    32
  0
VERTEX
  8
AM_HID
  5
3FD
 10
12.3659
 20
4.88641
 30
0.000000
  70
    32
  0
VERTEX
  8
AM_HID
  5
3FE
 10
12.3653
 20
4.89002
 30
0.000000
  70
    32
  0
VERTEX
  8
AM_HID
  5
3FF
 10
12.3648
 20
4.89363
 30
0.000000
  70
    32
  0
VERTEX
  8
AM_HID
  5
400
 10
12.3643
 20
4.89724
 30
0.000000
  70
    32
  0
VERTEX
  8
AM_HID
  5
401
 10
12.3638
 20
4.90085
 30
0.000000
  70
    32
  0
VERTEX
  8
AM_HID
  5
402
 10
12.3633
 20
4.90445
 30
0.000000
  70
    32
  0
VERTEX
  8
AM_HID
  5
403
 10
12.3628
 20
4.90805
 30
0.000000
  70
    32
  0
VERTEX
  8
AM_HID
  5
404
 10
12.3623
 20
4.91165
 30
0.000000
  70
    32
  0
VERTEX
  8
AM_HID
  5
405
 10
12.3618
 20
4.91525
 30
0.000000
  70
    32
  0
VERTEX
  8
AM_HID
  5
406
 10
12.3614
 20
4.91884
 30
0.000000
  70
    32
  0
VERTEX
  8
AM_HID
  5
407
 10
12.3610
 20
4.92243
 30
0.000000
  70
    32
  0
VERTEX
  8
AM_HID
  5
408
 10
12.3605
 20
4.92602
 30
0.000000
  70
    32
  0
VERTEX
  8
AM_HID
  5
409
 10
12.3601
 20
4.92960
 30
0.000000
  70
    32
  0
VERTEX
  8
AM_HID
  5
40A
 10
12.3597
 20
4.93318
 30
0.000000
  70
    32
  0
VERTEX
  8
AM_HID
  5
40B
 10
12.3593
 20
4.93676
 30
0.000000
  70
    32
  0
VERTEX
  8
AM_HID
  5
40C
 10
12.3590
 20
4.94033
 30
0.000000
  70
    32
  0
VERTEX
  8
AM_HID
  5
40D
 10
12.3586
 20
4.94390
 30
0.000000
  70
    32
  0
VERTEX
  8
AM_HID
  5
40E
 10
12.3583
 20
4.94747
 30
0.000000
  70
    32
  0
VERTEX
  8
AM_HID
  5
40F
 10
12.3580
 20
4.95103
 30
0.000000
  70
    32
  0
VERTEX
  8
AM_HID
  5
410
 10
12.3577
 20
4.95458
 30
0.000000
  70
    32
  0
VERTEX
  8
AM_HID
  5
411
 10
12.3574
 20
4.95814
 30
0.000000
  70
    32
  0
VERTEX
  8
AM_HID
  5
412
 10
12.3571
 20
4.96169
 30
0.000000
  70
    32
  0
VERTEX
  8
AM_HID
  5
413
 10
12.3568
 20
4.96523
 30
0.000000
  70
    32
  0
VERTEX
  8
AM_HID
  5
414
 10
12.3565
 20
4.96877
 30
0.000000
  70
    32
  0
VERTEX
  8
AM_HID
  5
415
 10
12.3563
 20
4.97230
 30
0.000000
  70
    32
  0
VERTEX
  8
AM_HID
  5
416
 10
12.3561
 20
4.97583
 30
0.000000
  70
    32
  0
VERTEX
  8
AM_HID
  5
417
 10
12.3559
 20
4.97936
 30
0.000000
  70
    32
  0
VERTEX
  8
AM_HID
  5
418
 10
12.3557
 20
4.98287
 30
0.000000
  70
    32
  0
VERTEX
  8
AM_HID
  5
419
 10
12.3555
 20
4.98639
 30
0.000000
  70
    32
  0
VERTEX
  8
AM_HID
  5
41A
 10
12.3553
 20
4.98989
 30
0.000000
  70
    32
  0
VERTEX
  8
AM_HID
  5
41B
 10
12.3552
 20
4.99339
 30
0.000000
  70
    32
  0
VERTEX
  8
AM_HID
  5
41C
 10
12.3551
 20
4.99689
 30
0.000000
  70
    32
  0
VERTEX
  8
AM_HID
  5
41D
 10
12.3549
 20
5.00038
 30
0.000000
  70
    32
  0
VERTEX
  8
AM_HID
  5
41E
 10
12.3548
 20
5.00386
 30
0.000000
  70
    32
  0
VERTEX
  8
AM_HID
  5
41F
 10
12.3547
 20
5.00734
 30
0.000000
  70
    32
  0
VERTEX
  8
AM_HID
  5
420
 10
12.3547
 20
5.01081
 30
0.000000
  70
    32
  0
VERTEX
  8
AM_HID
  5
421
 10
12.3546
 20
5.01427
 30
0.000000
  70
    32
  0
VERTEX
  8
AM_HID
  5
422
 10
12.3546
 20
5.01773
 30
0.000000
  70
    32
  0
VERTEX
  8
AM_HID
  5
423
 10
12.3546
 20
5.02118
 30
0.000000
  70
    32
  0
VERTEX
  8
AM_HID
  5
424
 10
12.3546
 20
5.02462
 30
0.000000
  70
    32
  0
VERTEX
  8
AM_HID
  5
425
 10
12.3546
 20
5.02806
 30
0.000000
  70
    32
  0
VERTEX
  8
AM_HID
  5
426
 10
12.3546
 20
5.03150
 30
0.000000
  70
    32
  0
VERTEX
  8
AM_HID
  5
427
 10
12.3546
 20
5.03494
 30
0.000000
  70
    32
  0
VERTEX
  8
AM_HID
  5
428
 10
12.3547
 20
5.03838
 30
0.000000
  70
    32
  0
VERTEX
  8
AM_HID
  5
429
 10
12.3548
 20
5.04182
 30
0.000000
  70
    32
  0
VERTEX
  8
AM_HID
  5
42A
 10
12.3549
 20
5.04526
 30
0.000000
  70
    32
  0
VERTEX
  8
AM_HID
  5
42B
 10
12.3550
 20
5.04870
 30
0.000000
  70
    32
  0
VERTEX
  8
AM_HID
  5
42C
 10
12.3551
 20
5.05214
 30
0.000000
  70
    32
  0
VERTEX
  8
AM_HID
  5
42D
 10
12.3553
 20
5.05557
 30
0.000000
  70
    32
  0
VERTEX
  8
AM_HID
  5
42E
 10
12.3554
 20
5.05901
 30
0.000000
  70
    32
  0
VERTEX
  8
AM_HID
  5
42F
 10
12.3556
 20
5.06244
 30
0.000000
  70
    32
  0
VERTEX
  8
AM_HID
  5
430
 10
12.3558
 20
5.06588
 30
0.000000
  70
    32
  0
VERTEX
  8
AM_HID
  5
431
 10
12.3560
 20
5.06931
 30
0.000000
  70
    32
  0
VERTEX
  8
AM_HID
  5
432
 10
12.3562
 20
5.07274
 30
0.000000
  70
    32
  0
VERTEX
  8
AM_HID
  5
433
 10
12.3565
 20
5.07617
 30
0.000000
  70
    32
  0
VERTEX
  8
AM_HID
  5
434
 10
12.3567
 20
5.07959
 30
0.000000
  70
    32
  0
VERTEX
  8
AM_HID
  5
435
 10
12.3570
 20
5.08302
 30
0.000000
  70
    32
  0
VERTEX
  8
AM_HID
  5
436
 10
12.3573
 20
5.08644
 30
0.000000
  70
    32
  0
VERTEX
  8
AM_HID
  5
437
 10
12.3576
 20
5.08986
 30
0.000000
  70
    32
  0
VERTEX
  8
AM_HID
  5
438
 10
12.3580
 20
5.09328
 30
0.000000
  70
    32
  0
VERTEX
  8
AM_HID
  5
439
 10
12.3583
 20
5.09670
 30
0.000000
  70
    32
  0
VERTEX
  8
AM_HID
  5
43A
 10
12.3587
 20
5.10011
 30
0.000000
  70
    32
  0
VERTEX
  8
AM_HID
  5
43B
 10
12.3591
 20
5.10352
 30
0.000000
  70
    32
  0
VERTEX
  8
AM_HID
  5
43C
 10
12.3595
 20
5.10693
 30
0.000000
  70
    32
  0
VERTEX
  8
AM_HID
  5
43D
 10
12.3599
 20
5.11034
 30
0.000000
  70
    32
  0
VERTEX
  8
AM_HID
  5
43E
 10
12.3603
 20
5.11374
 30
0.000000
  70
    32
  0
VERTEX
  8
AM_HID
  5
43F
 10
12.3608
 20
5.11714
 30
0.000000
  70
    32
  0
VERTEX
  8
AM_HID
  5
440
 10
12.3612
 20
5.12053
 30
0.000000
  70
    32
  0
VERTEX
  8
AM_HID
  5
441
 10
12.3617
 20
5.12392
 30
0.000000
  70
    32
  0
VERTEX
  8
AM_HID
  5
442
 10
12.3622
 20
5.12731
 30
0.000000
  70
    32
  0
VERTEX
  8
AM_HID
  5
443
 10
12.3628
 20
5.13070
 30
0.000000
  70
    32
  0
VERTEX
  8
AM_HID
  5
444
 10
12.3633
 20
5.13408
 30
0.000000
  70
    32
  0
VERTEX
  8
AM_HID
  5
445
 10
12.3639
 20
5.13745
 30
0.000000
  70
    32
  0
VERTEX
  8
AM_HID
  5
446
 10
12.3644
 20
5.14083
 30
0.000000
  70
    32
  0
VERTEX
  8
AM_HID
  5
447
 10
12.3650
 20
5.14420
 30
0.000000
  70
    32
  0
VERTEX
  8
AM_HID
  5
448
 10
12.3657
 20
5.14756
 30
0.000000
  70
    32
  0
VERTEX
  8
AM_HID
  5
449
 10
12.3663
 20
5.15092
 30
0.000000
  70
    32
  0
VERTEX
  8
AM_HID
  5
44A
 10
12.3669
 20
5.15427
 30
0.000000
  70
    32
  0
VERTEX
  8
AM_HID
  5
44B
 10
12.3676
 20
5.15762
 30
0.000000
  70
    32
  0
VERTEX
  8
AM_HID
  5
44C
 10
12.3683
 20
5.16097
 30
0.000000
  70
    32
  0
VERTEX
  8
AM_HID
  5
44D
 10
12.3690
 20
5.16431
 30
0.000000
  70
    32
  0
VERTEX
  8
AM_HID
  5
44E
 10
12.3697
 20
5.16764
 30
0.000000
  70
    32
  0
VERTEX
  8
AM_HID
  5
44F
 10
12.3705
 20
5.17097
 30
0.000000
  70
    32
  0
VERTEX
  8
AM_HID
  5
450
 10
12.3712
 20
5.17430
 30
0.000000
  70
    32
  0
VERTEX
  8
AM_HID
  5
451
 10
12.3720
 20
5.17762
 30
0.000000
  70
    32
  0
VERTEX
  8
AM_HID
  5
452
 10
12.3728
 20
5.18093
 30
0.000000
  70
    32
  0
VERTEX
  8
AM_HID
  5
453
 10
12.3736
 20
5.18424
 30
0.000000
  70
    32
  0
VERTEX
  8
AM_HID
  5
454
 10
12.3744
 20
5.18754
 30
0.000000
  70
    32
  0
VERTEX
  8
AM_HID
  5
455
 10
12.3753
 20
5.19083
 30
0.000000
  70
    32
  0
VERTEX
  8
AM_HID
  5
456
 10
12.3761
 20
5.19412
 30
0.000000
  70
    32
  0
VERTEX
  8
AM_HID
  5
457
 10
12.3770
 20
5.19741
 30
0.000000
  70
    32
  0
VERTEX
  8
AM_HID
  5
458
 10
12.3779
 20
5.20068
 30
0.000000
  70
    32
  0
VERTEX
  8
AM_HID
  5
459
 10
12.3789
 20
5.20395
 30
0.000000
  70
    32
  0
VERTEX
  8
AM_HID
  5
45A
 10
12.3798
 20
5.20721
 30
0.000000
  70
    32
  0
VERTEX
  8
AM_HID
  5
45B
 10
12.3808
 20
5.21047
 30
0.000000
  70
    32
  0
VERTEX
  8
AM_HID
  5
45C
 10
12.3817
 20
5.21372
 30
0.000000
  70
    32
  0
VERTEX
  8
AM_HID
  5
45D
 10
12.3827
 20
5.21696
 30
0.000000
  70
    32
  0
VERTEX
  8
AM_HID
  5
45E
 10
12.3838
 20
5.22020
 30
0.000000
  70
    32
  0
VERTEX
  8
AM_HID
  5
45F
 10
12.3848
 20
5.22343
 30
0.000000
  70
    32
  0
VERTEX
  8
AM_HID
  5
460
 10
12.3858
 20
5.22665
 30
0.000000
  70
    32
  0
VERTEX
  8
AM_HID
  5
461
 10
12.3869
 20
5.22986
 30
0.000000
  70
    32
  0
VERTEX
  8
AM_HID
  5
462
 10
12.3880
 20
5.23307
 30
0.000000
  70
    32
  0
VERTEX
  8
AM_HID
  5
463
 10
12.3891
 20
5.23626
 30
0.000000
  70
    32
  0
VERTEX
  8
AM_HID
  5
464
 10
12.3902
 20
5.23946
 30
0.000000
  70
    32
  0
VERTEX
  8
AM_HID
  5
465
 10
12.3914
 20
5.24264
 30
0.000000
  70
    32
  0
VERTEX
  8
AM_HID
  5
466
 10
12.3925
 20
5.24582
 30
0.000000
  70
    32
  0
VERTEX
  8
AM_HID
  5
467
 10
12.3937
 20
5.24899
 30
0.000000
  70
    32
  0
VERTEX
  8
AM_HID
  5
468
 10
12.3949
 20
5.25215
 30
0.000000
  70
    32
  0
VERTEX
  8
AM_HID
  5
469
 10
12.3961
 20
5.25530
 30
0.000000
  70
    32
  0
VERTEX
  8
AM_HID
  5
46A
 10
12.3973
 20
5.25845
 30
0.000000
  70
    32
  0
VERTEX
  8
AM_HID
  5
46B
 10
12.3985
 20
5.26158
 30
0.000000
  70
    32
  0
VERTEX
  8
AM_HID
  5
46C
 10
12.3998
 20
5.26471
 30
0.000000
  70
    32
  0
VERTEX
  8
AM_HID
  5
46D
 10
12.4010
 20
5.26784
 30
0.000000
  70
    32
  0
VERTEX
  8
AM_HID
  5
46E
 10
12.4023
 20
5.27095
 30
0.000000
  70
    32
  0
VERTEX
  8
AM_HID
  5
46F
 10
12.4036
 20
5.27406
 30
0.000000
  70
    32
  0
VERTEX
  8
AM_HID
  5
470
 10
12.4049
 20
5.27715
 30
0.000000
  70
    32
  0
VERTEX
  8
AM_HID
  5
471
 10
12.4063
 20
5.28024
 30
0.000000
  70
    32
  0
VERTEX
  8
AM_HID
  5
472
 10
12.4076
 20
5.28332
 30
0.000000
  70
    32
  0
VERTEX
  8
AM_HID
  5
473
 10
12.4090
 20
5.28640
 30
0.000000
  70
    32
  0
VERTEX
  8
AM_HID
  5
474
 10
12.4103
 20
5.28946
 30
0.000000
  70
    32
  0
VERTEX
  8
AM_HID
  5
475
 10
12.4117
 20
5.29252
 30
0.000000
  70
    32
  0
VERTEX
  8
AM_HID
  5
476
 10
12.4131
 20
5.29557
 30
0.000000
  70
    32
  0
VERTEX
  8
AM_HID
  5
477
 10
12.4146
 20
5.29860
 30
0.000000
  70
    32
  0
VERTEX
  8
AM_HID
  5
478
 10
12.4160
 20
5.30163
 30
0.000000
  70
    32
  0
VERTEX
  8
AM_HID
  5
479
 10
12.4174
 20
5.30466
 30
0.000000
  70
    32
  0
VERTEX
  8
AM_HID
  5
47A
 10
12.4189
 20
5.30767
 30
0.000000
  70
    32
  0
VERTEX
  8
AM_HID
  5
47B
 10
12.4204
 20
5.31067
 30
0.000000
  70
    32
  0
VERTEX
  8
AM_HID
  5
47C
 10
12.4218
 20
5.31367
 30
0.000000
  70
    32
  0
VERTEX
  8
AM_HID
  5
47D
 10
12.4233
 20
5.31665
 30
0.000000
  70
    32
  0
VERTEX
  8
AM_HID
  5
47E
 10
12.4249
 20
5.31963
 30
0.000000
  70
    32
  0
VERTEX
  8
AM_HID
  5
47F
 10
12.4264
 20
5.32260
 30
0.000000
  70
    32
  0
VERTEX
  8
AM_HID
  5
480
 10
12.4279
 20
5.32556
 30
0.000000
  70
    32
  0
VERTEX
  8
AM_HID
  5
481
 10
12.4295
 20
5.32851
 30
0.000000
  70
    32
  0
VERTEX
  8
AM_HID
  5
482
 10
12.4310
 20
5.33145
 30
0.000000
  70
    32
  0
VERTEX
  8
AM_HID
  5
483
 10
12.4326
 20
5.33438
 30
0.000000
  70
    32
  0
VERTEX
  8
AM_HID
  5
484
 10
12.4342
 20
5.33730
 30
0.000000
  70
    32
  0
VERTEX
  8
AM_HID
  5
485
 10
12.4358
 20
5.34021
 30
0.000000
  70
    32
  0
VERTEX
  8
AM_HID
  5
486
 10
12.4374
 20
5.34312
 30
0.000000
  70
    32
  0
VERTEX
  8
AM_HID
  5
487
 10
12.4390
 20
5.34601
 30
0.000000
  70
    32
  0
VERTEX
  8
AM_HID
  5
488
 10
12.4407
 20
5.34889
 30
0.000000
  70
    32
  0
VERTEX
  8
AM_HID
  5
489
 10
12.4423
 20
5.35177
 30
0.000000
  70
    32
  0
VERTEX
  8
AM_HID
  5
48A
 10
12.4440
 20
5.35463
 30
0.000000
  70
    32
  0
VERTEX
  8
AM_HID
  5
48B
 10
12.4456
 20
5.35748
 30
0.000000
  70
    32
  0
VERTEX
  8
AM_HID
  5
48C
 10
12.4473
 20
5.36033
 30
0.000000
  70
    32
  0
VERTEX
  8
AM_HID
  5
48D
 10
12.4490
 20
5.36316
 30
0.000000
  70
    32
  0
VERTEX
  8
AM_HID
  5
48E
 10
12.4507
 20
5.36599
 30
0.000000
  70
    32
  0
VERTEX
  8
AM_HID
  5
48F
 10
12.4524
 20
5.36880
 30
0.000000
  70
    32
  0
VERTEX
  8
AM_HID
  5
490
 10
12.4541
 20
5.37161
 30
0.000000
  70
    32
  0
VERTEX
  8
AM_HID
  5
491
 10
12.4559
 20
5.37440
 30
0.000000
  70
    32
  0
VERTEX
  8
AM_HID
  5
492
 10
12.4576
 20
5.37718
 30
0.000000
  70
    32
  0
VERTEX
  8
AM_HID
  5
493
 10
12.4594
 20
5.37996
 30
0.000000
  70
    32
  0
VERTEX
  8
AM_HID
  5
494
 10
12.4611
 20
5.38272
 30
0.000000
  70
    32
  0
VERTEX
  8
AM_HID
  5
495
 10
12.4629
 20
5.38548
 30
0.000000
  70
    32
  0
VERTEX
  8
AM_HID
  5
496
 10
12.4647
 20
5.38823
 30
0.000000
  70
    32
  0
VERTEX
  8
AM_HID
  5
497
 10
12.4665
 20
5.39096
 30
0.000000
  70
    32
  0
VERTEX
  8
AM_HID
  5
498
 10
12.4683
 20
5.39369
 30
0.000000
  70
    32
  0
VERTEX
  8
AM_HID
  5
499
 10
12.4701
 20
5.39641
 30
0.000000
  70
    32
  0
VERTEX
  8
AM_HID
  5
49A
 10
12.4719
 20
5.39912
 30
0.000000
  70
    32
  0
VERTEX
  8
AM_HID
  5
49B
 10
12.4737
 20
5.40182
 30
0.000000
  70
    32
  0
VERTEX
  8
AM_HID
  5
49C
 10
12.4755
 20
5.40451
 30
0.000000
  70
    32
  0
VERTEX
  8
AM_HID
  5
49D
 10
12.4774
 20
5.40719
 30
0.000000
  70
    32
  0
VERTEX
  8
AM_HID
  5
49E
 10
12.4792
 20
5.40986
 30
0.000000
  70
    32
  0
VERTEX
  8
AM_HID
  5
49F
 10
12.4811
 20
5.41253
 30
0.000000
  70
    32
  0
VERTEX
  8
AM_HID
  5
4A0
 10
12.4829
 20
5.41518
 30
0.000000
  70
    32
  0
VERTEX
  8
AM_HID
  5
4A1
 10
12.4848
 20
5.41783
 30
0.000000
  70
    32
  0
VERTEX
  8
AM_HID
  5
4A2
 10
12.4867
 20
5.42046
 30
0.000000
  70
    32
  0
VERTEX
  8
AM_HID
  5
4A3
 10
12.4886
 20
5.42309
 30
0.000000
  70
    32
  0
VERTEX
  8
AM_HID
  5
4A4
 10
12.4905
 20
5.42571
 30
0.000000
  70
    32
  0
VERTEX
  8
AM_HID
  5
4A5
 10
12.4924
 20
5.42831
 30
0.000000
  70
    32
  0
VERTEX
  8
AM_HID
  5
4A6
 10
12.4943
 20
5.43091
 30
0.000000
  70
    32
  0
VERTEX
  8
AM_HID
  5
4A7
 10
12.4962
 20
5.43350
 30
0.000000
  70
    32
  0
VERTEX
  8
AM_HID
  5
4A8
 10
12.4981
 20
5.43608
 30
0.000000
  70
    32
  0
VERTEX
  8
AM_HID
  5
4A9
 10
12.5000
 20
5.43865
 30
0.000000
  70
    32
  0
VERTEX
  8
AM_HID
  5
4AA
 10
12.5020
 20
5.44121
 30
0.000000
  70
    32
  0
VERTEX
  8
AM_HID
  5
4AB
 10
12.5039
 20
5.44376
 30
0.000000
  70
    32
  0
VERTEX
  8
AM_HID
  5
4AC
 10
12.5058
 20
5.44631
 30
0.000000
  70
    32
  0
VERTEX
  8
AM_HID
  5
4AD
 10
12.5078
 20
5.44884
 30
0.000000
  70
    32
  0
VERTEX
  8
AM_HID
  5
4AE
 10
12.5097
 20
5.45136
 30
0.000000
  70
    32
  0
VERTEX
  8
AM_HID
  5
4AF
 10
12.5117
 20
5.45388
 30
0.000000
  70
    32
  0
VERTEX
  8
AM_HID
  5
4B0
 10
12.5137
 20
5.45638
 30
0.000000
  70
    32
  0
VERTEX
  8
AM_HID
  5
4B1
 10
12.5156
 20
5.45888
 30
0.000000
  70
    32
  0
VERTEX
  8
AM_HID
  5
4B2
 10
12.5176
 20
5.46137
 30
0.000000
  70
    32
  0
VERTEX
  8
AM_HID
  5
4B3
 10
12.5196
 20
5.46384
 30
0.000000
  70
    32
  0
VERTEX
  8
AM_HID
  5
4B4
 10
12.5216
 20
5.46631
 30
0.000000
  70
    32
  0
VERTEX
  8
AM_HID
  5
4B5
 10
12.5236
 20
5.46877
 30
0.000000
  70
    32
  0
VERTEX
  8
AM_HID
  5
4B6
 10
12.5255
 20
5.47122
 30
0.000000
  70
    32
  0
VERTEX
  8
AM_HID
  5
4B7
 10
12.5275
 20
5.47366
 30
0.000000
  70
    32
  0
VERTEX
  8
AM_HID
  5
4B8
 10
12.5295
 20
5.47609
 30
0.000000
  70
    32
  0
VERTEX
  8
AM_HID
  5
4B9
 10
12.5315
 20
5.47851
 30
0.000000
  70
    32
  0
VERTEX
  8
AM_HID
  5
4BA
 10
12.5335
 20
5.48093
 30
0.000000
  70
    32
  0
VERTEX
  8
AM_HID
  5
4BB
 10
12.5356
 20
5.48333
 30
0.000000
  70
    32
  0
VERTEX
  8
AM_HID
  5
4BC
 10
12.5376
 20
5.48572
 30
0.000000
  70
    32
  0
VERTEX
  8
AM_HID
  5
4BD
 10
12.5396
 20
5.48811
 30
0.000000
  70
    32
  0
VERTEX
  8
AM_HID
  5
4BE
 10
12.5416
 20
5.49048
 30
0.000000
  70
    32
  0
VERTEX
  8
AM_HID
  5
4BF
 10
12.5436
 20
5.49285
 30
0.000000
  70
    32
  0
VERTEX
  8
AM_HID
  5
4C0
 10
12.5456
 20
5.49520
 30
0.000000
  70
    32
  0
VERTEX
  8
AM_HID
  5
4C1
 10
12.5477
 20
5.49755
 30
0.000000
  70
    32
  0
VERTEX
  8
AM_HID
  5
4C2
 10
12.5497
 20
5.49989
 30
0.000000
  70
    32
  0
VERTEX
  8
AM_HID
  5
4C3
 10
12.5517
 20
5.50222
 30
0.000000
  70
    32
  0
VERTEX
  8
AM_HID
  5
4C4
 10
12.5537
 20
5.50453
 30
0.000000
  70
    32
  0
VERTEX
  8
AM_HID
  5
4C5
 10
12.5558
 20
5.50684
 30
0.000000
  70
    32
  0
VERTEX
  8
AM_HID
  5
4C6
 10
12.5578
 20
5.50914
 30
0.000000
  70
    32
  0
VERTEX
  8
AM_HID
  5
4C7
 10
12.5598
 20
5.51144
 30
0.000000
  70
    32
  0
VERTEX
  8
AM_HID
  5
4C8
 10
12.5619
 20
5.51372
 30
0.000000
  70
    32
  0
VERTEX
  8
AM_HID
  5
4C9
 10
12.5639
 20
5.51599
 30
0.000000
  70
    32
  0
VERTEX
  8
AM_HID
  5
4CA
 10
12.5659
 20
5.51825
 30
0.000000
  70
    32
  0
VERTEX
  8
AM_HID
  5
4CB
 10
12.5680
 20
5.52050
 30
0.000000
  70
    32
  0
VERTEX
  8
AM_HID
  5
4CC
 10
12.5700
 20
5.52275
 30
0.000000
  70
    32
  0
VERTEX
  8
AM_HID
  5
4CD
 10
12.5720
 20
5.52498
 30
0.000000
  70
    32
  0
VERTEX
  8
AM_HID
  5
4CE
 10
12.5741
 20
5.52721
 30
0.000000
  70
    32
  0
VERTEX
  8
AM_HID
  5
4CF
 10
12.5761
 20
5.52942
 30
0.000000
  70
    32
  0
VERTEX
  8
AM_HID
  5
4D0
 10
12.5782
 20
5.53163
 30
0.000000
  70
    32
  0
VERTEX
  8
AM_HID
  5
4D1
 10
12.5802
 20
5.53383
 30
0.000000
  70
    32
  0
VERTEX
  8
AM_HID
  5
4D2
 10
12.5822
 20
5.53602
 30
0.000000
  70
    32
  0
VERTEX
  8
AM_HID
  5
4D3
 10
12.5843
 20
5.53819
 30
0.000000
  70
    32
  0
VERTEX
  8
AM_HID
  5
4D4
 10
12.5863
 20
5.54036
 30
0.000000
  70
    32
  0
VERTEX
  8
AM_HID
  5
4D5
 10
12.5883
 20
5.54252
 30
0.000000
  70
    32
  0
VERTEX
  8
AM_HID
  5
4D6
 10
12.5904
 20
5.54467
 30
0.000000
  70
    32
  0
VERTEX
  8
AM_HID
  5
4D7
 10
12.5924
 20
5.54681
 30
0.000000
  70
    32
  0
VERTEX
  8
AM_HID
  5
4D8
 10
12.5944
 20
5.54894
 30
0.000000
  70
    32
  0
VERTEX
  8
AM_HID
  5
4D9
 10
12.5965
 20
5.55107
 30
0.000000
  70
    32
  0
VERTEX
  8
AM_HID
  5
4DA
 10
12.5985
 20
5.55318
 30
0.000000
  70
    32
  0
VERTEX
  8
AM_HID
  5
4DB
 10
12.6005
 20
5.55528
 30
0.000000
  70
    32
  0
VERTEX
  8
AM_HID
  5
4DC
 10
12.6026
 20
5.55738
 30
0.000000
  70
    32
  0
VERTEX
  8
AM_HID
  5
4DD
 10
12.6046
 20
5.55946
 30
0.000000
  70
    32
  0
VERTEX
  8
AM_HID
  5
4DE
 10
12.6066
 20
5.56154
 30
0.000000
  70
    32
  0
VERTEX
  8
AM_HID
  5
4DF
 10
12.6086
 20
5.56360
 30
0.000000
  70
    32
  0
VERTEX
  8
AM_HID
  5
4E0
 10
12.6106
 20
5.56566
 30
0.000000
  70
    32
  0
VERTEX
  8
AM_HID
  5
4E1
 10
12.6127
 20
5.56770
 30
0.000000
  70
    32
  0
VERTEX
  8
AM_HID
  5
4E2
 10
12.6147
 20
5.56974
 30
0.000000
  70
    32
  0
VERTEX
  8
AM_HID
  5
4E3
 10
12.6167
 20
5.57177
 30
0.000000
  70
    32
  0
VERTEX
  8
AM_HID
  5
4E4
 10
12.6187
 20
5.57379
 30
0.000000
  70
    32
  0
VERTEX
  8
AM_HID
  5
4E5
 10
12.6207
 20
5.57580
 30
0.000000
  70
    32
  0
VERTEX
  8
AM_HID
  5
4E6
 10
12.6227
 20
5.57780
 30
0.000000
  70
    32
  0
VERTEX
  8
AM_HID
  5
4E7
 10
12.6247
 20
5.57979
 30
0.000000
  70
    32
  0
VERTEX
  8
AM_HID
  5
4E8
 10
12.6267
 20
5.58177
 30
0.000000
  70
    32
  0
VERTEX
  8
AM_HID
  5
4E9
 10
12.6287
 20
5.58374
 30
0.000000
  70
    32
  0
VERTEX
  8
AM_HID
  5
4EA
 10
12.6307
 20
5.58570
 30
0.000000
  70
    32
  0
VERTEX
  8
AM_HID
  5
4EB
 10
12.6327
 20
5.58765
 30
0.000000
  70
    32
  0
VERTEX
  8
AM_HID
  5
4EC
 10
12.6347
 20
5.58960
 30
0.000000
  70
    32
  0
VERTEX
  8
AM_HID
  5
4ED
 10
12.6366
 20
5.59153
 30
0.000000
  70
    32
  0
VERTEX
  8
AM_HID
  5
4EE
 10
12.6386
 20
5.59345
 30
0.000000
  70
    32
  0
VERTEX
  8
AM_HID
  5
4EF
 10
12.6406
 20
5.59537
 30
0.000000
  70
    32
  0
VERTEX
  8
AM_HID
  5
4F0
 10
12.6426
 20
5.59727
 30
0.000000
  70
    32
  0
VERTEX
  8
AM_HID
  5
4F1
 10
12.6445
 20
5.59917
 30
0.000000
  70
    32
  0
VERTEX
  8
AM_HID
  5
4F2
 10
12.6465
 20
5.60105
 30
0.000000
  70
    32
  0
VERTEX
  8
AM_HID
  5
4F3
 10
12.6485
 20
5.60293
 30
0.000000
  70
    32
  0
VERTEX
  8
AM_HID
  5
4F4
 10
12.6504
 20
5.60480
 30
0.000000
  70
    32
  0
VERTEX
  8
AM_HID
  5
4F5
 10
12.6524
 20
5.60665
 30
0.000000
  70
    32
  0
VERTEX
  8
AM_HID
  5
4F6
 10
12.6543
 20
5.60850
 30
0.000000
  70
    32
  0
VERTEX
  8
AM_HID
  5
4F7
 10
12.6562
 20
5.61034
 30
0.000000
  70
    32
  0
VERTEX
  8
AM_HID
  5
4F8
 10
12.6582
 20
5.61217
 30
0.000000
  70
    32
  0
VERTEX
  8
AM_HID
  5
4F9
 10
12.6601
 20
5.61399
 30
0.000000
  70
    32
  0
VERTEX
  8
AM_HID
  5
4FA
 10
12.6620
 20
5.61580
 30
0.000000
  70
    32
  0
VERTEX
  8
AM_HID
  5
4FB
 10
12.6639
 20
5.61760
 30
0.000000
  70
    32
  0
VERTEX
  8
AM_HID
  5
4FC
 10
12.6659
 20
5.61939
 30
0.000000
  70
    32
  0
VERTEX
  8
AM_HID
  5
4FD
 10
12.6678
 20
5.62117
 30
0.000000
  70
    32
  0
VERTEX
  8
AM_HID
  5
4FE
 10
12.6697
 20
5.62294
 30
0.000000
  70
    32
  0
VERTEX
  8
AM_HID
  5
4FF
 10
12.6716
 20
5.62470
 30
0.000000
  70
    32
  0
VERTEX
  8
AM_HID
  5
500
 10
12.6735
 20
5.62645
 30
0.000000
  70
    32
  0
VERTEX
  8
AM_HID
  5
501
 10
12.6753
 20
5.62820
 30
0.000000
  70
    32
  0
VERTEX
  8
AM_HID
  5
502
 10
12.6772
 20
5.62994
 30
0.000000
  70
    32
  0
VERTEX
  8
AM_HID
  5
503
 10
12.6791
 20
5.63167
 30
0.000000
  70
    32
  0
VERTEX
  8
AM_HID
  5
504
 10
12.6810
 20
5.63340
 30
0.000000
  70
    32
  0
VERTEX
  8
AM_HID
  5
505
 10
12.6829
 20
5.63512
 30
0.000000
  70
    32
  0
VERTEX
  8
AM_HID
  5
506
 10
12.6847
 20
5.63684
 30
0.000000
  70
    32
  0
VERTEX
  8
AM_HID
  5
507
 10
12.6866
 20
5.63855
 30
0.000000
  70
    32
  0
VERTEX
  8
AM_HID
  5
508
 10
12.6885
 20
5.64026
 30
0.000000
  70
    32
  0
VERTEX
  8
AM_HID
  5
509
 10
12.6904
 20
5.64196
 30
0.000000
  70
    32
  0
VERTEX
  8
AM_HID
  5
50A
 10
12.6922
 20
5.64365
 30
0.000000
  70
    32
  0
VERTEX
  8
AM_HID
  5
50B
 10
12.6941
 20
5.64534
 30
0.000000
  70
    32
  0
VERTEX
  8
AM_HID
  5
50C
 10
12.6960
 20
5.64703
 30
0.000000
  70
    32
  0
VERTEX
  8
AM_HID
  5
50D
 10
12.6978
 20
5.64870
 30
0.000000
  70
    32
  0
VERTEX
  8
AM_HID
  5
50E
 10
12.6997
 20
5.65038
 30
0.000000
  70
    32
  0
VERTEX
  8
AM_HID
  5
50F
 10
12.7015
 20
5.65204
 30
0.000000
  70
    32
  0
VERTEX
  8
AM_HID
  5
510
 10
12.7034
 20
5.65371
 30
0.000000
  70
    32
  0
VERTEX
  8
AM_HID
  5
511
 10
12.7053
 20
5.65536
 30
0.000000
  70
    32
  0
VERTEX
  8
AM_HID
  5
512
 10
12.7071
 20
5.65701
 30
0.000000
  70
    32
  0
VERTEX
  8
AM_HID
  5
513
 10
12.7089
 20
5.65866
 30
0.000000
  70
    32
  0
VERTEX
  8
AM_HID
  5
514
 10
12.7108
 20
5.66029
 30
0.000000
  70
    32
  0
VERTEX
  8
AM_HID
  5
515
 10
12.7126
 20
5.66193
 30
0.000000
  70
    32
  0
VERTEX
  8
AM_HID
  5
516
 10
12.7145
 20
5.66355
 30
0.000000
  70
    32
  0
VERTEX
  8
AM_HID
  5
517
 10
12.7163
 20
5.66518
 30
0.000000
  70
    32
  0
VERTEX
  8
AM_HID
  5
518
 10
12.7181
 20
5.66679
 30
0.000000
  70
    32
  0
VERTEX
  8
AM_HID
  5
519
 10
12.7200
 20
5.66840
 30
0.000000
  70
    32
  0
VERTEX
  8
AM_HID
  5
51A
 10
12.7218
 20
5.67000
 30
0.000000
  70
    32
  0
VERTEX
  8
AM_HID
  5
51B
 10
12.7236
 20
5.67160
 30
0.000000
  70
    32
  0
VERTEX
  8
AM_HID
  5
51C
 10
12.7254
 20
5.67319
 30
0.000000
  70
    32
  0
VERTEX
  8
AM_HID
  5
51D
 10
12.7272
 20
5.67478
 30
0.000000
  70
    32
  0
VERTEX
  8
AM_HID
  5
51E
 10
12.7291
 20
5.67636
 30
0.000000
  70
    32
  0
VERTEX
  8
AM_HID
  5
51F
 10
12.7309
 20
5.67793
 30
0.000000
  70
    32
  0
VERTEX
  8
AM_HID
  5
520
 10
12.7327
 20
5.67950
 30
0.000000
  70
    32
  0
VERTEX
  8
AM_HID
  5
521
 10
12.7345
 20
5.68106
 30
0.000000
  70
    32
  0
VERTEX
  8
AM_HID
  5
522
 10
12.7363
 20
5.68261
 30
0.000000
  70
    32
  0
VERTEX
  8
AM_HID
  5
523
 10
12.7381
 20
5.68416
 30
0.000000
  70
    32
  0
VERTEX
  8
AM_HID
  5
524
 10
12.7399
 20
5.68570
 30
0.000000
  70
    32
  0
VERTEX
  8
AM_HID
  5
525
 10
12.7416
 20
5.68724
 30
0.000000
  70
    32
  0
VERTEX
  8
AM_HID
  5
526
 10
12.7434
 20
5.68877
 30
0.000000
  70
    32
  0
VERTEX
  8
AM_HID
  5
527
 10
12.7452
 20
5.69029
 30
0.000000
  70
    32
  0
VERTEX
  8
AM_HID
  5
528
 10
12.7470
 20
5.69181
 30
0.000000
  70
    32
  0
VERTEX
  8
AM_HID
  5
529
 10
12.7487
 20
5.69332
 30
0.000000
  70
    32
  0
VERTEX
  8
AM_HID
  5
52A
 10
12.7505
 20
5.69483
 30
0.000000
  70
    32
  0
VERTEX
  8
AM_HID
  5
52B
 10
12.7523
 20
5.69632
 30
0.000000
  70
    32
  0
VERTEX
  8
AM_HID
  5
52C
 10
12.7540
 20
5.69782
 30
0.000000
  70
    32
  0
VERTEX
  8
AM_HID
  5
52D
 10
12.7558
 20
5.69930
 30
0.000000
  70
    32
  0
VERTEX
  8
AM_HID
  5
52E
 10
12.7575
 20
5.70078
 30
0.000000
  70
    32
  0
VERTEX
  8
AM_HID
  5
52F
 10
12.7592
 20
5.70225
 30
0.000000
  70
    32
  0
VERTEX
  8
AM_HID
  5
530
 10
12.7610
 20
5.70372
 30
0.000000
  70
    32
  0
VERTEX
  8
AM_HID
  5
531
 10
12.7627
 20
5.70518
 30
0.000000
  70
    32
  0
VERTEX
  8
AM_HID
  5
532
 10
12.7644
 20
5.70663
 30
0.000000
  70
    32
  0
VERTEX
  8
AM_HID
  5
533
 10
12.7662
 20
5.70808
 30
0.000000
  70
    32
  0
VERTEX
  8
AM_HID
  5
534
 10
12.7679
 20
5.70952
 30
0.000000
  70
    32
  0
VERTEX
  8
AM_HID
  5
535
 10
12.7696
 20
5.71095
 30
0.000000
  70
    32
  0
VERTEX
  8
AM_HID
  5
536
 10
12.7713
 20
5.71238
 30
0.000000
  70
    32
  0
VERTEX
  8
AM_HID
  5
537
 10
12.7730
 20
5.71380
 30
0.000000
  70
    32
  0
VERTEX
  8
AM_HID
  5
538
 10
12.7747
 20
5.71521
 30
0.000000
  70
    32
  0
VERTEX
  8
AM_HID
  5
539
 10
12.7764
 20
5.71662
 30
0.000000
  70
    32
  0
VERTEX
  8
AM_HID
  5
53A
 10
12.7780
 20
5.71802
 30
0.000000
  70
    32
  0
VERTEX
  8
AM_HID
  5
53B
 10
12.7797
 20
5.71941
 30
0.000000
  70
    32
  0
VERTEX
  8
AM_HID
  5
53C
 10
12.7814
 20
5.72079
 30
0.000000
  70
    32
  0
VERTEX
  8
AM_HID
  5
53D
 10
12.7831
 20
5.72217
 30
0.000000
  70
    32
  0
VERTEX
  8
AM_HID
  5
53E
 10
12.7847
 20
5.72355
 30
0.000000
  70
    32
  0
VERTEX
  8
AM_HID
  5
53F
 10
12.7864
 20
5.72491
 30
0.000000
  70
    32
  0
VERTEX
  8
AM_HID
  5
540
 10
12.7880
 20
5.72627
 30
0.000000
  70
    32
  0
VERTEX
  8
AM_HID
  5
541
 10
12.7897
 20
5.72762
 30
0.000000
  70
    32
  0
VERTEX
  8
AM_HID
  5
542
 10
12.7913
 20
5.72897
 30
0.000000
  70
    32
  0
VERTEX
  8
AM_HID
  5
543
 10
12.7929
 20
5.73030
 30
0.000000
  70
    32
  0
VERTEX
  8
AM_HID
  5
544
 10
12.7945
 20
5.73164
 30
0.000000
  70
    32
  0
VERTEX
  8
AM_HID
  5
545
 10
12.7962
 20
5.73296
 30
0.000000
  70
    32
  0
VERTEX
  8
AM_HID
  5
546
 10
12.7978
 20
5.73428
 30
0.000000
  70
    32
  0
VERTEX
  8
AM_HID
  5
547
 10
12.7994
 20
5.73559
 30
0.000000
  70
    32
  0
VERTEX
  8
AM_HID
  5
548
 10
12.8010
 20
5.73689
 30
0.000000
  70
    32
  0
VERTEX
  8
AM_HID
  5
549
 10
12.8026
 20
5.73818
 30
0.000000
  70
    32
  0
VERTEX
  8
AM_HID
  5
54A
 10
12.8041
 20
5.73947
 30
0.000000
  70
    32
  0
VERTEX
  8
AM_HID
  5
54B
 10
12.8057
 20
5.74075
 30
0.000000
  70
    32
  0
VERTEX
  8
AM_HID
  5
54C
 10
12.8073
 20
5.74203
 30
0.000000
  70
    32
  0
VERTEX
  8
AM_HID
  5
54D
 10
12.8088
 20
5.74329
 30
0.000000
  70
    32
  0
VERTEX
  8
AM_HID
  5
54E
 10
12.8104
 20
5.74455
 30
0.000000
  70
    32
  0
VERTEX
  8
AM_HID
  5
54F
 10
12.8120
 20
5.74580
 30
0.000000
  70
    32
  0
VERTEX
  8
AM_HID
  5
550
 10
12.8135
 20
5.74705
 30
0.000000
  70
    32
  0
VERTEX
  8
AM_HID
  5
551
 10
12.8150
 20
5.74829
 30
0.000000
  70
    32
  0
VERTEX
  8
AM_HID
  5
552
 10
12.8166
 20
5.74952
 30
0.000000
  70
    32
  0
VERTEX
  8
AM_HID
  5
553
 10
12.8181
 20
5.75074
 30
0.000000
  70
    32
  0
VERTEX
  8
AM_HID
  5
554
 10
12.8196
 20
5.75195
 30
0.000000
  70
    32
  0
VERTEX
  8
AM_HID
  5
555
 10
12.8211
 20
5.75316
 30
0.000000
  70
    32
  0
VERTEX
  8
AM_HID
  5
556
 10
12.8226
 20
5.75436
 30
0.000000
  70
    32
  0
VERTEX
  8
AM_HID
  5
557
 10
12.8241
 20
5.75555
 30
0.000000
  70
    32
  0
VERTEX
  8
AM_HID
  5
558
 10
12.8256
 20
5.75674
 30
0.000000
  70
    32
  0
VERTEX
  8
AM_HID
  5
559
 10
12.8270
 20
5.75792
 30
0.000000
  70
    32
  0
VERTEX
  8
AM_HID
  5
55A
 10
12.8285
 20
5.75909
 30
0.000000
  70
    32
  0
VERTEX
  8
AM_HID
  5
55B
 10
12.8299
 20
5.76025
 30
0.000000
  70
    32
  0
VERTEX
  8
AM_HID
  5
55C
 10
12.8314
 20
5.76140
 30
0.000000
  70
    32
  0
VERTEX
  8
AM_HID
  5
55D
 10
12.8328
 20
5.76255
 30
0.000000
  70
    32
  0
VERTEX
  8
AM_HID
  5
55E
 10
12.8343
 20
5.76369
 30
0.000000
  70
    32
  0
VERTEX
  8
AM_HID
  5
55F
 10
12.8357
 20
5.76482
 30
0.000000
  70
    32
  0
VERTEX
  8
AM_HID
  5
560
 10
12.8371
 20
5.76595
 30
0.000000
  70
    32
  0
VERTEX
  8
AM_HID
  5
561
 10
12.8385
 20
5.76706
 30
0.000000
  70
    32
  0
VERTEX
  8
AM_HID
  5
562
 10
12.8399
 20
5.76817
 30
0.000000
  70
    32
  0
VERTEX
  8
AM_HID
  5
563
 10
12.8413
 20
5.76927
 30
0.000000
  70
    32
  0
VERTEX
  8
AM_HID
  5
564
 10
12.8427
 20
5.77037
 30
0.000000
  70
    32
  0
VERTEX
  8
AM_HID
  5
565
 10
12.8441
 20
5.77145
 30
0.000000
  70
    32
  0
VERTEX
  8
AM_HID
  5
566
 10
12.8454
 20
5.77253
 30
0.000000
  70
    32
  0
VERTEX
  8
AM_HID
  5
567
 10
12.8468
 20
5.77360
 30
0.000000
  70
    32
  0
VERTEX
  8
AM_HID
  5
568
 10
12.8481
 20
5.77466
 30
0.000000
  70
    32
  0
VERTEX
  8
AM_HID
  5
569
 10
12.8495
 20
5.77571
 30
0.000000
  70
    32
  0
VERTEX
  8
AM_HID
  5
56A
 10
12.8508
 20
5.77676
 30
0.000000
  70
    32
  0
VERTEX
  8
AM_HID
  5
56B
 10
12.8521
 20
5.77780
 30
0.000000
  70
    32
  0
VERTEX
  8
AM_HID
  5
56C
 10
12.8534
 20
5.77883
 30
0.000000
  70
    32
  0
VERTEX
  8
AM_HID
  5
56D
 10
12.8547
 20
5.77985
 30
0.000000
  70
    32
  0
VERTEX
  8
AM_HID
  5
56E
 10
12.8560
 20
5.78086
 30
0.000000
  70
    32
  0
VERTEX
  8
AM_HID
  5
56F
 10
12.8573
 20
5.78187
 30
0.000000
  70
    32
  0
VERTEX
  8
AM_HID
  5
570
 10
12.8586
 20
5.78287
 30
0.000000
  70
    32
  0
VERTEX
  8
AM_HID
  5
571
 10
12.8598
 20
5.78386
 30
0.000000
  70
    32
  0
VERTEX
  8
AM_HID
  5
572
 10
12.8611
 20
5.78484
 30
0.000000
  70
    32
  0
VERTEX
  8
AM_HID
  5
573
 10
12.8623
 20
5.78581
 30
0.000000
  70
    32
  0
VERTEX
  8
AM_HID
  5
574
 10
12.8636
 20
5.78677
 30
0.000000
  70
    32
  0
VERTEX
  8
AM_HID
  5
575
 10
12.8648
 20
5.78773
 30
0.000000
  70
    32
  0
VERTEX
  8
AM_HID
  5
576
 10
12.8660
 20
5.78868
 30
0.000000
  70
    32
  0
VERTEX
  8
AM_HID
  5
577
 10
12.8672
 20
5.78962
 30
0.000000
  70
    32
  0
VERTEX
  8
AM_HID
  5
578
 10
12.8684
 20
5.79055
 30
0.000000
  70
    32
  0
VERTEX
  8
AM_HID
  5
579
 10
12.8696
 20
5.79147
 30
0.000000
  70
    32
  0
VERTEX
  8
AM_HID
  5
57A
 10
12.8708
 20
5.79239
 30
0.000000
  70
    32
  0
VERTEX
  8
AM_HID
  5
57B
 10
12.8719
 20
5.79329
 30
0.000000
  70
    32
  0
VERTEX
  8
AM_HID
  5
57C
 10
12.8731
 20
5.79419
 30
0.000000
  70
    32
  0
VERTEX
  8
AM_HID
  5
57D
 10
12.8742
 20
5.79508
 30
0.000000
  70
    32
  0
VERTEX
  8
AM_HID
  5
57E
 10
12.8754
 20
5.79596
 30
0.000000
  70
    32
  0
VERTEX
  8
AM_HID
  5
57F
 10
12.8765
 20
5.79684
 30
0.000000
  70
    32
  0
VERTEX
  8
AM_HID
  5
580
 10
12.8776
 20
5.79770
 30
0.000000
  70
    32
  0
VERTEX
  8
AM_HID
  5
581
 10
12.8787
 20
5.79856
 30
0.000000
  70
    32
  0
VERTEX
  8
AM_HID
  5
582
 10
12.8798
 20
5.79941
 30
0.000000
  70
    32
  0
VERTEX
  8
AM_HID
  5
583
 10
12.8809
 20
5.80025
 30
0.000000
  70
    32
  0
VERTEX
  8
AM_HID
  5
584
 10
12.8819
 20
5.80108
 30
0.000000
  70
    32
  0
VERTEX
  8
AM_HID
  5
585
 10
12.8830
 20
5.80190
 30
0.000000
  70
    32
  0
VERTEX
  8
AM_HID
  5
586
 10
12.8841
 20
5.80272
 30
0.000000
  70
    32
  0
VERTEX
  8
AM_HID
  5
587
 10
12.8851
 20
5.80352
 30
0.000000
  70
    32
  0
VERTEX
  8
AM_HID
  5
588
 10
12.8861
 20
5.80432
 30
0.000000
  70
    32
  0
VERTEX
  8
AM_HID
  5
589
 10
12.8872
 20
5.80511
 30
0.000000
  70
    32
  0
VERTEX
  8
AM_HID
  5
58A
 10
12.8882
 20
5.80590
 30
0.000000
  70
    32
  0
VERTEX
  8
AM_HID
  5
58B
 10
12.8892
 20
5.80667
 30
0.000000
  70
    32
  0
VERTEX
  8
AM_HID
  5
58C
 10
12.8902
 20
5.80744
 30
0.000000
  70
    32
  0
VERTEX
  8
AM_HID
  5
58D
 10
12.8912
 20
5.80819
 30
0.000000
  70
    32
  0
VERTEX
  8
AM_HID
  5
58E
 10
12.8921
 20
5.80894
 30
0.000000
  70
    32
  0
VERTEX
  8
AM_HID
  5
58F
 10
12.8931
 20
5.80968
 30
0.000000
  70
    32
  0
VERTEX
  8
AM_HID
  5
590
 10
12.8940
 20
5.81042
 30
0.000000
  70
    32
  0
VERTEX
  8
AM_HID
  5
591
 10
12.8950
 20
5.81114
 30
0.000000
  70
    32
  0
VERTEX
  8
AM_HID
  5
592
 10
12.8959
 20
5.81186
 30
0.000000
  70
    32
  0
VERTEX
  8
AM_HID
  5
593
 10
12.8968
 20
5.81256
 30
0.000000
  70
    32
  0
VERTEX
  8
AM_HID
  5
594
 10
12.8977
 20
5.81326
 30
0.000000
  70
    32
  0
VERTEX
  8
AM_HID
  5
595
 10
12.8986
 20
5.81395
 30
0.000000
  70
    32
  0
VERTEX
  8
AM_HID
  5
596
 10
12.8995
 20
5.81464
 30
0.000000
  70
    32
  0
VERTEX
  8
AM_HID
  5
597
 10
12.9004
 20
5.81531
 30
0.000000
  70
    32
  0
VERTEX
  8
AM_HID
  5
598
 10
12.9013
 20
5.81598
 30
0.000000
  70
    32
  0
VERTEX
  8
AM_HID
  5
599
 10
12.9021
 20
5.81664
 30
0.000000
  70
    32
  0
VERTEX
  8
AM_HID
  5
59A
 10
12.9030
 20
5.81729
 30
0.000000
  70
    32
  0
VERTEX
  8
AM_HID
  5
59B
 10
12.9038
 20
5.81793
 30
0.000000
  70
    32
  0
VERTEX
  8
AM_HID
  5
59C
 10
12.9046
 20
5.81856
 30
0.000000
  70
    32
  0
VERTEX
  8
AM_HID
  5
59D
 10
12.9055
 20
5.81919
 30
0.000000
  70
    32
  0
VERTEX
  8
AM_HID
  5
59E
 10
12.9063
 20
5.81980
 30
0.000000
  70
    32
  0
VERTEX
  8
AM_HID
  5
59F
 10
12.9071
 20
5.82041
 30
0.000000
  70
    32
  0
VERTEX
  8
AM_HID
  5
5A0
 10
12.9079
 20
5.82101
 30
0.000000
  70
    32
  0
VERTEX
  8
AM_HID
  5
5A1
 10
12.9086
 20
5.82161
 30
0.000000
  70
    32
  0
VERTEX
  8
AM_HID
  5
5A2
 10
12.9094
 20
5.82219
 30
0.000000
  70
    32
  0
VERTEX
  8
AM_HID
  5
5A3
 10
12.9102
 20
5.82277
 30
0.000000
  70
    32
  0
VERTEX
  8
AM_HID
  5
5A4
 10
12.9109
 20
5.82333
 30
0.000000
  70
    32
  0
VERTEX
  8
AM_HID
  5
5A5
 10
12.9116
 20
5.82389
 30
0.000000
  70
    32
  0
VERTEX
  8
AM_HID
  5
5A6
 10
12.9124
 20
5.82444
 30
0.000000
  70
    32
  0
VERTEX
  8
AM_HID
  5
5A7
 10
12.9131
 20
5.82499
 30
0.000000
  70
    32
  0
VERTEX
  8
AM_HID
  5
5A8
 10
12.9138
 20
5.82552
 30
0.000000
  70
    32
  0
VERTEX
  8
AM_HID
  5
5A9
 10
12.9145
 20
5.82605
 30
0.000000
  70
    32
  0
VERTEX
  8
AM_HID
  5
5AA
 10
12.9151
 20
5.82657
 30
0.000000
  70
    32
  0
VERTEX
  8
AM_HID
  5
5AB
 10
12.9158
 20
5.82708
 30
0.000000
  70
    32
  0
VERTEX
  8
AM_HID
  5
5AC
 10
12.9165
 20
5.82758
 30
0.000000
  70
    32
  0
VERTEX
  8
AM_HID
  5
5AD
 10
12.9171
 20
5.82807
 30
0.000000
  70
    32
  0
VERTEX
  8
AM_HID
  5
5AE
 10
12.9178
 20
5.82856
 30
0.000000
  70
    32
  0
VERTEX
  8
AM_HID
  5
5AF
 10
12.9184
 20
5.82904
 30
0.000000
  70
    32
  0
VERTEX
  8
AM_HID
  5
5B0
 10
12.9190
 20
5.82950
 30
0.000000
  70
    32
  0
VERTEX
  8
AM_HID
  5
5B1
 10
12.9196
 20
5.82996
 30
0.000000
  70
    32
  0
VERTEX
  8
AM_HID
  5
5B2
 10
12.9202
 20
5.83042
 30
0.000000
  70
    32
  0
VERTEX
  8
AM_HID
  5
5B3
 10
12.9208
 20
5.83086
 30
0.000000
  70
    32
  0
VERTEX
  8
AM_HID
  5
5B4
 10
12.9214
 20
5.83130
 30
0.000000
  70
    32
  0
VERTEX
  8
AM_HID
  5
5B5
 10
12.9220
 20
5.83173
 30
0.000000
  70
    32
  0
VERTEX
  8
AM_HID
  5
5B6
 10
12.9225
 20
5.83215
 30
0.000000
  70
    32
  0
VERTEX
  8
AM_HID
  5
5B7
 10
12.9231
 20
5.83256
 30
0.000000
  70
    32
  0
VERTEX
  8
AM_HID
  5
5B8
 10
12.9236
 20
5.83296
 30
0.000000
  70
    32
  0
VERTEX
  8
AM_HID
  5
5B9
 10
12.9241
 20
5.83336
 30
0.000000
  70
    32
  0
VERTEX
  8
AM_HID
  5
5BA
 10
12.9246
 20
5.83374
 30
0.000000
  70
    32
  0
VERTEX
  8
AM_HID
  5
5BB
 10
12.9251
 20
5.83412
 30
0.000000
  70
    32
  0
VERTEX
  8
AM_HID
  5
5BC
 10
12.9256
 20
5.83449
 30
0.000000
  70
    32
  0
VERTEX
  8
AM_HID
  5
5BD
 10
12.9261
 20
5.83485
 30
0.000000
  70
    32
  0
VERTEX
  8
AM_HID
  5
5BE
 10
12.9266
 20
5.83521
 30
0.000000
  70
    32
  0
VERTEX
  8
AM_HID
  5
5BF
 10
12.9270
 20
5.83556
 30
0.000000
  70
    32
  0
VERTEX
  8
AM_HID
  5
5C0
 10
12.9275
 20
5.83589
 30
0.000000
  70
    32
  0
VERTEX
  8
AM_HID
  5
5C1
 10
12.9279
 20
5.83622
 30
0.000000
  70
    32
  0
VERTEX
  8
AM_HID
  5
5C2
 10
12.9284
 20
5.83654
 30
0.000000
  70
    32
  0
VERTEX
  8
AM_HID
  5
5C3
 10
12.9288
 20
5.83686
 30
0.000000
  70
    32
  0
VERTEX
  8
AM_HID
  5
5C4
 10
12.9292
 20
5.83716
 30
0.000000
  70
    32
  0
VERTEX
  8
AM_HID
  5
5C5
 10
12.9296
 20
5.83746
 30
0.000000
  70
    32
  0
VERTEX
  8
AM_HID
  5
5C6
 10
12.9300
 20
5.83775
 30
0.000000
  70
    32
  0
VERTEX
  8
AM_HID
  5
5C7
 10
12.9303
 20
5.83803
 30
0.000000
  70
    32
  0
VERTEX
  8
AM_HID
  5
5C8
 10
12.9307
 20
5.83830
 30
0.000000
  70
    32
  0
VERTEX
  8
AM_HID
  5
5C9
 10
12.9311
 20
5.83857
 30
0.000000
  70
    32
  0
VERTEX
  8
AM_HID
  5
5CA
 10
12.9314
 20
5.83882
 30
0.000000
  70
    32
  0
VERTEX
  8
AM_HID
  5
5CB
 10
12.9317
 20
5.83907
 30
0.000000
  70
    32
  0
VERTEX
  8
AM_HID
  5
5CC
 10
12.9321
 20
5.83931
 30
0.000000
  70
    32
  0
VERTEX
  8
AM_HID
  5
5CD
 10
12.9324
 20
5.83954
 30
0.000000
  70
    32
  0
VERTEX
  8
AM_HID
  5
5CE
 10
12.9327
 20
5.83977
 30
0.000000
  70
    32
  0
VERTEX
  8
AM_HID
  5
5CF
 10
12.9330
 20
5.83998
 30
0.000000
  70
    32
  0
VERTEX
  8
AM_HID
  5
5D0
 10
12.9332
 20
5.84019
 30
0.000000
  70
    32
  0
VERTEX
  8
AM_HID
  5
5D1
 10
12.9335
 20
5.84039
 30
0.000000
  70
    32
  0
VERTEX
  8
AM_HID
  5
5D2
 10
12.9338
 20
5.84058
 30
0.000000
  70
    32
  0
VERTEX
  8
AM_HID
  5
5D3
 10
12.9340
 20
5.84076
 30
0.000000
  70
    32
  0
VERTEX
  8
AM_HID
  5
5D4
 10
12.9342
 20
5.84094
 30
0.000000
  70
    32
  0
VERTEX
  8
AM_HID
  5
5D5
 10
12.9345
 20
5.84110
 30
0.000000
  70
    32
  0
VERTEX
  8
AM_HID
  5
5D6
 10
12.9347
 20
5.84126
 30
0.000000
  70
    32
  0
VERTEX
  8
AM_HID
  5
5D7
 10
12.9349
 20
5.84141
 30
0.000000
  70
    32
  0
VERTEX
  8
AM_HID
  5
5D8
 10
12.9351
 20
5.84155
 30
0.000000
  70
    32
  0
VERTEX
  8
AM_HID
  5
5D9
 10
12.9353
 20
5.84169
 30
0.000000
  70
    32
  0
VERTEX
  8
AM_HID
  5
5DA
 10
12.9354
 20
5.84181
 30
0.000000
  70
    32
  0
VERTEX
  8
AM_HID
  5
5DB
 10
12.9356
 20
5.84193
 30
0.000000
  70
    32
  0
VERTEX
  8
AM_HID
  5
5DC
 10
12.9357
 20
5.84204
 30
0.000000
  70
    32
  0
VERTEX
  8
AM_HID
  5
5DD
 10
12.9359
 20
5.84214
 30
0.000000
  70
    32
  0
VERTEX
  8
AM_HID
  5
5DE
 10
12.9360
 20
5.84224
 30
0.000000
  70
    32
  0
VERTEX
  8
AM_HID
  5
5DF
 10
12.9361
 20
5.84232
 30
0.000000
  70
    32
  0
VERTEX
  8
AM_HID
  5
5E0
 10
12.9362
 20
5.84240
 30
0.000000
  70
    32
  0
VERTEX
  8
AM_HID
  5
5E1
 10
12.9363
 20
5.84247
 30
0.000000
  70
    32
  0
VERTEX
  8
AM_HID
  5
5E2
 10
12.9364
 20
5.84253
 30
0.000000
  70
    32
  0
VERTEX
  8
AM_HID
  5
5E3
 10
12.9365
 20
5.84258
 30
0.000000
  70
    32
  0
VERTEX
  8
AM_HID
  5
5E4
 10
12.9365
 20
5.84262
 30
0.000000
  70
    32
  0
VERTEX
  8
AM_HID
  5
5E5
 10
12.9366
 20
5.84266
 30
0.000000
  70
    32
  0
VERTEX
  8
AM_HID
  5
5E6
 10
12.9366
 20
5.84269
 30
0.000000
  70
    32
  0
VERTEX
  8
AM_HID
  5
5E7
 10
12.9366
 20
5.84271
 30
0.000000
  70
    32
  0
VERTEX
  8
AM_HID
  5
5E8
 10
12.9367
 20
5.84272
 30
0.000000
  70
    32
  0
VERTEX
  8
AM_HID
  5
5E9
 10
12.9367
 20
5.84273
 30
0.000000
  70
    32
  0
SEQEND
  8
AM_HID
  5
5EA
  0
LINE
  5
2E
  8
AM_VIS
 10
10.636666556091001
 20
4.6880253495481083
 30
0.0
 11
12.936666556091
 21
3.360119730411967
 31
0.0
  0
LINE
  5
2F
  8
AM_HID
 10
11.786666556090999
 20
5.5739528144401476
 30
0.0
 11
12.064846474047959
 21
5.783788241905353
 31
0.0
  0
LINE
  5
30
  8
AM_VIS
 10
12.064846474047959
 20
5.7837882419053539
 30
0.0
 11
12.936666556091
 21
6.44141565416363
 31
0.0
  0
LINE
  5
31
  8
AM_VIS
 10
12.936666556091
 20
6.5341693516235511
 30
0.0
 11
10.636666556091001
 21
6.5341693516235511
 31
0.0
  0
CIRCLE
  5
32
  8
AM_VIS
 10
11.786666556090999
 20
5.2216693516235511
 30
0.0
 40
0.3125
  0
POLYLINE
  8
AM_VIS
  5
5EB
  66
     1
 10
0.000000
 20
0.000000
 30
0.000000
  70
     8
  0
VERTEX
  8
AM_VIS
  5
5EC
 10
12.2084
 20
5.22167
 30
0.000000
  70
    32
  0
VERTEX
  8
AM_VIS
  5
5ED
 10
12.2084
 20
5.22081
 30
0.000000
  70
    32
  0
VERTEX
  8
AM_VIS
  5
5EE
 10
12.2084
 20
5.21996
 30
0.000000
  70
    32
  0
VERTEX
  8
AM_VIS
  5
5EF
 10
12.2084
 20
5.21911
 30
0.000000
  70
    32
  0
VERTEX
  8
AM_VIS
  5
5F0
 10
12.2084
 20
5.21825
 30
0.000000
  70
    32
  0
VERTEX
  8
AM_VIS
  5
5F1
 10
12.2084
 20
5.21740
 30
0.000000
  70
    32
  0
VERTEX
  8
AM_VIS
  5
5F2
 10
12.2084
 20
5.21654
 30
0.000000
  70
    32
  0
VERTEX
  8
AM_VIS
  5
5F3
 10
12.2084
 20
5.21569
 30
0.000000
  70
    32
  0
VERTEX
  8
AM_VIS
  5
5F4
 10
12.2084
 20
5.21484
 30
0.000000
  70
    32
  0
VERTEX
  8
AM_VIS
  5
5F5
 10
12.2084
 20
5.21398
 30
0.000000
  70
    32
  0
VERTEX
  8
AM_VIS
  5
5F6
 10
12.2084
 20
5.21313
 30
0.000000
  70
    32
  0
VERTEX
  8
AM_VIS
  5
5F7
 10
12.2083
 20
5.21228
 30
0.000000
  70
    32
  0
VERTEX
  8
AM_VIS
  5
5F8
 10
12.2083
 20
5.21142
 30
0.000000
  70
    32
  0
VERTEX
  8
AM_VIS
  5
5F9
 10
12.2083
 20
5.21057
 30
0.000000
  70
    32
  0
VERTEX
  8
AM_VIS
  5
5FA
 10
12.2083
 20
5.20972
 30
0.000000
  70
    32
  0
VERTEX
  8
AM_VIS
  5
5FB
 10
12.2083
 20
5.20886
 30
0.000000
  70
    32
  0
VERTEX
  8
AM_VIS
  5
5FC
 10
12.2083
 20
5.20801
 30
0.000000
  70
    32
  0
VERTEX
  8
AM_VIS
  5
5FD
 10
12.2082
 20
5.20716
 30
0.000000
  70
    32
  0
VERTEX
  8
AM_VIS
  5
5FE
 10
12.2082
 20
5.20631
 30
0.000000
  70
    32
  0
VERTEX
  8
AM_VIS
  5
5FF
 10
12.2082
 20
5.20545
 30
0.000000
  70
    32
  0
VERTEX
  8
AM_VIS
  5
600
 10
12.2082
 20
5.20460
 30
0.000000
  70
    32
  0
VERTEX
  8
AM_VIS
  5
601
 10
12.2081
 20
5.20375
 30
0.000000
  70
    32
  0
VERTEX
  8
AM_VIS
  5
602
 10
12.2081
 20
5.20290
 30
0.000000
  70
    32
  0
VERTEX
  8
AM_VIS
  5
603
 10
12.2081
 20
5.20205
 30
0.000000
  70
    32
  0
VERTEX
  8
AM_VIS
  5
604
 10
12.2081
 20
5.20120
 30
0.000000
  70
    32
  0
VERTEX
  8
AM_VIS
  5
605
 10
12.2080
 20
5.20034
 30
0.000000
  70
    32
  0
VERTEX
  8
AM_VIS
  5
606
 10
12.2080
 20
5.19949
 30
0.000000
  70
    32
  0
VERTEX
  8
AM_VIS
  5
607
 10
12.2080
 20
5.19864
 30
0.000000
  70
    32
  0
VERTEX
  8
AM_VIS
  5
608
 10
12.2079
 20
5.19779
 30
0.000000
  70
    32
  0
VERTEX
  8
AM_VIS
  5
609
 10
12.2079
 20
5.19694
 30
0.000000
  70
    32
  0
VERTEX
  8
AM_VIS
  5
60A
 10
12.2079
 20
5.19609
 30
0.000000
  70
    32
  0
VERTEX
  8
AM_VIS
  5
60B
 10
12.2078
 20
5.19524
 30
0.000000
  70
    32
  0
VERTEX
  8
AM_VIS
  5
60C
 10
12.2078
 20
5.19439
 30
0.000000
  70
    32
  0
VERTEX
  8
AM_VIS
  5
60D
 10
12.2077
 20
5.19354
 30
0.000000
  70
    32
  0
VERTEX
  8
AM_VIS
  5
60E
 10
12.2077
 20
5.19269
 30
0.000000
  70
    32
  0
VERTEX
  8
AM_VIS
  5
60F
 10
12.2077
 20
5.19184
 30
0.000000
  70
    32
  0
VERTEX
  8
AM_VIS
  5
610
 10
12.2076
 20
5.19099
 30
0.000000
  70
    32
  0
VERTEX
  8
AM_VIS
  5
611
 10
12.2076
 20
5.19014
 30
0.000000
  70
    32
  0
VERTEX
  8
AM_VIS
  5
612
 10
12.2075
 20
5.18929
 30
0.000000
  70
    32
  0
VERTEX
  8
AM_VIS
  5
613
 10
12.2075
 20
5.18844
 30
0.000000
  70
    32
  0
VERTEX
  8
AM_VIS
  5
614
 10
12.2074
 20
5.18759
 30
0.000000
  70
    32
  0
VERTEX
  8
AM_VIS
  5
615
 10
12.2074
 20
5.18674
 30
0.000000
  70
    32
  0
VERTEX
  8
AM_VIS
  5
616
 10
12.2073
 20
5.18590
 30
0.000000
  70
    32
  0
VERTEX
  8
AM_VIS
  5
617
 10
12.2073
 20
5.18505
 30
0.000000
  70
    32
  0
VERTEX
  8
AM_VIS
  5
618
 10
12.2072
 20
5.18420
 30
0.000000
  70
    32
  0
VERTEX
  8
AM_VIS
  5
619
 10
12.2072
 20
5.18335
 30
0.000000
  70
    32
  0
VERTEX
  8
AM_VIS
  5
61A
 10
12.2071
 20
5.18250
 30
0.000000
  70
    32
  0
VERTEX
  8
AM_VIS
  5
61B
 10
12.2070
 20
5.18165
 30
0.000000
  70
    32
  0
VERTEX
  8
AM_VIS
  5
61C
 10
12.2070
 20
5.18080
 30
0.000000
  70
    32
  0
VERTEX
  8
AM_VIS
  5
61D
 10
12.2069
 20
5.17996
 30
0.000000
  70
    32
  0
VERTEX
  8
AM_VIS
  5
61E
 10
12.2069
 20
5.17911
 30
0.000000
  70
    32
  0
VERTEX
  8
AM_VIS
  5
61F
 10
12.2068
 20
5.17826
 30
0.000000
  70
    32
  0
VERTEX
  8
AM_VIS
  5
620
 10
12.2067
 20
5.17741
 30
0.000000
  70
    32
  0
VERTEX
  8
AM_VIS
  5
621
 10
12.2067
 20
5.17657
 30
0.000000
  70
    32
  0
VERTEX
  8
AM_VIS
  5
622
 10
12.2066
 20
5.17572
 30
0.000000
  70
    32
  0
VERTEX
  8
AM_VIS
  5
623
 10
12.2065
 20
5.17487
 30
0.000000
  70
    32
  0
VERTEX
  8
AM_VIS
  5
624
 10
12.2065
 20
5.17402
 30
0.000000
  70
    32
  0
VERTEX
  8
AM_VIS
  5
625
 10
12.2064
 20
5.17318
 30
0.000000
  70
    32
  0
VERTEX
  8
AM_VIS
  5
626
 10
12.2063
 20
5.17233
 30
0.000000
  70
    32
  0
VERTEX
  8
AM_VIS
  5
627
 10
12.2063
 20
5.17148
 30
0.000000
  70
    32
  0
VERTEX
  8
AM_VIS
  5
628
 10
12.2062
 20
5.17064
 30
0.000000
  70
    32
  0
VERTEX
  8
AM_VIS
  5
629
 10
12.2061
 20
5.16979
 30
0.000000
  70
    32
  0
VERTEX
  8
AM_VIS
  5
62A
 10
12.2060
 20
5.16895
 30
0.000000
  70
    32
  0
VERTEX
  8
AM_VIS
  5
62B
 10
12.2060
 20
5.16810
 30
0.000000
  70
    32
  0
VERTEX
  8
AM_VIS
  5
62C
 10
12.2059
 20
5.16725
 30
0.000000
  70
    32
  0
VERTEX
  8
AM_VIS
  5
62D
 10
12.2058
 20
5.16641
 30
0.000000
  70
    32
  0
VERTEX
  8
AM_VIS
  5
62E
 10
12.2057
 20
5.16556
 30
0.000000
  70
    32
  0
VERTEX
  8
AM_VIS
  5
62F
 10
12.2056
 20
5.16472
 30
0.000000
  70
    32
  0
VERTEX
  8
AM_VIS
  5
630
 10
12.2056
 20
5.16387
 30
0.000000
  70
    32
  0
VERTEX
  8
AM_VIS
  5
631
 10
12.2055
 20
5.16302
 30
0.000000
  70
    32
  0
VERTEX
  8
AM_VIS
  5
632
 10
12.2054
 20
5.16218
 30
0.000000
  70
    32
  0
VERTEX
  8
AM_VIS
  5
633
 10
12.2053
 20
5.16133
 30
0.000000
  70
    32
  0
VERTEX
  8
AM_VIS
  5
634
 10
12.2052
 20
5.16049
 30
0.000000
  70
    32
  0
VERTEX
  8
AM_VIS
  5
635
 10
12.2051
 20
5.15964
 30
0.000000
  70
    32
  0
VERTEX
  8
AM_VIS
  5
636
 10
12.2050
 20
5.15880
 30
0.000000
  70
    32
  0
VERTEX
  8
AM_VIS
  5
637
 10
12.2049
 20
5.15795
 30
0.000000
  70
    32
  0
VERTEX
  8
AM_VIS
  5
638
 10
12.2048
 20
5.15711
 30
0.000000
  70
    32
  0
VERTEX
  8
AM_VIS
  5
639
 10
12.2047
 20
5.15627
 30
0.000000
  70
    32
  0
VERTEX
  8
AM_VIS
  5
63A
 10
12.2047
 20
5.15542
 30
0.000000
  70
    32
  0
VERTEX
  8
AM_VIS
  5
63B
 10
12.2046
 20
5.15458
 30
0.000000
  70
    32
  0
VERTEX
  8
AM_VIS
  5
63C
 10
12.2045
 20
5.15373
 30
0.000000
  70
    32
  0
VERTEX
  8
AM_VIS
  5
63D
 10
12.2044
 20
5.15289
 30
0.000000
  70
    32
  0
VERTEX
  8
AM_VIS
  5
63E
 10
12.2043
 20
5.15205
 30
0.000000
  70
    32
  0
VERTEX
  8
AM_VIS
  5
63F
 10
12.2042
 20
5.15120
 30
0.000000
  70
    32
  0
VERTEX
  8
AM_VIS
  5
640
 10
12.2041
 20
5.15036
 30
0.000000
  70
    32
  0
VERTEX
  8
AM_VIS
  5
641
 10
12.2040
 20
5.14951
 30
0.000000
  70
    32
  0
VERTEX
  8
AM_VIS
  5
642
 10
12.2039
 20
5.14867
 30
0.000000
  70
    32
  0
VERTEX
  8
AM_VIS
  5
643
 10
12.2037
 20
5.14783
 30
0.000000
  70
    32
  0
VERTEX
  8
AM_VIS
  5
644
 10
12.2036
 20
5.14698
 30
0.000000
  70
    32
  0
VERTEX
  8
AM_VIS
  5
645
 10
12.2035
 20
5.14614
 30
0.000000
  70
    32
  0
VERTEX
  8
AM_VIS
  5
646
 10
12.2034
 20
5.14530
 30
0.000000
  70
    32
  0
VERTEX
  8
AM_VIS
  5
647
 10
12.2033
 20
5.14446
 30
0.000000
  70
    32
  0
VERTEX
  8
AM_VIS
  5
648
 10
12.2032
 20
5.14361
 30
0.000000
  70
    32
  0
VERTEX
  8
AM_VIS
  5
649
 10
12.2031
 20
5.14277
 30
0.000000
  70
    32
  0
VERTEX
  8
AM_VIS
  5
64A
 10
12.2030
 20
5.14193
 30
0.000000
  70
    32
  0
VERTEX
  8
AM_VIS
  5
64B
 10
12.2029
 20
5.14108
 30
0.000000
  70
    32
  0
VERTEX
  8
AM_VIS
  5
64C
 10
12.2027
 20
5.14024
 30
0.000000
  70
    32
  0
VERTEX
  8
AM_VIS
  5
64D
 10
12.2026
 20
5.13940
 30
0.000000
  70
    32
  0
VERTEX
  8
AM_VIS
  5
64E
 10
12.2025
 20
5.13856
 30
0.000000
  70
    32
  0
VERTEX
  8
AM_VIS
  5
64F
 10
12.2024
 20
5.13772
 30
0.000000
  70
    32
  0
VERTEX
  8
AM_VIS
  5
650
 10
12.2023
 20
5.13687
 30
0.000000
  70
    32
  0
VERTEX
  8
AM_VIS
  5
651
 10
12.2021
 20
5.13603
 30
0.000000
  70
    32
  0
VERTEX
  8
AM_VIS
  5
652
 10
12.2020
 20
5.13519
 30
0.000000
  70
    32
  0
VERTEX
  8
AM_VIS
  5
653
 10
12.2019
 20
5.13435
 30
0.000000
  70
    32
  0
VERTEX
  8
AM_VIS
  5
654
 10
12.2018
 20
5.13351
 30
0.000000
  70
    32
  0
VERTEX
  8
AM_VIS
  5
655
 10
12.2016
 20
5.13267
 30
0.000000
  70
    32
  0
VERTEX
  8
AM_VIS
  5
656
 10
12.2015
 20
5.13183
 30
0.000000
  70
    32
  0
VERTEX
  8
AM_VIS
  5
657
 10
12.2014
 20
5.13098
 30
0.000000
  70
    32
  0
VERTEX
  8
AM_VIS
  5
658
 10
12.2012
 20
5.13014
 30
0.000000
  70
    32
  0
VERTEX
  8
AM_VIS
  5
659
 10
12.2011
 20
5.12930
 30
0.000000
  70
    32
  0
VERTEX
  8
AM_VIS
  5
65A
 10
12.2010
 20
5.12846
 30
0.000000
  70
    32
  0
VERTEX
  8
AM_VIS
  5
65B
 10
12.2008
 20
5.12762
 30
0.000000
  70
    32
  0
VERTEX
  8
AM_VIS
  5
65C
 10
12.2007
 20
5.12678
 30
0.000000
  70
    32
  0
VERTEX
  8
AM_VIS
  5
65D
 10
12.2006
 20
5.12594
 30
0.000000
  70
    32
  0
VERTEX
  8
AM_VIS
  5
65E
 10
12.2004
 20
5.12510
 30
0.000000
  70
    32
  0
VERTEX
  8
AM_VIS
  5
65F
 10
12.2003
 20
5.12426
 30
0.000000
  70
    32
  0
VERTEX
  8
AM_VIS
  5
660
 10
12.2002
 20
5.12342
 30
0.000000
  70
    32
  0
VERTEX
  8
AM_VIS
  5
661
 10
12.2000
 20
5.12258
 30
0.000000
  70
    32
  0
VERTEX
  8
AM_VIS
  5
662
 10
12.1999
 20
5.12174
 30
0.000000
  70
    32
  0
VERTEX
  8
AM_VIS
  5
663
 10
12.1997
 20
5.12090
 30
0.000000
  70
    32
  0
VERTEX
  8
AM_VIS
  5
664
 10
12.1996
 20
5.12006
 30
0.000000
  70
    32
  0
VERTEX
  8
AM_VIS
  5
665
 10
12.1994
 20
5.11922
 30
0.000000
  70
    32
  0
VERTEX
  8
AM_VIS
  5
666
 10
12.1993
 20
5.11838
 30
0.000000
  70
    32
  0
VERTEX
  8
AM_VIS
  5
667
 10
12.1991
 20
5.11754
 30
0.000000
  70
    32
  0
VERTEX
  8
AM_VIS
  5
668
 10
12.1990
 20
5.11670
 30
0.000000
  70
    32
  0
VERTEX
  8
AM_VIS
  5
669
 10
12.1988
 20
5.11586
 30
0.000000
  70
    32
  0
VERTEX
  8
AM_VIS
  5
66A
 10
12.1987
 20
5.11502
 30
0.000000
  70
    32
  0
VERTEX
  8
AM_VIS
  5
66B
 10
12.1985
 20
5.11418
 30
0.000000
  70
    32
  0
SEQEND
  8
AM_VIS
  5
66C
  0
ARC
  5
34
  8
AM_VIS
 10
11.77501278881857
 20
5.2174597984925191
 30
0.0
 40
0.4103297329045465
 50
271.62821010578
 51
310.70568439048202
  0
ARC
  5
36
  8
AM_VIS
 10
11.544102085873121
 20
5.2128973062729393
 30
0.0
 40
0.6643740145056101
 50
0.7565253451851906
 51
24.138970287673509
  0
POLYLINE
  8
AM_VIS
  5
66D
  66
     1
 10
0.000000
 20
0.000000
 30
0.000000
  70
     8
  0
VERTEX
  8
AM_VIS
  5
66E
 10
12.0648
 20
5.78379
 30
0.000000
  70
    32
  0
VERTEX
  8
AM_VIS
  5
66F
 10
12.0646
 20
5.78360
 30
0.000000
  70
    32
  0
VERTEX
  8
AM_VIS
  5
670
 10
12.0643
 20
5.78340
 30
0.000000
  70
    32
  0
VERTEX
  8
AM_VIS
  5
671
 10
12.0641
 20
5.78321
 30
0.000000
  70
    32
  0
VERTEX
  8
AM_VIS
  5
672
 10
12.0638
 20
5.78301
 30
0.000000
  70
    32
  0
VERTEX
  8
AM_VIS
  5
673
 10
12.0636
 20
5.78281
 30
0.000000
  70
    32
  0
VERTEX
  8
AM_VIS
  5
674
 10
12.0633
 20
5.78262
 30
0.000000
  70
    32
  0
VERTEX
  8
AM_VIS
  5
675
 10
12.0631
 20
5.78242
 30
0.000000
  70
    32
  0
VERTEX
  8
AM_VIS
  5
676
 10
12.0628
 20
5.78222
 30
0.000000
  70
    32
  0
VERTEX
  8
AM_VIS
  5
677
 10
12.0626
 20
5.78202
 30
0.000000
  70
    32
  0
VERTEX
  8
AM_VIS
  5
678
 10
12.0623
 20
5.78181
 30
0.000000
  70
    32
  0
VERTEX
  8
AM_VIS
  5
679
 10
12.0621
 20
5.78161
 30
0.000000
  70
    32
  0
VERTEX
  8
AM_VIS
  5
67A
 10
12.0619
 20
5.78141
 30
0.000000
  70
    32
  0
VERTEX
  8
AM_VIS
  5
67B
 10
12.0616
 20
5.78120
 30
0.000000
  70
    32
  0
VERTEX
  8
AM_VIS
  5
67C
 10
12.0614
 20
5.78100
 30
0.000000
  70
    32
  0
VERTEX
  8
AM_VIS
  5
67D
 10
12.0611
 20
5.78079
 30
0.000000
  70
    32
  0
VERTEX
  8
AM_VIS
  5
67E
 10
12.0609
 20
5.78058
 30
0.000000
  70
    32
  0
VERTEX
  8
AM_VIS
  5
67F
 10
12.0606
 20
5.78037
 30
0.000000
  70
    32
  0
VERTEX
  8
AM_VIS
  5
680
 10
12.0604
 20
5.78016
 30
0.000000
  70
    32
  0
VERTEX
  8
AM_VIS
  5
681
 10
12.0602
 20
5.77995
 30
0.000000
  70
    32
  0
VERTEX
  8
AM_VIS
  5
682
 10
12.0599
 20
5.77974
 30
0.000000
  70
    32
  0
VERTEX
  8
AM_VIS
  5
683
 10
12.0597
 20
5.77952
 30
0.000000
  70
    32
  0
VERTEX
  8
AM_VIS
  5
684
 10
12.0595
 20
5.77931
 30
0.000000
  70
    32
  0
VERTEX
  8
AM_VIS
  5
685
 10
12.0592
 20
5.77909
 30
0.000000
  70
    32
  0
VERTEX
  8
AM_VIS
  5
686
 10
12.0590
 20
5.77888
 30
0.000000
  70
    32
  0
VERTEX
  8
AM_VIS
  5
687
 10
12.0588
 20
5.77866
 30
0.000000
  70
    32
  0
VERTEX
  8
AM_VIS
  5
688
 10
12.0585
 20
5.77844
 30
0.000000
  70
    32
  0
VERTEX
  8
AM_VIS
  5
689
 10
12.0583
 20
5.77822
 30
0.000000
  70
    32
  0
VERTEX
  8
AM_VIS
  5
68A
 10
12.0581
 20
5.77800
 30
0.000000
  70
    32
  0
VERTEX
  8
AM_VIS
  5
68B
 10
12.0579
 20
5.77778
 30
0.000000
  70
    32
  0
VERTEX
  8
AM_VIS
  5
68C
 10
12.0576
 20
5.77756
 30
0.000000
  70
    32
  0
VERTEX
  8
AM_VIS
  5
68D
 10
12.0574
 20
5.77734
 30
0.000000
  70
    32
  0
VERTEX
  8
AM_VIS
  5
68E
 10
12.0572
 20
5.77711
 30
0.000000
  70
    32
  0
VERTEX
  8
AM_VIS
  5
68F
 10
12.0570
 20
5.77689
 30
0.000000
  70
    32
  0
VERTEX
  8
AM_VIS
  5
690
 10
12.0568
 20
5.77666
 30
0.000000
  70
    32
  0
VERTEX
  8
AM_VIS
  5
691
 10
12.0565
 20
5.77643
 30
0.000000
  70
    32
  0
VERTEX
  8
AM_VIS
  5
692
 10
12.0563
 20
5.77620
 30
0.000000
  70
    32
  0
VERTEX
  8
AM_VIS
  5
693
 10
12.0561
 20
5.77597
 30
0.000000
  70
    32
  0
VERTEX
  8
AM_VIS
  5
694
 10
12.0559
 20
5.77574
 30
0.000000
  70
    32
  0
VERTEX
  8
AM_VIS
  5
695
 10
12.0557
 20
5.77551
 30
0.000000
  70
    32
  0
VERTEX
  8
AM_VIS
  5
696
 10
12.0555
 20
5.77528
 30
0.000000
  70
    32
  0
VERTEX
  8
AM_VIS
  5
697
 10
12.0553
 20
5.77505
 30
0.000000
  70
    32
  0
VERTEX
  8
AM_VIS
  5
698
 10
12.0551
 20
5.77481
 30
0.000000
  70
    32
  0
VERTEX
  8
AM_VIS
  5
699
 10
12.0549
 20
5.77458
 30
0.000000
  70
    32
  0
VERTEX
  8
AM_VIS
  5
69A
 10
12.0546
 20
5.77434
 30
0.000000
  70
    32
  0
VERTEX
  8
AM_VIS
  5
69B
 10
12.0544
 20
5.77410
 30
0.000000
  70
    32
  0
VERTEX
  8
AM_VIS
  5
69C
 10
12.0542
 20
5.77386
 30
0.000000
  70
    32
  0
VERTEX
  8
AM_VIS
  5
69D
 10
12.0540
 20
5.77362
 30
0.000000
  70
    32
  0
VERTEX
  8
AM_VIS
  5
69E
 10
12.0538
 20
5.77338
 30
0.000000
  70
    32
  0
VERTEX
  8
AM_VIS
  5
69F
 10
12.0536
 20
5.77314
 30
0.000000
  70
    32
  0
VERTEX
  8
AM_VIS
  5
6A0
 10
12.0534
 20
5.77289
 30
0.000000
  70
    32
  0
VERTEX
  8
AM_VIS
  5
6A1
 10
12.0532
 20
5.77265
 30
0.000000
  70
    32
  0
VERTEX
  8
AM_VIS
  5
6A2
 10
12.0530
 20
5.77240
 30
0.000000
  70
    32
  0
VERTEX
  8
AM_VIS
  5
6A3
 10
12.0528
 20
5.77216
 30
0.000000
  70
    32
  0
VERTEX
  8
AM_VIS
  5
6A4
 10
12.0527
 20
5.77191
 30
0.000000
  70
    32
  0
VERTEX
  8
AM_VIS
  5
6A5
 10
12.0525
 20
5.77166
 30
0.000000
  70
    32
  0
VERTEX
  8
AM_VIS
  5
6A6
 10
12.0523
 20
5.77141
 30
0.000000
  70
    32
  0
VERTEX
  8
AM_VIS
  5
6A7
 10
12.0521
 20
5.77116
 30
0.000000
  70
    32
  0
VERTEX
  8
AM_VIS
  5
6A8
 10
12.0519
 20
5.77091
 30
0.000000
  70
    32
  0
VERTEX
  8
AM_VIS
  5
6A9
 10
12.0517
 20
5.77065
 30
0.000000
  70
    32
  0
VERTEX
  8
AM_VIS
  5
6AA
 10
12.0515
 20
5.77040
 30
0.000000
  70
    32
  0
VERTEX
  8
AM_VIS
  5
6AB
 10
12.0513
 20
5.77014
 30
0.000000
  70
    32
  0
VERTEX
  8
AM_VIS
  5
6AC
 10
12.0512
 20
5.76989
 30
0.000000
  70
    32
  0
VERTEX
  8
AM_VIS
  5
6AD
 10
12.0510
 20
5.76963
 30
0.000000
  70
    32
  0
VERTEX
  8
AM_VIS
  5
6AE
 10
12.0508
 20
5.76937
 30
0.000000
  70
    32
  0
VERTEX
  8
AM_VIS
  5
6AF
 10
12.0506
 20
5.76911
 30
0.000000
  70
    32
  0
VERTEX
  8
AM_VIS
  5
6B0
 10
12.0504
 20
5.76885
 30
0.000000
  70
    32
  0
VERTEX
  8
AM_VIS
  5
6B1
 10
12.0503
 20
5.76859
 30
0.000000
  70
    32
  0
VERTEX
  8
AM_VIS
  5
6B2
 10
12.0501
 20
5.76833
 30
0.000000
  70
    32
  0
VERTEX
  8
AM_VIS
  5
6B3
 10
12.0499
 20
5.76806
 30
0.000000
  70
    32
  0
VERTEX
  8
AM_VIS
  5
6B4
 10
12.0498
 20
5.76779
 30
0.000000
  70
    32
  0
VERTEX
  8
AM_VIS
  5
6B5
 10
12.0496
 20
5.76753
 30
0.000000
  70
    32
  0
VERTEX
  8
AM_VIS
  5
6B6
 10
12.0494
 20
5.76726
 30
0.000000
  70
    32
  0
VERTEX
  8
AM_VIS
  5
6B7
 10
12.0493
 20
5.76699
 30
0.000000
  70
    32
  0
VERTEX
  8
AM_VIS
  5
6B8
 10
12.0491
 20
5.76672
 30
0.000000
  70
    32
  0
VERTEX
  8
AM_VIS
  5
6B9
 10
12.0489
 20
5.76645
 30
0.000000
  70
    32
  0
VERTEX
  8
AM_VIS
  5
6BA
 10
12.0488
 20
5.76618
 30
0.000000
  70
    32
  0
VERTEX
  8
AM_VIS
  5
6BB
 10
12.0486
 20
5.76590
 30
0.000000
  70
    32
  0
VERTEX
  8
AM_VIS
  5
6BC
 10
12.0485
 20
5.76563
 30
0.000000
  70
    32
  0
VERTEX
  8
AM_VIS
  5
6BD
 10
12.0483
 20
5.76535
 30
0.000000
  70
    32
  0
VERTEX
  8
AM_VIS
  5
6BE
 10
12.0481
 20
5.76508
 30
0.000000
  70
    32
  0
VERTEX
  8
AM_VIS
  5
6BF
 10
12.0480
 20
5.76480
 30
0.000000
  70
    32
  0
VERTEX
  8
AM_VIS
  5
6C0
 10
12.0478
 20
5.76452
 30
0.000000
  70
    32
  0
VERTEX
  8
AM_VIS
  5
6C1
 10
12.0477
 20
5.76424
 30
0.000000
  70
    32
  0
VERTEX
  8
AM_VIS
  5
6C2
 10
12.0475
 20
5.76396
 30
0.000000
  70
    32
  0
VERTEX
  8
AM_VIS
  5
6C3
 10
12.0474
 20
5.76368
 30
0.000000
  70
    32
  0
VERTEX
  8
AM_VIS
  5
6C4
 10
12.0473
 20
5.76340
 30
0.000000
  70
    32
  0
VERTEX
  8
AM_VIS
  5
6C5
 10
12.0471
 20
5.76312
 30
0.000000
  70
    32
  0
VERTEX
  8
AM_VIS
  5
6C6
 10
12.0470
 20
5.76284
 30
0.000000
  70
    32
  0
VERTEX
  8
AM_VIS
  5
6C7
 10
12.0468
 20
5.76255
 30
0.000000
  70
    32
  0
VERTEX
  8
AM_VIS
  5
6C8
 10
12.0467
 20
5.76227
 30
0.000000
  70
    32
  0
VERTEX
  8
AM_VIS
  5
6C9
 10
12.0466
 20
5.76199
 30
0.000000
  70
    32
  0
VERTEX
  8
AM_VIS
  5
6CA
 10
12.0464
 20
5.76170
 30
0.000000
  70
    32
  0
VERTEX
  8
AM_VIS
  5
6CB
 10
12.0463
 20
5.76142
 30
0.000000
  70
    32
  0
VERTEX
  8
AM_VIS
  5
6CC
 10
12.0462
 20
5.76113
 30
0.000000
  70
    32
  0
VERTEX
  8
AM_VIS
  5
6CD
 10
12.0460
 20
5.76084
 30
0.000000
  70
    32
  0
VERTEX
  8
AM_VIS
  5
6CE
 10
12.0459
 20
5.76056
 30
0.000000
  70
    32
  0
VERTEX
  8
AM_VIS
  5
6CF
 10
12.0458
 20
5.76027
 30
0.000000
  70
    32
  0
VERTEX
  8
AM_VIS
  5
6D0
 10
12.0457
 20
5.75998
 30
0.000000
  70
    32
  0
VERTEX
  8
AM_VIS
  5
6D1
 10
12.0456
 20
5.75969
 30
0.000000
  70
    32
  0
VERTEX
  8
AM_VIS
  5
6D2
 10
12.0454
 20
5.75940
 30
0.000000
  70
    32
  0
VERTEX
  8
AM_VIS
  5
6D3
 10
12.0453
 20
5.75911
 30
0.000000
  70
    32
  0
VERTEX
  8
AM_VIS
  5
6D4
 10
12.0452
 20
5.75882
 30
0.000000
  70
    32
  0
VERTEX
  8
AM_VIS
  5
6D5
 10
12.0451
 20
5.75853
 30
0.000000
  70
    32
  0
VERTEX
  8
AM_VIS
  5
6D6
 10
12.0450
 20
5.75824
 30
0.000000
  70
    32
  0
VERTEX
  8
AM_VIS
  5
6D7
 10
12.0449
 20
5.75794
 30
0.000000
  70
    32
  0
VERTEX
  8
AM_VIS
  5
6D8
 10
12.0448
 20
5.75765
 30
0.000000
  70
    32
  0
VERTEX
  8
AM_VIS
  5
6D9
 10
12.0447
 20
5.75736
 30
0.000000
  70
    32
  0
VERTEX
  8
AM_VIS
  5
6DA
 10
12.0445
 20
5.75706
 30
0.000000
  70
    32
  0
VERTEX
  8
AM_VIS
  5
6DB
 10
12.0444
 20
5.75676
 30
0.000000
  70
    32
  0
VERTEX
  8
AM_VIS
  5
6DC
 10
12.0443
 20
5.75647
 30
0.000000
  70
    32
  0
VERTEX
  8
AM_VIS
  5
6DD
 10
12.0442
 20
5.75617
 30
0.000000
  70
    32
  0
VERTEX
  8
AM_VIS
  5
6DE
 10
12.0441
 20
5.75587
 30
0.000000
  70
    32
  0
VERTEX
  8
AM_VIS
  5
6DF
 10
12.0441
 20
5.75558
 30
0.000000
  70
    32
  0
VERTEX
  8
AM_VIS
  5
6E0
 10
12.0440
 20
5.75528
 30
0.000000
  70
    32
  0
VERTEX
  8
AM_VIS
  5
6E1
 10
12.0439
 20
5.75498
 30
0.000000
  70
    32
  0
VERTEX
  8
AM_VIS
  5
6E2
 10
12.0438
 20
5.75468
 30
0.000000
  70
    32
  0
VERTEX
  8
AM_VIS
  5
6E3
 10
12.0437
 20
5.75438
 30
0.000000
  70
    32
  0
VERTEX
  8
AM_VIS
  5
6E4
 10
12.0436
 20
5.75408
 30
0.000000
  70
    32
  0
VERTEX
  8
AM_VIS
  5
6E5
 10
12.0435
 20
5.75377
 30
0.000000
  70
    32
  0
VERTEX
  8
AM_VIS
  5
6E6
 10
12.0434
 20
5.75347
 30
0.000000
  70
    32
  0
VERTEX
  8
AM_VIS
  5
6E7
 10
12.0433
 20
5.75317
 30
0.000000
  70
    32
  0
VERTEX
  8
AM_VIS
  5
6E8
 10
12.0433
 20
5.75286
 30
0.000000
  70
    32
  0
VERTEX
  8
AM_VIS
  5
6E9
 10
12.0432
 20
5.75256
 30
0.000000
  70
    32
  0
VERTEX
  8
AM_VIS
  5
6EA
 10
12.0431
 20
5.75225
 30
0.000000
  70
    32
  0
VERTEX
  8
AM_VIS
  5
6EB
 10
12.0430
 20
5.75195
 30
0.000000
  70
    32
  0
VERTEX
  8
AM_VIS
  5
6EC
 10
12.0430
 20
5.75164
 30
0.000000
  70
    32
  0
VERTEX
  8
AM_VIS
  5
6ED
 10
12.0429
 20
5.75133
 30
0.000000
  70
    32
  0
VERTEX
  8
AM_VIS
  5
6EE
 10
12.0428
 20
5.75103
 30
0.000000
  70
    32
  0
VERTEX
  8
AM_VIS
  5
6EF
 10
12.0427
 20
5.75072
 30
0.000000
  70
    32
  0
VERTEX
  8
AM_VIS
  5
6F0
 10
12.0427
 20
5.75041
 30
0.000000
  70
    32
  0
VERTEX
  8
AM_VIS
  5
6F1
 10
12.0426
 20
5.75010
 30
0.000000
  70
    32
  0
VERTEX
  8
AM_VIS
  5
6F2
 10
12.0426
 20
5.74979
 30
0.000000
  70
    32
  0
VERTEX
  8
AM_VIS
  5
6F3
 10
12.0425
 20
5.74948
 30
0.000000
  70
    32
  0
VERTEX
  8
AM_VIS
  5
6F4
 10
12.0424
 20
5.74917
 30
0.000000
  70
    32
  0
VERTEX
  8
AM_VIS
  5
6F5
 10
12.0424
 20
5.74886
 30
0.000000
  70
    32
  0
VERTEX
  8
AM_VIS
  5
6F6
 10
12.0423
 20
5.74854
 30
0.000000
  70
    32
  0
VERTEX
  8
AM_VIS
  5
6F7
 10
12.0423
 20
5.74823
 30
0.000000
  70
    32
  0
VERTEX
  8
AM_VIS
  5
6F8
 10
12.0422
 20
5.74792
 30
0.000000
  70
    32
  0
VERTEX
  8
AM_VIS
  5
6F9
 10
12.0422
 20
5.74760
 30
0.000000
  70
    32
  0
VERTEX
  8
AM_VIS
  5
6FA
 10
12.0421
 20
5.74729
 30
0.000000
  70
    32
  0
VERTEX
  8
AM_VIS
  5
6FB
 10
12.0421
 20
5.74697
 30
0.000000
  70
    32
  0
VERTEX
  8
AM_VIS
  5
6FC
 10
12.0420
 20
5.74666
 30
0.000000
  70
    32
  0
VERTEX
  8
AM_VIS
  5
6FD
 10
12.0420
 20
5.74635
 30
0.000000
  70
    32
  0
VERTEX
  8
AM_VIS
  5
6FE
 10
12.0419
 20
5.74603
 30
0.000000
  70
    32
  0
VERTEX
  8
AM_VIS
  5
6FF
 10
12.0419
 20
5.74572
 30
0.000000
  70
    32
  0
VERTEX
  8
AM_VIS
  5
700
 10
12.0418
 20
5.74540
 30
0.000000
  70
    32
  0
VERTEX
  8
AM_VIS
  5
701
 10
12.0418
 20
5.74509
 30
0.000000
  70
    32
  0
VERTEX
  8
AM_VIS
  5
702
 10
12.0418
 20
5.74477
 30
0.000000
  70
    32
  0
VERTEX
  8
AM_VIS
  5
703
 10
12.0417
 20
5.74445
 30
0.000000
  70
    32
  0
VERTEX
  8
AM_VIS
  5
704
 10
12.0417
 20
5.74414
 30
0.000000
  70
    32
  0
VERTEX
  8
AM_VIS
  5
705
 10
12.0417
 20
5.74382
 30
0.000000
  70
    32
  0
VERTEX
  8
AM_VIS
  5
706
 10
12.0416
 20
5.74351
 30
0.000000
  70
    32
  0
VERTEX
  8
AM_VIS
  5
707
 10
12.0416
 20
5.74319
 30
0.000000
  70
    32
  0
VERTEX
  8
AM_VIS
  5
708
 10
12.0416
 20
5.74287
 30
0.000000
  70
    32
  0
VERTEX
  8
AM_VIS
  5
709
 10
12.0415
 20
5.74256
 30
0.000000
  70
    32
  0
VERTEX
  8
AM_VIS
  5
70A
 10
12.0415
 20
5.74224
 30
0.000000
  70
    32
  0
VERTEX
  8
AM_VIS
  5
70B
 10
12.0415
 20
5.74192
 30
0.000000
  70
    32
  0
VERTEX
  8
AM_VIS
  5
70C
 10
12.0415
 20
5.74161
 30
0.000000
  70
    32
  0
VERTEX
  8
AM_VIS
  5
70D
 10
12.0414
 20
5.74129
 30
0.000000
  70
    32
  0
VERTEX
  8
AM_VIS
  5
70E
 10
12.0414
 20
5.74097
 30
0.000000
  70
    32
  0
VERTEX
  8
AM_VIS
  5
70F
 10
12.0414
 20
5.74065
 30
0.000000
  70
    32
  0
VERTEX
  8
AM_VIS
  5
710
 10
12.0414
 20
5.74034
 30
0.000000
  70
    32
  0
VERTEX
  8
AM_VIS
  5
711
 10
12.0414
 20
5.74002
 30
0.000000
  70
    32
  0
VERTEX
  8
AM_VIS
  5
712
 10
12.0414
 20
5.73970
 30
0.000000
  70
    32
  0
VERTEX
  8
AM_VIS
  5
713
 10
12.0414
 20
5.73938
 30
0.000000
  70
    32
  0
VERTEX
  8
AM_VIS
  5
714
 10
12.0413
 20
5.73906
 30
0.000000
  70
    32
  0
VERTEX
  8
AM_VIS
  5
715
 10
12.0413
 20
5.73874
 30
0.000000
  70
    32
  0
VERTEX
  8
AM_VIS
  5
716
 10
12.0413
 20
5.73843
 30
0.000000
  70
    32
  0
VERTEX
  8
AM_VIS
  5
717
 10
12.0413
 20
5.73811
 30
0.000000
  70
    32
  0
VERTEX
  8
AM_VIS
  5
718
 10
12.0413
 20
5.73779
 30
0.000000
  70
    32
  0
VERTEX
  8
AM_VIS
  5
719
 10
12.0413
 20
5.73747
 30
0.000000
  70
    32
  0
VERTEX
  8
AM_VIS
  5
71A
 10
12.0413
 20
5.73715
 30
0.000000
  70
    32
  0
VERTEX
  8
AM_VIS
  5
71B
 10
12.0413
 20
5.73683
 30
0.000000
  70
    32
  0
VERTEX
  8
AM_VIS
  5
71C
 10
12.0413
 20
5.73652
 30
0.000000
  70
    32
  0
VERTEX
  8
AM_VIS
  5
71D
 10
12.0413
 20
5.73620
 30
0.000000
  70
    32
  0
VERTEX
  8
AM_VIS
  5
71E
 10
12.0413
 20
5.73588
 30
0.000000
  70
    32
  0
VERTEX
  8
AM_VIS
  5
71F
 10
12.0413
 20
5.73556
 30
0.000000
  70
    32
  0
VERTEX
  8
AM_VIS
  5
720
 10
12.0413
 20
5.73524
 30
0.000000
  70
    32
  0
VERTEX
  8
AM_VIS
  5
721
 10
12.0413
 20
5.73492
 30
0.000000
  70
    32
  0
VERTEX
  8
AM_VIS
  5
722
 10
12.0413
 20
5.73460
 30
0.000000
  70
    32
  0
VERTEX
  8
AM_VIS
  5
723
 10
12.0413
 20
5.73428
 30
0.000000
  70
    32
  0
VERTEX
  8
AM_VIS
  5
724
 10
12.0414
 20
5.73396
 30
0.000000
  70
    32
  0
VERTEX
  8
AM_VIS
  5
725
 10
12.0414
 20
5.73365
 30
0.000000
  70
    32
  0
VERTEX
  8
AM_VIS
  5
726
 10
12.0414
 20
5.73333
 30
0.000000
  70
    32
  0
VERTEX
  8
AM_VIS
  5
727
 10
12.0414
 20
5.73301
 30
0.000000
  70
    32
  0
VERTEX
  8
AM_VIS
  5
728
 10
12.0414
 20
5.73269
 30
0.000000
  70
    32
  0
VERTEX
  8
AM_VIS
  5
729
 10
12.0414
 20
5.73237
 30
0.000000
  70
    32
  0
VERTEX
  8
AM_VIS
  5
72A
 10
12.0414
 20
5.73205
 30
0.000000
  70
    32
  0
VERTEX
  8
AM_VIS
  5
72B
 10
12.0415
 20
5.73173
 30
0.000000
  70
    32
  0
VERTEX
  8
AM_VIS
  5
72C
 10
12.0415
 20
5.73141
 30
0.000000
  70
    32
  0
VERTEX
  8
AM_VIS
  5
72D
 10
12.0415
 20
5.73109
 30
0.000000
  70
    32
  0
VERTEX
  8
AM_VIS
  5
72E
 10
12.0415
 20
5.73078
 30
0.000000
  70
    32
  0
VERTEX
  8
AM_VIS
  5
72F
 10
12.0416
 20
5.73046
 30
0.000000
  70
    32
  0
VERTEX
  8
AM_VIS
  5
730
 10
12.0416
 20
5.73014
 30
0.000000
  70
    32
  0
VERTEX
  8
AM_VIS
  5
731
 10
12.0416
 20
5.72982
 30
0.000000
  70
    32
  0
VERTEX
  8
AM_VIS
  5
732
 10
12.0416
 20
5.72950
 30
0.000000
  70
    32
  0
VERTEX
  8
AM_VIS
  5
733
 10
12.0417
 20
5.72918
 30
0.000000
  70
    32
  0
VERTEX
  8
AM_VIS
  5
734
 10
12.0417
 20
5.72886
 30
0.000000
  70
    32
  0
VERTEX
  8
AM_VIS
  5
735
 10
12.0417
 20
5.72855
 30
0.000000
  70
    32
  0
VERTEX
  8
AM_VIS
  5
736
 10
12.0418
 20
5.72823
 30
0.000000
  70
    32
  0
VERTEX
  8
AM_VIS
  5
737
 10
12.0418
 20
5.72791
 30
0.000000
  70
    32
  0
VERTEX
  8
AM_VIS
  5
738
 10
12.0418
 20
5.72759
 30
0.000000
  70
    32
  0
VERTEX
  8
AM_VIS
  5
739
 10
12.0419
 20
5.72727
 30
0.000000
  70
    32
  0
VERTEX
  8
AM_VIS
  5
73A
 10
12.0419
 20
5.72696
 30
0.000000
  70
    32
  0
VERTEX
  8
AM_VIS
  5
73B
 10
12.0419
 20
5.72664
 30
0.000000
  70
    32
  0
VERTEX
  8
AM_VIS
  5
73C
 10
12.0420
 20
5.72632
 30
0.000000
  70
    32
  0
VERTEX
  8
AM_VIS
  5
73D
 10
12.0420
 20
5.72600
 30
0.000000
  70
    32
  0
VERTEX
  8
AM_VIS
  5
73E
 10
12.0420
 20
5.72569
 30
0.000000
  70
    32
  0
VERTEX
  8
AM_VIS
  5
73F
 10
12.0421
 20
5.72537
 30
0.000000
  70
    32
  0
VERTEX
  8
AM_VIS
  5
740
 10
12.0421
 20
5.72505
 30
0.000000
  70
    32
  0
VERTEX
  8
AM_VIS
  5
741
 10
12.0422
 20
5.72474
 30
0.000000
  70
    32
  0
VERTEX
  8
AM_VIS
  5
742
 10
12.0422
 20
5.72442
 30
0.000000
  70
    32
  0
VERTEX
  8
AM_VIS
  5
743
 10
12.0423
 20
5.72410
 30
0.000000
  70
    32
  0
VERTEX
  8
AM_VIS
  5
744
 10
12.0423
 20
5.72379
 30
0.000000
  70
    32
  0
VERTEX
  8
AM_VIS
  5
745
 10
12.0424
 20
5.72347
 30
0.000000
  70
    32
  0
VERTEX
  8
AM_VIS
  5
746
 10
12.0424
 20
5.72315
 30
0.000000
  70
    32
  0
VERTEX
  8
AM_VIS
  5
747
 10
12.0425
 20
5.72284
 30
0.000000
  70
    32
  0
VERTEX
  8
AM_VIS
  5
748
 10
12.0425
 20
5.72252
 30
0.000000
  70
    32
  0
VERTEX
  8
AM_VIS
  5
749
 10
12.0426
 20
5.72220
 30
0.000000
  70
    32
  0
VERTEX
  8
AM_VIS
  5
74A
 10
12.0426
 20
5.72189
 30
0.000000
  70
    32
  0
VERTEX
  8
AM_VIS
  5
74B
 10
12.0427
 20
5.72157
 30
0.000000
  70
    32
  0
VERTEX
  8
AM_VIS
  5
74C
 10
12.0427
 20
5.72125
 30
0.000000
  70
    32
  0
VERTEX
  8
AM_VIS
  5
74D
 10
12.0428
 20
5.72093
 30
0.000000
  70
    32
  0
VERTEX
  8
AM_VIS
  5
74E
 10
12.0428
 20
5.72061
 30
0.000000
  70
    32
  0
VERTEX
  8
AM_VIS
  5
74F
 10
12.0429
 20
5.72029
 30
0.000000
  70
    32
  0
VERTEX
  8
AM_VIS
  5
750
 10
12.0429
 20
5.71997
 30
0.000000
  70
    32
  0
VERTEX
  8
AM_VIS
  5
751
 10
12.0430
 20
5.71965
 30
0.000000
  70
    32
  0
VERTEX
  8
AM_VIS
  5
752
 10
12.0431
 20
5.71933
 30
0.000000
  70
    32
  0
VERTEX
  8
AM_VIS
  5
753
 10
12.0431
 20
5.71901
 30
0.000000
  70
    32
  0
VERTEX
  8
AM_VIS
  5
754
 10
12.0432
 20
5.71868
 30
0.000000
  70
    32
  0
VERTEX
  8
AM_VIS
  5
755
 10
12.0432
 20
5.71836
 30
0.000000
  70
    32
  0
VERTEX
  8
AM_VIS
  5
756
 10
12.0433
 20
5.71803
 30
0.000000
  70
    32
  0
VERTEX
  8
AM_VIS
  5
757
 10
12.0434
 20
5.71771
 30
0.000000
  70
    32
  0
VERTEX
  8
AM_VIS
  5
758
 10
12.0434
 20
5.71738
 30
0.000000
  70
    32
  0
VERTEX
  8
AM_VIS
  5
759
 10
12.0435
 20
5.71706
 30
0.000000
  70
    32
  0
VERTEX
  8
AM_VIS
  5
75A
 10
12.0436
 20
5.71673
 30
0.000000
  70
    32
  0
VERTEX
  8
AM_VIS
  5
75B
 10
12.0436
 20
5.71640
 30
0.000000
  70
    32
  0
VERTEX
  8
AM_VIS
  5
75C
 10
12.0437
 20
5.71608
 30
0.000000
  70
    32
  0
VERTEX
  8
AM_VIS
  5
75D
 10
12.0438
 20
5.71575
 30
0.000000
  70
    32
  0
VERTEX
  8
AM_VIS
  5
75E
 10
12.0439
 20
5.71542
 30
0.000000
  70
    32
  0
VERTEX
  8
AM_VIS
  5
75F
 10
12.0439
 20
5.71509
 30
0.000000
  70
    32
  0
VERTEX
  8
AM_VIS
  5
760
 10
12.0440
 20
5.71476
 30
0.000000
  70
    32
  0
VERTEX
  8
AM_VIS
  5
761
 10
12.0441
 20
5.71443
 30
0.000000
  70
    32
  0
VERTEX
  8
AM_VIS
  5
762
 10
12.0442
 20
5.71410
 30
0.000000
  70
    32
  0
VERTEX
  8
AM_VIS
  5
763
 10
12.0442
 20
5.71376
 30
0.000000
  70
    32
  0
VERTEX
  8
AM_VIS
  5
764
 10
12.0443
 20
5.71343
 30
0.000000
  70
    32
  0
VERTEX
  8
AM_VIS
  5
765
 10
12.0444
 20
5.71310
 30
0.000000
  70
    32
  0
VERTEX
  8
AM_VIS
  5
766
 10
12.0445
 20
5.71276
 30
0.000000
  70
    32
  0
VERTEX
  8
AM_VIS
  5
767
 10
12.0446
 20
5.71243
 30
0.000000
  70
    32
  0
VERTEX
  8
AM_VIS
  5
768
 10
12.0446
 20
5.71209
 30
0.000000
  70
    32
  0
VERTEX
  8
AM_VIS
  5
769
 10
12.0447
 20
5.71176
 30
0.000000
  70
    32
  0
VERTEX
  8
AM_VIS
  5
76A
 10
12.0448
 20
5.71142
 30
0.000000
  70
    32
  0
VERTEX
  8
AM_VIS
  5
76B
 10
12.0449
 20
5.71109
 30
0.000000
  70
    32
  0
VERTEX
  8
AM_VIS
  5
76C
 10
12.0450
 20
5.71075
 30
0.000000
  70
    32
  0
VERTEX
  8
AM_VIS
  5
76D
 10
12.0451
 20
5.71041
 30
0.000000
  70
    32
  0
VERTEX
  8
AM_VIS
  5
76E
 10
12.0451
 20
5.71007
 30
0.000000
  70
    32
  0
VERTEX
  8
AM_VIS
  5
76F
 10
12.0452
 20
5.70973
 30
0.000000
  70
    32
  0
VERTEX
  8
AM_VIS
  5
770
 10
12.0453
 20
5.70939
 30
0.000000
  70
    32
  0
VERTEX
  8
AM_VIS
  5
771
 10
12.0454
 20
5.70905
 30
0.000000
  70
    32
  0
VERTEX
  8
AM_VIS
  5
772
 10
12.0455
 20
5.70871
 30
0.000000
  70
    32
  0
VERTEX
  8
AM_VIS
  5
773
 10
12.0456
 20
5.70837
 30
0.000000
  70
    32
  0
VERTEX
  8
AM_VIS
  5
774
 10
12.0457
 20
5.70802
 30
0.000000
  70
    32
  0
VERTEX
  8
AM_VIS
  5
775
 10
12.0458
 20
5.70768
 30
0.000000
  70
    32
  0
VERTEX
  8
AM_VIS
  5
776
 10
12.0459
 20
5.70734
 30
0.000000
  70
    32
  0
VERTEX
  8
AM_VIS
  5
777
 10
12.0460
 20
5.70699
 30
0.000000
  70
    32
  0
VERTEX
  8
AM_VIS
  5
778
 10
12.0461
 20
5.70665
 30
0.000000
  70
    32
  0
VERTEX
  8
AM_VIS
  5
779
 10
12.0462
 20
5.70630
 30
0.000000
  70
    32
  0
VERTEX
  8
AM_VIS
  5
77A
 10
12.0463
 20
5.70595
 30
0.000000
  70
    32
  0
VERTEX
  8
AM_VIS
  5
77B
 10
12.0464
 20
5.70561
 30
0.000000
  70
    32
  0
VERTEX
  8
AM_VIS
  5
77C
 10
12.0465
 20
5.70526
 30
0.000000
  70
    32
  0
VERTEX
  8
AM_VIS
  5
77D
 10
12.0466
 20
5.70491
 30
0.000000
  70
    32
  0
VERTEX
  8
AM_VIS
  5
77E
 10
12.0467
 20
5.70456
 30
0.000000
  70
    32
  0
VERTEX
  8
AM_VIS
  5
77F
 10
12.0468
 20
5.70421
 30
0.000000
  70
    32
  0
VERTEX
  8
AM_VIS
  5
780
 10
12.0469
 20
5.70386
 30
0.000000
  70
    32
  0
VERTEX
  8
AM_VIS
  5
781
 10
12.0470
 20
5.70351
 30
0.000000
  70
    32
  0
VERTEX
  8
AM_VIS
  5
782
 10
12.0471
 20
5.70316
 30
0.000000
  70
    32
  0
VERTEX
  8
AM_VIS
  5
783
 10
12.0472
 20
5.70281
 30
0.000000
  70
    32
  0
VERTEX
  8
AM_VIS
  5
784
 10
12.0473
 20
5.70245
 30
0.000000
  70
    32
  0
VERTEX
  8
AM_VIS
  5
785
 10
12.0474
 20
5.70210
 30
0.000000
  70
    32
  0
VERTEX
  8
AM_VIS
  5
786
 10
12.0475
 20
5.70174
 30
0.000000
  70
    32
  0
VERTEX
  8
AM_VIS
  5
787
 10
12.0477
 20
5.70139
 30
0.000000
  70
    32
  0
VERTEX
  8
AM_VIS
  5
788
 10
12.0478
 20
5.70103
 30
0.000000
  70
    32
  0
VERTEX
  8
AM_VIS
  5
789
 10
12.0479
 20
5.70068
 30
0.000000
  70
    32
  0
VERTEX
  8
AM_VIS
  5
78A
 10
12.0480
 20
5.70032
 30
0.000000
  70
    32
  0
VERTEX
  8
AM_VIS
  5
78B
 10
12.0481
 20
5.69996
 30
0.000000
  70
    32
  0
VERTEX
  8
AM_VIS
  5
78C
 10
12.0482
 20
5.69960
 30
0.000000
  70
    32
  0
VERTEX
  8
AM_VIS
  5
78D
 10
12.0483
 20
5.69924
 30
0.000000
  70
    32
  0
VERTEX
  8
AM_VIS
  5
78E
 10
12.0485
 20
5.69888
 30
0.000000
  70
    32
  0
VERTEX
  8
AM_VIS
  5
78F
 10
12.0486
 20
5.69852
 30
0.000000
  70
    32
  0
VERTEX
  8
AM_VIS
  5
790
 10
12.0487
 20
5.69816
 30
0.000000
  70
    32
  0
VERTEX
  8
AM_VIS
  5
791
 10
12.0488
 20
5.69780
 30
0.000000
  70
    32
  0
VERTEX
  8
AM_VIS
  5
792
 10
12.0489
 20
5.69744
 30
0.000000
  70
    32
  0
VERTEX
  8
AM_VIS
  5
793
 10
12.0491
 20
5.69708
 30
0.000000
  70
    32
  0
VERTEX
  8
AM_VIS
  5
794
 10
12.0492
 20
5.69671
 30
0.000000
  70
    32
  0
VERTEX
  8
AM_VIS
  5
795
 10
12.0493
 20
5.69635
 30
0.000000
  70
    32
  0
VERTEX
  8
AM_VIS
  5
796
 10
12.0494
 20
5.69598
 30
0.000000
  70
    32
  0
VERTEX
  8
AM_VIS
  5
797
 10
12.0496
 20
5.69562
 30
0.000000
  70
    32
  0
VERTEX
  8
AM_VIS
  5
798
 10
12.0497
 20
5.69525
 30
0.000000
  70
    32
  0
VERTEX
  8
AM_VIS
  5
799
 10
12.0498
 20
5.69488
 30
0.000000
  70
    32
  0
VERTEX
  8
AM_VIS
  5
79A
 10
12.0500
 20
5.69451
 30
0.000000
  70
    32
  0
VERTEX
  8
AM_VIS
  5
79B
 10
12.0501
 20
5.69414
 30
0.000000
  70
    32
  0
VERTEX
  8
AM_VIS
  5
79C
 10
12.0502
 20
5.69378
 30
0.000000
  70
    32
  0
VERTEX
  8
AM_VIS
  5
79D
 10
12.0503
 20
5.69341
 30
0.000000
  70
    32
  0
VERTEX
  8
AM_VIS
  5
79E
 10
12.0505
 20
5.69303
 30
0.000000
  70
    32
  0
VERTEX
  8
AM_VIS
  5
79F
 10
12.0506
 20
5.69266
 30
0.000000
  70
    32
  0
VERTEX
  8
AM_VIS
  5
7A0
 10
12.0507
 20
5.69229
 30
0.000000
  70
    32
  0
VERTEX
  8
AM_VIS
  5
7A1
 10
12.0509
 20
5.69192
 30
0.000000
  70
    32
  0
VERTEX
  8
AM_VIS
  5
7A2
 10
12.0510
 20
5.69154
 30
0.000000
  70
    32
  0
VERTEX
  8
AM_VIS
  5
7A3
 10
12.0512
 20
5.69117
 30
0.000000
  70
    32
  0
VERTEX
  8
AM_VIS
  5
7A4
 10
12.0513
 20
5.69079
 30
0.000000
  70
    32
  0
VERTEX
  8
AM_VIS
  5
7A5
 10
12.0514
 20
5.69042
 30
0.000000
  70
    32
  0
VERTEX
  8
AM_VIS
  5
7A6
 10
12.0516
 20
5.69004
 30
0.000000
  70
    32
  0
VERTEX
  8
AM_VIS
  5
7A7
 10
12.0517
 20
5.68967
 30
0.000000
  70
    32
  0
VERTEX
  8
AM_VIS
  5
7A8
 10
12.0519
 20
5.68929
 30
0.000000
  70
    32
  0
VERTEX
  8
AM_VIS
  5
7A9
 10
12.0520
 20
5.68891
 30
0.000000
  70
    32
  0
VERTEX
  8
AM_VIS
  5
7AA
 10
12.0521
 20
5.68853
 30
0.000000
  70
    32
  0
VERTEX
  8
AM_VIS
  5
7AB
 10
12.0523
 20
5.68815
 30
0.000000
  70
    32
  0
VERTEX
  8
AM_VIS
  5
7AC
 10
12.0524
 20
5.68777
 30
0.000000
  70
    32
  0
VERTEX
  8
AM_VIS
  5
7AD
 10
12.0526
 20
5.68739
 30
0.000000
  70
    32
  0
VERTEX
  8
AM_VIS
  5
7AE
 10
12.0527
 20
5.68701
 30
0.000000
  70
    32
  0
VERTEX
  8
AM_VIS
  5
7AF
 10
12.0529
 20
5.68662
 30
0.000000
  70
    32
  0
VERTEX
  8
AM_VIS
  5
7B0
 10
12.0530
 20
5.68624
 30
0.000000
  70
    32
  0
VERTEX
  8
AM_VIS
  5
7B1
 10
12.0532
 20
5.68585
 30
0.000000
  70
    32
  0
VERTEX
  8
AM_VIS
  5
7B2
 10
12.0533
 20
5.68547
 30
0.000000
  70
    32
  0
VERTEX
  8
AM_VIS
  5
7B3
 10
12.0535
 20
5.68508
 30
0.000000
  70
    32
  0
VERTEX
  8
AM_VIS
  5
7B4
 10
12.0536
 20
5.68470
 30
0.000000
  70
    32
  0
VERTEX
  8
AM_VIS
  5
7B5
 10
12.0538
 20
5.68431
 30
0.000000
  70
    32
  0
VERTEX
  8
AM_VIS
  5
7B6
 10
12.0539
 20
5.68392
 30
0.000000
  70
    32
  0
VERTEX
  8
AM_VIS
  5
7B7
 10
12.0541
 20
5.68353
 30
0.000000
  70
    32
  0
VERTEX
  8
AM_VIS
  5
7B8
 10
12.0542
 20
5.68314
 30
0.000000
  70
    32
  0
VERTEX
  8
AM_VIS
  5
7B9
 10
12.0544
 20
5.68275
 30
0.000000
  70
    32
  0
VERTEX
  8
AM_VIS
  5
7BA
 10
12.0546
 20
5.68236
 30
0.000000
  70
    32
  0
VERTEX
  8
AM_VIS
  5
7BB
 10
12.0547
 20
5.68197
 30
0.000000
  70
    32
  0
VERTEX
  8
AM_VIS
  5
7BC
 10
12.0549
 20
5.68158
 30
0.000000
  70
    32
  0
VERTEX
  8
AM_VIS
  5
7BD
 10
12.0550
 20
5.68118
 30
0.000000
  70
    32
  0
VERTEX
  8
AM_VIS
  5
7BE
 10
12.0552
 20
5.68079
 30
0.000000
  70
    32
  0
VERTEX
  8
AM_VIS
  5
7BF
 10
12.0554
 20
5.68040
 30
0.000000
  70
    32
  0
VERTEX
  8
AM_VIS
  5
7C0
 10
12.0555
 20
5.68000
 30
0.000000
  70
    32
  0
VERTEX
  8
AM_VIS
  5
7C1
 10
12.0557
 20
5.67960
 30
0.000000
  70
    32
  0
VERTEX
  8
AM_VIS
  5
7C2
 10
12.0558
 20
5.67921
 30
0.000000
  70
    32
  0
VERTEX
  8
AM_VIS
  5
7C3
 10
12.0560
 20
5.67881
 30
0.000000
  70
    32
  0
VERTEX
  8
AM_VIS
  5
7C4
 10
12.0562
 20
5.67841
 30
0.000000
  70
    32
  0
VERTEX
  8
AM_VIS
  5
7C5
 10
12.0563
 20
5.67801
 30
0.000000
  70
    32
  0
VERTEX
  8
AM_VIS
  5
7C6
 10
12.0565
 20
5.67761
 30
0.000000
  70
    32
  0
VERTEX
  8
AM_VIS
  5
7C7
 10
12.0567
 20
5.67721
 30
0.000000
  70
    32
  0
VERTEX
  8
AM_VIS
  5
7C8
 10
12.0568
 20
5.67681
 30
0.000000
  70
    32
  0
VERTEX
  8
AM_VIS
  5
7C9
 10
12.0570
 20
5.67641
 30
0.000000
  70
    32
  0
VERTEX
  8
AM_VIS
  5
7CA
 10
12.0572
 20
5.67600
 30
0.000000
  70
    32
  0
VERTEX
  8
AM_VIS
  5
7CB
 10
12.0574
 20
5.67560
 30
0.000000
  70
    32
  0
VERTEX
  8
AM_VIS
  5
7CC
 10
12.0575
 20
5.67520
 30
0.000000
  70
    32
  0
VERTEX
  8
AM_VIS
  5
7CD
 10
12.0577
 20
5.67479
 30
0.000000
  70
    32
  0
VERTEX
  8
AM_VIS
  5
7CE
 10
12.0579
 20
5.67438
 30
0.000000
  70
    32
  0
VERTEX
  8
AM_VIS
  5
7CF
 10
12.0580
 20
5.67398
 30
0.000000
  70
    32
  0
VERTEX
  8
AM_VIS
  5
7D0
 10
12.0582
 20
5.67357
 30
0.000000
  70
    32
  0
VERTEX
  8
AM_VIS
  5
7D1
 10
12.0584
 20
5.67316
 30
0.000000
  70
    32
  0
VERTEX
  8
AM_VIS
  5
7D2
 10
12.0586
 20
5.67275
 30
0.000000
  70
    32
  0
VERTEX
  8
AM_VIS
  5
7D3
 10
12.0588
 20
5.67234
 30
0.000000
  70
    32
  0
VERTEX
  8
AM_VIS
  5
7D4
 10
12.0589
 20
5.67193
 30
0.000000
  70
    32
  0
VERTEX
  8
AM_VIS
  5
7D5
 10
12.0591
 20
5.67152
 30
0.000000
  70
    32
  0
VERTEX
  8
AM_VIS
  5
7D6
 10
12.0593
 20
5.67111
 30
0.000000
  70
    32
  0
VERTEX
  8
AM_VIS
  5
7D7
 10
12.0595
 20
5.67069
 30
0.000000
  70
    32
  0
VERTEX
  8
AM_VIS
  5
7D8
 10
12.0597
 20
5.67028
 30
0.000000
  70
    32
  0
VERTEX
  8
AM_VIS
  5
7D9
 10
12.0598
 20
5.66987
 30
0.000000
  70
    32
  0
VERTEX
  8
AM_VIS
  5
7DA
 10
12.0600
 20
5.66945
 30
0.000000
  70
    32
  0
VERTEX
  8
AM_VIS
  5
7DB
 10
12.0602
 20
5.66903
 30
0.000000
  70
    32
  0
VERTEX
  8
AM_VIS
  5
7DC
 10
12.0604
 20
5.66862
 30
0.000000
  70
    32
  0
VERTEX
  8
AM_VIS
  5
7DD
 10
12.0606
 20
5.66820
 30
0.000000
  70
    32
  0
VERTEX
  8
AM_VIS
  5
7DE
 10
12.0608
 20
5.66778
 30
0.000000
  70
    32
  0
VERTEX
  8
AM_VIS
  5
7DF
 10
12.0610
 20
5.66736
 30
0.000000
  70
    32
  0
VERTEX
  8
AM_VIS
  5
7E0
 10
12.0611
 20
5.66694
 30
0.000000
  70
    32
  0
VERTEX
  8
AM_VIS
  5
7E1
 10
12.0613
 20
5.66652
 30
0.000000
  70
    32
  0
VERTEX
  8
AM_VIS
  5
7E2
 10
12.0615
 20
5.66610
 30
0.000000
  70
    32
  0
VERTEX
  8
AM_VIS
  5
7E3
 10
12.0617
 20
5.66568
 30
0.000000
  70
    32
  0
VERTEX
  8
AM_VIS
  5
7E4
 10
12.0619
 20
5.66525
 30
0.000000
  70
    32
  0
VERTEX
  8
AM_VIS
  5
7E5
 10
12.0621
 20
5.66483
 30
0.000000
  70
    32
  0
VERTEX
  8
AM_VIS
  5
7E6
 10
12.0623
 20
5.66440
 30
0.000000
  70
    32
  0
VERTEX
  8
AM_VIS
  5
7E7
 10
12.0625
 20
5.66398
 30
0.000000
  70
    32
  0
VERTEX
  8
AM_VIS
  5
7E8
 10
12.0627
 20
5.66355
 30
0.000000
  70
    32
  0
VERTEX
  8
AM_VIS
  5
7E9
 10
12.0629
 20
5.66312
 30
0.000000
  70
    32
  0
VERTEX
  8
AM_VIS
  5
7EA
 10
12.0631
 20
5.66269
 30
0.000000
  70
    32
  0
VERTEX
  8
AM_VIS
  5
7EB
 10
12.0633
 20
5.66227
 30
0.000000
  70
    32
  0
VERTEX
  8
AM_VIS
  5
7EC
 10
12.0635
 20
5.66184
 30
0.000000
  70
    32
  0
VERTEX
  8
AM_VIS
  5
7ED
 10
12.0637
 20
5.66141
 30
0.000000
  70
    32
  0
VERTEX
  8
AM_VIS
  5
7EE
 10
12.0639
 20
5.66097
 30
0.000000
  70
    32
  0
VERTEX
  8
AM_VIS
  5
7EF
 10
12.0641
 20
5.66054
 30
0.000000
  70
    32
  0
VERTEX
  8
AM_VIS
  5
7F0
 10
12.0643
 20
5.66011
 30
0.000000
  70
    32
  0
VERTEX
  8
AM_VIS
  5
7F1
 10
12.0645
 20
5.65967
 30
0.000000
  70
    32
  0
VERTEX
  8
AM_VIS
  5
7F2
 10
12.0647
 20
5.65924
 30
0.000000
  70
    32
  0
VERTEX
  8
AM_VIS
  5
7F3
 10
12.0649
 20
5.65880
 30
0.000000
  70
    32
  0
VERTEX
  8
AM_VIS
  5
7F4
 10
12.0651
 20
5.65837
 30
0.000000
  70
    32
  0
VERTEX
  8
AM_VIS
  5
7F5
 10
12.0653
 20
5.65793
 30
0.000000
  70
    32
  0
VERTEX
  8
AM_VIS
  5
7F6
 10
12.0655
 20
5.65749
 30
0.000000
  70
    32
  0
VERTEX
  8
AM_VIS
  5
7F7
 10
12.0657
 20
5.65705
 30
0.000000
  70
    32
  0
VERTEX
  8
AM_VIS
  5
7F8
 10
12.0659
 20
5.65661
 30
0.000000
  70
    32
  0
VERTEX
  8
AM_VIS
  5
7F9
 10
12.0661
 20
5.65617
 30
0.000000
  70
    32
  0
VERTEX
  8
AM_VIS
  5
7FA
 10
12.0663
 20
5.65573
 30
0.000000
  70
    32
  0
VERTEX
  8
AM_VIS
  5
7FB
 10
12.0665
 20
5.65529
 30
0.000000
  70
    32
  0
VERTEX
  8
AM_VIS
  5
7FC
 10
12.0667
 20
5.65485
 30
0.000000
  70
    32
  0
VERTEX
  8
AM_VIS
  5
7FD
 10
12.0669
 20
5.65440
 30
0.000000
  70
    32
  0
VERTEX
  8
AM_VIS
  5
7FE
 10
12.0672
 20
5.65396
 30
0.000000
  70
    32
  0
VERTEX
  8
AM_VIS
  5
7FF
 10
12.0674
 20
5.65351
 30
0.000000
  70
    32
  0
VERTEX
  8
AM_VIS
  5
800
 10
12.0676
 20
5.65306
 30
0.000000
  70
    32
  0
VERTEX
  8
AM_VIS
  5
801
 10
12.0678
 20
5.65262
 30
0.000000
  70
    32
  0
VERTEX
  8
AM_VIS
  5
802
 10
12.0680
 20
5.65217
 30
0.000000
  70
    32
  0
VERTEX
  8
AM_VIS
  5
803
 10
12.0682
 20
5.65172
 30
0.000000
  70
    32
  0
VERTEX
  8
AM_VIS
  5
804
 10
12.0684
 20
5.65127
 30
0.000000
  70
    32
  0
VERTEX
  8
AM_VIS
  5
805
 10
12.0687
 20
5.65082
 30
0.000000
  70
    32
  0
VERTEX
  8
AM_VIS
  5
806
 10
12.0689
 20
5.65037
 30
0.000000
  70
    32
  0
VERTEX
  8
AM_VIS
  5
807
 10
12.0691
 20
5.64992
 30
0.000000
  70
    32
  0
VERTEX
  8
AM_VIS
  5
808
 10
12.0693
 20
5.64946
 30
0.000000
  70
    32
  0
VERTEX
  8
AM_VIS
  5
809
 10
12.0695
 20
5.64901
 30
0.000000
  70
    32
  0
VERTEX
  8
AM_VIS
  5
80A
 10
12.0698
 20
5.64855
 30
0.000000
  70
    32
  0
VERTEX
  8
AM_VIS
  5
80B
 10
12.0700
 20
5.64810
 30
0.000000
  70
    32
  0
VERTEX
  8
AM_VIS
  5
80C
 10
12.0702
 20
5.64764
 30
0.000000
  70
    32
  0
VERTEX
  8
AM_VIS
  5
80D
 10
12.0704
 20
5.64718
 30
0.000000
  70
    32
  0
VERTEX
  8
AM_VIS
  5
80E
 10
12.0706
 20
5.64672
 30
0.000000
  70
    32
  0
VERTEX
  8
AM_VIS
  5
80F
 10
12.0709
 20
5.64626
 30
0.000000
  70
    32
  0
VERTEX
  8
AM_VIS
  5
810
 10
12.0711
 20
5.64580
 30
0.000000
  70
    32
  0
VERTEX
  8
AM_VIS
  5
811
 10
12.0713
 20
5.64534
 30
0.000000
  70
    32
  0
VERTEX
  8
AM_VIS
  5
812
 10
12.0715
 20
5.64488
 30
0.000000
  70
    32
  0
VERTEX
  8
AM_VIS
  5
813
 10
12.0718
 20
5.64442
 30
0.000000
  70
    32
  0
VERTEX
  8
AM_VIS
  5
814
 10
12.0720
 20
5.64396
 30
0.000000
  70
    32
  0
VERTEX
  8
AM_VIS
  5
815
 10
12.0722
 20
5.64349
 30
0.000000
  70
    32
  0
VERTEX
  8
AM_VIS
  5
816
 10
12.0725
 20
5.64303
 30
0.000000
  70
    32
  0
VERTEX
  8
AM_VIS
  5
817
 10
12.0727
 20
5.64256
 30
0.000000
  70
    32
  0
VERTEX
  8
AM_VIS
  5
818
 10
12.0729
 20
5.64209
 30
0.000000
  70
    32
  0
VERTEX
  8
AM_VIS
  5
819
 10
12.0731
 20
5.64162
 30
0.000000
  70
    32
  0
VERTEX
  8
AM_VIS
  5
81A
 10
12.0734
 20
5.64115
 30
0.000000
  70
    32
  0
VERTEX
  8
AM_VIS
  5
81B
 10
12.0736
 20
5.64068
 30
0.000000
  70
    32
  0
VERTEX
  8
AM_VIS
  5
81C
 10
12.0738
 20
5.64021
 30
0.000000
  70
    32
  0
VERTEX
  8
AM_VIS
  5
81D
 10
12.0741
 20
5.63974
 30
0.000000
  70
    32
  0
VERTEX
  8
AM_VIS
  5
81E
 10
12.0743
 20
5.63927
 30
0.000000
  70
    32
  0
VERTEX
  8
AM_VIS
  5
81F
 10
12.0745
 20
5.63880
 30
0.000000
  70
    32
  0
VERTEX
  8
AM_VIS
  5
820
 10
12.0748
 20
5.63832
 30
0.000000
  70
    32
  0
VERTEX
  8
AM_VIS
  5
821
 10
12.0750
 20
5.63785
 30
0.000000
  70
    32
  0
VERTEX
  8
AM_VIS
  5
822
 10
12.0753
 20
5.63737
 30
0.000000
  70
    32
  0
VERTEX
  8
AM_VIS
  5
823
 10
12.0755
 20
5.63690
 30
0.000000
  70
    32
  0
VERTEX
  8
AM_VIS
  5
824
 10
12.0757
 20
5.63642
 30
0.000000
  70
    32
  0
VERTEX
  8
AM_VIS
  5
825
 10
12.0760
 20
5.63594
 30
0.000000
  70
    32
  0
VERTEX
  8
AM_VIS
  5
826
 10
12.0762
 20
5.63546
 30
0.000000
  70
    32
  0
VERTEX
  8
AM_VIS
  5
827
 10
12.0764
 20
5.63498
 30
0.000000
  70
    32
  0
VERTEX
  8
AM_VIS
  5
828
 10
12.0767
 20
5.63450
 30
0.000000
  70
    32
  0
VERTEX
  8
AM_VIS
  5
829
 10
12.0769
 20
5.63402
 30
0.000000
  70
    32
  0
VERTEX
  8
AM_VIS
  5
82A
 10
12.0772
 20
5.63354
 30
0.000000
  70
    32
  0
VERTEX
  8
AM_VIS
  5
82B
 10
12.0774
 20
5.63305
 30
0.000000
  70
    32
  0
VERTEX
  8
AM_VIS
  5
82C
 10
12.0777
 20
5.63257
 30
0.000000
  70
    32
  0
VERTEX
  8
AM_VIS
  5
82D
 10
12.0779
 20
5.63209
 30
0.000000
  70
    32
  0
VERTEX
  8
AM_VIS
  5
82E
 10
12.0781
 20
5.63160
 30
0.000000
  70
    32
  0
VERTEX
  8
AM_VIS
  5
82F
 10
12.0784
 20
5.63111
 30
0.000000
  70
    32
  0
VERTEX
  8
AM_VIS
  5
830
 10
12.0786
 20
5.63063
 30
0.000000
  70
    32
  0
VERTEX
  8
AM_VIS
  5
831
 10
12.0789
 20
5.63014
 30
0.000000
  70
    32
  0
VERTEX
  8
AM_VIS
  5
832
 10
12.0791
 20
5.62965
 30
0.000000
  70
    32
  0
VERTEX
  8
AM_VIS
  5
833
 10
12.0794
 20
5.62916
 30
0.000000
  70
    32
  0
VERTEX
  8
AM_VIS
  5
834
 10
12.0796
 20
5.62867
 30
0.000000
  70
    32
  0
VERTEX
  8
AM_VIS
  5
835
 10
12.0799
 20
5.62818
 30
0.000000
  70
    32
  0
VERTEX
  8
AM_VIS
  5
836
 10
12.0801
 20
5.62769
 30
0.000000
  70
    32
  0
VERTEX
  8
AM_VIS
  5
837
 10
12.0804
 20
5.62719
 30
0.000000
  70
    32
  0
VERTEX
  8
AM_VIS
  5
838
 10
12.0806
 20
5.62670
 30
0.000000
  70
    32
  0
VERTEX
  8
AM_VIS
  5
839
 10
12.0809
 20
5.62621
 30
0.000000
  70
    32
  0
VERTEX
  8
AM_VIS
  5
83A
 10
12.0811
 20
5.62571
 30
0.000000
  70
    32
  0
VERTEX
  8
AM_VIS
  5
83B
 10
12.0814
 20
5.62521
 30
0.000000
  70
    32
  0
VERTEX
  8
AM_VIS
  5
83C
 10
12.0816
 20
5.62472
 30
0.000000
  70
    32
  0
VERTEX
  8
AM_VIS
  5
83D
 10
12.0819
 20
5.62422
 30
0.000000
  70
    32
  0
VERTEX
  8
AM_VIS
  5
83E
 10
12.0821
 20
5.62372
 30
0.000000
  70
    32
  0
VERTEX
  8
AM_VIS
  5
83F
 10
12.0824
 20
5.62322
 30
0.000000
  70
    32
  0
VERTEX
  8
AM_VIS
  5
840
 10
12.0827
 20
5.62272
 30
0.000000
  70
    32
  0
VERTEX
  8
AM_VIS
  5
841
 10
12.0829
 20
5.62222
 30
0.000000
  70
    32
  0
VERTEX
  8
AM_VIS
  5
842
 10
12.0832
 20
5.62172
 30
0.000000
  70
    32
  0
VERTEX
  8
AM_VIS
  5
843
 10
12.0834
 20
5.62122
 30
0.000000
  70
    32
  0
VERTEX
  8
AM_VIS
  5
844
 10
12.0837
 20
5.62071
 30
0.000000
  70
    32
  0
VERTEX
  8
AM_VIS
  5
845
 10
12.0839
 20
5.62021
 30
0.000000
  70
    32
  0
VERTEX
  8
AM_VIS
  5
846
 10
12.0842
 20
5.61971
 30
0.000000
  70
    32
  0
VERTEX
  8
AM_VIS
  5
847
 10
12.0844
 20
5.61920
 30
0.000000
  70
    32
  0
VERTEX
  8
AM_VIS
  5
848
 10
12.0847
 20
5.61869
 30
0.000000
  70
    32
  0
VERTEX
  8
AM_VIS
  5
849
 10
12.0850
 20
5.61819
 30
0.000000
  70
    32
  0
VERTEX
  8
AM_VIS
  5
84A
 10
12.0852
 20
5.61768
 30
0.000000
  70
    32
  0
VERTEX
  8
AM_VIS
  5
84B
 10
12.0855
 20
5.61717
 30
0.000000
  70
    32
  0
VERTEX
  8
AM_VIS
  5
84C
 10
12.0857
 20
5.61666
 30
0.000000
  70
    32
  0
VERTEX
  8
AM_VIS
  5
84D
 10
12.0860
 20
5.61615
 30
0.000000
  70
    32
  0
VERTEX
  8
AM_VIS
  5
84E
 10
12.0863
 20
5.61564
 30
0.000000
  70
    32
  0
VERTEX
  8
AM_VIS
  5
84F
 10
12.0865
 20
5.61513
 30
0.000000
  70
    32
  0
VERTEX
  8
AM_VIS
  5
850
 10
12.0868
 20
5.61461
 30
0.000000
  70
    32
  0
VERTEX
  8
AM_VIS
  5
851
 10
12.0871
 20
5.61410
 30
0.000000
  70
    32
  0
VERTEX
  8
AM_VIS
  5
852
 10
12.0873
 20
5.61359
 30
0.000000
  70
    32
  0
VERTEX
  8
AM_VIS
  5
853
 10
12.0876
 20
5.61307
 30
0.000000
  70
    32
  0
VERTEX
  8
AM_VIS
  5
854
 10
12.0879
 20
5.61256
 30
0.000000
  70
    32
  0
VERTEX
  8
AM_VIS
  5
855
 10
12.0881
 20
5.61204
 30
0.000000
  70
    32
  0
VERTEX
  8
AM_VIS
  5
856
 10
12.0884
 20
5.61152
 30
0.000000
  70
    32
  0
VERTEX
  8
AM_VIS
  5
857
 10
12.0887
 20
5.61100
 30
0.000000
  70
    32
  0
VERTEX
  8
AM_VIS
  5
858
 10
12.0889
 20
5.61048
 30
0.000000
  70
    32
  0
VERTEX
  8
AM_VIS
  5
859
 10
12.0892
 20
5.60996
 30
0.000000
  70
    32
  0
VERTEX
  8
AM_VIS
  5
85A
 10
12.0895
 20
5.60944
 30
0.000000
  70
    32
  0
VERTEX
  8
AM_VIS
  5
85B
 10
12.0897
 20
5.60892
 30
0.000000
  70
    32
  0
VERTEX
  8
AM_VIS
  5
85C
 10
12.0900
 20
5.60840
 30
0.000000
  70
    32
  0
VERTEX
  8
AM_VIS
  5
85D
 10
12.0903
 20
5.60788
 30
0.000000
  70
    32
  0
VERTEX
  8
AM_VIS
  5
85E
 10
12.0905
 20
5.60735
 30
0.000000
  70
    32
  0
VERTEX
  8
AM_VIS
  5
85F
 10
12.0908
 20
5.60683
 30
0.000000
  70
    32
  0
VERTEX
  8
AM_VIS
  5
860
 10
12.0911
 20
5.60631
 30
0.000000
  70
    32
  0
VERTEX
  8
AM_VIS
  5
861
 10
12.0913
 20
5.60578
 30
0.000000
  70
    32
  0
VERTEX
  8
AM_VIS
  5
862
 10
12.0916
 20
5.60525
 30
0.000000
  70
    32
  0
VERTEX
  8
AM_VIS
  5
863
 10
12.0919
 20
5.60473
 30
0.000000
  70
    32
  0
VERTEX
  8
AM_VIS
  5
864
 10
12.0922
 20
5.60420
 30
0.000000
  70
    32
  0
VERTEX
  8
AM_VIS
  5
865
 10
12.0924
 20
5.60367
 30
0.000000
  70
    32
  0
VERTEX
  8
AM_VIS
  5
866
 10
12.0927
 20
5.60314
 30
0.000000
  70
    32
  0
VERTEX
  8
AM_VIS
  5
867
 10
12.0930
 20
5.60261
 30
0.000000
  70
    32
  0
VERTEX
  8
AM_VIS
  5
868
 10
12.0933
 20
5.60208
 30
0.000000
  70
    32
  0
VERTEX
  8
AM_VIS
  5
869
 10
12.0935
 20
5.60154
 30
0.000000
  70
    32
  0
VERTEX
  8
AM_VIS
  5
86A
 10
12.0938
 20
5.60101
 30
0.000000
  70
    32
  0
VERTEX
  8
AM_VIS
  5
86B
 10
12.0941
 20
5.60048
 30
0.000000
  70
    32
  0
VERTEX
  8
AM_VIS
  5
86C
 10
12.0944
 20
5.59994
 30
0.000000
  70
    32
  0
VERTEX
  8
AM_VIS
  5
86D
 10
12.0946
 20
5.59941
 30
0.000000
  70
    32
  0
VERTEX
  8
AM_VIS
  5
86E
 10
12.0949
 20
5.59887
 30
0.000000
  70
    32
  0
VERTEX
  8
AM_VIS
  5
86F
 10
12.0952
 20
5.59834
 30
0.000000
  70
    32
  0
VERTEX
  8
AM_VIS
  5
870
 10
12.0955
 20
5.59780
 30
0.000000
  70
    32
  0
VERTEX
  8
AM_VIS
  5
871
 10
12.0957
 20
5.59726
 30
0.000000
  70
    32
  0
VERTEX
  8
AM_VIS
  5
872
 10
12.0960
 20
5.59672
 30
0.000000
  70
    32
  0
VERTEX
  8
AM_VIS
  5
873
 10
12.0963
 20
5.59618
 30
0.000000
  70
    32
  0
VERTEX
  8
AM_VIS
  5
874
 10
12.0966
 20
5.59564
 30
0.000000
  70
    32
  0
VERTEX
  8
AM_VIS
  5
875
 10
12.0968
 20
5.59510
 30
0.000000
  70
    32
  0
VERTEX
  8
AM_VIS
  5
876
 10
12.0971
 20
5.59456
 30
0.000000
  70
    32
  0
VERTEX
  8
AM_VIS
  5
877
 10
12.0974
 20
5.59402
 30
0.000000
  70
    32
  0
VERTEX
  8
AM_VIS
  5
878
 10
12.0977
 20
5.59347
 30
0.000000
  70
    32
  0
VERTEX
  8
AM_VIS
  5
879
 10
12.0980
 20
5.59293
 30
0.000000
  70
    32
  0
VERTEX
  8
AM_VIS
  5
87A
 10
12.0982
 20
5.59238
 30
0.000000
  70
    32
  0
VERTEX
  8
AM_VIS
  5
87B
 10
12.0985
 20
5.59184
 30
0.000000
  70
    32
  0
VERTEX
  8
AM_VIS
  5
87C
 10
12.0988
 20
5.59129
 30
0.000000
  70
    32
  0
VERTEX
  8
AM_VIS
  5
87D
 10
12.0991
 20
5.59075
 30
0.000000
  70
    32
  0
VERTEX
  8
AM_VIS
  5
87E
 10
12.0994
 20
5.59020
 30
0.000000
  70
    32
  0
VERTEX
  8
AM_VIS
  5
87F
 10
12.0997
 20
5.58965
 30
0.000000
  70
    32
  0
VERTEX
  8
AM_VIS
  5
880
 10
12.0999
 20
5.58910
 30
0.000000
  70
    32
  0
VERTEX
  8
AM_VIS
  5
881
 10
12.1002
 20
5.58855
 30
0.000000
  70
    32
  0
VERTEX
  8
AM_VIS
  5
882
 10
12.1005
 20
5.58800
 30
0.000000
  70
    32
  0
VERTEX
  8
AM_VIS
  5
883
 10
12.1008
 20
5.58745
 30
0.000000
  70
    32
  0
VERTEX
  8
AM_VIS
  5
884
 10
12.1011
 20
5.58689
 30
0.000000
  70
    32
  0
VERTEX
  8
AM_VIS
  5
885
 10
12.1014
 20
5.58634
 30
0.000000
  70
    32
  0
VERTEX
  8
AM_VIS
  5
886
 10
12.1016
 20
5.58579
 30
0.000000
  70
    32
  0
VERTEX
  8
AM_VIS
  5
887
 10
12.1019
 20
5.58523
 30
0.000000
  70
    32
  0
VERTEX
  8
AM_VIS
  5
888
 10
12.1022
 20
5.58468
 30
0.000000
  70
    32
  0
VERTEX
  8
AM_VIS
  5
889
 10
12.1025
 20
5.58412
 30
0.000000
  70
    32
  0
VERTEX
  8
AM_VIS
  5
88A
 10
12.1028
 20
5.58357
 30
0.000000
  70
    32
  0
VERTEX
  8
AM_VIS
  5
88B
 10
12.1031
 20
5.58301
 30
0.000000
  70
    32
  0
VERTEX
  8
AM_VIS
  5
88C
 10
12.1034
 20
5.58245
 30
0.000000
  70
    32
  0
VERTEX
  8
AM_VIS
  5
88D
 10
12.1036
 20
5.58189
 30
0.000000
  70
    32
  0
VERTEX
  8
AM_VIS
  5
88E
 10
12.1039
 20
5.58133
 30
0.000000
  70
    32
  0
VERTEX
  8
AM_VIS
  5
88F
 10
12.1042
 20
5.58077
 30
0.000000
  70
    32
  0
VERTEX
  8
AM_VIS
  5
890
 10
12.1045
 20
5.58021
 30
0.000000
  70
    32
  0
VERTEX
  8
AM_VIS
  5
891
 10
12.1048
 20
5.57965
 30
0.000000
  70
    32
  0
VERTEX
  8
AM_VIS
  5
892
 10
12.1051
 20
5.57909
 30
0.000000
  70
    32
  0
VERTEX
  8
AM_VIS
  5
893
 10
12.1054
 20
5.57852
 30
0.000000
  70
    32
  0
VERTEX
  8
AM_VIS
  5
894
 10
12.1057
 20
5.57796
 30
0.000000
  70
    32
  0
VERTEX
  8
AM_VIS
  5
895
 10
12.1059
 20
5.57739
 30
0.000000
  70
    32
  0
VERTEX
  8
AM_VIS
  5
896
 10
12.1062
 20
5.57683
 30
0.000000
  70
    32
  0
VERTEX
  8
AM_VIS
  5
897
 10
12.1065
 20
5.57626
 30
0.000000
  70
    32
  0
VERTEX
  8
AM_VIS
  5
898
 10
12.1068
 20
5.57569
 30
0.000000
  70
    32
  0
VERTEX
  8
AM_VIS
  5
899
 10
12.1071
 20
5.57513
 30
0.000000
  70
    32
  0
VERTEX
  8
AM_VIS
  5
89A
 10
12.1074
 20
5.57456
 30
0.000000
  70
    32
  0
VERTEX
  8
AM_VIS
  5
89B
 10
12.1077
 20
5.57399
 30
0.000000
  70
    32
  0
VERTEX
  8
AM_VIS
  5
89C
 10
12.1080
 20
5.57342
 30
0.000000
  70
    32
  0
VERTEX
  8
AM_VIS
  5
89D
 10
12.1083
 20
5.57285
 30
0.000000
  70
    32
  0
VERTEX
  8
AM_VIS
  5
89E
 10
12.1086
 20
5.57228
 30
0.000000
  70
    32
  0
VERTEX
  8
AM_VIS
  5
89F
 10
12.1088
 20
5.57171
 30
0.000000
  70
    32
  0
VERTEX
  8
AM_VIS
  5
8A0
 10
12.1091
 20
5.57113
 30
0.000000
  70
    32
  0
VERTEX
  8
AM_VIS
  5
8A1
 10
12.1094
 20
5.57056
 30
0.000000
  70
    32
  0
VERTEX
  8
AM_VIS
  5
8A2
 10
12.1097
 20
5.56999
 30
0.000000
  70
    32
  0
VERTEX
  8
AM_VIS
  5
8A3
 10
12.1100
 20
5.56941
 30
0.000000
  70
    32
  0
VERTEX
  8
AM_VIS
  5
8A4
 10
12.1103
 20
5.56883
 30
0.000000
  70
    32
  0
VERTEX
  8
AM_VIS
  5
8A5
 10
12.1106
 20
5.56826
 30
0.000000
  70
    32
  0
VERTEX
  8
AM_VIS
  5
8A6
 10
12.1109
 20
5.56768
 30
0.000000
  70
    32
  0
VERTEX
  8
AM_VIS
  5
8A7
 10
12.1112
 20
5.56710
 30
0.000000
  70
    32
  0
VERTEX
  8
AM_VIS
  5
8A8
 10
12.1115
 20
5.56653
 30
0.000000
  70
    32
  0
VERTEX
  8
AM_VIS
  5
8A9
 10
12.1118
 20
5.56595
 30
0.000000
  70
    32
  0
VERTEX
  8
AM_VIS
  5
8AA
 10
12.1121
 20
5.56537
 30
0.000000
  70
    32
  0
VERTEX
  8
AM_VIS
  5
8AB
 10
12.1124
 20
5.56479
 30
0.000000
  70
    32
  0
VERTEX
  8
AM_VIS
  5
8AC
 10
12.1126
 20
5.56420
 30
0.000000
  70
    32
  0
VERTEX
  8
AM_VIS
  5
8AD
 10
12.1129
 20
5.56362
 30
0.000000
  70
    32
  0
VERTEX
  8
AM_VIS
  5
8AE
 10
12.1132
 20
5.56304
 30
0.000000
  70
    32
  0
VERTEX
  8
AM_VIS
  5
8AF
 10
12.1135
 20
5.56246
 30
0.000000
  70
    32
  0
VERTEX
  8
AM_VIS
  5
8B0
 10
12.1138
 20
5.56187
 30
0.000000
  70
    32
  0
VERTEX
  8
AM_VIS
  5
8B1
 10
12.1141
 20
5.56129
 30
0.000000
  70
    32
  0
VERTEX
  8
AM_VIS
  5
8B2
 10
12.1144
 20
5.56070
 30
0.000000
  70
    32
  0
VERTEX
  8
AM_VIS
  5
8B3
 10
12.1147
 20
5.56012
 30
0.000000
  70
    32
  0
VERTEX
  8
AM_VIS
  5
8B4
 10
12.1150
 20
5.55953
 30
0.000000
  70
    32
  0
VERTEX
  8
AM_VIS
  5
8B5
 10
12.1153
 20
5.55894
 30
0.000000
  70
    32
  0
VERTEX
  8
AM_VIS
  5
8B6
 10
12.1156
 20
5.55835
 30
0.000000
  70
    32
  0
VERTEX
  8
AM_VIS
  5
8B7
 10
12.1159
 20
5.55777
 30
0.000000
  70
    32
  0
VERTEX
  8
AM_VIS
  5
8B8
 10
12.1162
 20
5.55718
 30
0.000000
  70
    32
  0
VERTEX
  8
AM_VIS
  5
8B9
 10
12.1165
 20
5.55659
 30
0.000000
  70
    32
  0
VERTEX
  8
AM_VIS
  5
8BA
 10
12.1168
 20
5.55599
 30
0.000000
  70
    32
  0
VERTEX
  8
AM_VIS
  5
8BB
 10
12.1171
 20
5.55540
 30
0.000000
  70
    32
  0
VERTEX
  8
AM_VIS
  5
8BC
 10
12.1174
 20
5.55481
 30
0.000000
  70
    32
  0
VERTEX
  8
AM_VIS
  5
8BD
 10
12.1177
 20
5.55422
 30
0.000000
  70
    32
  0
VERTEX
  8
AM_VIS
  5
8BE
 10
12.1180
 20
5.55362
 30
0.000000
  70
    32
  0
VERTEX
  8
AM_VIS
  5
8BF
 10
12.1183
 20
5.55303
 30
0.000000
  70
    32
  0
VERTEX
  8
AM_VIS
  5
8C0
 10
12.1186
 20
5.55243
 30
0.000000
  70
    32
  0
VERTEX
  8
AM_VIS
  5
8C1
 10
12.1188
 20
5.55184
 30
0.000000
  70
    32
  0
VERTEX
  8
AM_VIS
  5
8C2
 10
12.1191
 20
5.55124
 30
0.000000
  70
    32
  0
VERTEX
  8
AM_VIS
  5
8C3
 10
12.1194
 20
5.55064
 30
0.000000
  70
    32
  0
VERTEX
  8
AM_VIS
  5
8C4
 10
12.1197
 20
5.55005
 30
0.000000
  70
    32
  0
VERTEX
  8
AM_VIS
  5
8C5
 10
12.1200
 20
5.54945
 30
0.000000
  70
    32
  0
VERTEX
  8
AM_VIS
  5
8C6
 10
12.1203
 20
5.54885
 30
0.000000
  70
    32
  0
VERTEX
  8
AM_VIS
  5
8C7
 10
12.1206
 20
5.54825
 30
0.000000
  70
    32
  0
VERTEX
  8
AM_VIS
  5
8C8
 10
12.1209
 20
5.54765
 30
0.000000
  70
    32
  0
VERTEX
  8
AM_VIS
  5
8C9
 10
12.1212
 20
5.54705
 30
0.000000
  70
    32
  0
VERTEX
  8
AM_VIS
  5
8CA
 10
12.1215
 20
5.54644
 30
0.000000
  70
    32
  0
VERTEX
  8
AM_VIS
  5
8CB
 10
12.1218
 20
5.54584
 30
0.000000
  70
    32
  0
VERTEX
  8
AM_VIS
  5
8CC
 10
12.1221
 20
5.54524
 30
0.000000
  70
    32
  0
VERTEX
  8
AM_VIS
  5
8CD
 10
12.1224
 20
5.54463
 30
0.000000
  70
    32
  0
VERTEX
  8
AM_VIS
  5
8CE
 10
12.1227
 20
5.54403
 30
0.000000
  70
    32
  0
VERTEX
  8
AM_VIS
  5
8CF
 10
12.1230
 20
5.54342
 30
0.000000
  70
    32
  0
VERTEX
  8
AM_VIS
  5
8D0
 10
12.1233
 20
5.54282
 30
0.000000
  70
    32
  0
VERTEX
  8
AM_VIS
  5
8D1
 10
12.1236
 20
5.54221
 30
0.000000
  70
    32
  0
VERTEX
  8
AM_VIS
  5
8D2
 10
12.1239
 20
5.54160
 30
0.000000
  70
    32
  0
VERTEX
  8
AM_VIS
  5
8D3
 10
12.1242
 20
5.54100
 30
0.000000
  70
    32
  0
VERTEX
  8
AM_VIS
  5
8D4
 10
12.1245
 20
5.54039
 30
0.000000
  70
    32
  0
VERTEX
  8
AM_VIS
  5
8D5
 10
12.1248
 20
5.53978
 30
0.000000
  70
    32
  0
VERTEX
  8
AM_VIS
  5
8D6
 10
12.1251
 20
5.53917
 30
0.000000
  70
    32
  0
VERTEX
  8
AM_VIS
  5
8D7
 10
12.1254
 20
5.53856
 30
0.000000
  70
    32
  0
VERTEX
  8
AM_VIS
  5
8D8
 10
12.1257
 20
5.53795
 30
0.000000
  70
    32
  0
VERTEX
  8
AM_VIS
  5
8D9
 10
12.1260
 20
5.53733
 30
0.000000
  70
    32
  0
VERTEX
  8
AM_VIS
  5
8DA
 10
12.1263
 20
5.53672
 30
0.000000
  70
    32
  0
VERTEX
  8
AM_VIS
  5
8DB
 10
12.1266
 20
5.53611
 30
0.000000
  70
    32
  0
VERTEX
  8
AM_VIS
  5
8DC
 10
12.1269
 20
5.53549
 30
0.000000
  70
    32
  0
VERTEX
  8
AM_VIS
  5
8DD
 10
12.1272
 20
5.53488
 30
0.000000
  70
    32
  0
VERTEX
  8
AM_VIS
  5
8DE
 10
12.1275
 20
5.53426
 30
0.000000
  70
    32
  0
VERTEX
  8
AM_VIS
  5
8DF
 10
12.1278
 20
5.53365
 30
0.000000
  70
    32
  0
VERTEX
  8
AM_VIS
  5
8E0
 10
12.1281
 20
5.53303
 30
0.000000
  70
    32
  0
VERTEX
  8
AM_VIS
  5
8E1
 10
12.1284
 20
5.53241
 30
0.000000
  70
    32
  0
VERTEX
  8
AM_VIS
  5
8E2
 10
12.1287
 20
5.53179
 30
0.000000
  70
    32
  0
VERTEX
  8
AM_VIS
  5
8E3
 10
12.1290
 20
5.53118
 30
0.000000
  70
    32
  0
VERTEX
  8
AM_VIS
  5
8E4
 10
12.1293
 20
5.53056
 30
0.000000
  70
    32
  0
VERTEX
  8
AM_VIS
  5
8E5
 10
12.1296
 20
5.52994
 30
0.000000
  70
    32
  0
VERTEX
  8
AM_VIS
  5
8E6
 10
12.1299
 20
5.52932
 30
0.000000
  70
    32
  0
VERTEX
  8
AM_VIS
  5
8E7
 10
12.1302
 20
5.52869
 30
0.000000
  70
    32
  0
VERTEX
  8
AM_VIS
  5
8E8
 10
12.1305
 20
5.52807
 30
0.000000
  70
    32
  0
VERTEX
  8
AM_VIS
  5
8E9
 10
12.1308
 20
5.52745
 30
0.000000
  70
    32
  0
VERTEX
  8
AM_VIS
  5
8EA
 10
12.1311
 20
5.52683
 30
0.000000
  70
    32
  0
VERTEX
  8
AM_VIS
  5
8EB
 10
12.1314
 20
5.52620
 30
0.000000
  70
    32
  0
VERTEX
  8
AM_VIS
  5
8EC
 10
12.1317
 20
5.52558
 30
0.000000
  70
    32
  0
VERTEX
  8
AM_VIS
  5
8ED
 10
12.1320
 20
5.52495
 30
0.000000
  70
    32
  0
VERTEX
  8
AM_VIS
  5
8EE
 10
12.1323
 20
5.52433
 30
0.000000
  70
    32
  0
VERTEX
  8
AM_VIS
  5
8EF
 10
12.1326
 20
5.52370
 30
0.000000
  70
    32
  0
VERTEX
  8
AM_VIS
  5
8F0
 10
12.1329
 20
5.52307
 30
0.000000
  70
    32
  0
VERTEX
  8
AM_VIS
  5
8F1
 10
12.1331
 20
5.52244
 30
0.000000
  70
    32
  0
VERTEX
  8
AM_VIS
  5
8F2
 10
12.1334
 20
5.52182
 30
0.000000
  70
    32
  0
VERTEX
  8
AM_VIS
  5
8F3
 10
12.1337
 20
5.52119
 30
0.000000
  70
    32
  0
VERTEX
  8
AM_VIS
  5
8F4
 10
12.1340
 20
5.52056
 30
0.000000
  70
    32
  0
VERTEX
  8
AM_VIS
  5
8F5
 10
12.1343
 20
5.51993
 30
0.000000
  70
    32
  0
VERTEX
  8
AM_VIS
  5
8F6
 10
12.1346
 20
5.51930
 30
0.000000
  70
    32
  0
VERTEX
  8
AM_VIS
  5
8F7
 10
12.1349
 20
5.51867
 30
0.000000
  70
    32
  0
VERTEX
  8
AM_VIS
  5
8F8
 10
12.1352
 20
5.51803
 30
0.000000
  70
    32
  0
VERTEX
  8
AM_VIS
  5
8F9
 10
12.1355
 20
5.51740
 30
0.000000
  70
    32
  0
VERTEX
  8
AM_VIS
  5
8FA
 10
12.1358
 20
5.51677
 30
0.000000
  70
    32
  0
VERTEX
  8
AM_VIS
  5
8FB
 10
12.1361
 20
5.51614
 30
0.000000
  70
    32
  0
VERTEX
  8
AM_VIS
  5
8FC
 10
12.1364
 20
5.51551
 30
0.000000
  70
    32
  0
VERTEX
  8
AM_VIS
  5
8FD
 10
12.1367
 20
5.51488
 30
0.000000
  70
    32
  0
VERTEX
  8
AM_VIS
  5
8FE
 10
12.1370
 20
5.51425
 30
0.000000
  70
    32
  0
VERTEX
  8
AM_VIS
  5
8FF
 10
12.1373
 20
5.51361
 30
0.000000
  70
    32
  0
VERTEX
  8
AM_VIS
  5
900
 10
12.1376
 20
5.51298
 30
0.000000
  70
    32
  0
VERTEX
  8
AM_VIS
  5
901
 10
12.1379
 20
5.51235
 30
0.000000
  70
    32
  0
VERTEX
  8
AM_VIS
  5
902
 10
12.1382
 20
5.51172
 30
0.000000
  70
    32
  0
VERTEX
  8
AM_VIS
  5
903
 10
12.1385
 20
5.51109
 30
0.000000
  70
    32
  0
VERTEX
  8
AM_VIS
  5
904
 10
12.1388
 20
5.51045
 30
0.000000
  70
    32
  0
VERTEX
  8
AM_VIS
  5
905
 10
12.1391
 20
5.50982
 30
0.000000
  70
    32
  0
VERTEX
  8
AM_VIS
  5
906
 10
12.1394
 20
5.50919
 30
0.000000
  70
    32
  0
VERTEX
  8
AM_VIS
  5
907
 10
12.1396
 20
5.50855
 30
0.000000
  70
    32
  0
VERTEX
  8
AM_VIS
  5
908
 10
12.1399
 20
5.50792
 30
0.000000
  70
    32
  0
VERTEX
  8
AM_VIS
  5
909
 10
12.1402
 20
5.50729
 30
0.000000
  70
    32
  0
VERTEX
  8
AM_VIS
  5
90A
 10
12.1405
 20
5.50665
 30
0.000000
  70
    32
  0
VERTEX
  8
AM_VIS
  5
90B
 10
12.1408
 20
5.50602
 30
0.000000
  70
    32
  0
VERTEX
  8
AM_VIS
  5
90C
 10
12.1411
 20
5.50539
 30
0.000000
  70
    32
  0
VERTEX
  8
AM_VIS
  5
90D
 10
12.1414
 20
5.50475
 30
0.000000
  70
    32
  0
VERTEX
  8
AM_VIS
  5
90E
 10
12.1417
 20
5.50412
 30
0.000000
  70
    32
  0
VERTEX
  8
AM_VIS
  5
90F
 10
12.1420
 20
5.50348
 30
0.000000
  70
    32
  0
VERTEX
  8
AM_VIS
  5
910
 10
12.1423
 20
5.50285
 30
0.000000
  70
    32
  0
VERTEX
  8
AM_VIS
  5
911
 10
12.1425
 20
5.50221
 30
0.000000
  70
    32
  0
VERTEX
  8
AM_VIS
  5
912
 10
12.1428
 20
5.50158
 30
0.000000
  70
    32
  0
VERTEX
  8
AM_VIS
  5
913
 10
12.1431
 20
5.50094
 30
0.000000
  70
    32
  0
VERTEX
  8
AM_VIS
  5
914
 10
12.1434
 20
5.50031
 30
0.000000
  70
    32
  0
VERTEX
  8
AM_VIS
  5
915
 10
12.1437
 20
5.49968
 30
0.000000
  70
    32
  0
VERTEX
  8
AM_VIS
  5
916
 10
12.1440
 20
5.49904
 30
0.000000
  70
    32
  0
VERTEX
  8
AM_VIS
  5
917
 10
12.1443
 20
5.49841
 30
0.000000
  70
    32
  0
VERTEX
  8
AM_VIS
  5
918
 10
12.1445
 20
5.49778
 30
0.000000
  70
    32
  0
VERTEX
  8
AM_VIS
  5
919
 10
12.1448
 20
5.49715
 30
0.000000
  70
    32
  0
VERTEX
  8
AM_VIS
  5
91A
 10
12.1451
 20
5.49651
 30
0.000000
  70
    32
  0
VERTEX
  8
AM_VIS
  5
91B
 10
12.1454
 20
5.49588
 30
0.000000
  70
    32
  0
VERTEX
  8
AM_VIS
  5
91C
 10
12.1457
 20
5.49525
 30
0.000000
  70
    32
  0
VERTEX
  8
AM_VIS
  5
91D
 10
12.1460
 20
5.49462
 30
0.000000
  70
    32
  0
VERTEX
  8
AM_VIS
  5
91E
 10
12.1462
 20
5.49399
 30
0.000000
  70
    32
  0
VERTEX
  8
AM_VIS
  5
91F
 10
12.1465
 20
5.49336
 30
0.000000
  70
    32
  0
VERTEX
  8
AM_VIS
  5
920
 10
12.1468
 20
5.49273
 30
0.000000
  70
    32
  0
VERTEX
  8
AM_VIS
  5
921
 10
12.1471
 20
5.49211
 30
0.000000
  70
    32
  0
VERTEX
  8
AM_VIS
  5
922
 10
12.1474
 20
5.49148
 30
0.000000
  70
    32
  0
VERTEX
  8
AM_VIS
  5
923
 10
12.1476
 20
5.49085
 30
0.000000
  70
    32
  0
VERTEX
  8
AM_VIS
  5
924
 10
12.1479
 20
5.49022
 30
0.000000
  70
    32
  0
VERTEX
  8
AM_VIS
  5
925
 10
12.1482
 20
5.48960
 30
0.000000
  70
    32
  0
VERTEX
  8
AM_VIS
  5
926
 10
12.1485
 20
5.48897
 30
0.000000
  70
    32
  0
VERTEX
  8
AM_VIS
  5
927
 10
12.1487
 20
5.48834
 30
0.000000
  70
    32
  0
VERTEX
  8
AM_VIS
  5
928
 10
12.1490
 20
5.48772
 30
0.000000
  70
    32
  0
VERTEX
  8
AM_VIS
  5
929
 10
12.1493
 20
5.48709
 30
0.000000
  70
    32
  0
VERTEX
  8
AM_VIS
  5
92A
 10
12.1496
 20
5.48647
 30
0.000000
  70
    32
  0
VERTEX
  8
AM_VIS
  5
92B
 10
12.1498
 20
5.48584
 30
0.000000
  70
    32
  0
VERTEX
  8
AM_VIS
  5
92C
 10
12.1501
 20
5.48522
 30
0.000000
  70
    32
  0
VERTEX
  8
AM_VIS
  5
92D
 10
12.1504
 20
5.48459
 30
0.000000
  70
    32
  0
SEQEND
  8
AM_VIS
  5
92E
  0
ARC
  5
38
  8
AM_VIS
 10
11.77501278881857
 20
5.2258789047545857
 30
0.0
 40
0.4103297329045449
 50
49.29431560951781
 51
88.371789894220015
  0
ARC
  5
3A
  8
AM_VIS
 10
11.798320323363439
 20
5.2174597984925191
 30
0.0
 40
0.4103297329045468
 50
229.29431560951789
 51
268.37178989422
  0
ARC
  5
3B
  8
AM_VIS
 10
11.786666556090999
 20
5.2216693516235511
 30
0.0
 40
0.40625
 50
309.07230755918039
 51
50.927692440819641
  0
ARC
  5
3C
  8
AM_VIS
 10
11.798320323363439
 20
5.2258789047545839
 30
0.0
 40
0.4103297329045465
 50
91.628210105779985
 51
130.70568439048199
  0
ARC
  5
3D
  8
AM_VIS
 10
11.786666556090999
 20
5.2216693516235511
 30
0.0
 40
0.40625
 50
129.0723075591805
 51
230.9276924408195
  0
POLYLINE
  8
AM_VIS
  5
92F
  66
     1
 10
0.000000
 20
0.000000
 30
0.000000
  70
     8
  0
VERTEX
  8
AM_VIS
  5
930
 10
13.1225
 20
4.58071
 30
0.000000
  70
    32
  0
VERTEX
  8
AM_VIS
  5
931
 10
13.1244
 20
4.58204
 30
0.000000
  70
    32
  0
VERTEX
  8
AM_VIS
  5
932
 10
13.1263
 20
4.58336
 30
0.000000
  70
    32
  0
VERTEX
  8
AM_VIS
  5
933
 10
13.1283
 20
4.58468
 30
0.000000
  70
    32
  0
VERTEX
  8
AM_VIS
  5
934
 10
13.1302
 20
4.58598
 30
0.000000
  70
    32
  0
VERTEX
  8
AM_VIS
  5
935
 10
13.1321
 20
4.58728
 30
0.000000
  70
    32
  0
VERTEX
  8
AM_VIS
  5
936
 10
13.1340
 20
4.58857
 30
0.000000
  70
    32
  0
VERTEX
  8
AM_VIS
  5
937
 10
13.1360
 20
4.58985
 30
0.000000
  70
    32
  0
VERTEX
  8
AM_VIS
  5
938
 10
13.1379
 20
4.59113
 30
0.000000
  70
    32
  0
VERTEX
  8
AM_VIS
  5
939
 10
13.1399
 20
4.59239
 30
0.000000
  70
    32
  0
VERTEX
  8
AM_VIS
  5
93A
 10
13.1418
 20
4.59365
 30
0.000000
  70
    32
  0
VERTEX
  8
AM_VIS
  5
93B
 10
13.1438
 20
4.59491
 30
0.000000
  70
    32
  0
VERTEX
  8
AM_VIS
  5
93C
 10
13.1457
 20
4.59615
 30
0.000000
  70
    32
  0
VERTEX
  8
AM_VIS
  5
93D
 10
13.1477
 20
4.59739
 30
0.000000
  70
    32
  0
VERTEX
  8
AM_VIS
  5
93E
 10
13.1496
 20
4.59862
 30
0.000000
  70
    32
  0
VERTEX
  8
AM_VIS
  5
93F
 10
13.1516
 20
4.59984
 30
0.000000
  70
    32
  0
VERTEX
  8
AM_VIS
  5
940
 10
13.1536
 20
4.60105
 30
0.000000
  70
    32
  0
VERTEX
  8
AM_VIS
  5
941
 10
13.1556
 20
4.60226
 30
0.000000
  70
    32
  0
VERTEX
  8
AM_VIS
  5
942
 10
13.1575
 20
4.60346
 30
0.000000
  70
    32
  0
VERTEX
  8
AM_VIS
  5
943
 10
13.1595
 20
4.60465
 30
0.000000
  70
    32
  0
VERTEX
  8
AM_VIS
  5
944
 10
13.1615
 20
4.60584
 30
0.000000
  70
    32
  0
VERTEX
  8
AM_VIS
  5
945
 10
13.1635
 20
4.60701
 30
0.000000
  70
    32
  0
VERTEX
  8
AM_VIS
  5
946
 10
13.1655
 20
4.60818
 30
0.000000
  70
    32
  0
VERTEX
  8
AM_VIS
  5
947
 10
13.1675
 20
4.60935
 30
0.000000
  70
    32
  0
VERTEX
  8
AM_VIS
  5
948
 10
13.1696
 20
4.61050
 30
0.000000
  70
    32
  0
VERTEX
  8
AM_VIS
  5
949
 10
13.1716
 20
4.61165
 30
0.000000
  70
    32
  0
VERTEX
  8
AM_VIS
  5
94A
 10
13.1736
 20
4.61279
 30
0.000000
  70
    32
  0
VERTEX
  8
AM_VIS
  5
94B
 10
13.1756
 20
4.61392
 30
0.000000
  70
    32
  0
VERTEX
  8
AM_VIS
  5
94C
 10
13.1776
 20
4.61504
 30
0.000000
  70
    32
  0
VERTEX
  8
AM_VIS
  5
94D
 10
13.1797
 20
4.61616
 30
0.000000
  70
    32
  0
VERTEX
  8
AM_VIS
  5
94E
 10
13.1817
 20
4.61727
 30
0.000000
  70
    32
  0
VERTEX
  8
AM_VIS
  5
94F
 10
13.1838
 20
4.61837
 30
0.000000
  70
    32
  0
VERTEX
  8
AM_VIS
  5
950
 10
13.1858
 20
4.61947
 30
0.000000
  70
    32
  0
VERTEX
  8
AM_VIS
  5
951
 10
13.1879
 20
4.62056
 30
0.000000
  70
    32
  0
VERTEX
  8
AM_VIS
  5
952
 10
13.1899
 20
4.62164
 30
0.000000
  70
    32
  0
VERTEX
  8
AM_VIS
  5
953
 10
13.1920
 20
4.62271
 30
0.000000
  70
    32
  0
VERTEX
  8
AM_VIS
  5
954
 10
13.1940
 20
4.62378
 30
0.000000
  70
    32
  0
VERTEX
  8
AM_VIS
  5
955
 10
13.1961
 20
4.62483
 30
0.000000
  70
    32
  0
VERTEX
  8
AM_VIS
  5
956
 10
13.1982
 20
4.62588
 30
0.000000
  70
    32
  0
VERTEX
  8
AM_VIS
  5
957
 10
13.2003
 20
4.62692
 30
0.000000
  70
    32
  0
VERTEX
  8
AM_VIS
  5
958
 10
13.2023
 20
4.62796
 30
0.000000
  70
    32
  0
VERTEX
  8
AM_VIS
  5
959
 10
13.2044
 20
4.62898
 30
0.000000
  70
    32
  0
VERTEX
  8
AM_VIS
  5
95A
 10
13.2065
 20
4.63000
 30
0.000000
  70
    32
  0
VERTEX
  8
AM_VIS
  5
95B
 10
13.2086
 20
4.63102
 30
0.000000
  70
    32
  0
VERTEX
  8
AM_VIS
  5
95C
 10
13.2107
 20
4.63202
 30
0.000000
  70
    32
  0
VERTEX
  8
AM_VIS
  5
95D
 10
13.2128
 20
4.63302
 30
0.000000
  70
    32
  0
VERTEX
  8
AM_VIS
  5
95E
 10
13.2149
 20
4.63400
 30
0.000000
  70
    32
  0
VERTEX
  8
AM_VIS
  5
95F
 10
13.2170
 20
4.63499
 30
0.000000
  70
    32
  0
VERTEX
  8
AM_VIS
  5
960
 10
13.2191
 20
4.63596
 30
0.000000
  70
    32
  0
VERTEX
  8
AM_VIS
  5
961
 10
13.2212
 20
4.63693
 30
0.000000
  70
    32
  0
VERTEX
  8
AM_VIS
  5
962
 10
13.2233
 20
4.63789
 30
0.000000
  70
    32
  0
VERTEX
  8
AM_VIS
  5
963
 10
13.2254
 20
4.63884
 30
0.000000
  70
    32
  0
VERTEX
  8
AM_VIS
  5
964
 10
13.2275
 20
4.63978
 30
0.000000
  70
    32
  0
VERTEX
  8
AM_VIS
  5
965
 10
13.2297
 20
4.64072
 30
0.000000
  70
    32
  0
VERTEX
  8
AM_VIS
  5
966
 10
13.2318
 20
4.64165
 30
0.000000
  70
    32
  0
VERTEX
  8
AM_VIS
  5
967
 10
13.2339
 20
4.64257
 30
0.000000
  70
    32
  0
VERTEX
  8
AM_VIS
  5
968
 10
13.2360
 20
4.64348
 30
0.000000
  70
    32
  0
VERTEX
  8
AM_VIS
  5
969
 10
13.2382
 20
4.64439
 30
0.000000
  70
    32
  0
VERTEX
  8
AM_VIS
  5
96A
 10
13.2403
 20
4.64529
 30
0.000000
  70
    32
  0
VERTEX
  8
AM_VIS
  5
96B
 10
13.2425
 20
4.64618
 30
0.000000
  70
    32
  0
VERTEX
  8
AM_VIS
  5
96C
 10
13.2446
 20
4.64707
 30
0.000000
  70
    32
  0
VERTEX
  8
AM_VIS
  5
96D
 10
13.2468
 20
4.64794
 30
0.000000
  70
    32
  0
VERTEX
  8
AM_VIS
  5
96E
 10
13.2489
 20
4.64881
 30
0.000000
  70
    32
  0
VERTEX
  8
AM_VIS
  5
96F
 10
13.2511
 20
4.64968
 30
0.000000
  70
    32
  0
VERTEX
  8
AM_VIS
  5
970
 10
13.2532
 20
4.65053
 30
0.000000
  70
    32
  0
VERTEX
  8
AM_VIS
  5
971
 10
13.2554
 20
4.65138
 30
0.000000
  70
    32
  0
VERTEX
  8
AM_VIS
  5
972
 10
13.2575
 20
4.65222
 30
0.000000
  70
    32
  0
VERTEX
  8
AM_VIS
  5
973
 10
13.2597
 20
4.65305
 30
0.000000
  70
    32
  0
VERTEX
  8
AM_VIS
  5
974
 10
13.2619
 20
4.65388
 30
0.000000
  70
    32
  0
VERTEX
  8
AM_VIS
  5
975
 10
13.2640
 20
4.65470
 30
0.000000
  70
    32
  0
VERTEX
  8
AM_VIS
  5
976
 10
13.2662
 20
4.65551
 30
0.000000
  70
    32
  0
VERTEX
  8
AM_VIS
  5
977
 10
13.2684
 20
4.65632
 30
0.000000
  70
    32
  0
VERTEX
  8
AM_VIS
  5
978
 10
13.2706
 20
4.65711
 30
0.000000
  70
    32
  0
VERTEX
  8
AM_VIS
  5
979
 10
13.2727
 20
4.65790
 30
0.000000
  70
    32
  0
VERTEX
  8
AM_VIS
  5
97A
 10
13.2749
 20
4.65869
 30
0.000000
  70
    32
  0
VERTEX
  8
AM_VIS
  5
97B
 10
13.2771
 20
4.65946
 30
0.000000
  70
    32
  0
VERTEX
  8
AM_VIS
  5
97C
 10
13.2793
 20
4.66023
 30
0.000000
  70
    32
  0
VERTEX
  8
AM_VIS
  5
97D
 10
13.2815
 20
4.66099
 30
0.000000
  70
    32
  0
VERTEX
  8
AM_VIS
  5
97E
 10
13.2837
 20
4.66175
 30
0.000000
  70
    32
  0
VERTEX
  8
AM_VIS
  5
97F
 10
13.2859
 20
4.66250
 30
0.000000
  70
    32
  0
VERTEX
  8
AM_VIS
  5
980
 10
13.2881
 20
4.66324
 30
0.000000
  70
    32
  0
VERTEX
  8
AM_VIS
  5
981
 10
13.2903
 20
4.66397
 30
0.000000
  70
    32
  0
VERTEX
  8
AM_VIS
  5
982
 10
13.2925
 20
4.66470
 30
0.000000
  70
    32
  0
VERTEX
  8
AM_VIS
  5
983
 10
13.2947
 20
4.66542
 30
0.000000
  70
    32
  0
VERTEX
  8
AM_VIS
  5
984
 10
13.2969
 20
4.66613
 30
0.000000
  70
    32
  0
VERTEX
  8
AM_VIS
  5
985
 10
13.2991
 20
4.66683
 30
0.000000
  70
    32
  0
VERTEX
  8
AM_VIS
  5
986
 10
13.3013
 20
4.66753
 30
0.000000
  70
    32
  0
VERTEX
  8
AM_VIS
  5
987
 10
13.3035
 20
4.66822
 30
0.000000
  70
    32
  0
VERTEX
  8
AM_VIS
  5
988
 10
13.3057
 20
4.66891
 30
0.000000
  70
    32
  0
VERTEX
  8
AM_VIS
  5
989
 10
13.3080
 20
4.66958
 30
0.000000
  70
    32
  0
VERTEX
  8
AM_VIS
  5
98A
 10
13.3102
 20
4.67025
 30
0.000000
  70
    32
  0
VERTEX
  8
AM_VIS
  5
98B
 10
13.3124
 20
4.67092
 30
0.000000
  70
    32
  0
VERTEX
  8
AM_VIS
  5
98C
 10
13.3146
 20
4.67157
 30
0.000000
  70
    32
  0
VERTEX
  8
AM_VIS
  5
98D
 10
13.3169
 20
4.67222
 30
0.000000
  70
    32
  0
VERTEX
  8
AM_VIS
  5
98E
 10
13.3191
 20
4.67286
 30
0.000000
  70
    32
  0
VERTEX
  8
AM_VIS
  5
98F
 10
13.3213
 20
4.67350
 30
0.000000
  70
    32
  0
VERTEX
  8
AM_VIS
  5
990
 10
13.3236
 20
4.67413
 30
0.000000
  70
    32
  0
VERTEX
  8
AM_VIS
  5
991
 10
13.3258
 20
4.67475
 30
0.000000
  70
    32
  0
VERTEX
  8
AM_VIS
  5
992
 10
13.3280
 20
4.67537
 30
0.000000
  70
    32
  0
VERTEX
  8
AM_VIS
  5
993
 10
13.3303
 20
4.67597
 30
0.000000
  70
    32
  0
VERTEX
  8
AM_VIS
  5
994
 10
13.3325
 20
4.67658
 30
0.000000
  70
    32
  0
VERTEX
  8
AM_VIS
  5
995
 10
13.3347
 20
4.67717
 30
0.000000
  70
    32
  0
VERTEX
  8
AM_VIS
  5
996
 10
13.3370
 20
4.67776
 30
0.000000
  70
    32
  0
VERTEX
  8
AM_VIS
  5
997
 10
13.3392
 20
4.67834
 30
0.000000
  70
    32
  0
VERTEX
  8
AM_VIS
  5
998
 10
13.3415
 20
4.67891
 30
0.000000
  70
    32
  0
VERTEX
  8
AM_VIS
  5
999
 10
13.3437
 20
4.67948
 30
0.000000
  70
    32
  0
VERTEX
  8
AM_VIS
  5
99A
 10
13.3460
 20
4.68004
 30
0.000000
  70
    32
  0
VERTEX
  8
AM_VIS
  5
99B
 10
13.3482
 20
4.68059
 30
0.000000
  70
    32
  0
VERTEX
  8
AM_VIS
  5
99C
 10
13.3505
 20
4.68114
 30
0.000000
  70
    32
  0
VERTEX
  8
AM_VIS
  5
99D
 10
13.3527
 20
4.68168
 30
0.000000
  70
    32
  0
VERTEX
  8
AM_VIS
  5
99E
 10
13.3550
 20
4.68222
 30
0.000000
  70
    32
  0
VERTEX
  8
AM_VIS
  5
99F
 10
13.3572
 20
4.68274
 30
0.000000
  70
    32
  0
VERTEX
  8
AM_VIS
  5
9A0
 10
13.3595
 20
4.68326
 30
0.000000
  70
    32
  0
VERTEX
  8
AM_VIS
  5
9A1
 10
13.3618
 20
4.68378
 30
0.000000
  70
    32
  0
VERTEX
  8
AM_VIS
  5
9A2
 10
13.3640
 20
4.68428
 30
0.000000
  70
    32
  0
VERTEX
  8
AM_VIS
  5
9A3
 10
13.3663
 20
4.68478
 30
0.000000
  70
    32
  0
VERTEX
  8
AM_VIS
  5
9A4
 10
13.3685
 20
4.68528
 30
0.000000
  70
    32
  0
VERTEX
  8
AM_VIS
  5
9A5
 10
13.3708
 20
4.68576
 30
0.000000
  70
    32
  0
VERTEX
  8
AM_VIS
  5
9A6
 10
13.3731
 20
4.68624
 30
0.000000
  70
    32
  0
VERTEX
  8
AM_VIS
  5
9A7
 10
13.3753
 20
4.68672
 30
0.000000
  70
    32
  0
VERTEX
  8
AM_VIS
  5
9A8
 10
13.3776
 20
4.68719
 30
0.000000
  70
    32
  0
VERTEX
  8
AM_VIS
  5
9A9
 10
13.3799
 20
4.68765
 30
0.000000
  70
    32
  0
VERTEX
  8
AM_VIS
  5
9AA
 10
13.3822
 20
4.68810
 30
0.000000
  70
    32
  0
VERTEX
  8
AM_VIS
  5
9AB
 10
13.3844
 20
4.68855
 30
0.000000
  70
    32
  0
VERTEX
  8
AM_VIS
  5
9AC
 10
13.3867
 20
4.68899
 30
0.000000
  70
    32
  0
VERTEX
  8
AM_VIS
  5
9AD
 10
13.3890
 20
4.68943
 30
0.000000
  70
    32
  0
VERTEX
  8
AM_VIS
  5
9AE
 10
13.3912
 20
4.68985
 30
0.000000
  70
    32
  0
VERTEX
  8
AM_VIS
  5
9AF
 10
13.3935
 20
4.69028
 30
0.000000
  70
    32
  0
VERTEX
  8
AM_VIS
  5
9B0
 10
13.3958
 20
4.69069
 30
0.000000
  70
    32
  0
VERTEX
  8
AM_VIS
  5
9B1
 10
13.3981
 20
4.69110
 30
0.000000
  70
    32
  0
VERTEX
  8
AM_VIS
  5
9B2
 10
13.4003
 20
4.69150
 30
0.000000
  70
    32
  0
VERTEX
  8
AM_VIS
  5
9B3
 10
13.4026
 20
4.69190
 30
0.000000
  70
    32
  0
VERTEX
  8
AM_VIS
  5
9B4
 10
13.4049
 20
4.69229
 30
0.000000
  70
    32
  0
VERTEX
  8
AM_VIS
  5
9B5
 10
13.4072
 20
4.69267
 30
0.000000
  70
    32
  0
VERTEX
  8
AM_VIS
  5
9B6
 10
13.4095
 20
4.69305
 30
0.000000
  70
    32
  0
VERTEX
  8
AM_VIS
  5
9B7
 10
13.4118
 20
4.69342
 30
0.000000
  70
    32
  0
VERTEX
  8
AM_VIS
  5
9B8
 10
13.4140
 20
4.69378
 30
0.000000
  70
    32
  0
VERTEX
  8
AM_VIS
  5
9B9
 10
13.4163
 20
4.69414
 30
0.000000
  70
    32
  0
VERTEX
  8
AM_VIS
  5
9BA
 10
13.4186
 20
4.69449
 30
0.000000
  70
    32
  0
VERTEX
  8
AM_VIS
  5
9BB
 10
13.4209
 20
4.69484
 30
0.000000
  70
    32
  0
VERTEX
  8
AM_VIS
  5
9BC
 10
13.4232
 20
4.69517
 30
0.000000
  70
    32
  0
VERTEX
  8
AM_VIS
  5
9BD
 10
13.4255
 20
4.69551
 30
0.000000
  70
    32
  0
VERTEX
  8
AM_VIS
  5
9BE
 10
13.4278
 20
4.69583
 30
0.000000
  70
    32
  0
VERTEX
  8
AM_VIS
  5
9BF
 10
13.4300
 20
4.69616
 30
0.000000
  70
    32
  0
VERTEX
  8
AM_VIS
  5
9C0
 10
13.4323
 20
4.69647
 30
0.000000
  70
    32
  0
VERTEX
  8
AM_VIS
  5
9C1
 10
13.4346
 20
4.69678
 30
0.000000
  70
    32
  0
VERTEX
  8
AM_VIS
  5
9C2
 10
13.4369
 20
4.69708
 30
0.000000
  70
    32
  0
VERTEX
  8
AM_VIS
  5
9C3
 10
13.4393
 20
4.69738
 30
0.000000
  70
    32
  0
VERTEX
  8
AM_VIS
  5
9C4
 10
13.4416
 20
4.69767
 30
0.000000
  70
    32
  0
VERTEX
  8
AM_VIS
  5
9C5
 10
13.4439
 20
4.69795
 30
0.000000
  70
    32
  0
VERTEX
  8
AM_VIS
  5
9C6
 10
13.4462
 20
4.69823
 30
0.000000
  70
    32
  0
VERTEX
  8
AM_VIS
  5
9C7
 10
13.4485
 20
4.69851
 30
0.000000
  70
    32
  0
VERTEX
  8
AM_VIS
  5
9C8
 10
13.4508
 20
4.69877
 30
0.000000
  70
    32
  0
VERTEX
  8
AM_VIS
  5
9C9
 10
13.4531
 20
4.69903
 30
0.000000
  70
    32
  0
VERTEX
  8
AM_VIS
  5
9CA
 10
13.4554
 20
4.69929
 30
0.000000
  70
    32
  0
VERTEX
  8
AM_VIS
  5
9CB
 10
13.4578
 20
4.69953
 30
0.000000
  70
    32
  0
VERTEX
  8
AM_VIS
  5
9CC
 10
13.4601
 20
4.69978
 30
0.000000
  70
    32
  0
VERTEX
  8
AM_VIS
  5
9CD
 10
13.4624
 20
4.70001
 30
0.000000
  70
    32
  0
VERTEX
  8
AM_VIS
  5
9CE
 10
13.4647
 20
4.70024
 30
0.000000
  70
    32
  0
VERTEX
  8
AM_VIS
  5
9CF
 10
13.4671
 20
4.70047
 30
0.000000
  70
    32
  0
VERTEX
  8
AM_VIS
  5
9D0
 10
13.4694
 20
4.70068
 30
0.000000
  70
    32
  0
VERTEX
  8
AM_VIS
  5
9D1
 10
13.4717
 20
4.70089
 30
0.000000
  70
    32
  0
VERTEX
  8
AM_VIS
  5
9D2
 10
13.4740
 20
4.70110
 30
0.000000
  70
    32
  0
VERTEX
  8
AM_VIS
  5
9D3
 10
13.4764
 20
4.70130
 30
0.000000
  70
    32
  0
VERTEX
  8
AM_VIS
  5
9D4
 10
13.4787
 20
4.70149
 30
0.000000
  70
    32
  0
VERTEX
  8
AM_VIS
  5
9D5
 10
13.4810
 20
4.70168
 30
0.000000
  70
    32
  0
VERTEX
  8
AM_VIS
  5
9D6
 10
13.4834
 20
4.70186
 30
0.000000
  70
    32
  0
VERTEX
  8
AM_VIS
  5
9D7
 10
13.4857
 20
4.70203
 30
0.000000
  70
    32
  0
VERTEX
  8
AM_VIS
  5
9D8
 10
13.4881
 20
4.70220
 30
0.000000
  70
    32
  0
VERTEX
  8
AM_VIS
  5
9D9
 10
13.4904
 20
4.70236
 30
0.000000
  70
    32
  0
VERTEX
  8
AM_VIS
  5
9DA
 10
13.4927
 20
4.70252
 30
0.000000
  70
    32
  0
VERTEX
  8
AM_VIS
  5
9DB
 10
13.4951
 20
4.70267
 30
0.000000
  70
    32
  0
VERTEX
  8
AM_VIS
  5
9DC
 10
13.4974
 20
4.70281
 30
0.000000
  70
    32
  0
VERTEX
  8
AM_VIS
  5
9DD
 10
13.4998
 20
4.70295
 30
0.000000
  70
    32
  0
VERTEX
  8
AM_VIS
  5
9DE
 10
13.5021
 20
4.70308
 30
0.000000
  70
    32
  0
VERTEX
  8
AM_VIS
  5
9DF
 10
13.5045
 20
4.70320
 30
0.000000
  70
    32
  0
VERTEX
  8
AM_VIS
  5
9E0
 10
13.5068
 20
4.70332
 30
0.000000
  70
    32
  0
VERTEX
  8
AM_VIS
  5
9E1
 10
13.5092
 20
4.70343
 30
0.000000
  70
    32
  0
VERTEX
  8
AM_VIS
  5
9E2
 10
13.5115
 20
4.70354
 30
0.000000
  70
    32
  0
VERTEX
  8
AM_VIS
  5
9E3
 10
13.5139
 20
4.70364
 30
0.000000
  70
    32
  0
VERTEX
  8
AM_VIS
  5
9E4
 10
13.5162
 20
4.70373
 30
0.000000
  70
    32
  0
VERTEX
  8
AM_VIS
  5
9E5
 10
13.5186
 20
4.70382
 30
0.000000
  70
    32
  0
VERTEX
  8
AM_VIS
  5
9E6
 10
13.5209
 20
4.70390
 30
0.000000
  70
    32
  0
VERTEX
  8
AM_VIS
  5
9E7
 10
13.5233
 20
4.70397
 30
0.000000
  70
    32
  0
VERTEX
  8
AM_VIS
  5
9E8
 10
13.5256
 20
4.70404
 30
0.000000
  70
    32
  0
VERTEX
  8
AM_VIS
  5
9E9
 10
13.5280
 20
4.70410
 30
0.000000
  70
    32
  0
VERTEX
  8
AM_VIS
  5
9EA
 10
13.5304
 20
4.70415
 30
0.000000
  70
    32
  0
VERTEX
  8
AM_VIS
  5
9EB
 10
13.5327
 20
4.70420
 30
0.000000
  70
    32
  0
VERTEX
  8
AM_VIS
  5
9EC
 10
13.5351
 20
4.70425
 30
0.000000
  70
    32
  0
VERTEX
  8
AM_VIS
  5
9ED
 10
13.5374
 20
4.70428
 30
0.000000
  70
    32
  0
VERTEX
  8
AM_VIS
  5
9EE
 10
13.5398
 20
4.70431
 30
0.000000
  70
    32
  0
VERTEX
  8
AM_VIS
  5
9EF
 10
13.5421
 20
4.70434
 30
0.000000
  70
    32
  0
VERTEX
  8
AM_VIS
  5
9F0
 10
13.5445
 20
4.70435
 30
0.000000
  70
    32
  0
VERTEX
  8
AM_VIS
  5
9F1
 10
13.5469
 20
4.70436
 30
0.000000
  70
    32
  0
VERTEX
  8
AM_VIS
  5
9F2
 10
13.5492
 20
4.70437
 30
0.000000
  70
    32
  0
VERTEX
  8
AM_VIS
  5
9F3
 10
13.5516
 20
4.70437
 30
0.000000
  70
    32
  0
VERTEX
  8
AM_VIS
  5
9F4
 10
13.5539
 20
4.70436
 30
0.000000
  70
    32
  0
VERTEX
  8
AM_VIS
  5
9F5
 10
13.5563
 20
4.70434
 30
0.000000
  70
    32
  0
VERTEX
  8
AM_VIS
  5
9F6
 10
13.5586
 20
4.70432
 30
0.000000
  70
    32
  0
VERTEX
  8
AM_VIS
  5
9F7
 10
13.5610
 20
4.70429
 30
0.000000
  70
    32
  0
VERTEX
  8
AM_VIS
  5
9F8
 10
13.5634
 20
4.70426
 30
0.000000
  70
    32
  0
VERTEX
  8
AM_VIS
  5
9F9
 10
13.5657
 20
4.70422
 30
0.000000
  70
    32
  0
VERTEX
  8
AM_VIS
  5
9FA
 10
13.5681
 20
4.70417
 30
0.000000
  70
    32
  0
VERTEX
  8
AM_VIS
  5
9FB
 10
13.5704
 20
4.70412
 30
0.000000
  70
    32
  0
VERTEX
  8
AM_VIS
  5
9FC
 10
13.5728
 20
4.70406
 30
0.000000
  70
    32
  0
VERTEX
  8
AM_VIS
  5
9FD
 10
13.5751
 20
4.70400
 30
0.000000
  70
    32
  0
VERTEX
  8
AM_VIS
  5
9FE
 10
13.5775
 20
4.70392
 30
0.000000
  70
    32
  0
VERTEX
  8
AM_VIS
  5
9FF
 10
13.5799
 20
4.70384
 30
0.000000
  70
    32
  0
VERTEX
  8
AM_VIS
  5
A00
 10
13.5822
 20
4.70376
 30
0.000000
  70
    32
  0
VERTEX
  8
AM_VIS
  5
A01
 10
13.5846
 20
4.70367
 30
0.000000
  70
    32
  0
VERTEX
  8
AM_VIS
  5
A02
 10
13.5869
 20
4.70357
 30
0.000000
  70
    32
  0
VERTEX
  8
AM_VIS
  5
A03
 10
13.5893
 20
4.70346
 30
0.000000
  70
    32
  0
VERTEX
  8
AM_VIS
  5
A04
 10
13.5916
 20
4.70335
 30
0.000000
  70
    32
  0
VERTEX
  8
AM_VIS
  5
A05
 10
13.5940
 20
4.70323
 30
0.000000
  70
    32
  0
VERTEX
  8
AM_VIS
  5
A06
 10
13.5963
 20
4.70311
 30
0.000000
  70
    32
  0
VERTEX
  8
AM_VIS
  5
A07
 10
13.5987
 20
4.70298
 30
0.000000
  70
    32
  0
VERTEX
  8
AM_VIS
  5
A08
 10
13.6010
 20
4.70284
 30
0.000000
  70
    32
  0
VERTEX
  8
AM_VIS
  5
A09
 10
13.6034
 20
4.70270
 30
0.000000
  70
    32
  0
VERTEX
  8
AM_VIS
  5
A0A
 10
13.6057
 20
4.70255
 30
0.000000
  70
    32
  0
VERTEX
  8
AM_VIS
  5
A0B
 10
13.6081
 20
4.70239
 30
0.000000
  70
    32
  0
VERTEX
  8
AM_VIS
  5
A0C
 10
13.6104
 20
4.70223
 30
0.000000
  70
    32
  0
VERTEX
  8
AM_VIS
  5
A0D
 10
13.6128
 20
4.70206
 30
0.000000
  70
    32
  0
VERTEX
  8
AM_VIS
  5
A0E
 10
13.6151
 20
4.70188
 30
0.000000
  70
    32
  0
VERTEX
  8
AM_VIS
  5
A0F
 10
13.6174
 20
4.70170
 30
0.000000
  70
    32
  0
VERTEX
  8
AM_VIS
  5
A10
 10
13.6198
 20
4.70151
 30
0.000000
  70
    32
  0
VERTEX
  8
AM_VIS
  5
A11
 10
13.6221
 20
4.70131
 30
0.000000
  70
    32
  0
VERTEX
  8
AM_VIS
  5
A12
 10
13.6245
 20
4.70111
 30
0.000000
  70
    32
  0
VERTEX
  8
AM_VIS
  5
A13
 10
13.6268
 20
4.70090
 30
0.000000
  70
    32
  0
VERTEX
  8
AM_VIS
  5
A14
 10
13.6291
 20
4.70069
 30
0.000000
  70
    32
  0
VERTEX
  8
AM_VIS
  5
A15
 10
13.6315
 20
4.70046
 30
0.000000
  70
    32
  0
VERTEX
  8
AM_VIS
  5
A16
 10
13.6338
 20
4.70023
 30
0.000000
  70
    32
  0
VERTEX
  8
AM_VIS
  5
A17
 10
13.6361
 20
4.70000
 30
0.000000
  70
    32
  0
VERTEX
  8
AM_VIS
  5
A18
 10
13.6385
 20
4.69976
 30
0.000000
  70
    32
  0
VERTEX
  8
AM_VIS
  5
A19
 10
13.6408
 20
4.69951
 30
0.000000
  70
    32
  0
VERTEX
  8
AM_VIS
  5
A1A
 10
13.6431
 20
4.69925
 30
0.000000
  70
    32
  0
VERTEX
  8
AM_VIS
  5
A1B
 10
13.6454
 20
4.69899
 30
0.000000
  70
    32
  0
VERTEX
  8
AM_VIS
  5
A1C
 10
13.6478
 20
4.69872
 30
0.000000
  70
    32
  0
VERTEX
  8
AM_VIS
  5
A1D
 10
13.6501
 20
4.69845
 30
0.000000
  70
    32
  0
VERTEX
  8
AM_VIS
  5
A1E
 10
13.6524
 20
4.69816
 30
0.000000
  70
    32
  0
VERTEX
  8
AM_VIS
  5
A1F
 10
13.6547
 20
4.69787
 30
0.000000
  70
    32
  0
VERTEX
  8
AM_VIS
  5
A20
 10
13.6570
 20
4.69758
 30
0.000000
  70
    32
  0
VERTEX
  8
AM_VIS
  5
A21
 10
13.6594
 20
4.69728
 30
0.000000
  70
    32
  0
VERTEX
  8
AM_VIS
  5
A22
 10
13.6617
 20
4.69697
 30
0.000000
  70
    32
  0
VERTEX
  8
AM_VIS
  5
A23
 10
13.6640
 20
4.69665
 30
0.000000
  70
    32
  0
VERTEX
  8
AM_VIS
  5
A24
 10
13.6663
 20
4.69633
 30
0.000000
  70
    32
  0
VERTEX
  8
AM_VIS
  5
A25
 10
13.6686
 20
4.69600
 30
0.000000
  70
    32
  0
VERTEX
  8
AM_VIS
  5
A26
 10
13.6709
 20
4.69567
 30
0.000000
  70
    32
  0
VERTEX
  8
AM_VIS
  5
A27
 10
13.6732
 20
4.69532
 30
0.000000
  70
    32
  0
VERTEX
  8
AM_VIS
  5
A28
 10
13.6755
 20
4.69497
 30
0.000000
  70
    32
  0
VERTEX
  8
AM_VIS
  5
A29
 10
13.6778
 20
4.69462
 30
0.000000
  70
    32
  0
VERTEX
  8
AM_VIS
  5
A2A
 10
13.6801
 20
4.69426
 30
0.000000
  70
    32
  0
VERTEX
  8
AM_VIS
  5
A2B
 10
13.6824
 20
4.69389
 30
0.000000
  70
    32
  0
VERTEX
  8
AM_VIS
  5
A2C
 10
13.6847
 20
4.69351
 30
0.000000
  70
    32
  0
VERTEX
  8
AM_VIS
  5
A2D
 10
13.6869
 20
4.69313
 30
0.000000
  70
    32
  0
VERTEX
  8
AM_VIS
  5
A2E
 10
13.6892
 20
4.69274
 30
0.000000
  70
    32
  0
VERTEX
  8
AM_VIS
  5
A2F
 10
13.6915
 20
4.69234
 30
0.000000
  70
    32
  0
VERTEX
  8
AM_VIS
  5
A30
 10
13.6938
 20
4.69194
 30
0.000000
  70
    32
  0
VERTEX
  8
AM_VIS
  5
A31
 10
13.6961
 20
4.69153
 30
0.000000
  70
    32
  0
VERTEX
  8
AM_VIS
  5
A32
 10
13.6983
 20
4.69112
 30
0.000000
  70
    32
  0
VERTEX
  8
AM_VIS
  5
A33
 10
13.7006
 20
4.69070
 30
0.000000
  70
    32
  0
VERTEX
  8
AM_VIS
  5
A34
 10
13.7028
 20
4.69027
 30
0.000000
  70
    32
  0
VERTEX
  8
AM_VIS
  5
A35
 10
13.7051
 20
4.68984
 30
0.000000
  70
    32
  0
VERTEX
  8
AM_VIS
  5
A36
 10
13.7073
 20
4.68941
 30
0.000000
  70
    32
  0
VERTEX
  8
AM_VIS
  5
A37
 10
13.7095
 20
4.68897
 30
0.000000
  70
    32
  0
VERTEX
  8
AM_VIS
  5
A38
 10
13.7117
 20
4.68852
 30
0.000000
  70
    32
  0
VERTEX
  8
AM_VIS
  5
A39
 10
13.7139
 20
4.68807
 30
0.000000
  70
    32
  0
VERTEX
  8
AM_VIS
  5
A3A
 10
13.7161
 20
4.68762
 30
0.000000
  70
    32
  0
VERTEX
  8
AM_VIS
  5
A3B
 10
13.7182
 20
4.68716
 30
0.000000
  70
    32
  0
VERTEX
  8
AM_VIS
  5
A3C
 10
13.7204
 20
4.68670
 30
0.000000
  70
    32
  0
VERTEX
  8
AM_VIS
  5
A3D
 10
13.7225
 20
4.68623
 30
0.000000
  70
    32
  0
VERTEX
  8
AM_VIS
  5
A3E
 10
13.7247
 20
4.68576
 30
0.000000
  70
    32
  0
VERTEX
  8
AM_VIS
  5
A3F
 10
13.7268
 20
4.68528
 30
0.000000
  70
    32
  0
VERTEX
  8
AM_VIS
  5
A40
 10
13.7289
 20
4.68480
 30
0.000000
  70
    32
  0
VERTEX
  8
AM_VIS
  5
A41
 10
13.7310
 20
4.68431
 30
0.000000
  70
    32
  0
VERTEX
  8
AM_VIS
  5
A42
 10
13.7331
 20
4.68383
 30
0.000000
  70
    32
  0
VERTEX
  8
AM_VIS
  5
A43
 10
13.7352
 20
4.68333
 30
0.000000
  70
    32
  0
VERTEX
  8
AM_VIS
  5
A44
 10
13.7372
 20
4.68283
 30
0.000000
  70
    32
  0
VERTEX
  8
AM_VIS
  5
A45
 10
13.7393
 20
4.68233
 30
0.000000
  70
    32
  0
VERTEX
  8
AM_VIS
  5
A46
 10
13.7413
 20
4.68183
 30
0.000000
  70
    32
  0
VERTEX
  8
AM_VIS
  5
A47
 10
13.7434
 20
4.68132
 30
0.000000
  70
    32
  0
VERTEX
  8
AM_VIS
  5
A48
 10
13.7454
 20
4.68080
 30
0.000000
  70
    32
  0
VERTEX
  8
AM_VIS
  5
A49
 10
13.7474
 20
4.68029
 30
0.000000
  70
    32
  0
VERTEX
  8
AM_VIS
  5
A4A
 10
13.7494
 20
4.67976
 30
0.000000
  70
    32
  0
VERTEX
  8
AM_VIS
  5
A4B
 10
13.7514
 20
4.67924
 30
0.000000
  70
    32
  0
VERTEX
  8
AM_VIS
  5
A4C
 10
13.7534
 20
4.67871
 30
0.000000
  70
    32
  0
VERTEX
  8
AM_VIS
  5
A4D
 10
13.7554
 20
4.67818
 30
0.000000
  70
    32
  0
VERTEX
  8
AM_VIS
  5
A4E
 10
13.7574
 20
4.67764
 30
0.000000
  70
    32
  0
VERTEX
  8
AM_VIS
  5
A4F
 10
13.7593
 20
4.67710
 30
0.000000
  70
    32
  0
VERTEX
  8
AM_VIS
  5
A50
 10
13.7613
 20
4.67656
 30
0.000000
  70
    32
  0
VERTEX
  8
AM_VIS
  5
A51
 10
13.7632
 20
4.67601
 30
0.000000
  70
    32
  0
VERTEX
  8
AM_VIS
  5
A52
 10
13.7651
 20
4.67546
 30
0.000000
  70
    32
  0
VERTEX
  8
AM_VIS
  5
A53
 10
13.7670
 20
4.67491
 30
0.000000
  70
    32
  0
VERTEX
  8
AM_VIS
  5
A54
 10
13.7689
 20
4.67436
 30
0.000000
  70
    32
  0
VERTEX
  8
AM_VIS
  5
A55
 10
13.7708
 20
4.67380
 30
0.000000
  70
    32
  0
VERTEX
  8
AM_VIS
  5
A56
 10
13.7727
 20
4.67324
 30
0.000000
  70
    32
  0
VERTEX
  8
AM_VIS
  5
A57
 10
13.7746
 20
4.67267
 30
0.000000
  70
    32
  0
VERTEX
  8
AM_VIS
  5
A58
 10
13.7764
 20
4.67210
 30
0.000000
  70
    32
  0
VERTEX
  8
AM_VIS
  5
A59
 10
13.7783
 20
4.67153
 30
0.000000
  70
    32
  0
VERTEX
  8
AM_VIS
  5
A5A
 10
13.7801
 20
4.67096
 30
0.000000
  70
    32
  0
VERTEX
  8
AM_VIS
  5
A5B
 10
13.7820
 20
4.67038
 30
0.000000
  70
    32
  0
VERTEX
  8
AM_VIS
  5
A5C
 10
13.7838
 20
4.66980
 30
0.000000
  70
    32
  0
VERTEX
  8
AM_VIS
  5
A5D
 10
13.7856
 20
4.66922
 30
0.000000
  70
    32
  0
VERTEX
  8
AM_VIS
  5
A5E
 10
13.7874
 20
4.66863
 30
0.000000
  70
    32
  0
VERTEX
  8
AM_VIS
  5
A5F
 10
13.7892
 20
4.66805
 30
0.000000
  70
    32
  0
VERTEX
  8
AM_VIS
  5
A60
 10
13.7910
 20
4.66746
 30
0.000000
  70
    32
  0
VERTEX
  8
AM_VIS
  5
A61
 10
13.7928
 20
4.66686
 30
0.000000
  70
    32
  0
VERTEX
  8
AM_VIS
  5
A62
 10
13.7945
 20
4.66627
 30
0.000000
  70
    32
  0
VERTEX
  8
AM_VIS
  5
A63
 10
13.7963
 20
4.66567
 30
0.000000
  70
    32
  0
VERTEX
  8
AM_VIS
  5
A64
 10
13.7980
 20
4.66507
 30
0.000000
  70
    32
  0
VERTEX
  8
AM_VIS
  5
A65
 10
13.7997
 20
4.66447
 30
0.000000
  70
    32
  0
VERTEX
  8
AM_VIS
  5
A66
 10
13.8015
 20
4.66387
 30
0.000000
  70
    32
  0
VERTEX
  8
AM_VIS
  5
A67
 10
13.8032
 20
4.66326
 30
0.000000
  70
    32
  0
VERTEX
  8
AM_VIS
  5
A68
 10
13.8049
 20
4.66266
 30
0.000000
  70
    32
  0
VERTEX
  8
AM_VIS
  5
A69
 10
13.8066
 20
4.66205
 30
0.000000
  70
    32
  0
VERTEX
  8
AM_VIS
  5
A6A
 10
13.8083
 20
4.66143
 30
0.000000
  70
    32
  0
VERTEX
  8
AM_VIS
  5
A6B
 10
13.8099
 20
4.66082
 30
0.000000
  70
    32
  0
VERTEX
  8
AM_VIS
  5
A6C
 10
13.8116
 20
4.66020
 30
0.000000
  70
    32
  0
VERTEX
  8
AM_VIS
  5
A6D
 10
13.8132
 20
4.65959
 30
0.000000
  70
    32
  0
VERTEX
  8
AM_VIS
  5
A6E
 10
13.8149
 20
4.65897
 30
0.000000
  70
    32
  0
VERTEX
  8
AM_VIS
  5
A6F
 10
13.8165
 20
4.65835
 30
0.000000
  70
    32
  0
VERTEX
  8
AM_VIS
  5
A70
 10
13.8181
 20
4.65773
 30
0.000000
  70
    32
  0
VERTEX
  8
AM_VIS
  5
A71
 10
13.8198
 20
4.65710
 30
0.000000
  70
    32
  0
VERTEX
  8
AM_VIS
  5
A72
 10
13.8214
 20
4.65648
 30
0.000000
  70
    32
  0
VERTEX
  8
AM_VIS
  5
A73
 10
13.8230
 20
4.65585
 30
0.000000
  70
    32
  0
VERTEX
  8
AM_VIS
  5
A74
 10
13.8245
 20
4.65522
 30
0.000000
  70
    32
  0
VERTEX
  8
AM_VIS
  5
A75
 10
13.8261
 20
4.65459
 30
0.000000
  70
    32
  0
VERTEX
  8
AM_VIS
  5
A76
 10
13.8277
 20
4.65396
 30
0.000000
  70
    32
  0
VERTEX
  8
AM_VIS
  5
A77
 10
13.8292
 20
4.65333
 30
0.000000
  70
    32
  0
VERTEX
  8
AM_VIS
  5
A78
 10
13.8308
 20
4.65270
 30
0.000000
  70
    32
  0
VERTEX
  8
AM_VIS
  5
A79
 10
13.8323
 20
4.65206
 30
0.000000
  70
    32
  0
VERTEX
  8
AM_VIS
  5
A7A
 10
13.8338
 20
4.65143
 30
0.000000
  70
    32
  0
VERTEX
  8
AM_VIS
  5
A7B
 10
13.8354
 20
4.65079
 30
0.000000
  70
    32
  0
VERTEX
  8
AM_VIS
  5
A7C
 10
13.8369
 20
4.65016
 30
0.000000
  70
    32
  0
VERTEX
  8
AM_VIS
  5
A7D
 10
13.8384
 20
4.64952
 30
0.000000
  70
    32
  0
VERTEX
  8
AM_VIS
  5
A7E
 10
13.8399
 20
4.64888
 30
0.000000
  70
    32
  0
VERTEX
  8
AM_VIS
  5
A7F
 10
13.8413
 20
4.64824
 30
0.000000
  70
    32
  0
VERTEX
  8
AM_VIS
  5
A80
 10
13.8428
 20
4.64760
 30
0.000000
  70
    32
  0
VERTEX
  8
AM_VIS
  5
A81
 10
13.8443
 20
4.64696
 30
0.000000
  70
    32
  0
VERTEX
  8
AM_VIS
  5
A82
 10
13.8457
 20
4.64632
 30
0.000000
  70
    32
  0
VERTEX
  8
AM_VIS
  5
A83
 10
13.8472
 20
4.64568
 30
0.000000
  70
    32
  0
VERTEX
  8
AM_VIS
  5
A84
 10
13.8486
 20
4.64504
 30
0.000000
  70
    32
  0
VERTEX
  8
AM_VIS
  5
A85
 10
13.8500
 20
4.64440
 30
0.000000
  70
    32
  0
VERTEX
  8
AM_VIS
  5
A86
 10
13.8514
 20
4.64375
 30
0.000000
  70
    32
  0
VERTEX
  8
AM_VIS
  5
A87
 10
13.8529
 20
4.64311
 30
0.000000
  70
    32
  0
VERTEX
  8
AM_VIS
  5
A88
 10
13.8542
 20
4.64247
 30
0.000000
  70
    32
  0
VERTEX
  8
AM_VIS
  5
A89
 10
13.8556
 20
4.64182
 30
0.000000
  70
    32
  0
VERTEX
  8
AM_VIS
  5
A8A
 10
13.8570
 20
4.64118
 30
0.000000
  70
    32
  0
VERTEX
  8
AM_VIS
  5
A8B
 10
13.8584
 20
4.64054
 30
0.000000
  70
    32
  0
VERTEX
  8
AM_VIS
  5
A8C
 10
13.8597
 20
4.63989
 30
0.000000
  70
    32
  0
VERTEX
  8
AM_VIS
  5
A8D
 10
13.8611
 20
4.63925
 30
0.000000
  70
    32
  0
VERTEX
  8
AM_VIS
  5
A8E
 10
13.8624
 20
4.63861
 30
0.000000
  70
    32
  0
VERTEX
  8
AM_VIS
  5
A8F
 10
13.8638
 20
4.63796
 30
0.000000
  70
    32
  0
VERTEX
  8
AM_VIS
  5
A90
 10
13.8651
 20
4.63732
 30
0.000000
  70
    32
  0
VERTEX
  8
AM_VIS
  5
A91
 10
13.8664
 20
4.63668
 30
0.000000
  70
    32
  0
VERTEX
  8
AM_VIS
  5
A92
 10
13.8677
 20
4.63604
 30
0.000000
  70
    32
  0
VERTEX
  8
AM_VIS
  5
A93
 10
13.8690
 20
4.63540
 30
0.000000
  70
    32
  0
VERTEX
  8
AM_VIS
  5
A94
 10
13.8703
 20
4.63475
 30
0.000000
  70
    32
  0
VERTEX
  8
AM_VIS
  5
A95
 10
13.8716
 20
4.63411
 30
0.000000
  70
    32
  0
VERTEX
  8
AM_VIS
  5
A96
 10
13.8728
 20
4.63347
 30
0.000000
  70
    32
  0
VERTEX
  8
AM_VIS
  5
A97
 10
13.8741
 20
4.63284
 30
0.000000
  70
    32
  0
VERTEX
  8
AM_VIS
  5
A98
 10
13.8754
 20
4.63220
 30
0.000000
  70
    32
  0
VERTEX
  8
AM_VIS
  5
A99
 10
13.8766
 20
4.63156
 30
0.000000
  70
    32
  0
VERTEX
  8
AM_VIS
  5
A9A
 10
13.8778
 20
4.63092
 30
0.000000
  70
    32
  0
VERTEX
  8
AM_VIS
  5
A9B
 10
13.8791
 20
4.63029
 30
0.000000
  70
    32
  0
VERTEX
  8
AM_VIS
  5
A9C
 10
13.8803
 20
4.62965
 30
0.000000
  70
    32
  0
VERTEX
  8
AM_VIS
  5
A9D
 10
13.8815
 20
4.62902
 30
0.000000
  70
    32
  0
VERTEX
  8
AM_VIS
  5
A9E
 10
13.8827
 20
4.62838
 30
0.000000
  70
    32
  0
VERTEX
  8
AM_VIS
  5
A9F
 10
13.8839
 20
4.62775
 30
0.000000
  70
    32
  0
VERTEX
  8
AM_VIS
  5
AA0
 10
13.8851
 20
4.62712
 30
0.000000
  70
    32
  0
VERTEX
  8
AM_VIS
  5
AA1
 10
13.8862
 20
4.62649
 30
0.000000
  70
    32
  0
VERTEX
  8
AM_VIS
  5
AA2
 10
13.8874
 20
4.62586
 30
0.000000
  70
    32
  0
VERTEX
  8
AM_VIS
  5
AA3
 10
13.8885
 20
4.62524
 30
0.000000
  70
    32
  0
VERTEX
  8
AM_VIS
  5
AA4
 10
13.8897
 20
4.62461
 30
0.000000
  70
    32
  0
VERTEX
  8
AM_VIS
  5
AA5
 10
13.8908
 20
4.62399
 30
0.000000
  70
    32
  0
VERTEX
  8
AM_VIS
  5
AA6
 10
13.8920
 20
4.62336
 30
0.000000
  70
    32
  0
VERTEX
  8
AM_VIS
  5
AA7
 10
13.8931
 20
4.62274
 30
0.000000
  70
    32
  0
VERTEX
  8
AM_VIS
  5
AA8
 10
13.8942
 20
4.62212
 30
0.000000
  70
    32
  0
VERTEX
  8
AM_VIS
  5
AA9
 10
13.8953
 20
4.62150
 30
0.000000
  70
    32
  0
VERTEX
  8
AM_VIS
  5
AAA
 10
13.8964
 20
4.62089
 30
0.000000
  70
    32
  0
VERTEX
  8
AM_VIS
  5
AAB
 10
13.8975
 20
4.62027
 30
0.000000
  70
    32
  0
VERTEX
  8
AM_VIS
  5
AAC
 10
13.8986
 20
4.61966
 30
0.000000
  70
    32
  0
VERTEX
  8
AM_VIS
  5
AAD
 10
13.8996
 20
4.61905
 30
0.000000
  70
    32
  0
VERTEX
  8
AM_VIS
  5
AAE
 10
13.9007
 20
4.61844
 30
0.000000
  70
    32
  0
VERTEX
  8
AM_VIS
  5
AAF
 10
13.9017
 20
4.61784
 30
0.000000
  70
    32
  0
SEQEND
  8
AM_VIS
  5
AB0
  0
POLYLINE
  8
AM_VIS
  5
AB1
  66
     1
 10
0.000000
 20
0.000000
 30
0.000000
  70
     8
  0
VERTEX
  8
AM_VIS
  5
AB2
 10
13.9017
 20
4.61784
 30
0.000000
  70
    32
  0
VERTEX
  8
AM_VIS
  5
AB3
 10
13.9033
 20
4.61695
 30
0.000000
  70
    32
  0
VERTEX
  8
AM_VIS
  5
AB4
 10
13.9048
 20
4.61606
 30
0.000000
  70
    32
  0
VERTEX
  8
AM_VIS
  5
AB5
 10
13.9063
 20
4.61515
 30
0.000000
  70
    32
  0
VERTEX
  8
AM_VIS
  5
AB6
 10
13.9079
 20
4.61423
 30
0.000000
  70
    32
  0
VERTEX
  8
AM_VIS
  5
AB7
 10
13.9095
 20
4.61329
 30
0.000000
  70
    32
  0
VERTEX
  8
AM_VIS
  5
AB8
 10
13.9110
 20
4.61235
 30
0.000000
  70
    32
  0
VERTEX
  8
AM_VIS
  5
AB9
 10
13.9126
 20
4.61139
 30
0.000000
  70
    32
  0
VERTEX
  8
AM_VIS
  5
ABA
 10
13.9142
 20
4.61042
 30
0.000000
  70
    32
  0
VERTEX
  8
AM_VIS
  5
ABB
 10
13.9158
 20
4.60943
 30
0.000000
  70
    32
  0
VERTEX
  8
AM_VIS
  5
ABC
 10
13.9175
 20
4.60843
 30
0.000000
  70
    32
  0
VERTEX
  8
AM_VIS
  5
ABD
 10
13.9191
 20
4.60742
 30
0.000000
  70
    32
  0
VERTEX
  8
AM_VIS
  5
ABE
 10
13.9207
 20
4.60640
 30
0.000000
  70
    32
  0
VERTEX
  8
AM_VIS
  5
ABF
 10
13.9224
 20
4.60536
 30
0.000000
  70
    32
  0
VERTEX
  8
AM_VIS
  5
AC0
 10
13.9240
 20
4.60431
 30
0.000000
  70
    32
  0
VERTEX
  8
AM_VIS
  5
AC1
 10
13.9257
 20
4.60324
 30
0.000000
  70
    32
  0
VERTEX
  8
AM_VIS
  5
AC2
 10
13.9273
 20
4.60217
 30
0.000000
  70
    32
  0
VERTEX
  8
AM_VIS
  5
AC3
 10
13.9290
 20
4.60107
 30
0.000000
  70
    32
  0
VERTEX
  8
AM_VIS
  5
AC4
 10
13.9307
 20
4.59997
 30
0.000000
  70
    32
  0
VERTEX
  8
AM_VIS
  5
AC5
 10
13.9324
 20
4.59885
 30
0.000000
  70
    32
  0
VERTEX
  8
AM_VIS
  5
AC6
 10
13.9341
 20
4.59771
 30
0.000000
  70
    32
  0
VERTEX
  8
AM_VIS
  5
AC7
 10
13.9358
 20
4.59656
 30
0.000000
  70
    32
  0
VERTEX
  8
AM_VIS
  5
AC8
 10
13.9375
 20
4.59540
 30
0.000000
  70
    32
  0
VERTEX
  8
AM_VIS
  5
AC9
 10
13.9393
 20
4.59422
 30
0.000000
  70
    32
  0
VERTEX
  8
AM_VIS
  5
ACA
 10
13.9410
 20
4.59303
 30
0.000000
  70
    32
  0
VERTEX
  8
AM_VIS
  5
ACB
 10
13.9427
 20
4.59183
 30
0.000000
  70
    32
  0
VERTEX
  8
AM_VIS
  5
ACC
 10
13.9445
 20
4.59060
 30
0.000000
  70
    32
  0
VERTEX
  8
AM_VIS
  5
ACD
 10
13.9463
 20
4.58937
 30
0.000000
  70
    32
  0
VERTEX
  8
AM_VIS
  5
ACE
 10
13.9480
 20
4.58812
 30
0.000000
  70
    32
  0
VERTEX
  8
AM_VIS
  5
ACF
 10
13.9498
 20
4.58685
 30
0.000000
  70
    32
  0
VERTEX
  8
AM_VIS
  5
AD0
 10
13.9516
 20
4.58557
 30
0.000000
  70
    32
  0
VERTEX
  8
AM_VIS
  5
AD1
 10
13.9534
 20
4.58427
 30
0.000000
  70
    32
  0
VERTEX
  8
AM_VIS
  5
AD2
 10
13.9552
 20
4.58296
 30
0.000000
  70
    32
  0
VERTEX
  8
AM_VIS
  5
AD3
 10
13.9570
 20
4.58163
 30
0.000000
  70
    32
  0
VERTEX
  8
AM_VIS
  5
AD4
 10
13.9588
 20
4.58029
 30
0.000000
  70
    32
  0
VERTEX
  8
AM_VIS
  5
AD5
 10
13.9606
 20
4.57893
 30
0.000000
  70
    32
  0
VERTEX
  8
AM_VIS
  5
AD6
 10
13.9624
 20
4.57756
 30
0.000000
  70
    32
  0
VERTEX
  8
AM_VIS
  5
AD7
 10
13.9643
 20
4.57617
 30
0.000000
  70
    32
  0
VERTEX
  8
AM_VIS
  5
AD8
 10
13.9661
 20
4.57476
 30
0.000000
  70
    32
  0
VERTEX
  8
AM_VIS
  5
AD9
 10
13.9679
 20
4.57334
 30
0.000000
  70
    32
  0
VERTEX
  8
AM_VIS
  5
ADA
 10
13.9698
 20
4.57190
 30
0.000000
  70
    32
  0
VERTEX
  8
AM_VIS
  5
ADB
 10
13.9717
 20
4.57044
 30
0.000000
  70
    32
  0
VERTEX
  8
AM_VIS
  5
ADC
 10
13.9735
 20
4.56897
 30
0.000000
  70
    32
  0
VERTEX
  8
AM_VIS
  5
ADD
 10
13.9754
 20
4.56748
 30
0.000000
  70
    32
  0
VERTEX
  8
AM_VIS
  5
ADE
 10
13.9773
 20
4.56598
 30
0.000000
  70
    32
  0
VERTEX
  8
AM_VIS
  5
ADF
 10
13.9791
 20
4.56445
 30
0.000000
  70
    32
  0
VERTEX
  8
AM_VIS
  5
AE0
 10
13.9810
 20
4.56292
 30
0.000000
  70
    32
  0
VERTEX
  8
AM_VIS
  5
AE1
 10
13.9829
 20
4.56136
 30
0.000000
  70
    32
  0
VERTEX
  8
AM_VIS
  5
AE2
 10
13.9848
 20
4.55979
 30
0.000000
  70
    32
  0
VERTEX
  8
AM_VIS
  5
AE3
 10
13.9867
 20
4.55820
 30
0.000000
  70
    32
  0
VERTEX
  8
AM_VIS
  5
AE4
 10
13.9886
 20
4.55659
 30
0.000000
  70
    32
  0
VERTEX
  8
AM_VIS
  5
AE5
 10
13.9905
 20
4.55497
 30
0.000000
  70
    32
  0
VERTEX
  8
AM_VIS
  5
AE6
 10
13.9925
 20
4.55332
 30
0.000000
  70
    32
  0
VERTEX
  8
AM_VIS
  5
AE7
 10
13.9944
 20
4.55166
 30
0.000000
  70
    32
  0
VERTEX
  8
AM_VIS
  5
AE8
 10
13.9963
 20
4.54999
 30
0.000000
  70
    32
  0
VERTEX
  8
AM_VIS
  5
AE9
 10
13.9983
 20
4.54829
 30
0.000000
  70
    32
  0
VERTEX
  8
AM_VIS
  5
AEA
 10
14.0002
 20
4.54658
 30
0.000000
  70
    32
  0
VERTEX
  8
AM_VIS
  5
AEB
 10
14.0021
 20
4.54485
 30
0.000000
  70
    32
  0
VERTEX
  8
AM_VIS
  5
AEC
 10
14.0041
 20
4.54310
 30
0.000000
  70
    32
  0
VERTEX
  8
AM_VIS
  5
AED
 10
14.0060
 20
4.54133
 30
0.000000
  70
    32
  0
VERTEX
  8
AM_VIS
  5
AEE
 10
14.0080
 20
4.53954
 30
0.000000
  70
    32
  0
VERTEX
  8
AM_VIS
  5
AEF
 10
14.0099
 20
4.53774
 30
0.000000
  70
    32
  0
VERTEX
  8
AM_VIS
  5
AF0
 10
14.0119
 20
4.53592
 30
0.000000
  70
    32
  0
VERTEX
  8
AM_VIS
  5
AF1
 10
14.0139
 20
4.53407
 30
0.000000
  70
    32
  0
VERTEX
  8
AM_VIS
  5
AF2
 10
14.0159
 20
4.53221
 30
0.000000
  70
    32
  0
VERTEX
  8
AM_VIS
  5
AF3
 10
14.0178
 20
4.53033
 30
0.000000
  70
    32
  0
VERTEX
  8
AM_VIS
  5
AF4
 10
14.0198
 20
4.52844
 30
0.000000
  70
    32
  0
VERTEX
  8
AM_VIS
  5
AF5
 10
14.0218
 20
4.52652
 30
0.000000
  70
    32
  0
VERTEX
  8
AM_VIS
  5
AF6
 10
14.0238
 20
4.52458
 30
0.000000
  70
    32
  0
VERTEX
  8
AM_VIS
  5
AF7
 10
14.0258
 20
4.52263
 30
0.000000
  70
    32
  0
VERTEX
  8
AM_VIS
  5
AF8
 10
14.0278
 20
4.52065
 30
0.000000
  70
    32
  0
VERTEX
  8
AM_VIS
  5
AF9
 10
14.0297
 20
4.51866
 30
0.000000
  70
    32
  0
VERTEX
  8
AM_VIS
  5
AFA
 10
14.0317
 20
4.51664
 30
0.000000
  70
    32
  0
VERTEX
  8
AM_VIS
  5
AFB
 10
14.0337
 20
4.51461
 30
0.000000
  70
    32
  0
VERTEX
  8
AM_VIS
  5
AFC
 10
14.0358
 20
4.51255
 30
0.000000
  70
    32
  0
VERTEX
  8
AM_VIS
  5
AFD
 10
14.0378
 20
4.51048
 30
0.000000
  70
    32
  0
VERTEX
  8
AM_VIS
  5
AFE
 10
14.0398
 20
4.50839
 30
0.000000
  70
    32
  0
VERTEX
  8
AM_VIS
  5
AFF
 10
14.0418
 20
4.50627
 30
0.000000
  70
    32
  0
VERTEX
  8
AM_VIS
  5
B00
 10
14.0438
 20
4.50414
 30
0.000000
  70
    32
  0
VERTEX
  8
AM_VIS
  5
B01
 10
14.0458
 20
4.50198
 30
0.000000
  70
    32
  0
VERTEX
  8
AM_VIS
  5
B02
 10
14.0478
 20
4.49981
 30
0.000000
  70
    32
  0
VERTEX
  8
AM_VIS
  5
B03
 10
14.0499
 20
4.49761
 30
0.000000
  70
    32
  0
VERTEX
  8
AM_VIS
  5
B04
 10
14.0519
 20
4.49539
 30
0.000000
  70
    32
  0
VERTEX
  8
AM_VIS
  5
B05
 10
14.0539
 20
4.49316
 30
0.000000
  70
    32
  0
VERTEX
  8
AM_VIS
  5
B06
 10
14.0559
 20
4.49090
 30
0.000000
  70
    32
  0
VERTEX
  8
AM_VIS
  5
B07
 10
14.0579
 20
4.48862
 30
0.000000
  70
    32
  0
VERTEX
  8
AM_VIS
  5
B08
 10
14.0600
 20
4.48632
 30
0.000000
  70
    32
  0
VERTEX
  8
AM_VIS
  5
B09
 10
14.0620
 20
4.48400
 30
0.000000
  70
    32
  0
VERTEX
  8
AM_VIS
  5
B0A
 10
14.0640
 20
4.48166
 30
0.000000
  70
    32
  0
VERTEX
  8
AM_VIS
  5
B0B
 10
14.0661
 20
4.47929
 30
0.000000
  70
    32
  0
VERTEX
  8
AM_VIS
  5
B0C
 10
14.0681
 20
4.47691
 30
0.000000
  70
    32
  0
VERTEX
  8
AM_VIS
  5
B0D
 10
14.0701
 20
4.47450
 30
0.000000
  70
    32
  0
VERTEX
  8
AM_VIS
  5
B0E
 10
14.0722
 20
4.47207
 30
0.000000
  70
    32
  0
VERTEX
  8
AM_VIS
  5
B0F
 10
14.0742
 20
4.46962
 30
0.000000
  70
    32
  0
VERTEX
  8
AM_VIS
  5
B10
 10
14.0763
 20
4.46715
 30
0.000000
  70
    32
  0
VERTEX
  8
AM_VIS
  5
B11
 10
14.0783
 20
4.46465
 30
0.000000
  70
    32
  0
VERTEX
  8
AM_VIS
  5
B12
 10
14.0803
 20
4.46213
 30
0.000000
  70
    32
  0
VERTEX
  8
AM_VIS
  5
B13
 10
14.0824
 20
4.45960
 30
0.000000
  70
    32
  0
VERTEX
  8
AM_VIS
  5
B14
 10
14.0844
 20
4.45705
 30
0.000000
  70
    32
  0
VERTEX
  8
AM_VIS
  5
B15
 10
14.0864
 20
4.45449
 30
0.000000
  70
    32
  0
VERTEX
  8
AM_VIS
  5
B16
 10
14.0884
 20
4.45192
 30
0.000000
  70
    32
  0
VERTEX
  8
AM_VIS
  5
B17
 10
14.0904
 20
4.44934
 30
0.000000
  70
    32
  0
VERTEX
  8
AM_VIS
  5
B18
 10
14.0924
 20
4.44675
 30
0.000000
  70
    32
  0
VERTEX
  8
AM_VIS
  5
B19
 10
14.0944
 20
4.44415
 30
0.000000
  70
    32
  0
VERTEX
  8
AM_VIS
  5
B1A
 10
14.0964
 20
4.44154
 30
0.000000
  70
    32
  0
VERTEX
  8
AM_VIS
  5
B1B
 10
14.0983
 20
4.43892
 30
0.000000
  70
    32
  0
VERTEX
  8
AM_VIS
  5
B1C
 10
14.1003
 20
4.43628
 30
0.000000
  70
    32
  0
VERTEX
  8
AM_VIS
  5
B1D
 10
14.1022
 20
4.43364
 30
0.000000
  70
    32
  0
VERTEX
  8
AM_VIS
  5
B1E
 10
14.1042
 20
4.43099
 30
0.000000
  70
    32
  0
VERTEX
  8
AM_VIS
  5
B1F
 10
14.1061
 20
4.42832
 30
0.000000
  70
    32
  0
VERTEX
  8
AM_VIS
  5
B20
 10
14.1080
 20
4.42565
 30
0.000000
  70
    32
  0
VERTEX
  8
AM_VIS
  5
B21
 10
14.1099
 20
4.42297
 30
0.000000
  70
    32
  0
VERTEX
  8
AM_VIS
  5
B22
 10
14.1119
 20
4.42028
 30
0.000000
  70
    32
  0
VERTEX
  8
AM_VIS
  5
B23
 10
14.1137
 20
4.41757
 30
0.000000
  70
    32
  0
VERTEX
  8
AM_VIS
  5
B24
 10
14.1156
 20
4.41486
 30
0.000000
  70
    32
  0
VERTEX
  8
AM_VIS
  5
B25
 10
14.1175
 20
4.41214
 30
0.000000
  70
    32
  0
VERTEX
  8
AM_VIS
  5
B26
 10
14.1194
 20
4.40941
 30
0.000000
  70
    32
  0
VERTEX
  8
AM_VIS
  5
B27
 10
14.1212
 20
4.40667
 30
0.000000
  70
    32
  0
VERTEX
  8
AM_VIS
  5
B28
 10
14.1231
 20
4.40392
 30
0.000000
  70
    32
  0
VERTEX
  8
AM_VIS
  5
B29
 10
14.1249
 20
4.40116
 30
0.000000
  70
    32
  0
VERTEX
  8
AM_VIS
  5
B2A
 10
14.1267
 20
4.39840
 30
0.000000
  70
    32
  0
VERTEX
  8
AM_VIS
  5
B2B
 10
14.1285
 20
4.39562
 30
0.000000
  70
    32
  0
VERTEX
  8
AM_VIS
  5
B2C
 10
14.1304
 20
4.39284
 30
0.000000
  70
    32
  0
VERTEX
  8
AM_VIS
  5
B2D
 10
14.1321
 20
4.39005
 30
0.000000
  70
    32
  0
VERTEX
  8
AM_VIS
  5
B2E
 10
14.1339
 20
4.38724
 30
0.000000
  70
    32
  0
VERTEX
  8
AM_VIS
  5
B2F
 10
14.1357
 20
4.38443
 30
0.000000
  70
    32
  0
VERTEX
  8
AM_VIS
  5
B30
 10
14.1375
 20
4.38162
 30
0.000000
  70
    32
  0
VERTEX
  8
AM_VIS
  5
B31
 10
14.1392
 20
4.37879
 30
0.000000
  70
    32
  0
VERTEX
  8
AM_VIS
  5
B32
 10
14.1410
 20
4.37596
 30
0.000000
  70
    32
  0
VERTEX
  8
AM_VIS
  5
B33
 10
14.1427
 20
4.37312
 30
0.000000
  70
    32
  0
VERTEX
  8
AM_VIS
  5
B34
 10
14.1444
 20
4.37027
 30
0.000000
  70
    32
  0
VERTEX
  8
AM_VIS
  5
B35
 10
14.1462
 20
4.36741
 30
0.000000
  70
    32
  0
VERTEX
  8
AM_VIS
  5
B36
 10
14.1479
 20
4.36454
 30
0.000000
  70
    32
  0
VERTEX
  8
AM_VIS
  5
B37
 10
14.1496
 20
4.36167
 30
0.000000
  70
    32
  0
VERTEX
  8
AM_VIS
  5
B38
 10
14.1512
 20
4.35879
 30
0.000000
  70
    32
  0
VERTEX
  8
AM_VIS
  5
B39
 10
14.1529
 20
4.35590
 30
0.000000
  70
    32
  0
VERTEX
  8
AM_VIS
  5
B3A
 10
14.1546
 20
4.35301
 30
0.000000
  70
    32
  0
VERTEX
  8
AM_VIS
  5
B3B
 10
14.1562
 20
4.35011
 30
0.000000
  70
    32
  0
VERTEX
  8
AM_VIS
  5
B3C
 10
14.1579
 20
4.34720
 30
0.000000
  70
    32
  0
VERTEX
  8
AM_VIS
  5
B3D
 10
14.1595
 20
4.34428
 30
0.000000
  70
    32
  0
VERTEX
  8
AM_VIS
  5
B3E
 10
14.1611
 20
4.34136
 30
0.000000
  70
    32
  0
VERTEX
  8
AM_VIS
  5
B3F
 10
14.1627
 20
4.33843
 30
0.000000
  70
    32
  0
VERTEX
  8
AM_VIS
  5
B40
 10
14.1643
 20
4.33550
 30
0.000000
  70
    32
  0
VERTEX
  8
AM_VIS
  5
B41
 10
14.1659
 20
4.33255
 30
0.000000
  70
    32
  0
VERTEX
  8
AM_VIS
  5
B42
 10
14.1675
 20
4.32961
 30
0.000000
  70
    32
  0
VERTEX
  8
AM_VIS
  5
B43
 10
14.1691
 20
4.32665
 30
0.000000
  70
    32
  0
VERTEX
  8
AM_VIS
  5
B44
 10
14.1706
 20
4.32369
 30
0.000000
  70
    32
  0
VERTEX
  8
AM_VIS
  5
B45
 10
14.1721
 20
4.32072
 30
0.000000
  70
    32
  0
VERTEX
  8
AM_VIS
  5
B46
 10
14.1737
 20
4.31775
 30
0.000000
  70
    32
  0
VERTEX
  8
AM_VIS
  5
B47
 10
14.1752
 20
4.31477
 30
0.000000
  70
    32
  0
VERTEX
  8
AM_VIS
  5
B48
 10
14.1767
 20
4.31179
 30
0.000000
  70
    32
  0
VERTEX
  8
AM_VIS
  5
B49
 10
14.1782
 20
4.30880
 30
0.000000
  70
    32
  0
VERTEX
  8
AM_VIS
  5
B4A
 10
14.1797
 20
4.30580
 30
0.000000
  70
    32
  0
VERTEX
  8
AM_VIS
  5
B4B
 10
14.1812
 20
4.30280
 30
0.000000
  70
    32
  0
VERTEX
  8
AM_VIS
  5
B4C
 10
14.1826
 20
4.29979
 30
0.000000
  70
    32
  0
VERTEX
  8
AM_VIS
  5
B4D
 10
14.1841
 20
4.29678
 30
0.000000
  70
    32
  0
VERTEX
  8
AM_VIS
  5
B4E
 10
14.1855
 20
4.29376
 30
0.000000
  70
    32
  0
VERTEX
  8
AM_VIS
  5
B4F
 10
14.1869
 20
4.29074
 30
0.000000
  70
    32
  0
VERTEX
  8
AM_VIS
  5
B50
 10
14.1884
 20
4.28771
 30
0.000000
  70
    32
  0
VERTEX
  8
AM_VIS
  5
B51
 10
14.1898
 20
4.28468
 30
0.000000
  70
    32
  0
VERTEX
  8
AM_VIS
  5
B52
 10
14.1911
 20
4.28165
 30
0.000000
  70
    32
  0
VERTEX
  8
AM_VIS
  5
B53
 10
14.1925
 20
4.27860
 30
0.000000
  70
    32
  0
VERTEX
  8
AM_VIS
  5
B54
 10
14.1939
 20
4.27556
 30
0.000000
  70
    32
  0
VERTEX
  8
AM_VIS
  5
B55
 10
14.1952
 20
4.27251
 30
0.000000
  70
    32
  0
VERTEX
  8
AM_VIS
  5
B56
 10
14.1966
 20
4.26945
 30
0.000000
  70
    32
  0
VERTEX
  8
AM_VIS
  5
B57
 10
14.1979
 20
4.26640
 30
0.000000
  70
    32
  0
VERTEX
  8
AM_VIS
  5
B58
 10
14.1992
 20
4.26333
 30
0.000000
  70
    32
  0
VERTEX
  8
AM_VIS
  5
B59
 10
14.2005
 20
4.26027
 30
0.000000
  70
    32
  0
VERTEX
  8
AM_VIS
  5
B5A
 10
14.2018
 20
4.25720
 30
0.000000
  70
    32
  0
VERTEX
  8
AM_VIS
  5
B5B
 10
14.2031
 20
4.25412
 30
0.000000
  70
    32
  0
VERTEX
  8
AM_VIS
  5
B5C
 10
14.2044
 20
4.25104
 30
0.000000
  70
    32
  0
VERTEX
  8
AM_VIS
  5
B5D
 10
14.2056
 20
4.24796
 30
0.000000
  70
    32
  0
VERTEX
  8
AM_VIS
  5
B5E
 10
14.2069
 20
4.24488
 30
0.000000
  70
    32
  0
VERTEX
  8
AM_VIS
  5
B5F
 10
14.2081
 20
4.24179
 30
0.000000
  70
    32
  0
VERTEX
  8
AM_VIS
  5
B60
 10
14.2093
 20
4.23870
 30
0.000000
  70
    32
  0
VERTEX
  8
AM_VIS
  5
B61
 10
14.2105
 20
4.23560
 30
0.000000
  70
    32
  0
VERTEX
  8
AM_VIS
  5
B62
 10
14.2117
 20
4.23251
 30
0.000000
  70
    32
  0
VERTEX
  8
AM_VIS
  5
B63
 10
14.2129
 20
4.22940
 30
0.000000
  70
    32
  0
VERTEX
  8
AM_VIS
  5
B64
 10
14.2141
 20
4.22630
 30
0.000000
  70
    32
  0
VERTEX
  8
AM_VIS
  5
B65
 10
14.2152
 20
4.22319
 30
0.000000
  70
    32
  0
VERTEX
  8
AM_VIS
  5
B66
 10
14.2164
 20
4.22009
 30
0.000000
  70
    32
  0
VERTEX
  8
AM_VIS
  5
B67
 10
14.2175
 20
4.21697
 30
0.000000
  70
    32
  0
VERTEX
  8
AM_VIS
  5
B68
 10
14.2186
 20
4.21386
 30
0.000000
  70
    32
  0
VERTEX
  8
AM_VIS
  5
B69
 10
14.2197
 20
4.21074
 30
0.000000
  70
    32
  0
VERTEX
  8
AM_VIS
  5
B6A
 10
14.2208
 20
4.20763
 30
0.000000
  70
    32
  0
VERTEX
  8
AM_VIS
  5
B6B
 10
14.2219
 20
4.20450
 30
0.000000
  70
    32
  0
VERTEX
  8
AM_VIS
  5
B6C
 10
14.2229
 20
4.20138
 30
0.000000
  70
    32
  0
VERTEX
  8
AM_VIS
  5
B6D
 10
14.2240
 20
4.19826
 30
0.000000
  70
    32
  0
VERTEX
  8
AM_VIS
  5
B6E
 10
14.2250
 20
4.19513
 30
0.000000
  70
    32
  0
VERTEX
  8
AM_VIS
  5
B6F
 10
14.2260
 20
4.19200
 30
0.000000
  70
    32
  0
VERTEX
  8
AM_VIS
  5
B70
 10
14.2270
 20
4.18887
 30
0.000000
  70
    32
  0
VERTEX
  8
AM_VIS
  5
B71
 10
14.2280
 20
4.18574
 30
0.000000
  70
    32
  0
VERTEX
  8
AM_VIS
  5
B72
 10
14.2290
 20
4.18261
 30
0.000000
  70
    32
  0
VERTEX
  8
AM_VIS
  5
B73
 10
14.2300
 20
4.17948
 30
0.000000
  70
    32
  0
VERTEX
  8
AM_VIS
  5
B74
 10
14.2309
 20
4.17634
 30
0.000000
  70
    32
  0
VERTEX
  8
AM_VIS
  5
B75
 10
14.2319
 20
4.17321
 30
0.000000
  70
    32
  0
VERTEX
  8
AM_VIS
  5
B76
 10
14.2328
 20
4.17007
 30
0.000000
  70
    32
  0
VERTEX
  8
AM_VIS
  5
B77
 10
14.2337
 20
4.16693
 30
0.000000
  70
    32
  0
VERTEX
  8
AM_VIS
  5
B78
 10
14.2346
 20
4.16379
 30
0.000000
  70
    32
  0
VERTEX
  8
AM_VIS
  5
B79
 10
14.2355
 20
4.16065
 30
0.000000
  70
    32
  0
VERTEX
  8
AM_VIS
  5
B7A
 10
14.2363
 20
4.15750
 30
0.000000
  70
    32
  0
VERTEX
  8
AM_VIS
  5
B7B
 10
14.2372
 20
4.15435
 30
0.000000
  70
    32
  0
VERTEX
  8
AM_VIS
  5
B7C
 10
14.2380
 20
4.15120
 30
0.000000
  70
    32
  0
VERTEX
  8
AM_VIS
  5
B7D
 10
14.2389
 20
4.14805
 30
0.000000
  70
    32
  0
VERTEX
  8
AM_VIS
  5
B7E
 10
14.2397
 20
4.14489
 30
0.000000
  70
    32
  0
VERTEX
  8
AM_VIS
  5
B7F
 10
14.2405
 20
4.14173
 30
0.000000
  70
    32
  0
VERTEX
  8
AM_VIS
  5
B80
 10
14.2413
 20
4.13856
 30
0.000000
  70
    32
  0
VERTEX
  8
AM_VIS
  5
B81
 10
14.2420
 20
4.13540
 30
0.000000
  70
    32
  0
VERTEX
  8
AM_VIS
  5
B82
 10
14.2428
 20
4.13223
 30
0.000000
  70
    32
  0
VERTEX
  8
AM_VIS
  5
B83
 10
14.2435
 20
4.12906
 30
0.000000
  70
    32
  0
VERTEX
  8
AM_VIS
  5
B84
 10
14.2443
 20
4.12588
 30
0.000000
  70
    32
  0
VERTEX
  8
AM_VIS
  5
B85
 10
14.2450
 20
4.12271
 30
0.000000
  70
    32
  0
VERTEX
  8
AM_VIS
  5
B86
 10
14.2457
 20
4.11953
 30
0.000000
  70
    32
  0
VERTEX
  8
AM_VIS
  5
B87
 10
14.2464
 20
4.11634
 30
0.000000
  70
    32
  0
VERTEX
  8
AM_VIS
  5
B88
 10
14.2471
 20
4.11316
 30
0.000000
  70
    32
  0
VERTEX
  8
AM_VIS
  5
B89
 10
14.2477
 20
4.10997
 30
0.000000
  70
    32
  0
VERTEX
  8
AM_VIS
  5
B8A
 10
14.2484
 20
4.10678
 30
0.000000
  70
    32
  0
VERTEX
  8
AM_VIS
  5
B8B
 10
14.2490
 20
4.10359
 30
0.000000
  70
    32
  0
VERTEX
  8
AM_VIS
  5
B8C
 10
14.2496
 20
4.10040
 30
0.000000
  70
    32
  0
VERTEX
  8
AM_VIS
  5
B8D
 10
14.2502
 20
4.09720
 30
0.000000
  70
    32
  0
VERTEX
  8
AM_VIS
  5
B8E
 10
14.2508
 20
4.09400
 30
0.000000
  70
    32
  0
VERTEX
  8
AM_VIS
  5
B8F
 10
14.2514
 20
4.09080
 30
0.000000
  70
    32
  0
VERTEX
  8
AM_VIS
  5
B90
 10
14.2519
 20
4.08760
 30
0.000000
  70
    32
  0
VERTEX
  8
AM_VIS
  5
B91
 10
14.2525
 20
4.08439
 30
0.000000
  70
    32
  0
VERTEX
  8
AM_VIS
  5
B92
 10
14.2530
 20
4.08118
 30
0.000000
  70
    32
  0
VERTEX
  8
AM_VIS
  5
B93
 10
14.2535
 20
4.07798
 30
0.000000
  70
    32
  0
VERTEX
  8
AM_VIS
  5
B94
 10
14.2540
 20
4.07476
 30
0.000000
  70
    32
  0
VERTEX
  8
AM_VIS
  5
B95
 10
14.2545
 20
4.07155
 30
0.000000
  70
    32
  0
VERTEX
  8
AM_VIS
  5
B96
 10
14.2549
 20
4.06833
 30
0.000000
  70
    32
  0
VERTEX
  8
AM_VIS
  5
B97
 10
14.2554
 20
4.06512
 30
0.000000
  70
    32
  0
VERTEX
  8
AM_VIS
  5
B98
 10
14.2558
 20
4.06190
 30
0.000000
  70
    32
  0
VERTEX
  8
AM_VIS
  5
B99
 10
14.2562
 20
4.05868
 30
0.000000
  70
    32
  0
VERTEX
  8
AM_VIS
  5
B9A
 10
14.2566
 20
4.05545
 30
0.000000
  70
    32
  0
VERTEX
  8
AM_VIS
  5
B9B
 10
14.2570
 20
4.05223
 30
0.000000
  70
    32
  0
VERTEX
  8
AM_VIS
  5
B9C
 10
14.2574
 20
4.04900
 30
0.000000
  70
    32
  0
VERTEX
  8
AM_VIS
  5
B9D
 10
14.2578
 20
4.04577
 30
0.000000
  70
    32
  0
VERTEX
  8
AM_VIS
  5
B9E
 10
14.2581
 20
4.04254
 30
0.000000
  70
    32
  0
VERTEX
  8
AM_VIS
  5
B9F
 10
14.2584
 20
4.03931
 30
0.000000
  70
    32
  0
VERTEX
  8
AM_VIS
  5
BA0
 10
14.2587
 20
4.03608
 30
0.000000
  70
    32
  0
VERTEX
  8
AM_VIS
  5
BA1
 10
14.2590
 20
4.03285
 30
0.000000
  70
    32
  0
VERTEX
  8
AM_VIS
  5
BA2
 10
14.2593
 20
4.02961
 30
0.000000
  70
    32
  0
VERTEX
  8
AM_VIS
  5
BA3
 10
14.2596
 20
4.02637
 30
0.000000
  70
    32
  0
VERTEX
  8
AM_VIS
  5
BA4
 10
14.2598
 20
4.02313
 30
0.000000
  70
    32
  0
VERTEX
  8
AM_VIS
  5
BA5
 10
14.2600
 20
4.01989
 30
0.000000
  70
    32
  0
VERTEX
  8
AM_VIS
  5
BA6
 10
14.2602
 20
4.01665
 30
0.000000
  70
    32
  0
VERTEX
  8
AM_VIS
  5
BA7
 10
14.2604
 20
4.01341
 30
0.000000
  70
    32
  0
VERTEX
  8
AM_VIS
  5
BA8
 10
14.2606
 20
4.01016
 30
0.000000
  70
    32
  0
VERTEX
  8
AM_VIS
  5
BA9
 10
14.2608
 20
4.00692
 30
0.000000
  70
    32
  0
VERTEX
  8
AM_VIS
  5
BAA
 10
14.2609
 20
4.00367
 30
0.000000
  70
    32
  0
VERTEX
  8
AM_VIS
  5
BAB
 10
14.2611
 20
4.00042
 30
0.000000
  70
    32
  0
VERTEX
  8
AM_VIS
  5
BAC
 10
14.2612
 20
3.99718
 30
0.000000
  70
    32
  0
VERTEX
  8
AM_VIS
  5
BAD
 10
14.2613
 20
3.99393
 30
0.000000
  70
    32
  0
VERTEX
  8
AM_VIS
  5
BAE
 10
14.2613
 20
3.99067
 30
0.000000
  70
    32
  0
VERTEX
  8
AM_VIS
  5
BAF
 10
14.2614
 20
3.98742
 30
0.000000
  70
    32
  0
VERTEX
  8
AM_VIS
  5
BB0
 10
14.2614
 20
3.98417
 30
0.000000
  70
    32
  0
VERTEX
  8
AM_VIS
  5
BB1
 10
14.2615
 20
3.98092
 30
0.000000
  70
    32
  0
SEQEND
  8
AM_VIS
  5
BB2
  0
LINE
  5
40
  8
AM_VIS
 10
14.421884282194229
 20
3.830534495577202
 30
0.0
 11
14.55435159653198
 21
3.9334316527663389
 31
0.0
  0
LINE
  5
41
  8
AM_VIS
 10
14.16099116510647
 20
3.8068735870456729
 30
0.0
 11
14.236459919484821
 21
3.937589301301792
 31
0.0
  0
ARC
  5
42
  8
AM_VIS
 10
13.700336378584391
 20
4.2605769833031806
 30
0.0
 40
0.4103297329045442
 50
289.2943156095177
 51
328.37178989422
  0
ARC
  5
43
  8
AM_VIS
 10
13.693045218684301
 20
4.2647865364342152
 30
0.0
 40
0.4103297329045662
 50
151.62821010578111
 51
190.70568439048131
  0
ARC
  5
44
  8
AM_VIS
 10
13.69086391499812
 20
4.252589301360981
 30
0.0
 40
0.40625
 50
189.0723075591805
 51
290.9276924408195
  0
ARC
  5
45
  8
AM_VIS
 10
13.68868261131195
 20
4.2403920662877406
 30
0.0
 40
0.4103297329045541
 50
331.62821010578062
 51
10.70568439048199
  0
LINE
  5
46
  8
AM_VIS
 10
14.236459919378079
 20
3.93758930136342
 30
0.0
 11
14.26147439748928
 21
3.9809156483662309
 31
0.0
  0
ARC
  5
47
  8
AM_VIS
 10
13.681391451411841
 20
4.2446016194187752
 30
0.0
 40
0.4103297329045461
 50
109.29431560951799
 51
148.37178989422
  0
CIRCLE
  5
48
  8
AM_VIS
 10
13.69086391499812
 20
4.252589301360981
 30
0.0
 40
0.3125
  0
ARC
  5
49
  8
AM_VIS
 10
13.69086391499811
 20
4.2525893013609766
 30
0.0
 40
0.40625
 50
9.0723075591804516
 51
110.9276924408196
  0
LINE
  5
4A
  8
AM_VIS
 10
15.43632008461101
 20
4.6185217869435018
 30
0.0
 11
14.55435159653198
 21
3.9334316527663389
 31
0.0
  0
LINE
  5
4B
  8
AM_VIS
 10
14.37508405462127
 20
5.9847314142200618
 30
0.0
 11
13.64174208329435
 21
5.1083030929505666
 31
0.0
  0
LINE
  5
4C
  8
AM_VIS
 10
14.0047283514581
 20
6.1790094396741884
 30
0.0
 11
13.60629244433402
 21
5.126898961196825
 31
0.0
  0
LINE
  5
4D
  8
AM_VIS
 10
12.936666556091
 20
3.3601197304119661
 30
0.0
 11
14.25252225746519
 21
2.6004100870088749
 31
0.0
  0
LINE
  5
4E
  8
AM_HID
 10
12.786666556090999
 20
6.5341693516235511
 30
0.0
 11
12.786666556090999
 21
3.4467222707904108
 31
0.0
  0
LINE
  5
4F
  8
AM_HID
 10
10.786666556090999
 20
6.5341693516235511
 30
0.0
 11
10.786666556090999
 21
4.6014228091696641
 31
0.0
  0
LINE
  5
50
  8
AM_HID
 10
12.936666556091
 20
5.8427258879273563
 30
0.0
 11
15.327522257465191
 21
4.4623647051454176
 31
0.0
  0
LINE
  5
51
  8
AM_HID
 10
12.936666556091
 20
3.5333248111688529
 30
0.0
 11
14.327522257465191
 21
2.7303138975765391
 31
0.0
  0
LINE
  5
52
  8
AM_VIS
 10
12.936666556091
 20
6.5341693516235511
 30
0.0
 11
12.936666556091
 21
6.4414156541636292
 31
0.0
  0
LINE
  5
53
  8
AM_VIS
 10
10.636666556091001
 20
6.5341693516235511
 30
0.0
 11
10.636666556091001
 21
4.6880253495481066
 31
0.0
  0
LINE
  5
54
  8
AM_HID
 10
12.936666556091
 20
5.8427258879273563
 30
0.0
 11
12.936666556091
 21
3.5333248111688529
 31
0.0
  0
LINE
  5
55
  8
AM_VIS
 10
14.37508405462127
 20
5.9847314142200618
 30
0.0
 11
15.43632008461101
 21
4.6185217869435009
 31
0.0
  0
LINE
  5
56
  8
AM_VIS
 10
14.0047283514581
 20
6.1790094396741866
 30
0.0
 11
14.37508405462127
 21
5.9847314142200618
 31
0.0
  0
LINE
  5
57
  8
AM_VIS
 10
12.936666556091
 20
6.44141565416363
 30
0.0
 11
14.0047283514581
 21
6.1790094396741884
 31
0.0
  0
LINE
  5
15A
  8
0
 10
11.786666556090999
 20
4.024072539980037
 30
0.0
 11
11.786666556090999
 21
1.439004184682225
 31
0.0
  0
LINE
  5
15B
  8
0
 10
14.827522257465191
 20
3.5963393013609788
 30
0.0
 11
17.066257123672361
 21
2.3038051237120718
 31
0.0
  0
LINE
  5
15C
  8
0
 10
11.786666556090999
 20
1.376504184682225
 30
0.0
 11
11.786666556090999
 21
-0.0316261940109728
 31
0.0
  0
ARC
  5
15D
  8
0
 10
11.786666556090999
 20
5.3519781591161726
 30
0.0
 40
5.2036043531271448
 50
271.37638147794809
 51
304.75623548197558
  0
ARC
  5
15E
  8
0
 10
11.786666556090999
 20
5.3519781591161726
 30
0.0
 40
5.2036043531271448
 50
308.97569669875031
 51
328.62361852205191
  0
SOLID
  5
15F
  8
0
 10
11.9119077665975
 20
0.1290433386215239
 30
0.0
 11
11.911407312202821
 21
0.1707069997245751
 31
0.0
 12
11.786666556090999
 22
0.1483738059890269
 32
0.0
 13
11.786666556090999
 23
0.1483738059890269
 33
0.0
  0
SOLID
  5
160
  8
0
 10
16.21140862596387
 20
2.6533139157402559
 30
0.0
 11
16.247240187696441
 21
2.6320486789695079
 31
0.0
 12
16.293120117142401
 22
2.7501759825525962
 32
0.0
 13
16.293120117142401
 23
2.7501759825525962
 33
0.0
  0
INSERT
  5
161
  8
0
  2
*U2
 10
0.0
 20
0.0
 30
0.0
  0
INSERT
  5
162
  8
0
  2
*U3
 10
0.0
 20
0.0
 30
0.0
  0
ENDSEC
  0
EOF
