  0
SECTION
  2
HEADER
  9
$ACADVER
  1
AC1009
  9
$INSBASE
 10
0.0
 20
0.0
 30
0.0
  9
$EXTMIN
 10
-0.9374867040626568
 20
0.9986812413562651
 30
0.0
  9
$EXTMAX
 10
7.5489335107649111
 20
6.6729573202965957
 30
0.0
  9
$LIMMIN
 10
0.0
 20
0.0
  9
$LIMMAX
 10
12.0
 20
9.0
  9
$ORTHOMODE
 70
     1
  9
$REGENMODE
 70
     0
  9
$FILLMODE
 70
     1
  9
$QTEXTMODE
 70
     0
  9
$MIRRTEXT
 70
     0
  9
$DRAGMODE
 70
     2
  9
$LTSCALE
 40
1.0
  9
$OSMODE
 70
    55
  9
$ATTMODE
 70
     1
  9
$TEXTSIZE
 40
0.12
  9
$TRACEWID
 40
0.05
  9
$TEXTSTYLE
  7
ADESK1
  9
$CLAYER
  8
0
  9
$CELTYPE
  6
BYLAYER
  9
$CECOLOR
 62
   256
  9
$DIMSCALE
 40
1.0
  9
$DIMASZ
 40
0.125
  9
$DIMEXO
 40
0.0625
  9
$DIMDLI
 40
0.38
  9
$DIMRND
 40
0.0
  9
$DIMDLE
 40
0.0
  9
$DIMEXE
 40
0.18
  9
$DIMTP
 40
0.0
  9
$DIMTM
 40
0.0
  9
$DIMTXT
 40
0.09375
  9
$DIMCEN
 40
-0.125
  9
$DIMTSZ
 40
0.0
  9
$DIMTOL
 70
     0
  9
$DIMLIM
 70
     0
  9
$DIMTIH
 70
     0
  9
$DIMTOH
 70
     0
  9
$DIMSE1
 70
     0
  9
$DIMSE2
 70
     0
  9
$DIMTAD
 70
     0
  9
$DIMZIN
 70
     3
  9
$DIMBLK
  1

  9
$DIMASO
 70
     0
  9
$DIMSHO
 70
     1
  9
$DIMPOST
  1

  9
$DIMAPOST
  1

  9
$DIMALT
 70
     0
  9
$DIMALTD
 70
     2
  9
$DIMALTF
 40
25.399999999999999
  9
$DIMLFAC
 40
1.0
  9
$DIMTOFL
 70
     1
  9
$DIMTVP
 40
0.0
  9
$DIMTIX
 70
     0
  9
$DIMSOXD
 70
     0
  9
$DIMSAH
 70
     0
  9
$DIMBLK1
  1

  9
$DIMBLK2
  1

  9
$DIMSTYLE
  2
STANDARD
  9
$DIMCLRD
 70
     0
  9
$DIMCLRE
 70
     0
  9
$DIMCLRT
 70
     0
  9
$DIMTFAC
 40
1.0
  9
$DIMGAP
 40
0.09
  9
$LUNITS
 70
     4
  9
$LUPREC
 70
     4
  9
$SKETCHINC
 40
0.1
  9
$FILLETRAD
 40
0.0
  9
$AUNITS
 70
     0
  9
$AUPREC
 70
     4
  9
$MENU
  1
.
  9
$ELEVATION
 40
0.0
  9
$PELEVATION
 40
0.0
  9
$THICKNESS
 40
0.0
  9
$LIMCHECK
 70
     0
  9
$BLIPMODE
 70
     0
  9
$CHAMFERA
 40
0.5
  9
$CHAMFERB
 40
0.5
  9
$SKPOLY
 70
     0
  9
$TDCREATE
 40
2451065.3838062501
  9
$TDUPDATE
 40
2453913.5784297111
  9
$TDINDWG
 40
0.0376984606
  9
$TDUSRTIMER
 40
0.0376984606
  9
$USRTIMER
 70
     1
  9
$ANGBASE
 50
0.0
  9
$ANGDIR
 70
     0
  9
$PDMODE
 70
    34
  9
$PDSIZE
 40
3.0
  9
$PLINEWID
 40
0.0
  9
$COORDS
 70
     1
  9
$SPLFRAME
 70
     0
  9
$SPLINETYPE
 70
     6
  9
$SPLINESEGS
 70
     8
  9
$ATTDIA
 70
     0
  9
$ATTREQ
 70
     1
  9
$HANDLING
 70
     1
  9
$HANDSEED
  5
A8C
  9
$SURFTAB1
 70
     6
  9
$SURFTAB2
 70
     6
  9
$SURFTYPE
 70
     6
  9
$SURFU
 70
     6
  9
$SURFV
 70
     6
  9
$UCSNAME
  2

  9
$UCSORG
 10
0.0
 20
0.0
 30
0.0
  9
$UCSXDIR
 10
1.0
 20
0.0
 30
0.0
  9
$UCSYDIR
 10
0.0
 20
1.0
 30
0.0
  9
$PUCSNAME
  2

  9
$PUCSORG
 10
0.0
 20
0.0
 30
0.0
  9
$PUCSXDIR
 10
1.0
 20
0.0
 30
0.0
  9
$PUCSYDIR
 10
0.0
 20
1.0
 30
0.0
  9
$USERI1
 70
     0
  9
$USERI2
 70
     0
  9
$USERI3
 70
     0
  9
$USERI4
 70
     0
  9
$USERI5
 70
     0
  9
$USERR1
 40
0.0
  9
$USERR2
 40
0.0
  9
$USERR3
 40
0.0
  9
$USERR4
 40
0.0
  9
$USERR5
 40
0.0
  9
$WORLDVIEW
 70
     1
  9
$SHADEDGE
 70
     3
  9
$SHADEDIF
 70
    70
  9
$TILEMODE
 70
     1
  9
$MAXACTVP
 70
    48
  9
$PLIMCHECK
 70
     0
  9
$PEXTMIN
 10
-1.2568086155789151
 20
1.7476424931492569
 30
-0.0015258207003583
  9
$PEXTMAX
 10
7.9747585635105187
 20
7.0984037517906939
 30
0.0000000349246037
  9
$PLIMMIN
 10
-0.1579164520023376
 20
-0.2812499887361301
  9
$PLIMMAX
 10
10.84208330770177
 20
8.2187497709679782
  9
$UNITMODE
 70
     0
  9
$VISRETAIN
 70
     1
  9
$PLINEGEN
 70
     0
  9
$PSLTSCALE
 70
     1
  0
ENDSEC
  0
SECTION
  2
TABLES
  0
TABLE
  2
VPORT
 70
     2
  0
VPORT
  2
*ACTIVE
 70
     0
 10
0.0
 20
0.0
 11
1.0
 21
1.0
 12
1.8267351189714649
 22
0.0
 13
0.0
 23
0.0
 14
0.5
 24
0.5
 15
0.5
 25
0.5
 16
0.0
 26
0.0
 36
1.0
 17
4.9857001396837601
 27
3.3364786651482978
 37
0.0
 40
6.6729573302965957
 41
2.3227848101265818
 42
50.0
 43
0.0
 44
0.0
 50
0.0
 51
0.0
 71
     0
 72
   100
 73
     1
 74
     1
 75
     0
 76
     0
 77
     0
 78
     0
  0
ENDTAB
  0
TABLE
  2
LTYPE
 70
    18
  0
LTYPE
  2
CONTINUOUS
 70
     0
  3
Solid line
 72
    65
 73
     0
 40
0.0
  0
LTYPE
  2
HIDDEN
 70
     0
  3
__ __ __ __ __ __ __ __ __ __ __ __ __ __ __ __
 72
    65
 73
     2
 40
0.375
 49
0.25
 49
-0.125
  0
LTYPE
  2
PHANTOM2
 70
     0
  3
Phantom (.5x) ___ _ _ ___ _ _ ___ _ _ ___ _ _
 72
    65
 73
     6
 40
1.25
 49
0.625
 49
-0.125
 49
0.125
 49
-0.125
 49
0.125
 49
-0.125
  0
LTYPE
  2
CENTER
 70
     0
  3
Center ____ _ ____ _ ____ _ ____ _ ____ _ ____
 72
    65
 73
     4
 40
2.0
 49
1.25
 49
-0.25
 49
0.25
 49
-0.25
  0
LTYPE
  2
ASULTYPE
 70
     0
  3
Solid line
 72
    65
 73
     2
 40
3.0
 49
2.5
 49
0.5
  0
LTYPE
  2
ASVLTYPE
 70
     0
  3
__ __ __ __ __ __ __ __ __ __ __ __ __ __ __ __ __ __ __ __ __
 72
    65
 73
     2
 40
0.75
 49
0.5
 49
-0.25
  0
LTYPE
  2
AM_ISO02W050
 70
     0
  3
__ __ __ __ __ __ __ __ __ __ __ __ __ __ __
 72
    65
 73
     2
 40
7.5
 49
6.0
 49
-1.5
  0
LTYPE
  2
AM_ISO08W050
 70
     0
  3
____ . ____ . ____ . ____ . ____ . ____ . ____
 72
    65
 73
     4
 40
18.0
 49
12.0
 49
-1.5
 49
3.0
 49
-1.5
  0
LTYPE
  2
AM_ISO09W050
 70
     0
  3
_____ . . _____ . . _____ . . ____ .. ____
 72
    65
 73
     6
 40
22.5
 49
12.0
 49
-1.5
 49
3.0
 49
-1.5
 49
3.0
 49
-1.5
  0
LTYPE
  2
AMCONSTR
 70
     0
  3
_______________________
 72
    65
 73
     2
 40
9999.0
 49
9999.0
 49
0.0
  0
LTYPE
  2
AM_ISO08W050X2
 70
     0
  3
__ . __ . __ . __ . __ . __
 72
    65
 73
     4
 40
9.0
 49
6.0
 49
-0.75
 49
1.5
 49
-0.75
  0
LTYPE
  2
AM_ISO02W050X2
 70
     0
  3
 _ _ _ _ _ _ _ _ _ _ _ _
 72
    65
 73
     2
 40
3.75
 49
3.0
 49
-0.75
  0
LTYPE
  2
AMZIGZAG
 70
     0
  3
/\/-/\/-/\/-/\/-/\/-/\/
 72
    65
 73
     2
 40
11.0001
 49
0.0001
 49
-11.0
  0
LTYPE
  2
CENTER2
 70
     0
  3
Center (.5x) ___ _ ___ _ ___ _ ___ _ ___ _ ___
 72
    65
 73
     4
 40
1.125
 49
0.75
 49
-0.125
 49
0.125
 49
-0.125
  0
LTYPE
  2
HIDDEN2
 70
     0
  3
Hidden (.5x) _ _ _ _ _ _ _ _ _ _ _ _ _ _ _ _ _
 72
    65
 73
     2
 40
0.1875
 49
0.125
 49
-0.0625
  0
LTYPE
  2
AMZIGZAG2
 70
     0
  3
/\/-/\/-/\/-/\/-/\/-/\/
 72
    65
 73
     2
 40
0.4401
 49
0.0001
 49
-0.4400000000000001
  0
LTYPE
  2
ACANSTGB
 70
     0
  3
__ . . __ . .
 72
    65
 73
     6
 40
0.35433070866
 49
0.15748031496
 49
-0.03937007874
 49
0.03937007874
 49
-0.03937007874
 49
0.03937007874
 49
-0.03937007874
  0
LTYPE
  2
ACANSTGL
 70
     0
  3
_ _ _ _ _
 72
    65
 73
     2
 40
0.11811023622
 49
0.07874015748
 49
-0.03937007874
  0
ENDTAB
  0
TABLE
  2
LAYER
 70
     4
  0
LAYER
  2
0
 70
     0
 62
     7
  6
CONTINUOUS
  0
LAYER
  2
AM_VIS
 70
     0
 62
     7
  6
CONTINUOUS
  0
LAYER
  2
AM_HID
 70
     0
 62
     7
  6
HIDDEN
  0
LAYER
  2
KEE10
 70
     0
 62
     7
  6
CONTINUOUS
  0
ENDTAB
  0
TABLE
  2
STYLE
 70
     6
  0
STYLE
  2
STANDARD
 70
     0
 40
0.0
 41
1.0
 50
0.0
 71
     0
 42
0.2
  3
txt
  4

  0
STYLE
  2
ADESK1
 70
     0
 40
0.0
 41
1.0
 50
0.0
 71
     0
 42
0.12
  3
romans.shx
  4

  0
STYLE
  2

 70
     1
 40
0.0
 41
1.0
 50
0.0
 71
     0
 42
0.12
  3
ltypeshp.shx
  4

  0
STYLE
  2
ACANSTS
 70
     0
 40
1.0
 41
1.0
 50
0.0
 71
     0
 42
0.12
  3
romans.shx
  4

  0
STYLE
  2
ACANSGDT
 70
     0
 40
0.0
 41
1.0
 50
0.0
 71
     0
 42
0.12
  3
amgdtans.shx
  4

  0
STYLE
  2
ACANSTSB
 70
     0
 40
1.0
 41
1.0
 50
0.0
 71
     0
 42
0.2
  3
romans.shx
  4

  0
ENDTAB
  0
TABLE
  2
VIEW
 70
     0
  0
ENDTAB
  0
TABLE
  2
UCS
 70
     0
  0
ENDTAB
  0
TABLE
  2
APPID
 70
    13
  0
APPID
  2
ACAD
 70
     0
  0
APPID
  2
GENIUS_GENDIM_13
 70
     0
  0
APPID
  2
GENIUS_GENDTOL_13
 70
     0
  0
APPID
  2
GENIUS_GE3DTOL_13
 70
     0
  0
APPID
  2
MCAD_NO_VIS
 70
     0
  0
APPID
  2
ACAD_TEMP_GRAPHIC
 70
     0
  0
APPID
  2
AD_DRAW
 70
     0
  0
APPID
  2
ACATTRIBSERVICES
 70
     0
  0
APPID
  2
ASURF_PCURVE_APPNAME
 70
     0
  0
APPID
  2
AMG_3D2D_5_0
 70
     0
  0
APPID
  2
DESIGNERASSEMBLIES
 70
     0
  0
APPID
  2
ACADM_DIM_EDIT
 70
     0
  0
APPID
  2
AMDT_DM_ADJ
 70
     0
  0
ENDTAB
  0
TABLE
  2
DIMSTYLE
 70
     7
  0
DIMSTYLE
  2
STANDARD
 70
     0
  3

  4

  5

  6

  7

 40
1.0
 41
0.18
 42
0.0625
 43
0.38
 44
0.18
 45
0.0
 46
0.0
 47
0.0
 48
0.0
140
0.18
141
0.09
142
0.0
143
25.399999999999999
144
1.0
145
0.0
146
1.0
147
0.09
 71
     0
 72
     0
 73
     1
 74
     1
 75
     0
 76
     0
 77
     0
 78
     0
170
     0
171
     2
172
     0
173
     0
174
     0
175
     0
176
     0
177
     0
178
     0
  0
DIMSTYLE
  2
AM_ANSI
 70
     0
  3

  4
mm
  5

  6

  7

 40
1.0
 41
0.1
 42
0.05
 43
0.5
 44
0.1
 45
0.0
 46
0.0
 47
0.1
 48
0.1
140
0.12
141
0.0
142
0.0
143
25.399999999999999
144
1.0
145
0.0
146
0.71
147
0.06
 71
     0
 72
     0
 73
     1
 74
     1
 75
     0
 76
     0
 77
     0
 78
     7
170
     0
171
     2
172
     0
173
     0
174
     0
175
     0
176
   256
177
   256
178
     2
  0
DIMSTYLE
  2
AM_ANSI$3
 70
     0
  3

  4
mm
  5

  6

  7

 40
1.0
 41
0.1
 42
0.05
 43
0.5
 44
0.1
 45
0.0
 46
0.0
 47
0.1
 48
0.1
140
0.12
141
0.0
142
0.0
143
25.399999999999999
144
1.0
145
0.0
146
0.71
147
0.06
 71
     0
 72
     0
 73
     1
 74
     1
 75
     0
 76
     0
 77
     0
 78
     7
170
     0
171
     2
172
     0
173
     0
174
     0
175
     0
176
   256
177
   256
178
     2
  0
DIMSTYLE
  2
AM_ANSI$4
 70
     0
  3

  4
mm
  5

  6

  7

 40
1.0
 41
0.1
 42
0.05
 43
0.5
 44
0.1
 45
0.0
 46
0.0
 47
0.1
 48
0.1
140
0.12
141
0.0
142
0.0
143
25.399999999999999
144
1.0
145
0.0
146
0.71
147
0.06
 71
     0
 72
     0
 73
     1
 74
     1
 75
     0
 76
     0
 77
     0
 78
     7
170
     0
171
     2
172
     0
173
     0
174
     0
175
     0
176
   256
177
   256
178
     2
  0
DIMSTYLE
  2
AM_ANSI$7
 70
     0
  3

  4
mm
  5

  6

  7

 40
1.0
 41
0.1
 42
0.05
 43
0.5
 44
0.1
 45
0.0
 46
0.0
 47
0.1
 48
0.1
140
0.24
141
0.0
142
0.0
143
25.399999999999999
144
1.0
145
0.0
146
0.71
147
0.06
 71
     0
 72
     0
 73
     1
 74
     1
 75
     0
 76
     0
 77
     0
 78
     7
170
     0
171
     2
172
     0
173
     0
174
     0
175
     0
176
   256
177
   256
178
     2
  0
DIMSTYLE
  2
AM_ANSI$SF
 70
     0
  3

  4
mm
  5

  6

  7

 40
1.0
 41
0.1
 42
0.05
 43
0.5
 44
0.1
 45
0.0
 46
0.0
 47
0.1
 48
0.1
140
0.12
141
0.0
142
0.0
143
25.399999999999999
144
1.0
145
0.0
146
0.71
147
0.06
 71
     0
 72
     0
 73
     1
 74
     1
 75
     1
 76
     1
 77
     0
 78
     7
170
     0
171
     2
172
     0
173
     0
174
     0
175
     0
176
   256
177
   256
178
     2
  0
DIMSTYLE
  2
AM_ANSI$SH
 70
     0
  3

  4
mm
  5

  6
GENAXEH
  7

 40
1.0
 41
0.1
 42
0.05
 43
0.5
 44
0.1
 45
0.0
 46
0.0
 47
0.1
 48
0.1
140
0.12
141
0.0
142
0.0
143
25.399999999999999
144
1.0
145
0.0
146
0.71
147
0.06
 71
     0
 72
     0
 73
     1
 74
     1
 75
     1
 76
     1
 77
     0
 78
     7
170
     0
171
     2
172
     0
173
     1
174
     0
175
     0
176
   256
177
   256
178
     2
  0
ENDTAB
  0
ENDSEC
  0
SECTION
  2
BLOCKS
  0
BLOCK
  8
0
  2
$MODEL_SPACE
 70
     0
 10
0.0
 20
0.0
 30
0.0
  3
$MODEL_SPACE
  1

  0
ENDBLK
  5
A
  8
0
  0
BLOCK
 67
     1
  8
0
  2
$PAPER_SPACE
 70
     0
 10
0.0
 20
0.0
 30
0.0
  3
$PAPER_SPACE
  1

  0
ENDBLK
  5
F
 67
     1
  8
0
  0
BLOCK
  8
0
  2
*U0
 70
     1
 10
0.0
 20
0.0
 30
0.0
  3
*U0
  1

  0
ENDBLK
  5
11D
  8
0
  0
BLOCK
  8
0
  2
GENAXEH
 70
     0
 10
0.0
 20
0.0
 30
0.0
  3
GENAXEH
  1

  0
LINE
  5
15A
  8
0
 10
-1.0
 20
0.0
 30
0.0
 11
1.0
 21
0.0
 31
0.0
  0
ENDBLK
  5
15C
  8
0
  0
BLOCK
  8
0
  2
_DOT
 70
     0
 10
0.0
 20
0.0
 30
0.0
  3
_DOT
  1

  0
POLYLINE
  5
16D
  8
0
  6
BYBLOCK
 62
     0
 66
     1
 10
0.0
 20
0.0
 30
0.0
 70
     1
 40
0.5
 41
0.5
  0
VERTEX
  5
16E
  8
0
  6
BYBLOCK
 62
     0
 10
-0.25
 20
0.0
 30
0.0
 42
1.0
  0
VERTEX
  5
16F
  8
0
  6
BYBLOCK
 62
     0
 10
0.25
 20
0.0
 30
0.0
 42
1.0
  0
SEQEND
  5
170
  8
0
  6
BYBLOCK
 62
     0
  0
LINE
  5
171
  8
0
  6
BYBLOCK
 62
     0
 10
-0.5
 20
0.0
 30
0.0
 11
-1.0
 21
0.0
 31
0.0
  0
ENDBLK
  5
173
  8
0
  0
BLOCK
  8
0
  2
2D
 70
     0
 10
0.0
 20
0.0
 30
0.0
  3
2D
  1

  0
INSERT
  5
177
  8
0
  2
*U5
 10
0.0
 20
0.0
 30
0.0
  0
INSERT
  5
178
  8
0
  2
*U6
 10
0.0
 20
0.0
 30
0.0
  0
INSERT
  5
179
  8
0
  2
*U7
 10
0.0
 20
0.0
 30
0.0
  0
ENDBLK
  5
17B
  8
0
  0
BLOCK
  8
0
  2
*U4
 70
     1
 10
0.0
 20
0.0
 30
0.0
  3
*U4
  1

  0
TEXT
  5
1A1
  8
0
 10
5.0243799393363391
 20
1.1474312413562651
 30
0.0
 40
0.09375
  1
4-1/2"
  7
ADESK1
  0
ENDBLK
  5
1A3
  8
0
  0
BLOCK
  8
0
  2
*U5
 70
     1
 10
0.0
 20
0.0
 30
0.0
  3
*U5
  1

  0
TEXT
  5
1A5
  8
KEE10
 10
-0.167740653382606
 20
0.7944046258072062
 30
0.0
 40
0.140625
  1
KEE
  0
ENDBLK
  5
1A7
  8
0
  0
BLOCK
  8
0
  2
*U6
 70
     1
 10
0.0
 20
0.0
 30
0.0
  3
*U6
  1

  0
TEXT
  5
1A9
  8
KEE10
 10
-0.308365653382606
 20
0.4858688129746218
 30
0.0
 40
0.140625
  1
KLAMP
  0
ENDBLK
  5
1AB
  8
0
  0
BLOCK
  8
0
  2
*U7
 70
     1
 10
0.0
 20
0.0
 30
0.0
  3
*U7
  1

  0
TEXT
  5
1AD
  8
KEE10
 10
-0.202896903382606
 20
0.2018753139112972
 30
0.0
 40
0.140625
  1
10-8
  0
ENDBLK
  5
1AF
  8
0
  0
BLOCK
  8
0
  2
*U8
 70
     1
 10
0.0
 20
0.0
 30
0.0
  3
*U8
  1

  0
TEXT
  5
1B1
  8
KEE10
 10
0.7250778919549541
 20
4.5645718271967484
 30
0.0
 40
0.140625
  1
KEE
 50
270.0
  0
ENDBLK
  5
1B3
  8
0
  0
BLOCK
  8
0
  2
*U9
 70
     1
 10
0.0
 20
0.0
 30
0.0
  3
*U9
  1

  0
TEXT
  5
1B5
  8
KEE10
 10
0.4165420791223699
 20
4.7051968271967484
 30
0.0
 40
0.140625
  1
KLAMP
 50
270.0
  0
ENDBLK
  5
1B7
  8
0
  0
ENDSEC
  0
SECTION
  2
ENTITIES
  0
POINT
  5
26
  8
0
 10
0.0
 20
0.0
 30
0.0
  0
CIRCLE
  5
27
  8
AM_VIS
 10
5.2989335107649111
 20
4.4229573202965957
 30
0.0
 40
2.25
  0
CIRCLE
  5
29
  8
AM_VIS
 10
5.298933510764912
 20
6.1729573202965957
 30
0.0
 40
0.25
  0
CIRCLE
  5
2A
  8
AM_VIS
 10
5.2989335107649103
 20
2.6729573202965962
 30
0.0
 40
0.25
  0
CIRCLE
  5
2B
  8
AM_VIS
 10
3.5489335107649111
 20
4.4229573202965957
 30
0.0
 40
0.25
  0
CIRCLE
  5
2C
  8
AM_VIS
 10
7.0489335107649111
 20
4.4229573202965948
 30
0.0
 40
0.25
  0
CIRCLE
  5
2D
  8
AM_VIS
 10
5.2989335107649111
 20
4.4229573202965957
 30
0.0
 40
1.2250000000000001
  0
CIRCLE
  5
2E
  8
AM_VIS
 10
5.2989335107649111
 20
4.4229573202965957
 30
0.0
 40
0.975
  0
LINE
  5
2F
  8
AM_HID
 10
4.2837110896016144
 20
5.210857191158996
 30
0.0
 11
4.3265559759971337
 21
5.168012304763475
 31
0.0
  0
LINE
  5
32
  8
AM_HID
 10
4.5110336399025091
 20
5.4381797414598916
 30
0.0
 11
4.5538785262980301
 21
5.3953348550643723
 31
0.0
  0
LINE
  5
33
  8
AM_HID
 10
4.3973723647520622
 20
5.3245184663094438
 30
0.0
 11
4.4327277038113886
 21
5.2891631272501174
 31
0.0
  0
LINE
  5
34
  8
AM_VIS
 10
4.6183432338728592
 20
5.545489335430239
 30
0.0
 11
4.3973723647520631
 21
5.3245184663094429
 31
0.0
  0
LINE
  5
35
  8
AM_VIS
 10
4.3973723647520631
 20
5.3245184663094429
 30
0.0
 11
4.1764014956312661
 21
5.1035475971886468
 31
0.0
  0
LINE
  5
36
  8
AM_VIS
 10
4.6183432338728592
 20
5.545489335430239
 30
0.0
 11
4.7059854898996489
 21
5.4948890553207859
 31
0.0
  0
LINE
  5
37
  8
AM_VIS
 10
4.1764014956312661
 20
5.1035475971886468
 30
0.0
 11
4.227001775740721
 21
5.0159053411618562
 31
0.0
  0
LINE
  5
38
  8
AM_VIS
 10
-0.5624867040626569
 20
6.6729573202965957
 30
0.0
 11
-0.5624867040626569
 21
2.1729573202965962
 31
0.0
  0
LINE
  5
39
  8
AM_VIS
 10
-0.9374867040626568
 20
2.1729573202965962
 30
0.0
 11
-0.9374867040626568
 21
6.6729573202965957
 31
0.0
  0
LINE
  5
3A
  8
AM_VIS
 10
1.4375132959373429
 20
5.6479573202965963
 30
0.0
 11
1.4375132959373429
 21
3.1979573202965961
 31
0.0
  0
POLYLINE
  8
AM_HID
  5
1B8
  66
     1
 10
0.000000
 20
0.000000
 30
0.000000
  70
     8
  0
VERTEX
  8
AM_HID
  5
1B9
 10
0.531585
 20
5.49489
 30
0.000000
  70
    32
  0
VERTEX
  8
AM_HID
  5
1BA
 10
0.530274
 20
5.49489
 30
0.000000
  70
    32
  0
VERTEX
  8
AM_HID
  5
1BB
 10
0.528961
 20
5.49488
 30
0.000000
  70
    32
  0
VERTEX
  8
AM_HID
  5
1BC
 10
0.527647
 20
5.49488
 30
0.000000
  70
    32
  0
VERTEX
  8
AM_HID
  5
1BD
 10
0.526331
 20
5.49487
 30
0.000000
  70
    32
  0
VERTEX
  8
AM_HID
  5
1BE
 10
0.525014
 20
5.49485
 30
0.000000
  70
    32
  0
VERTEX
  8
AM_HID
  5
1BF
 10
0.523696
 20
5.49484
 30
0.000000
  70
    32
  0
VERTEX
  8
AM_HID
  5
1C0
 10
0.522376
 20
5.49482
 30
0.000000
  70
    32
  0
VERTEX
  8
AM_HID
  5
1C1
 10
0.521056
 20
5.49480
 30
0.000000
  70
    32
  0
VERTEX
  8
AM_HID
  5
1C2
 10
0.519733
 20
5.49477
 30
0.000000
  70
    32
  0
VERTEX
  8
AM_HID
  5
1C3
 10
0.518410
 20
5.49474
 30
0.000000
  70
    32
  0
VERTEX
  8
AM_HID
  5
1C4
 10
0.517086
 20
5.49471
 30
0.000000
  70
    32
  0
VERTEX
  8
AM_HID
  5
1C5
 10
0.515760
 20
5.49468
 30
0.000000
  70
    32
  0
VERTEX
  8
AM_HID
  5
1C6
 10
0.514434
 20
5.49464
 30
0.000000
  70
    32
  0
VERTEX
  8
AM_HID
  5
1C7
 10
0.513106
 20
5.49460
 30
0.000000
  70
    32
  0
VERTEX
  8
AM_HID
  5
1C8
 10
0.511778
 20
5.49456
 30
0.000000
  70
    32
  0
VERTEX
  8
AM_HID
  5
1C9
 10
0.510449
 20
5.49452
 30
0.000000
  70
    32
  0
VERTEX
  8
AM_HID
  5
1CA
 10
0.509118
 20
5.49447
 30
0.000000
  70
    32
  0
VERTEX
  8
AM_HID
  5
1CB
 10
0.507787
 20
5.49442
 30
0.000000
  70
    32
  0
VERTEX
  8
AM_HID
  5
1CC
 10
0.506455
 20
5.49437
 30
0.000000
  70
    32
  0
VERTEX
  8
AM_HID
  5
1CD
 10
0.505123
 20
5.49431
 30
0.000000
  70
    32
  0
VERTEX
  8
AM_HID
  5
1CE
 10
0.503790
 20
5.49425
 30
0.000000
  70
    32
  0
VERTEX
  8
AM_HID
  5
1CF
 10
0.502456
 20
5.49419
 30
0.000000
  70
    32
  0
VERTEX
  8
AM_HID
  5
1D0
 10
0.501121
 20
5.49412
 30
0.000000
  70
    32
  0
VERTEX
  8
AM_HID
  5
1D1
 10
0.499786
 20
5.49405
 30
0.000000
  70
    32
  0
VERTEX
  8
AM_HID
  5
1D2
 10
0.498451
 20
5.49398
 30
0.000000
  70
    32
  0
VERTEX
  8
AM_HID
  5
1D3
 10
0.497114
 20
5.49391
 30
0.000000
  70
    32
  0
VERTEX
  8
AM_HID
  5
1D4
 10
0.495778
 20
5.49383
 30
0.000000
  70
    32
  0
VERTEX
  8
AM_HID
  5
1D5
 10
0.494441
 20
5.49375
 30
0.000000
  70
    32
  0
VERTEX
  8
AM_HID
  5
1D6
 10
0.493104
 20
5.49366
 30
0.000000
  70
    32
  0
VERTEX
  8
AM_HID
  5
1D7
 10
0.491766
 20
5.49358
 30
0.000000
  70
    32
  0
VERTEX
  8
AM_HID
  5
1D8
 10
0.490428
 20
5.49349
 30
0.000000
  70
    32
  0
VERTEX
  8
AM_HID
  5
1D9
 10
0.489090
 20
5.49340
 30
0.000000
  70
    32
  0
VERTEX
  8
AM_HID
  5
1DA
 10
0.487752
 20
5.49330
 30
0.000000
  70
    32
  0
VERTEX
  8
AM_HID
  5
1DB
 10
0.486414
 20
5.49320
 30
0.000000
  70
    32
  0
VERTEX
  8
AM_HID
  5
1DC
 10
0.485075
 20
5.49310
 30
0.000000
  70
    32
  0
VERTEX
  8
AM_HID
  5
1DD
 10
0.483737
 20
5.49300
 30
0.000000
  70
    32
  0
VERTEX
  8
AM_HID
  5
1DE
 10
0.482398
 20
5.49289
 30
0.000000
  70
    32
  0
VERTEX
  8
AM_HID
  5
1DF
 10
0.481060
 20
5.49278
 30
0.000000
  70
    32
  0
VERTEX
  8
AM_HID
  5
1E0
 10
0.479721
 20
5.49267
 30
0.000000
  70
    32
  0
VERTEX
  8
AM_HID
  5
1E1
 10
0.478383
 20
5.49255
 30
0.000000
  70
    32
  0
VERTEX
  8
AM_HID
  5
1E2
 10
0.477045
 20
5.49243
 30
0.000000
  70
    32
  0
VERTEX
  8
AM_HID
  5
1E3
 10
0.475707
 20
5.49231
 30
0.000000
  70
    32
  0
VERTEX
  8
AM_HID
  5
1E4
 10
0.474369
 20
5.49219
 30
0.000000
  70
    32
  0
VERTEX
  8
AM_HID
  5
1E5
 10
0.473032
 20
5.49206
 30
0.000000
  70
    32
  0
VERTEX
  8
AM_HID
  5
1E6
 10
0.471695
 20
5.49193
 30
0.000000
  70
    32
  0
VERTEX
  8
AM_HID
  5
1E7
 10
0.470358
 20
5.49179
 30
0.000000
  70
    32
  0
VERTEX
  8
AM_HID
  5
1E8
 10
0.469022
 20
5.49166
 30
0.000000
  70
    32
  0
VERTEX
  8
AM_HID
  5
1E9
 10
0.467686
 20
5.49152
 30
0.000000
  70
    32
  0
VERTEX
  8
AM_HID
  5
1EA
 10
0.466351
 20
5.49137
 30
0.000000
  70
    32
  0
VERTEX
  8
AM_HID
  5
1EB
 10
0.465016
 20
5.49123
 30
0.000000
  70
    32
  0
VERTEX
  8
AM_HID
  5
1EC
 10
0.463682
 20
5.49108
 30
0.000000
  70
    32
  0
VERTEX
  8
AM_HID
  5
1ED
 10
0.462348
 20
5.49093
 30
0.000000
  70
    32
  0
VERTEX
  8
AM_HID
  5
1EE
 10
0.461015
 20
5.49077
 30
0.000000
  70
    32
  0
VERTEX
  8
AM_HID
  5
1EF
 10
0.459683
 20
5.49061
 30
0.000000
  70
    32
  0
VERTEX
  8
AM_HID
  5
1F0
 10
0.458352
 20
5.49045
 30
0.000000
  70
    32
  0
VERTEX
  8
AM_HID
  5
1F1
 10
0.457021
 20
5.49029
 30
0.000000
  70
    32
  0
VERTEX
  8
AM_HID
  5
1F2
 10
0.455692
 20
5.49012
 30
0.000000
  70
    32
  0
VERTEX
  8
AM_HID
  5
1F3
 10
0.454363
 20
5.48995
 30
0.000000
  70
    32
  0
VERTEX
  8
AM_HID
  5
1F4
 10
0.453035
 20
5.48978
 30
0.000000
  70
    32
  0
VERTEX
  8
AM_HID
  5
1F5
 10
0.451708
 20
5.48960
 30
0.000000
  70
    32
  0
VERTEX
  8
AM_HID
  5
1F6
 10
0.450382
 20
5.48942
 30
0.000000
  70
    32
  0
VERTEX
  8
AM_HID
  5
1F7
 10
0.449057
 20
5.48924
 30
0.000000
  70
    32
  0
VERTEX
  8
AM_HID
  5
1F8
 10
0.447734
 20
5.48906
 30
0.000000
  70
    32
  0
VERTEX
  8
AM_HID
  5
1F9
 10
0.446411
 20
5.48887
 30
0.000000
  70
    32
  0
VERTEX
  8
AM_HID
  5
1FA
 10
0.445090
 20
5.48868
 30
0.000000
  70
    32
  0
VERTEX
  8
AM_HID
  5
1FB
 10
0.443770
 20
5.48848
 30
0.000000
  70
    32
  0
VERTEX
  8
AM_HID
  5
1FC
 10
0.442451
 20
5.48828
 30
0.000000
  70
    32
  0
VERTEX
  8
AM_HID
  5
1FD
 10
0.441133
 20
5.48808
 30
0.000000
  70
    32
  0
VERTEX
  8
AM_HID
  5
1FE
 10
0.439817
 20
5.48788
 30
0.000000
  70
    32
  0
VERTEX
  8
AM_HID
  5
1FF
 10
0.438502
 20
5.48767
 30
0.000000
  70
    32
  0
VERTEX
  8
AM_HID
  5
200
 10
0.437189
 20
5.48746
 30
0.000000
  70
    32
  0
VERTEX
  8
AM_HID
  5
201
 10
0.435877
 20
5.48725
 30
0.000000
  70
    32
  0
VERTEX
  8
AM_HID
  5
202
 10
0.434567
 20
5.48703
 30
0.000000
  70
    32
  0
VERTEX
  8
AM_HID
  5
203
 10
0.433258
 20
5.48682
 30
0.000000
  70
    32
  0
VERTEX
  8
AM_HID
  5
204
 10
0.431951
 20
5.48659
 30
0.000000
  70
    32
  0
VERTEX
  8
AM_HID
  5
205
 10
0.430646
 20
5.48637
 30
0.000000
  70
    32
  0
VERTEX
  8
AM_HID
  5
206
 10
0.429342
 20
5.48614
 30
0.000000
  70
    32
  0
VERTEX
  8
AM_HID
  5
207
 10
0.428040
 20
5.48591
 30
0.000000
  70
    32
  0
VERTEX
  8
AM_HID
  5
208
 10
0.426740
 20
5.48567
 30
0.000000
  70
    32
  0
VERTEX
  8
AM_HID
  5
209
 10
0.425441
 20
5.48544
 30
0.000000
  70
    32
  0
VERTEX
  8
AM_HID
  5
20A
 10
0.424145
 20
5.48520
 30
0.000000
  70
    32
  0
VERTEX
  8
AM_HID
  5
20B
 10
0.422850
 20
5.48495
 30
0.000000
  70
    32
  0
VERTEX
  8
AM_HID
  5
20C
 10
0.421558
 20
5.48471
 30
0.000000
  70
    32
  0
VERTEX
  8
AM_HID
  5
20D
 10
0.420267
 20
5.48446
 30
0.000000
  70
    32
  0
VERTEX
  8
AM_HID
  5
20E
 10
0.418979
 20
5.48420
 30
0.000000
  70
    32
  0
VERTEX
  8
AM_HID
  5
20F
 10
0.417692
 20
5.48395
 30
0.000000
  70
    32
  0
VERTEX
  8
AM_HID
  5
210
 10
0.416408
 20
5.48369
 30
0.000000
  70
    32
  0
VERTEX
  8
AM_HID
  5
211
 10
0.415126
 20
5.48343
 30
0.000000
  70
    32
  0
VERTEX
  8
AM_HID
  5
212
 10
0.413846
 20
5.48316
 30
0.000000
  70
    32
  0
VERTEX
  8
AM_HID
  5
213
 10
0.412568
 20
5.48289
 30
0.000000
  70
    32
  0
VERTEX
  8
AM_HID
  5
214
 10
0.411293
 20
5.48262
 30
0.000000
  70
    32
  0
VERTEX
  8
AM_HID
  5
215
 10
0.410020
 20
5.48235
 30
0.000000
  70
    32
  0
VERTEX
  8
AM_HID
  5
216
 10
0.408749
 20
5.48207
 30
0.000000
  70
    32
  0
VERTEX
  8
AM_HID
  5
217
 10
0.407481
 20
5.48179
 30
0.000000
  70
    32
  0
VERTEX
  8
AM_HID
  5
218
 10
0.406215
 20
5.48150
 30
0.000000
  70
    32
  0
VERTEX
  8
AM_HID
  5
219
 10
0.404952
 20
5.48122
 30
0.000000
  70
    32
  0
VERTEX
  8
AM_HID
  5
21A
 10
0.403691
 20
5.48093
 30
0.000000
  70
    32
  0
VERTEX
  8
AM_HID
  5
21B
 10
0.402433
 20
5.48063
 30
0.000000
  70
    32
  0
VERTEX
  8
AM_HID
  5
21C
 10
0.401178
 20
5.48034
 30
0.000000
  70
    32
  0
VERTEX
  8
AM_HID
  5
21D
 10
0.399925
 20
5.48004
 30
0.000000
  70
    32
  0
VERTEX
  8
AM_HID
  5
21E
 10
0.398675
 20
5.47973
 30
0.000000
  70
    32
  0
VERTEX
  8
AM_HID
  5
21F
 10
0.397428
 20
5.47943
 30
0.000000
  70
    32
  0
VERTEX
  8
AM_HID
  5
220
 10
0.396183
 20
5.47912
 30
0.000000
  70
    32
  0
VERTEX
  8
AM_HID
  5
221
 10
0.394941
 20
5.47881
 30
0.000000
  70
    32
  0
VERTEX
  8
AM_HID
  5
222
 10
0.393702
 20
5.47849
 30
0.000000
  70
    32
  0
VERTEX
  8
AM_HID
  5
223
 10
0.392465
 20
5.47817
 30
0.000000
  70
    32
  0
VERTEX
  8
AM_HID
  5
224
 10
0.391232
 20
5.47785
 30
0.000000
  70
    32
  0
VERTEX
  8
AM_HID
  5
225
 10
0.390001
 20
5.47753
 30
0.000000
  70
    32
  0
VERTEX
  8
AM_HID
  5
226
 10
0.388773
 20
5.47720
 30
0.000000
  70
    32
  0
VERTEX
  8
AM_HID
  5
227
 10
0.387548
 20
5.47687
 30
0.000000
  70
    32
  0
VERTEX
  8
AM_HID
  5
228
 10
0.386326
 20
5.47653
 30
0.000000
  70
    32
  0
VERTEX
  8
AM_HID
  5
229
 10
0.385107
 20
5.47620
 30
0.000000
  70
    32
  0
VERTEX
  8
AM_HID
  5
22A
 10
0.383890
 20
5.47586
 30
0.000000
  70
    32
  0
VERTEX
  8
AM_HID
  5
22B
 10
0.382677
 20
5.47551
 30
0.000000
  70
    32
  0
VERTEX
  8
AM_HID
  5
22C
 10
0.381467
 20
5.47517
 30
0.000000
  70
    32
  0
VERTEX
  8
AM_HID
  5
22D
 10
0.380260
 20
5.47482
 30
0.000000
  70
    32
  0
VERTEX
  8
AM_HID
  5
22E
 10
0.379056
 20
5.47447
 30
0.000000
  70
    32
  0
VERTEX
  8
AM_HID
  5
22F
 10
0.377855
 20
5.47411
 30
0.000000
  70
    32
  0
VERTEX
  8
AM_HID
  5
230
 10
0.376657
 20
5.47376
 30
0.000000
  70
    32
  0
VERTEX
  8
AM_HID
  5
231
 10
0.375463
 20
5.47340
 30
0.000000
  70
    32
  0
VERTEX
  8
AM_HID
  5
232
 10
0.374271
 20
5.47303
 30
0.000000
  70
    32
  0
VERTEX
  8
AM_HID
  5
233
 10
0.373083
 20
5.47267
 30
0.000000
  70
    32
  0
VERTEX
  8
AM_HID
  5
234
 10
0.371898
 20
5.47230
 30
0.000000
  70
    32
  0
VERTEX
  8
AM_HID
  5
235
 10
0.370717
 20
5.47193
 30
0.000000
  70
    32
  0
VERTEX
  8
AM_HID
  5
236
 10
0.369538
 20
5.47155
 30
0.000000
  70
    32
  0
VERTEX
  8
AM_HID
  5
237
 10
0.368363
 20
5.47118
 30
0.000000
  70
    32
  0
VERTEX
  8
AM_HID
  5
238
 10
0.367192
 20
5.47080
 30
0.000000
  70
    32
  0
VERTEX
  8
AM_HID
  5
239
 10
0.366023
 20
5.47041
 30
0.000000
  70
    32
  0
VERTEX
  8
AM_HID
  5
23A
 10
0.364859
 20
5.47003
 30
0.000000
  70
    32
  0
VERTEX
  8
AM_HID
  5
23B
 10
0.363697
 20
5.46964
 30
0.000000
  70
    32
  0
VERTEX
  8
AM_HID
  5
23C
 10
0.362539
 20
5.46925
 30
0.000000
  70
    32
  0
VERTEX
  8
AM_HID
  5
23D
 10
0.361385
 20
5.46885
 30
0.000000
  70
    32
  0
VERTEX
  8
AM_HID
  5
23E
 10
0.360234
 20
5.46846
 30
0.000000
  70
    32
  0
VERTEX
  8
AM_HID
  5
23F
 10
0.359086
 20
5.46806
 30
0.000000
  70
    32
  0
VERTEX
  8
AM_HID
  5
240
 10
0.357942
 20
5.46766
 30
0.000000
  70
    32
  0
VERTEX
  8
AM_HID
  5
241
 10
0.356802
 20
5.46725
 30
0.000000
  70
    32
  0
VERTEX
  8
AM_HID
  5
242
 10
0.355665
 20
5.46684
 30
0.000000
  70
    32
  0
VERTEX
  8
AM_HID
  5
243
 10
0.354532
 20
5.46643
 30
0.000000
  70
    32
  0
VERTEX
  8
AM_HID
  5
244
 10
0.353403
 20
5.46602
 30
0.000000
  70
    32
  0
VERTEX
  8
AM_HID
  5
245
 10
0.352277
 20
5.46561
 30
0.000000
  70
    32
  0
VERTEX
  8
AM_HID
  5
246
 10
0.351155
 20
5.46519
 30
0.000000
  70
    32
  0
VERTEX
  8
AM_HID
  5
247
 10
0.350037
 20
5.46477
 30
0.000000
  70
    32
  0
VERTEX
  8
AM_HID
  5
248
 10
0.348923
 20
5.46434
 30
0.000000
  70
    32
  0
VERTEX
  8
AM_HID
  5
249
 10
0.347812
 20
5.46392
 30
0.000000
  70
    32
  0
VERTEX
  8
AM_HID
  5
24A
 10
0.346705
 20
5.46349
 30
0.000000
  70
    32
  0
VERTEX
  8
AM_HID
  5
24B
 10
0.345602
 20
5.46306
 30
0.000000
  70
    32
  0
VERTEX
  8
AM_HID
  5
24C
 10
0.344503
 20
5.46263
 30
0.000000
  70
    32
  0
VERTEX
  8
AM_HID
  5
24D
 10
0.343408
 20
5.46219
 30
0.000000
  70
    32
  0
VERTEX
  8
AM_HID
  5
24E
 10
0.342317
 20
5.46175
 30
0.000000
  70
    32
  0
VERTEX
  8
AM_HID
  5
24F
 10
0.341230
 20
5.46131
 30
0.000000
  70
    32
  0
VERTEX
  8
AM_HID
  5
250
 10
0.340147
 20
5.46087
 30
0.000000
  70
    32
  0
VERTEX
  8
AM_HID
  5
251
 10
0.339068
 20
5.46042
 30
0.000000
  70
    32
  0
VERTEX
  8
AM_HID
  5
252
 10
0.337992
 20
5.45997
 30
0.000000
  70
    32
  0
VERTEX
  8
AM_HID
  5
253
 10
0.336921
 20
5.45952
 30
0.000000
  70
    32
  0
VERTEX
  8
AM_HID
  5
254
 10
0.335854
 20
5.45907
 30
0.000000
  70
    32
  0
VERTEX
  8
AM_HID
  5
255
 10
0.334792
 20
5.45861
 30
0.000000
  70
    32
  0
VERTEX
  8
AM_HID
  5
256
 10
0.333733
 20
5.45816
 30
0.000000
  70
    32
  0
VERTEX
  8
AM_HID
  5
257
 10
0.332678
 20
5.45770
 30
0.000000
  70
    32
  0
VERTEX
  8
AM_HID
  5
258
 10
0.331628
 20
5.45723
 30
0.000000
  70
    32
  0
VERTEX
  8
AM_HID
  5
259
 10
0.330582
 20
5.45677
 30
0.000000
  70
    32
  0
VERTEX
  8
AM_HID
  5
25A
 10
0.329540
 20
5.45630
 30
0.000000
  70
    32
  0
VERTEX
  8
AM_HID
  5
25B
 10
0.328503
 20
5.45583
 30
0.000000
  70
    32
  0
VERTEX
  8
AM_HID
  5
25C
 10
0.327469
 20
5.45536
 30
0.000000
  70
    32
  0
VERTEX
  8
AM_HID
  5
25D
 10
0.326441
 20
5.45488
 30
0.000000
  70
    32
  0
VERTEX
  8
AM_HID
  5
25E
 10
0.325416
 20
5.45441
 30
0.000000
  70
    32
  0
VERTEX
  8
AM_HID
  5
25F
 10
0.324396
 20
5.45393
 30
0.000000
  70
    32
  0
VERTEX
  8
AM_HID
  5
260
 10
0.323380
 20
5.45345
 30
0.000000
  70
    32
  0
VERTEX
  8
AM_HID
  5
261
 10
0.322369
 20
5.45296
 30
0.000000
  70
    32
  0
VERTEX
  8
AM_HID
  5
262
 10
0.321362
 20
5.45248
 30
0.000000
  70
    32
  0
VERTEX
  8
AM_HID
  5
263
 10
0.320360
 20
5.45199
 30
0.000000
  70
    32
  0
VERTEX
  8
AM_HID
  5
264
 10
0.319362
 20
5.45150
 30
0.000000
  70
    32
  0
VERTEX
  8
AM_HID
  5
265
 10
0.318369
 20
5.45101
 30
0.000000
  70
    32
  0
VERTEX
  8
AM_HID
  5
266
 10
0.317380
 20
5.45051
 30
0.000000
  70
    32
  0
VERTEX
  8
AM_HID
  5
267
 10
0.316396
 20
5.45002
 30
0.000000
  70
    32
  0
VERTEX
  8
AM_HID
  5
268
 10
0.315417
 20
5.44952
 30
0.000000
  70
    32
  0
VERTEX
  8
AM_HID
  5
269
 10
0.314442
 20
5.44902
 30
0.000000
  70
    32
  0
VERTEX
  8
AM_HID
  5
26A
 10
0.313472
 20
5.44851
 30
0.000000
  70
    32
  0
VERTEX
  8
AM_HID
  5
26B
 10
0.312507
 20
5.44801
 30
0.000000
  70
    32
  0
VERTEX
  8
AM_HID
  5
26C
 10
0.311546
 20
5.44750
 30
0.000000
  70
    32
  0
VERTEX
  8
AM_HID
  5
26D
 10
0.310591
 20
5.44699
 30
0.000000
  70
    32
  0
VERTEX
  8
AM_HID
  5
26E
 10
0.309640
 20
5.44648
 30
0.000000
  70
    32
  0
VERTEX
  8
AM_HID
  5
26F
 10
0.308693
 20
5.44596
 30
0.000000
  70
    32
  0
VERTEX
  8
AM_HID
  5
270
 10
0.307752
 20
5.44545
 30
0.000000
  70
    32
  0
VERTEX
  8
AM_HID
  5
271
 10
0.306816
 20
5.44493
 30
0.000000
  70
    32
  0
VERTEX
  8
AM_HID
  5
272
 10
0.305884
 20
5.44441
 30
0.000000
  70
    32
  0
VERTEX
  8
AM_HID
  5
273
 10
0.304957
 20
5.44389
 30
0.000000
  70
    32
  0
VERTEX
  8
AM_HID
  5
274
 10
0.304036
 20
5.44336
 30
0.000000
  70
    32
  0
VERTEX
  8
AM_HID
  5
275
 10
0.303119
 20
5.44284
 30
0.000000
  70
    32
  0
VERTEX
  8
AM_HID
  5
276
 10
0.302207
 20
5.44231
 30
0.000000
  70
    32
  0
VERTEX
  8
AM_HID
  5
277
 10
0.301301
 20
5.44178
 30
0.000000
  70
    32
  0
VERTEX
  8
AM_HID
  5
278
 10
0.300399
 20
5.44125
 30
0.000000
  70
    32
  0
VERTEX
  8
AM_HID
  5
279
 10
0.299502
 20
5.44072
 30
0.000000
  70
    32
  0
VERTEX
  8
AM_HID
  5
27A
 10
0.298611
 20
5.44018
 30
0.000000
  70
    32
  0
VERTEX
  8
AM_HID
  5
27B
 10
0.297724
 20
5.43964
 30
0.000000
  70
    32
  0
VERTEX
  8
AM_HID
  5
27C
 10
0.296839
 20
5.43910
 30
0.000000
  70
    32
  0
VERTEX
  8
AM_HID
  5
27D
 10
0.295957
 20
5.43855
 30
0.000000
  70
    32
  0
VERTEX
  8
AM_HID
  5
27E
 10
0.295077
 20
5.43801
 30
0.000000
  70
    32
  0
VERTEX
  8
AM_HID
  5
27F
 10
0.294201
 20
5.43745
 30
0.000000
  70
    32
  0
VERTEX
  8
AM_HID
  5
280
 10
0.293327
 20
5.43690
 30
0.000000
  70
    32
  0
VERTEX
  8
AM_HID
  5
281
 10
0.292456
 20
5.43634
 30
0.000000
  70
    32
  0
VERTEX
  8
AM_HID
  5
282
 10
0.291587
 20
5.43578
 30
0.000000
  70
    32
  0
VERTEX
  8
AM_HID
  5
283
 10
0.290722
 20
5.43521
 30
0.000000
  70
    32
  0
VERTEX
  8
AM_HID
  5
284
 10
0.289859
 20
5.43464
 30
0.000000
  70
    32
  0
VERTEX
  8
AM_HID
  5
285
 10
0.288999
 20
5.43407
 30
0.000000
  70
    32
  0
VERTEX
  8
AM_HID
  5
286
 10
0.288142
 20
5.43350
 30
0.000000
  70
    32
  0
VERTEX
  8
AM_HID
  5
287
 10
0.287288
 20
5.43292
 30
0.000000
  70
    32
  0
VERTEX
  8
AM_HID
  5
288
 10
0.286438
 20
5.43234
 30
0.000000
  70
    32
  0
VERTEX
  8
AM_HID
  5
289
 10
0.285590
 20
5.43175
 30
0.000000
  70
    32
  0
VERTEX
  8
AM_HID
  5
28A
 10
0.284745
 20
5.43116
 30
0.000000
  70
    32
  0
VERTEX
  8
AM_HID
  5
28B
 10
0.283903
 20
5.43057
 30
0.000000
  70
    32
  0
VERTEX
  8
AM_HID
  5
28C
 10
0.283064
 20
5.42997
 30
0.000000
  70
    32
  0
VERTEX
  8
AM_HID
  5
28D
 10
0.282228
 20
5.42938
 30
0.000000
  70
    32
  0
VERTEX
  8
AM_HID
  5
28E
 10
0.281396
 20
5.42878
 30
0.000000
  70
    32
  0
VERTEX
  8
AM_HID
  5
28F
 10
0.280567
 20
5.42817
 30
0.000000
  70
    32
  0
VERTEX
  8
AM_HID
  5
290
 10
0.279741
 20
5.42756
 30
0.000000
  70
    32
  0
VERTEX
  8
AM_HID
  5
291
 10
0.278918
 20
5.42695
 30
0.000000
  70
    32
  0
VERTEX
  8
AM_HID
  5
292
 10
0.278098
 20
5.42634
 30
0.000000
  70
    32
  0
VERTEX
  8
AM_HID
  5
293
 10
0.277282
 20
5.42572
 30
0.000000
  70
    32
  0
VERTEX
  8
AM_HID
  5
294
 10
0.276469
 20
5.42510
 30
0.000000
  70
    32
  0
VERTEX
  8
AM_HID
  5
295
 10
0.275659
 20
5.42447
 30
0.000000
  70
    32
  0
VERTEX
  8
AM_HID
  5
296
 10
0.274853
 20
5.42385
 30
0.000000
  70
    32
  0
VERTEX
  8
AM_HID
  5
297
 10
0.274050
 20
5.42322
 30
0.000000
  70
    32
  0
VERTEX
  8
AM_HID
  5
298
 10
0.273251
 20
5.42258
 30
0.000000
  70
    32
  0
VERTEX
  8
AM_HID
  5
299
 10
0.272455
 20
5.42195
 30
0.000000
  70
    32
  0
VERTEX
  8
AM_HID
  5
29A
 10
0.271663
 20
5.42131
 30
0.000000
  70
    32
  0
VERTEX
  8
AM_HID
  5
29B
 10
0.270874
 20
5.42066
 30
0.000000
  70
    32
  0
VERTEX
  8
AM_HID
  5
29C
 10
0.270089
 20
5.42002
 30
0.000000
  70
    32
  0
VERTEX
  8
AM_HID
  5
29D
 10
0.269307
 20
5.41937
 30
0.000000
  70
    32
  0
VERTEX
  8
AM_HID
  5
29E
 10
0.268529
 20
5.41872
 30
0.000000
  70
    32
  0
VERTEX
  8
AM_HID
  5
29F
 10
0.267754
 20
5.41806
 30
0.000000
  70
    32
  0
VERTEX
  8
AM_HID
  5
2A0
 10
0.266984
 20
5.41740
 30
0.000000
  70
    32
  0
VERTEX
  8
AM_HID
  5
2A1
 10
0.266217
 20
5.41674
 30
0.000000
  70
    32
  0
VERTEX
  8
AM_HID
  5
2A2
 10
0.265453
 20
5.41608
 30
0.000000
  70
    32
  0
VERTEX
  8
AM_HID
  5
2A3
 10
0.264694
 20
5.41541
 30
0.000000
  70
    32
  0
VERTEX
  8
AM_HID
  5
2A4
 10
0.263938
 20
5.41474
 30
0.000000
  70
    32
  0
VERTEX
  8
AM_HID
  5
2A5
 10
0.263186
 20
5.41407
 30
0.000000
  70
    32
  0
VERTEX
  8
AM_HID
  5
2A6
 10
0.262438
 20
5.41339
 30
0.000000
  70
    32
  0
VERTEX
  8
AM_HID
  5
2A7
 10
0.261694
 20
5.41271
 30
0.000000
  70
    32
  0
VERTEX
  8
AM_HID
  5
2A8
 10
0.260954
 20
5.41203
 30
0.000000
  70
    32
  0
VERTEX
  8
AM_HID
  5
2A9
 10
0.260217
 20
5.41135
 30
0.000000
  70
    32
  0
VERTEX
  8
AM_HID
  5
2AA
 10
0.259485
 20
5.41066
 30
0.000000
  70
    32
  0
VERTEX
  8
AM_HID
  5
2AB
 10
0.258757
 20
5.40997
 30
0.000000
  70
    32
  0
VERTEX
  8
AM_HID
  5
2AC
 10
0.258032
 20
5.40927
 30
0.000000
  70
    32
  0
VERTEX
  8
AM_HID
  5
2AD
 10
0.257312
 20
5.40858
 30
0.000000
  70
    32
  0
VERTEX
  8
AM_HID
  5
2AE
 10
0.256596
 20
5.40788
 30
0.000000
  70
    32
  0
VERTEX
  8
AM_HID
  5
2AF
 10
0.255884
 20
5.40717
 30
0.000000
  70
    32
  0
VERTEX
  8
AM_HID
  5
2B0
 10
0.255176
 20
5.40647
 30
0.000000
  70
    32
  0
VERTEX
  8
AM_HID
  5
2B1
 10
0.254472
 20
5.40576
 30
0.000000
  70
    32
  0
VERTEX
  8
AM_HID
  5
2B2
 10
0.253773
 20
5.40505
 30
0.000000
  70
    32
  0
VERTEX
  8
AM_HID
  5
2B3
 10
0.253077
 20
5.40433
 30
0.000000
  70
    32
  0
VERTEX
  8
AM_HID
  5
2B4
 10
0.252386
 20
5.40362
 30
0.000000
  70
    32
  0
VERTEX
  8
AM_HID
  5
2B5
 10
0.251700
 20
5.40290
 30
0.000000
  70
    32
  0
VERTEX
  8
AM_HID
  5
2B6
 10
0.251017
 20
5.40217
 30
0.000000
  70
    32
  0
VERTEX
  8
AM_HID
  5
2B7
 10
0.250339
 20
5.40145
 30
0.000000
  70
    32
  0
VERTEX
  8
AM_HID
  5
2B8
 10
0.249665
 20
5.40072
 30
0.000000
  70
    32
  0
VERTEX
  8
AM_HID
  5
2B9
 10
0.248996
 20
5.39999
 30
0.000000
  70
    32
  0
VERTEX
  8
AM_HID
  5
2BA
 10
0.248331
 20
5.39926
 30
0.000000
  70
    32
  0
VERTEX
  8
AM_HID
  5
2BB
 10
0.247671
 20
5.39852
 30
0.000000
  70
    32
  0
VERTEX
  8
AM_HID
  5
2BC
 10
0.247015
 20
5.39778
 30
0.000000
  70
    32
  0
VERTEX
  8
AM_HID
  5
2BD
 10
0.246364
 20
5.39704
 30
0.000000
  70
    32
  0
VERTEX
  8
AM_HID
  5
2BE
 10
0.245717
 20
5.39629
 30
0.000000
  70
    32
  0
VERTEX
  8
AM_HID
  5
2BF
 10
0.245075
 20
5.39555
 30
0.000000
  70
    32
  0
VERTEX
  8
AM_HID
  5
2C0
 10
0.244437
 20
5.39480
 30
0.000000
  70
    32
  0
VERTEX
  8
AM_HID
  5
2C1
 10
0.243804
 20
5.39404
 30
0.000000
  70
    32
  0
VERTEX
  8
AM_HID
  5
2C2
 10
0.243176
 20
5.39329
 30
0.000000
  70
    32
  0
VERTEX
  8
AM_HID
  5
2C3
 10
0.242552
 20
5.39253
 30
0.000000
  70
    32
  0
VERTEX
  8
AM_HID
  5
2C4
 10
0.241934
 20
5.39177
 30
0.000000
  70
    32
  0
VERTEX
  8
AM_HID
  5
2C5
 10
0.241320
 20
5.39100
 30
0.000000
  70
    32
  0
VERTEX
  8
AM_HID
  5
2C6
 10
0.240710
 20
5.39024
 30
0.000000
  70
    32
  0
VERTEX
  8
AM_HID
  5
2C7
 10
0.240106
 20
5.38947
 30
0.000000
  70
    32
  0
VERTEX
  8
AM_HID
  5
2C8
 10
0.239506
 20
5.38870
 30
0.000000
  70
    32
  0
VERTEX
  8
AM_HID
  5
2C9
 10
0.238911
 20
5.38792
 30
0.000000
  70
    32
  0
VERTEX
  8
AM_HID
  5
2CA
 10
0.238322
 20
5.38715
 30
0.000000
  70
    32
  0
VERTEX
  8
AM_HID
  5
2CB
 10
0.237737
 20
5.38637
 30
0.000000
  70
    32
  0
VERTEX
  8
AM_HID
  5
2CC
 10
0.237157
 20
5.38558
 30
0.000000
  70
    32
  0
VERTEX
  8
AM_HID
  5
2CD
 10
0.236582
 20
5.38480
 30
0.000000
  70
    32
  0
VERTEX
  8
AM_HID
  5
2CE
 10
0.236012
 20
5.38401
 30
0.000000
  70
    32
  0
VERTEX
  8
AM_HID
  5
2CF
 10
0.235447
 20
5.38322
 30
0.000000
  70
    32
  0
VERTEX
  8
AM_HID
  5
2D0
 10
0.234887
 20
5.38243
 30
0.000000
  70
    32
  0
VERTEX
  8
AM_HID
  5
2D1
 10
0.234333
 20
5.38164
 30
0.000000
  70
    32
  0
VERTEX
  8
AM_HID
  5
2D2
 10
0.233783
 20
5.38084
 30
0.000000
  70
    32
  0
VERTEX
  8
AM_HID
  5
2D3
 10
0.233239
 20
5.38004
 30
0.000000
  70
    32
  0
VERTEX
  8
AM_HID
  5
2D4
 10
0.232700
 20
5.37924
 30
0.000000
  70
    32
  0
VERTEX
  8
AM_HID
  5
2D5
 10
0.232166
 20
5.37843
 30
0.000000
  70
    32
  0
VERTEX
  8
AM_HID
  5
2D6
 10
0.231637
 20
5.37762
 30
0.000000
  70
    32
  0
VERTEX
  8
AM_HID
  5
2D7
 10
0.231114
 20
5.37681
 30
0.000000
  70
    32
  0
VERTEX
  8
AM_HID
  5
2D8
 10
0.230596
 20
5.37600
 30
0.000000
  70
    32
  0
VERTEX
  8
AM_HID
  5
2D9
 10
0.230083
 20
5.37519
 30
0.000000
  70
    32
  0
VERTEX
  8
AM_HID
  5
2DA
 10
0.229576
 20
5.37437
 30
0.000000
  70
    32
  0
VERTEX
  8
AM_HID
  5
2DB
 10
0.229074
 20
5.37355
 30
0.000000
  70
    32
  0
VERTEX
  8
AM_HID
  5
2DC
 10
0.228577
 20
5.37273
 30
0.000000
  70
    32
  0
VERTEX
  8
AM_HID
  5
2DD
 10
0.228086
 20
5.37190
 30
0.000000
  70
    32
  0
VERTEX
  8
AM_HID
  5
2DE
 10
0.227600
 20
5.37107
 30
0.000000
  70
    32
  0
VERTEX
  8
AM_HID
  5
2DF
 10
0.227119
 20
5.37025
 30
0.000000
  70
    32
  0
VERTEX
  8
AM_HID
  5
2E0
 10
0.226644
 20
5.36941
 30
0.000000
  70
    32
  0
VERTEX
  8
AM_HID
  5
2E1
 10
0.226174
 20
5.36858
 30
0.000000
  70
    32
  0
VERTEX
  8
AM_HID
  5
2E2
 10
0.225710
 20
5.36774
 30
0.000000
  70
    32
  0
VERTEX
  8
AM_HID
  5
2E3
 10
0.225250
 20
5.36691
 30
0.000000
  70
    32
  0
VERTEX
  8
AM_HID
  5
2E4
 10
0.224796
 20
5.36607
 30
0.000000
  70
    32
  0
VERTEX
  8
AM_HID
  5
2E5
 10
0.224348
 20
5.36522
 30
0.000000
  70
    32
  0
VERTEX
  8
AM_HID
  5
2E6
 10
0.223904
 20
5.36438
 30
0.000000
  70
    32
  0
VERTEX
  8
AM_HID
  5
2E7
 10
0.223466
 20
5.36353
 30
0.000000
  70
    32
  0
VERTEX
  8
AM_HID
  5
2E8
 10
0.223032
 20
5.36268
 30
0.000000
  70
    32
  0
VERTEX
  8
AM_HID
  5
2E9
 10
0.222604
 20
5.36183
 30
0.000000
  70
    32
  0
VERTEX
  8
AM_HID
  5
2EA
 10
0.222182
 20
5.36098
 30
0.000000
  70
    32
  0
VERTEX
  8
AM_HID
  5
2EB
 10
0.221764
 20
5.36012
 30
0.000000
  70
    32
  0
VERTEX
  8
AM_HID
  5
2EC
 10
0.221351
 20
5.35927
 30
0.000000
  70
    32
  0
VERTEX
  8
AM_HID
  5
2ED
 10
0.220944
 20
5.35841
 30
0.000000
  70
    32
  0
VERTEX
  8
AM_HID
  5
2EE
 10
0.220542
 20
5.35755
 30
0.000000
  70
    32
  0
VERTEX
  8
AM_HID
  5
2EF
 10
0.220145
 20
5.35669
 30
0.000000
  70
    32
  0
VERTEX
  8
AM_HID
  5
2F0
 10
0.219752
 20
5.35582
 30
0.000000
  70
    32
  0
VERTEX
  8
AM_HID
  5
2F1
 10
0.219365
 20
5.35496
 30
0.000000
  70
    32
  0
VERTEX
  8
AM_HID
  5
2F2
 10
0.218983
 20
5.35409
 30
0.000000
  70
    32
  0
VERTEX
  8
AM_HID
  5
2F3
 10
0.218606
 20
5.35322
 30
0.000000
  70
    32
  0
VERTEX
  8
AM_HID
  5
2F4
 10
0.218234
 20
5.35235
 30
0.000000
  70
    32
  0
VERTEX
  8
AM_HID
  5
2F5
 10
0.217867
 20
5.35148
 30
0.000000
  70
    32
  0
VERTEX
  8
AM_HID
  5
2F6
 10
0.217505
 20
5.35061
 30
0.000000
  70
    32
  0
VERTEX
  8
AM_HID
  5
2F7
 10
0.217148
 20
5.34973
 30
0.000000
  70
    32
  0
VERTEX
  8
AM_HID
  5
2F8
 10
0.216796
 20
5.34885
 30
0.000000
  70
    32
  0
SEQEND
  8
AM_HID
  5
2F9
  0
POLYLINE
  8
AM_VIS
  5
2FA
  66
     1
 10
0.000000
 20
0.000000
 30
0.000000
  70
     8
  0
VERTEX
  8
AM_VIS
  5
2FB
 10
0.216796
 20
5.34885
 30
0.000000
  70
    32
  0
VERTEX
  8
AM_VIS
  5
2FC
 10
0.216365
 20
5.34773
 30
0.000000
  70
    32
  0
VERTEX
  8
AM_VIS
  5
2FD
 10
0.215941
 20
5.34659
 30
0.000000
  70
    32
  0
VERTEX
  8
AM_VIS
  5
2FE
 10
0.215527
 20
5.34546
 30
0.000000
  70
    32
  0
VERTEX
  8
AM_VIS
  5
2FF
 10
0.215121
 20
5.34432
 30
0.000000
  70
    32
  0
VERTEX
  8
AM_VIS
  5
300
 10
0.214724
 20
5.34318
 30
0.000000
  70
    32
  0
VERTEX
  8
AM_VIS
  5
301
 10
0.214335
 20
5.34204
 30
0.000000
  70
    32
  0
VERTEX
  8
AM_VIS
  5
302
 10
0.213955
 20
5.34090
 30
0.000000
  70
    32
  0
VERTEX
  8
AM_VIS
  5
303
 10
0.213583
 20
5.33975
 30
0.000000
  70
    32
  0
VERTEX
  8
AM_VIS
  5
304
 10
0.213220
 20
5.33860
 30
0.000000
  70
    32
  0
VERTEX
  8
AM_VIS
  5
305
 10
0.212865
 20
5.33745
 30
0.000000
  70
    32
  0
VERTEX
  8
AM_VIS
  5
306
 10
0.212520
 20
5.33630
 30
0.000000
  70
    32
  0
VERTEX
  8
AM_VIS
  5
307
 10
0.212182
 20
5.33515
 30
0.000000
  70
    32
  0
VERTEX
  8
AM_VIS
  5
308
 10
0.211853
 20
5.33399
 30
0.000000
  70
    32
  0
VERTEX
  8
AM_VIS
  5
309
 10
0.211533
 20
5.33283
 30
0.000000
  70
    32
  0
VERTEX
  8
AM_VIS
  5
30A
 10
0.211222
 20
5.33168
 30
0.000000
  70
    32
  0
VERTEX
  8
AM_VIS
  5
30B
 10
0.210918
 20
5.33051
 30
0.000000
  70
    32
  0
VERTEX
  8
AM_VIS
  5
30C
 10
0.210624
 20
5.32935
 30
0.000000
  70
    32
  0
VERTEX
  8
AM_VIS
  5
30D
 10
0.210338
 20
5.32819
 30
0.000000
  70
    32
  0
VERTEX
  8
AM_VIS
  5
30E
 10
0.210060
 20
5.32702
 30
0.000000
  70
    32
  0
VERTEX
  8
AM_VIS
  5
30F
 10
0.209792
 20
5.32585
 30
0.000000
  70
    32
  0
VERTEX
  8
AM_VIS
  5
310
 10
0.209531
 20
5.32468
 30
0.000000
  70
    32
  0
VERTEX
  8
AM_VIS
  5
311
 10
0.209279
 20
5.32351
 30
0.000000
  70
    32
  0
VERTEX
  8
AM_VIS
  5
312
 10
0.209036
 20
5.32234
 30
0.000000
  70
    32
  0
VERTEX
  8
AM_VIS
  5
313
 10
0.208802
 20
5.32117
 30
0.000000
  70
    32
  0
VERTEX
  8
AM_VIS
  5
314
 10
0.208575
 20
5.31999
 30
0.000000
  70
    32
  0
VERTEX
  8
AM_VIS
  5
315
 10
0.208358
 20
5.31882
 30
0.000000
  70
    32
  0
VERTEX
  8
AM_VIS
  5
316
 10
0.208149
 20
5.31764
 30
0.000000
  70
    32
  0
VERTEX
  8
AM_VIS
  5
317
 10
0.207948
 20
5.31646
 30
0.000000
  70
    32
  0
VERTEX
  8
AM_VIS
  5
318
 10
0.207756
 20
5.31529
 30
0.000000
  70
    32
  0
VERTEX
  8
AM_VIS
  5
319
 10
0.207573
 20
5.31411
 30
0.000000
  70
    32
  0
VERTEX
  8
AM_VIS
  5
31A
 10
0.207398
 20
5.31293
 30
0.000000
  70
    32
  0
VERTEX
  8
AM_VIS
  5
31B
 10
0.207231
 20
5.31175
 30
0.000000
  70
    32
  0
VERTEX
  8
AM_VIS
  5
31C
 10
0.207074
 20
5.31056
 30
0.000000
  70
    32
  0
VERTEX
  8
AM_VIS
  5
31D
 10
0.206924
 20
5.30938
 30
0.000000
  70
    32
  0
VERTEX
  8
AM_VIS
  5
31E
 10
0.206783
 20
5.30820
 30
0.000000
  70
    32
  0
VERTEX
  8
AM_VIS
  5
31F
 10
0.206651
 20
5.30701
 30
0.000000
  70
    32
  0
VERTEX
  8
AM_VIS
  5
320
 10
0.206527
 20
5.30583
 30
0.000000
  70
    32
  0
VERTEX
  8
AM_VIS
  5
321
 10
0.206412
 20
5.30464
 30
0.000000
  70
    32
  0
VERTEX
  8
AM_VIS
  5
322
 10
0.206305
 20
5.30346
 30
0.000000
  70
    32
  0
VERTEX
  8
AM_VIS
  5
323
 10
0.206207
 20
5.30227
 30
0.000000
  70
    32
  0
VERTEX
  8
AM_VIS
  5
324
 10
0.206117
 20
5.30109
 30
0.000000
  70
    32
  0
VERTEX
  8
AM_VIS
  5
325
 10
0.206036
 20
5.29990
 30
0.000000
  70
    32
  0
VERTEX
  8
AM_VIS
  5
326
 10
0.205963
 20
5.29872
 30
0.000000
  70
    32
  0
VERTEX
  8
AM_VIS
  5
327
 10
0.205899
 20
5.29753
 30
0.000000
  70
    32
  0
VERTEX
  8
AM_VIS
  5
328
 10
0.205844
 20
5.29634
 30
0.000000
  70
    32
  0
VERTEX
  8
AM_VIS
  5
329
 10
0.205796
 20
5.29516
 30
0.000000
  70
    32
  0
VERTEX
  8
AM_VIS
  5
32A
 10
0.205758
 20
5.29397
 30
0.000000
  70
    32
  0
VERTEX
  8
AM_VIS
  5
32B
 10
0.205727
 20
5.29278
 30
0.000000
  70
    32
  0
VERTEX
  8
AM_VIS
  5
32C
 10
0.205706
 20
5.29160
 30
0.000000
  70
    32
  0
VERTEX
  8
AM_VIS
  5
32D
 10
0.205693
 20
5.29041
 30
0.000000
  70
    32
  0
VERTEX
  8
AM_VIS
  5
32E
 10
0.205688
 20
5.28923
 30
0.000000
  70
    32
  0
VERTEX
  8
AM_VIS
  5
32F
 10
0.205692
 20
5.28804
 30
0.000000
  70
    32
  0
VERTEX
  8
AM_VIS
  5
330
 10
0.205704
 20
5.28685
 30
0.000000
  70
    32
  0
VERTEX
  8
AM_VIS
  5
331
 10
0.205725
 20
5.28565
 30
0.000000
  70
    32
  0
VERTEX
  8
AM_VIS
  5
332
 10
0.205754
 20
5.28446
 30
0.000000
  70
    32
  0
VERTEX
  8
AM_VIS
  5
333
 10
0.205792
 20
5.28325
 30
0.000000
  70
    32
  0
VERTEX
  8
AM_VIS
  5
334
 10
0.205838
 20
5.28205
 30
0.000000
  70
    32
  0
VERTEX
  8
AM_VIS
  5
335
 10
0.205893
 20
5.28084
 30
0.000000
  70
    32
  0
VERTEX
  8
AM_VIS
  5
336
 10
0.205956
 20
5.27963
 30
0.000000
  70
    32
  0
VERTEX
  8
AM_VIS
  5
337
 10
0.206028
 20
5.27841
 30
0.000000
  70
    32
  0
VERTEX
  8
AM_VIS
  5
338
 10
0.206109
 20
5.27719
 30
0.000000
  70
    32
  0
VERTEX
  8
AM_VIS
  5
339
 10
0.206197
 20
5.27597
 30
0.000000
  70
    32
  0
VERTEX
  8
AM_VIS
  5
33A
 10
0.206295
 20
5.27474
 30
0.000000
  70
    32
  0
VERTEX
  8
AM_VIS
  5
33B
 10
0.206401
 20
5.27351
 30
0.000000
  70
    32
  0
VERTEX
  8
AM_VIS
  5
33C
 10
0.206516
 20
5.27228
 30
0.000000
  70
    32
  0
VERTEX
  8
AM_VIS
  5
33D
 10
0.206639
 20
5.27105
 30
0.000000
  70
    32
  0
VERTEX
  8
AM_VIS
  5
33E
 10
0.206770
 20
5.26981
 30
0.000000
  70
    32
  0
VERTEX
  8
AM_VIS
  5
33F
 10
0.206911
 20
5.26857
 30
0.000000
  70
    32
  0
VERTEX
  8
AM_VIS
  5
340
 10
0.207060
 20
5.26733
 30
0.000000
  70
    32
  0
VERTEX
  8
AM_VIS
  5
341
 10
0.207217
 20
5.26608
 30
0.000000
  70
    32
  0
VERTEX
  8
AM_VIS
  5
342
 10
0.207383
 20
5.26483
 30
0.000000
  70
    32
  0
VERTEX
  8
AM_VIS
  5
343
 10
0.207558
 20
5.26358
 30
0.000000
  70
    32
  0
VERTEX
  8
AM_VIS
  5
344
 10
0.207741
 20
5.26233
 30
0.000000
  70
    32
  0
VERTEX
  8
AM_VIS
  5
345
 10
0.207932
 20
5.26107
 30
0.000000
  70
    32
  0
VERTEX
  8
AM_VIS
  5
346
 10
0.208133
 20
5.25981
 30
0.000000
  70
    32
  0
VERTEX
  8
AM_VIS
  5
347
 10
0.208342
 20
5.25855
 30
0.000000
  70
    32
  0
VERTEX
  8
AM_VIS
  5
348
 10
0.208559
 20
5.25729
 30
0.000000
  70
    32
  0
VERTEX
  8
AM_VIS
  5
349
 10
0.208785
 20
5.25602
 30
0.000000
  70
    32
  0
VERTEX
  8
AM_VIS
  5
34A
 10
0.209020
 20
5.25475
 30
0.000000
  70
    32
  0
VERTEX
  8
AM_VIS
  5
34B
 10
0.209264
 20
5.25348
 30
0.000000
  70
    32
  0
VERTEX
  8
AM_VIS
  5
34C
 10
0.209516
 20
5.25221
 30
0.000000
  70
    32
  0
VERTEX
  8
AM_VIS
  5
34D
 10
0.209776
 20
5.25094
 30
0.000000
  70
    32
  0
VERTEX
  8
AM_VIS
  5
34E
 10
0.210046
 20
5.24966
 30
0.000000
  70
    32
  0
VERTEX
  8
AM_VIS
  5
34F
 10
0.210324
 20
5.24839
 30
0.000000
  70
    32
  0
VERTEX
  8
AM_VIS
  5
350
 10
0.210610
 20
5.24711
 30
0.000000
  70
    32
  0
VERTEX
  8
AM_VIS
  5
351
 10
0.210905
 20
5.24583
 30
0.000000
  70
    32
  0
VERTEX
  8
AM_VIS
  5
352
 10
0.211209
 20
5.24455
 30
0.000000
  70
    32
  0
VERTEX
  8
AM_VIS
  5
353
 10
0.211522
 20
5.24326
 30
0.000000
  70
    32
  0
VERTEX
  8
AM_VIS
  5
354
 10
0.211843
 20
5.24198
 30
0.000000
  70
    32
  0
VERTEX
  8
AM_VIS
  5
355
 10
0.212173
 20
5.24069
 30
0.000000
  70
    32
  0
VERTEX
  8
AM_VIS
  5
356
 10
0.212511
 20
5.23940
 30
0.000000
  70
    32
  0
VERTEX
  8
AM_VIS
  5
357
 10
0.212859
 20
5.23812
 30
0.000000
  70
    32
  0
VERTEX
  8
AM_VIS
  5
358
 10
0.213215
 20
5.23683
 30
0.000000
  70
    32
  0
VERTEX
  8
AM_VIS
  5
359
 10
0.213579
 20
5.23553
 30
0.000000
  70
    32
  0
VERTEX
  8
AM_VIS
  5
35A
 10
0.213952
 20
5.23424
 30
0.000000
  70
    32
  0
VERTEX
  8
AM_VIS
  5
35B
 10
0.214334
 20
5.23295
 30
0.000000
  70
    32
  0
VERTEX
  8
AM_VIS
  5
35C
 10
0.214725
 20
5.23166
 30
0.000000
  70
    32
  0
VERTEX
  8
AM_VIS
  5
35D
 10
0.215124
 20
5.23036
 30
0.000000
  70
    32
  0
VERTEX
  8
AM_VIS
  5
35E
 10
0.215532
 20
5.22907
 30
0.000000
  70
    32
  0
VERTEX
  8
AM_VIS
  5
35F
 10
0.215949
 20
5.22777
 30
0.000000
  70
    32
  0
VERTEX
  8
AM_VIS
  5
360
 10
0.216375
 20
5.22647
 30
0.000000
  70
    32
  0
VERTEX
  8
AM_VIS
  5
361
 10
0.216809
 20
5.22517
 30
0.000000
  70
    32
  0
VERTEX
  8
AM_VIS
  5
362
 10
0.217252
 20
5.22388
 30
0.000000
  70
    32
  0
VERTEX
  8
AM_VIS
  5
363
 10
0.217704
 20
5.22258
 30
0.000000
  70
    32
  0
VERTEX
  8
AM_VIS
  5
364
 10
0.218164
 20
5.22128
 30
0.000000
  70
    32
  0
VERTEX
  8
AM_VIS
  5
365
 10
0.218633
 20
5.21998
 30
0.000000
  70
    32
  0
VERTEX
  8
AM_VIS
  5
366
 10
0.219111
 20
5.21868
 30
0.000000
  70
    32
  0
VERTEX
  8
AM_VIS
  5
367
 10
0.219598
 20
5.21738
 30
0.000000
  70
    32
  0
VERTEX
  8
AM_VIS
  5
368
 10
0.220093
 20
5.21608
 30
0.000000
  70
    32
  0
VERTEX
  8
AM_VIS
  5
369
 10
0.220597
 20
5.21478
 30
0.000000
  70
    32
  0
VERTEX
  8
AM_VIS
  5
36A
 10
0.221110
 20
5.21348
 30
0.000000
  70
    32
  0
VERTEX
  8
AM_VIS
  5
36B
 10
0.221632
 20
5.21218
 30
0.000000
  70
    32
  0
VERTEX
  8
AM_VIS
  5
36C
 10
0.222162
 20
5.21088
 30
0.000000
  70
    32
  0
VERTEX
  8
AM_VIS
  5
36D
 10
0.222702
 20
5.20959
 30
0.000000
  70
    32
  0
VERTEX
  8
AM_VIS
  5
36E
 10
0.223250
 20
5.20829
 30
0.000000
  70
    32
  0
VERTEX
  8
AM_VIS
  5
36F
 10
0.223807
 20
5.20699
 30
0.000000
  70
    32
  0
VERTEX
  8
AM_VIS
  5
370
 10
0.224372
 20
5.20569
 30
0.000000
  70
    32
  0
VERTEX
  8
AM_VIS
  5
371
 10
0.224947
 20
5.20439
 30
0.000000
  70
    32
  0
VERTEX
  8
AM_VIS
  5
372
 10
0.225530
 20
5.20310
 30
0.000000
  70
    32
  0
VERTEX
  8
AM_VIS
  5
373
 10
0.226122
 20
5.20180
 30
0.000000
  70
    32
  0
VERTEX
  8
AM_VIS
  5
374
 10
0.226723
 20
5.20051
 30
0.000000
  70
    32
  0
VERTEX
  8
AM_VIS
  5
375
 10
0.227332
 20
5.19921
 30
0.000000
  70
    32
  0
VERTEX
  8
AM_VIS
  5
376
 10
0.227951
 20
5.19792
 30
0.000000
  70
    32
  0
VERTEX
  8
AM_VIS
  5
377
 10
0.228578
 20
5.19662
 30
0.000000
  70
    32
  0
VERTEX
  8
AM_VIS
  5
378
 10
0.229214
 20
5.19533
 30
0.000000
  70
    32
  0
VERTEX
  8
AM_VIS
  5
379
 10
0.229859
 20
5.19404
 30
0.000000
  70
    32
  0
VERTEX
  8
AM_VIS
  5
37A
 10
0.230513
 20
5.19275
 30
0.000000
  70
    32
  0
VERTEX
  8
AM_VIS
  5
37B
 10
0.231175
 20
5.19146
 30
0.000000
  70
    32
  0
VERTEX
  8
AM_VIS
  5
37C
 10
0.231846
 20
5.19018
 30
0.000000
  70
    32
  0
VERTEX
  8
AM_VIS
  5
37D
 10
0.232526
 20
5.18889
 30
0.000000
  70
    32
  0
VERTEX
  8
AM_VIS
  5
37E
 10
0.233215
 20
5.18761
 30
0.000000
  70
    32
  0
VERTEX
  8
AM_VIS
  5
37F
 10
0.233912
 20
5.18632
 30
0.000000
  70
    32
  0
VERTEX
  8
AM_VIS
  5
380
 10
0.234617
 20
5.18504
 30
0.000000
  70
    32
  0
VERTEX
  8
AM_VIS
  5
381
 10
0.235331
 20
5.18376
 30
0.000000
  70
    32
  0
VERTEX
  8
AM_VIS
  5
382
 10
0.236053
 20
5.18248
 30
0.000000
  70
    32
  0
VERTEX
  8
AM_VIS
  5
383
 10
0.236783
 20
5.18121
 30
0.000000
  70
    32
  0
VERTEX
  8
AM_VIS
  5
384
 10
0.237522
 20
5.17993
 30
0.000000
  70
    32
  0
VERTEX
  8
AM_VIS
  5
385
 10
0.238268
 20
5.17866
 30
0.000000
  70
    32
  0
VERTEX
  8
AM_VIS
  5
386
 10
0.239023
 20
5.17739
 30
0.000000
  70
    32
  0
VERTEX
  8
AM_VIS
  5
387
 10
0.239786
 20
5.17612
 30
0.000000
  70
    32
  0
VERTEX
  8
AM_VIS
  5
388
 10
0.240557
 20
5.17486
 30
0.000000
  70
    32
  0
VERTEX
  8
AM_VIS
  5
389
 10
0.241335
 20
5.17359
 30
0.000000
  70
    32
  0
VERTEX
  8
AM_VIS
  5
38A
 10
0.242122
 20
5.17233
 30
0.000000
  70
    32
  0
VERTEX
  8
AM_VIS
  5
38B
 10
0.242916
 20
5.17107
 30
0.000000
  70
    32
  0
VERTEX
  8
AM_VIS
  5
38C
 10
0.243718
 20
5.16981
 30
0.000000
  70
    32
  0
VERTEX
  8
AM_VIS
  5
38D
 10
0.244528
 20
5.16856
 30
0.000000
  70
    32
  0
VERTEX
  8
AM_VIS
  5
38E
 10
0.245345
 20
5.16730
 30
0.000000
  70
    32
  0
VERTEX
  8
AM_VIS
  5
38F
 10
0.246170
 20
5.16605
 30
0.000000
  70
    32
  0
VERTEX
  8
AM_VIS
  5
390
 10
0.247002
 20
5.16481
 30
0.000000
  70
    32
  0
VERTEX
  8
AM_VIS
  5
391
 10
0.247841
 20
5.16356
 30
0.000000
  70
    32
  0
VERTEX
  8
AM_VIS
  5
392
 10
0.248688
 20
5.16232
 30
0.000000
  70
    32
  0
VERTEX
  8
AM_VIS
  5
393
 10
0.249543
 20
5.16108
 30
0.000000
  70
    32
  0
VERTEX
  8
AM_VIS
  5
394
 10
0.250404
 20
5.15984
 30
0.000000
  70
    32
  0
VERTEX
  8
AM_VIS
  5
395
 10
0.251273
 20
5.15861
 30
0.000000
  70
    32
  0
VERTEX
  8
AM_VIS
  5
396
 10
0.252148
 20
5.15738
 30
0.000000
  70
    32
  0
VERTEX
  8
AM_VIS
  5
397
 10
0.253031
 20
5.15615
 30
0.000000
  70
    32
  0
VERTEX
  8
AM_VIS
  5
398
 10
0.253921
 20
5.15493
 30
0.000000
  70
    32
  0
VERTEX
  8
AM_VIS
  5
399
 10
0.254818
 20
5.15371
 30
0.000000
  70
    32
  0
VERTEX
  8
AM_VIS
  5
39A
 10
0.255721
 20
5.15249
 30
0.000000
  70
    32
  0
VERTEX
  8
AM_VIS
  5
39B
 10
0.256632
 20
5.15128
 30
0.000000
  70
    32
  0
VERTEX
  8
AM_VIS
  5
39C
 10
0.257549
 20
5.15006
 30
0.000000
  70
    32
  0
VERTEX
  8
AM_VIS
  5
39D
 10
0.258472
 20
5.14886
 30
0.000000
  70
    32
  0
VERTEX
  8
AM_VIS
  5
39E
 10
0.259403
 20
5.14765
 30
0.000000
  70
    32
  0
VERTEX
  8
AM_VIS
  5
39F
 10
0.260340
 20
5.14645
 30
0.000000
  70
    32
  0
VERTEX
  8
AM_VIS
  5
3A0
 10
0.261283
 20
5.14525
 30
0.000000
  70
    32
  0
VERTEX
  8
AM_VIS
  5
3A1
 10
0.262233
 20
5.14406
 30
0.000000
  70
    32
  0
VERTEX
  8
AM_VIS
  5
3A2
 10
0.263189
 20
5.14287
 30
0.000000
  70
    32
  0
VERTEX
  8
AM_VIS
  5
3A3
 10
0.264151
 20
5.14169
 30
0.000000
  70
    32
  0
VERTEX
  8
AM_VIS
  5
3A4
 10
0.265120
 20
5.14050
 30
0.000000
  70
    32
  0
VERTEX
  8
AM_VIS
  5
3A5
 10
0.266095
 20
5.13933
 30
0.000000
  70
    32
  0
VERTEX
  8
AM_VIS
  5
3A6
 10
0.267076
 20
5.13815
 30
0.000000
  70
    32
  0
VERTEX
  8
AM_VIS
  5
3A7
 10
0.268063
 20
5.13698
 30
0.000000
  70
    32
  0
VERTEX
  8
AM_VIS
  5
3A8
 10
0.269056
 20
5.13582
 30
0.000000
  70
    32
  0
VERTEX
  8
AM_VIS
  5
3A9
 10
0.270055
 20
5.13465
 30
0.000000
  70
    32
  0
VERTEX
  8
AM_VIS
  5
3AA
 10
0.271060
 20
5.13350
 30
0.000000
  70
    32
  0
VERTEX
  8
AM_VIS
  5
3AB
 10
0.272071
 20
5.13234
 30
0.000000
  70
    32
  0
VERTEX
  8
AM_VIS
  5
3AC
 10
0.273087
 20
5.13120
 30
0.000000
  70
    32
  0
VERTEX
  8
AM_VIS
  5
3AD
 10
0.274110
 20
5.13005
 30
0.000000
  70
    32
  0
VERTEX
  8
AM_VIS
  5
3AE
 10
0.275137
 20
5.12891
 30
0.000000
  70
    32
  0
VERTEX
  8
AM_VIS
  5
3AF
 10
0.276171
 20
5.12778
 30
0.000000
  70
    32
  0
VERTEX
  8
AM_VIS
  5
3B0
 10
0.277210
 20
5.12665
 30
0.000000
  70
    32
  0
VERTEX
  8
AM_VIS
  5
3B1
 10
0.278254
 20
5.12552
 30
0.000000
  70
    32
  0
VERTEX
  8
AM_VIS
  5
3B2
 10
0.279304
 20
5.12440
 30
0.000000
  70
    32
  0
VERTEX
  8
AM_VIS
  5
3B3
 10
0.280359
 20
5.12328
 30
0.000000
  70
    32
  0
VERTEX
  8
AM_VIS
  5
3B4
 10
0.281419
 20
5.12217
 30
0.000000
  70
    32
  0
VERTEX
  8
AM_VIS
  5
3B5
 10
0.282484
 20
5.12107
 30
0.000000
  70
    32
  0
VERTEX
  8
AM_VIS
  5
3B6
 10
0.283555
 20
5.11997
 30
0.000000
  70
    32
  0
VERTEX
  8
AM_VIS
  5
3B7
 10
0.284631
 20
5.11887
 30
0.000000
  70
    32
  0
VERTEX
  8
AM_VIS
  5
3B8
 10
0.285712
 20
5.11778
 30
0.000000
  70
    32
  0
VERTEX
  8
AM_VIS
  5
3B9
 10
0.286797
 20
5.11670
 30
0.000000
  70
    32
  0
VERTEX
  8
AM_VIS
  5
3BA
 10
0.287888
 20
5.11562
 30
0.000000
  70
    32
  0
VERTEX
  8
AM_VIS
  5
3BB
 10
0.288983
 20
5.11454
 30
0.000000
  70
    32
  0
VERTEX
  8
AM_VIS
  5
3BC
 10
0.290084
 20
5.11347
 30
0.000000
  70
    32
  0
VERTEX
  8
AM_VIS
  5
3BD
 10
0.291189
 20
5.11241
 30
0.000000
  70
    32
  0
VERTEX
  8
AM_VIS
  5
3BE
 10
0.292298
 20
5.11135
 30
0.000000
  70
    32
  0
VERTEX
  8
AM_VIS
  5
3BF
 10
0.293412
 20
5.11030
 30
0.000000
  70
    32
  0
VERTEX
  8
AM_VIS
  5
3C0
 10
0.294531
 20
5.10925
 30
0.000000
  70
    32
  0
VERTEX
  8
AM_VIS
  5
3C1
 10
0.295654
 20
5.10821
 30
0.000000
  70
    32
  0
VERTEX
  8
AM_VIS
  5
3C2
 10
0.296782
 20
5.10717
 30
0.000000
  70
    32
  0
VERTEX
  8
AM_VIS
  5
3C3
 10
0.297914
 20
5.10614
 30
0.000000
  70
    32
  0
VERTEX
  8
AM_VIS
  5
3C4
 10
0.299050
 20
5.10512
 30
0.000000
  70
    32
  0
VERTEX
  8
AM_VIS
  5
3C5
 10
0.300195
 20
5.10410
 30
0.000000
  70
    32
  0
VERTEX
  8
AM_VIS
  5
3C6
 10
0.301347
 20
5.10308
 30
0.000000
  70
    32
  0
VERTEX
  8
AM_VIS
  5
3C7
 10
0.302508
 20
5.10206
 30
0.000000
  70
    32
  0
VERTEX
  8
AM_VIS
  5
3C8
 10
0.303677
 20
5.10105
 30
0.000000
  70
    32
  0
VERTEX
  8
AM_VIS
  5
3C9
 10
0.304855
 20
5.10004
 30
0.000000
  70
    32
  0
VERTEX
  8
AM_VIS
  5
3CA
 10
0.306040
 20
5.09903
 30
0.000000
  70
    32
  0
VERTEX
  8
AM_VIS
  5
3CB
 10
0.307234
 20
5.09803
 30
0.000000
  70
    32
  0
VERTEX
  8
AM_VIS
  5
3CC
 10
0.308435
 20
5.09702
 30
0.000000
  70
    32
  0
VERTEX
  8
AM_VIS
  5
3CD
 10
0.309645
 20
5.09602
 30
0.000000
  70
    32
  0
VERTEX
  8
AM_VIS
  5
3CE
 10
0.310862
 20
5.09503
 30
0.000000
  70
    32
  0
VERTEX
  8
AM_VIS
  5
3CF
 10
0.312087
 20
5.09403
 30
0.000000
  70
    32
  0
VERTEX
  8
AM_VIS
  5
3D0
 10
0.313320
 20
5.09304
 30
0.000000
  70
    32
  0
VERTEX
  8
AM_VIS
  5
3D1
 10
0.314561
 20
5.09206
 30
0.000000
  70
    32
  0
VERTEX
  8
AM_VIS
  5
3D2
 10
0.315809
 20
5.09107
 30
0.000000
  70
    32
  0
VERTEX
  8
AM_VIS
  5
3D3
 10
0.317065
 20
5.09009
 30
0.000000
  70
    32
  0
VERTEX
  8
AM_VIS
  5
3D4
 10
0.318329
 20
5.08911
 30
0.000000
  70
    32
  0
VERTEX
  8
AM_VIS
  5
3D5
 10
0.319600
 20
5.08814
 30
0.000000
  70
    32
  0
VERTEX
  8
AM_VIS
  5
3D6
 10
0.320878
 20
5.08717
 30
0.000000
  70
    32
  0
VERTEX
  8
AM_VIS
  5
3D7
 10
0.322164
 20
5.08620
 30
0.000000
  70
    32
  0
VERTEX
  8
AM_VIS
  5
3D8
 10
0.323457
 20
5.08524
 30
0.000000
  70
    32
  0
VERTEX
  8
AM_VIS
  5
3D9
 10
0.324757
 20
5.08428
 30
0.000000
  70
    32
  0
VERTEX
  8
AM_VIS
  5
3DA
 10
0.326065
 20
5.08333
 30
0.000000
  70
    32
  0
VERTEX
  8
AM_VIS
  5
3DB
 10
0.327380
 20
5.08238
 30
0.000000
  70
    32
  0
VERTEX
  8
AM_VIS
  5
3DC
 10
0.328702
 20
5.08143
 30
0.000000
  70
    32
  0
VERTEX
  8
AM_VIS
  5
3DD
 10
0.330031
 20
5.08049
 30
0.000000
  70
    32
  0
VERTEX
  8
AM_VIS
  5
3DE
 10
0.331367
 20
5.07955
 30
0.000000
  70
    32
  0
VERTEX
  8
AM_VIS
  5
3DF
 10
0.332709
 20
5.07861
 30
0.000000
  70
    32
  0
VERTEX
  8
AM_VIS
  5
3E0
 10
0.334059
 20
5.07768
 30
0.000000
  70
    32
  0
VERTEX
  8
AM_VIS
  5
3E1
 10
0.335416
 20
5.07676
 30
0.000000
  70
    32
  0
VERTEX
  8
AM_VIS
  5
3E2
 10
0.336779
 20
5.07584
 30
0.000000
  70
    32
  0
VERTEX
  8
AM_VIS
  5
3E3
 10
0.338149
 20
5.07492
 30
0.000000
  70
    32
  0
VERTEX
  8
AM_VIS
  5
3E4
 10
0.339526
 20
5.07401
 30
0.000000
  70
    32
  0
VERTEX
  8
AM_VIS
  5
3E5
 10
0.340909
 20
5.07310
 30
0.000000
  70
    32
  0
VERTEX
  8
AM_VIS
  5
3E6
 10
0.342299
 20
5.07220
 30
0.000000
  70
    32
  0
VERTEX
  8
AM_VIS
  5
3E7
 10
0.343695
 20
5.07130
 30
0.000000
  70
    32
  0
VERTEX
  8
AM_VIS
  5
3E8
 10
0.345098
 20
5.07041
 30
0.000000
  70
    32
  0
VERTEX
  8
AM_VIS
  5
3E9
 10
0.346507
 20
5.06952
 30
0.000000
  70
    32
  0
VERTEX
  8
AM_VIS
  5
3EA
 10
0.347923
 20
5.06864
 30
0.000000
  70
    32
  0
VERTEX
  8
AM_VIS
  5
3EB
 10
0.349345
 20
5.06776
 30
0.000000
  70
    32
  0
VERTEX
  8
AM_VIS
  5
3EC
 10
0.350773
 20
5.06689
 30
0.000000
  70
    32
  0
VERTEX
  8
AM_VIS
  5
3ED
 10
0.352207
 20
5.06602
 30
0.000000
  70
    32
  0
VERTEX
  8
AM_VIS
  5
3EE
 10
0.353647
 20
5.06516
 30
0.000000
  70
    32
  0
VERTEX
  8
AM_VIS
  5
3EF
 10
0.355093
 20
5.06431
 30
0.000000
  70
    32
  0
VERTEX
  8
AM_VIS
  5
3F0
 10
0.356545
 20
5.06346
 30
0.000000
  70
    32
  0
VERTEX
  8
AM_VIS
  5
3F1
 10
0.358003
 20
5.06261
 30
0.000000
  70
    32
  0
VERTEX
  8
AM_VIS
  5
3F2
 10
0.359468
 20
5.06177
 30
0.000000
  70
    32
  0
VERTEX
  8
AM_VIS
  5
3F3
 10
0.360937
 20
5.06094
 30
0.000000
  70
    32
  0
VERTEX
  8
AM_VIS
  5
3F4
 10
0.362413
 20
5.06011
 30
0.000000
  70
    32
  0
VERTEX
  8
AM_VIS
  5
3F5
 10
0.363894
 20
5.05929
 30
0.000000
  70
    32
  0
VERTEX
  8
AM_VIS
  5
3F6
 10
0.365381
 20
5.05847
 30
0.000000
  70
    32
  0
VERTEX
  8
AM_VIS
  5
3F7
 10
0.366874
 20
5.05767
 30
0.000000
  70
    32
  0
VERTEX
  8
AM_VIS
  5
3F8
 10
0.368372
 20
5.05686
 30
0.000000
  70
    32
  0
VERTEX
  8
AM_VIS
  5
3F9
 10
0.369876
 20
5.05607
 30
0.000000
  70
    32
  0
VERTEX
  8
AM_VIS
  5
3FA
 10
0.371385
 20
5.05527
 30
0.000000
  70
    32
  0
VERTEX
  8
AM_VIS
  5
3FB
 10
0.372899
 20
5.05449
 30
0.000000
  70
    32
  0
VERTEX
  8
AM_VIS
  5
3FC
 10
0.374419
 20
5.05371
 30
0.000000
  70
    32
  0
VERTEX
  8
AM_VIS
  5
3FD
 10
0.375944
 20
5.05294
 30
0.000000
  70
    32
  0
VERTEX
  8
AM_VIS
  5
3FE
 10
0.377474
 20
5.05218
 30
0.000000
  70
    32
  0
VERTEX
  8
AM_VIS
  5
3FF
 10
0.379009
 20
5.05142
 30
0.000000
  70
    32
  0
VERTEX
  8
AM_VIS
  5
400
 10
0.380550
 20
5.05067
 30
0.000000
  70
    32
  0
VERTEX
  8
AM_VIS
  5
401
 10
0.382095
 20
5.04992
 30
0.000000
  70
    32
  0
VERTEX
  8
AM_VIS
  5
402
 10
0.383646
 20
5.04919
 30
0.000000
  70
    32
  0
VERTEX
  8
AM_VIS
  5
403
 10
0.385201
 20
5.04846
 30
0.000000
  70
    32
  0
VERTEX
  8
AM_VIS
  5
404
 10
0.386761
 20
5.04773
 30
0.000000
  70
    32
  0
VERTEX
  8
AM_VIS
  5
405
 10
0.388326
 20
5.04702
 30
0.000000
  70
    32
  0
VERTEX
  8
AM_VIS
  5
406
 10
0.389896
 20
5.04631
 30
0.000000
  70
    32
  0
VERTEX
  8
AM_VIS
  5
407
 10
0.391471
 20
5.04560
 30
0.000000
  70
    32
  0
VERTEX
  8
AM_VIS
  5
408
 10
0.393050
 20
5.04491
 30
0.000000
  70
    32
  0
VERTEX
  8
AM_VIS
  5
409
 10
0.394634
 20
5.04422
 30
0.000000
  70
    32
  0
VERTEX
  8
AM_VIS
  5
40A
 10
0.396222
 20
5.04354
 30
0.000000
  70
    32
  0
VERTEX
  8
AM_VIS
  5
40B
 10
0.397815
 20
5.04287
 30
0.000000
  70
    32
  0
VERTEX
  8
AM_VIS
  5
40C
 10
0.399412
 20
5.04221
 30
0.000000
  70
    32
  0
VERTEX
  8
AM_VIS
  5
40D
 10
0.401013
 20
5.04155
 30
0.000000
  70
    32
  0
VERTEX
  8
AM_VIS
  5
40E
 10
0.402619
 20
5.04090
 30
0.000000
  70
    32
  0
VERTEX
  8
AM_VIS
  5
40F
 10
0.404229
 20
5.04026
 30
0.000000
  70
    32
  0
VERTEX
  8
AM_VIS
  5
410
 10
0.405844
 20
5.03963
 30
0.000000
  70
    32
  0
VERTEX
  8
AM_VIS
  5
411
 10
0.407462
 20
5.03900
 30
0.000000
  70
    32
  0
VERTEX
  8
AM_VIS
  5
412
 10
0.409085
 20
5.03839
 30
0.000000
  70
    32
  0
VERTEX
  8
AM_VIS
  5
413
 10
0.410711
 20
5.03778
 30
0.000000
  70
    32
  0
VERTEX
  8
AM_VIS
  5
414
 10
0.412342
 20
5.03718
 30
0.000000
  70
    32
  0
VERTEX
  8
AM_VIS
  5
415
 10
0.413976
 20
5.03659
 30
0.000000
  70
    32
  0
VERTEX
  8
AM_VIS
  5
416
 10
0.415614
 20
5.03600
 30
0.000000
  70
    32
  0
VERTEX
  8
AM_VIS
  5
417
 10
0.417255
 20
5.03543
 30
0.000000
  70
    32
  0
VERTEX
  8
AM_VIS
  5
418
 10
0.418900
 20
5.03486
 30
0.000000
  70
    32
  0
VERTEX
  8
AM_VIS
  5
419
 10
0.420548
 20
5.03430
 30
0.000000
  70
    32
  0
VERTEX
  8
AM_VIS
  5
41A
 10
0.422200
 20
5.03375
 30
0.000000
  70
    32
  0
VERTEX
  8
AM_VIS
  5
41B
 10
0.423855
 20
5.03320
 30
0.000000
  70
    32
  0
VERTEX
  8
AM_VIS
  5
41C
 10
0.425513
 20
5.03267
 30
0.000000
  70
    32
  0
VERTEX
  8
AM_VIS
  5
41D
 10
0.427175
 20
5.03214
 30
0.000000
  70
    32
  0
VERTEX
  8
AM_VIS
  5
41E
 10
0.428839
 20
5.03162
 30
0.000000
  70
    32
  0
VERTEX
  8
AM_VIS
  5
41F
 10
0.430506
 20
5.03111
 30
0.000000
  70
    32
  0
VERTEX
  8
AM_VIS
  5
420
 10
0.432176
 20
5.03061
 30
0.000000
  70
    32
  0
VERTEX
  8
AM_VIS
  5
421
 10
0.433848
 20
5.03012
 30
0.000000
  70
    32
  0
VERTEX
  8
AM_VIS
  5
422
 10
0.435523
 20
5.02963
 30
0.000000
  70
    32
  0
VERTEX
  8
AM_VIS
  5
423
 10
0.437201
 20
5.02916
 30
0.000000
  70
    32
  0
VERTEX
  8
AM_VIS
  5
424
 10
0.438881
 20
5.02869
 30
0.000000
  70
    32
  0
VERTEX
  8
AM_VIS
  5
425
 10
0.440564
 20
5.02823
 30
0.000000
  70
    32
  0
VERTEX
  8
AM_VIS
  5
426
 10
0.442249
 20
5.02777
 30
0.000000
  70
    32
  0
VERTEX
  8
AM_VIS
  5
427
 10
0.443936
 20
5.02733
 30
0.000000
  70
    32
  0
VERTEX
  8
AM_VIS
  5
428
 10
0.445625
 20
5.02690
 30
0.000000
  70
    32
  0
VERTEX
  8
AM_VIS
  5
429
 10
0.447316
 20
5.02647
 30
0.000000
  70
    32
  0
VERTEX
  8
AM_VIS
  5
42A
 10
0.449008
 20
5.02605
 30
0.000000
  70
    32
  0
VERTEX
  8
AM_VIS
  5
42B
 10
0.450703
 20
5.02564
 30
0.000000
  70
    32
  0
VERTEX
  8
AM_VIS
  5
42C
 10
0.452400
 20
5.02524
 30
0.000000
  70
    32
  0
VERTEX
  8
AM_VIS
  5
42D
 10
0.454098
 20
5.02484
 30
0.000000
  70
    32
  0
VERTEX
  8
AM_VIS
  5
42E
 10
0.455797
 20
5.02446
 30
0.000000
  70
    32
  0
VERTEX
  8
AM_VIS
  5
42F
 10
0.457498
 20
5.02408
 30
0.000000
  70
    32
  0
VERTEX
  8
AM_VIS
  5
430
 10
0.459201
 20
5.02371
 30
0.000000
  70
    32
  0
VERTEX
  8
AM_VIS
  5
431
 10
0.460905
 20
5.02335
 30
0.000000
  70
    32
  0
VERTEX
  8
AM_VIS
  5
432
 10
0.462610
 20
5.02300
 30
0.000000
  70
    32
  0
VERTEX
  8
AM_VIS
  5
433
 10
0.464316
 20
5.02265
 30
0.000000
  70
    32
  0
VERTEX
  8
AM_VIS
  5
434
 10
0.466023
 20
5.02232
 30
0.000000
  70
    32
  0
VERTEX
  8
AM_VIS
  5
435
 10
0.467730
 20
5.02199
 30
0.000000
  70
    32
  0
VERTEX
  8
AM_VIS
  5
436
 10
0.469439
 20
5.02167
 30
0.000000
  70
    32
  0
VERTEX
  8
AM_VIS
  5
437
 10
0.471149
 20
5.02136
 30
0.000000
  70
    32
  0
VERTEX
  8
AM_VIS
  5
438
 10
0.472859
 20
5.02106
 30
0.000000
  70
    32
  0
VERTEX
  8
AM_VIS
  5
439
 10
0.474569
 20
5.02077
 30
0.000000
  70
    32
  0
VERTEX
  8
AM_VIS
  5
43A
 10
0.476281
 20
5.02048
 30
0.000000
  70
    32
  0
VERTEX
  8
AM_VIS
  5
43B
 10
0.477992
 20
5.02021
 30
0.000000
  70
    32
  0
VERTEX
  8
AM_VIS
  5
43C
 10
0.479704
 20
5.01994
 30
0.000000
  70
    32
  0
VERTEX
  8
AM_VIS
  5
43D
 10
0.481416
 20
5.01968
 30
0.000000
  70
    32
  0
VERTEX
  8
AM_VIS
  5
43E
 10
0.483128
 20
5.01943
 30
0.000000
  70
    32
  0
VERTEX
  8
AM_VIS
  5
43F
 10
0.484840
 20
5.01919
 30
0.000000
  70
    32
  0
VERTEX
  8
AM_VIS
  5
440
 10
0.486552
 20
5.01896
 30
0.000000
  70
    32
  0
VERTEX
  8
AM_VIS
  5
441
 10
0.488264
 20
5.01873
 30
0.000000
  70
    32
  0
VERTEX
  8
AM_VIS
  5
442
 10
0.489976
 20
5.01851
 30
0.000000
  70
    32
  0
VERTEX
  8
AM_VIS
  5
443
 10
0.491687
 20
5.01831
 30
0.000000
  70
    32
  0
VERTEX
  8
AM_VIS
  5
444
 10
0.493398
 20
5.01811
 30
0.000000
  70
    32
  0
VERTEX
  8
AM_VIS
  5
445
 10
0.495108
 20
5.01792
 30
0.000000
  70
    32
  0
VERTEX
  8
AM_VIS
  5
446
 10
0.496818
 20
5.01773
 30
0.000000
  70
    32
  0
VERTEX
  8
AM_VIS
  5
447
 10
0.498527
 20
5.01756
 30
0.000000
  70
    32
  0
VERTEX
  8
AM_VIS
  5
448
 10
0.500235
 20
5.01740
 30
0.000000
  70
    32
  0
VERTEX
  8
AM_VIS
  5
449
 10
0.501943
 20
5.01724
 30
0.000000
  70
    32
  0
VERTEX
  8
AM_VIS
  5
44A
 10
0.503649
 20
5.01709
 30
0.000000
  70
    32
  0
VERTEX
  8
AM_VIS
  5
44B
 10
0.505355
 20
5.01695
 30
0.000000
  70
    32
  0
VERTEX
  8
AM_VIS
  5
44C
 10
0.507059
 20
5.01682
 30
0.000000
  70
    32
  0
VERTEX
  8
AM_VIS
  5
44D
 10
0.508762
 20
5.01670
 30
0.000000
  70
    32
  0
VERTEX
  8
AM_VIS
  5
44E
 10
0.510463
 20
5.01659
 30
0.000000
  70
    32
  0
VERTEX
  8
AM_VIS
  5
44F
 10
0.512164
 20
5.01648
 30
0.000000
  70
    32
  0
VERTEX
  8
AM_VIS
  5
450
 10
0.513862
 20
5.01639
 30
0.000000
  70
    32
  0
VERTEX
  8
AM_VIS
  5
451
 10
0.515559
 20
5.01630
 30
0.000000
  70
    32
  0
VERTEX
  8
AM_VIS
  5
452
 10
0.517255
 20
5.01622
 30
0.000000
  70
    32
  0
VERTEX
  8
AM_VIS
  5
453
 10
0.518948
 20
5.01615
 30
0.000000
  70
    32
  0
VERTEX
  8
AM_VIS
  5
454
 10
0.520640
 20
5.01609
 30
0.000000
  70
    32
  0
VERTEX
  8
AM_VIS
  5
455
 10
0.522330
 20
5.01604
 30
0.000000
  70
    32
  0
VERTEX
  8
AM_VIS
  5
456
 10
0.524018
 20
5.01599
 30
0.000000
  70
    32
  0
VERTEX
  8
AM_VIS
  5
457
 10
0.525704
 20
5.01596
 30
0.000000
  70
    32
  0
VERTEX
  8
AM_VIS
  5
458
 10
0.527387
 20
5.01593
 30
0.000000
  70
    32
  0
VERTEX
  8
AM_VIS
  5
459
 10
0.529068
 20
5.01592
 30
0.000000
  70
    32
  0
VERTEX
  8
AM_VIS
  5
45A
 10
0.530747
 20
5.01591
 30
0.000000
  70
    32
  0
VERTEX
  8
AM_VIS
  5
45B
 10
0.532424
 20
5.01591
 30
0.000000
  70
    32
  0
VERTEX
  8
AM_VIS
  5
45C
 10
0.534102
 20
5.01592
 30
0.000000
  70
    32
  0
VERTEX
  8
AM_VIS
  5
45D
 10
0.535784
 20
5.01593
 30
0.000000
  70
    32
  0
VERTEX
  8
AM_VIS
  5
45E
 10
0.537467
 20
5.01596
 30
0.000000
  70
    32
  0
VERTEX
  8
AM_VIS
  5
45F
 10
0.539153
 20
5.01599
 30
0.000000
  70
    32
  0
VERTEX
  8
AM_VIS
  5
460
 10
0.540840
 20
5.01604
 30
0.000000
  70
    32
  0
VERTEX
  8
AM_VIS
  5
461
 10
0.542530
 20
5.01609
 30
0.000000
  70
    32
  0
VERTEX
  8
AM_VIS
  5
462
 10
0.544222
 20
5.01615
 30
0.000000
  70
    32
  0
VERTEX
  8
AM_VIS
  5
463
 10
0.545916
 20
5.01622
 30
0.000000
  70
    32
  0
VERTEX
  8
AM_VIS
  5
464
 10
0.547611
 20
5.01630
 30
0.000000
  70
    32
  0
VERTEX
  8
AM_VIS
  5
465
 10
0.549308
 20
5.01639
 30
0.000000
  70
    32
  0
VERTEX
  8
AM_VIS
  5
466
 10
0.551007
 20
5.01648
 30
0.000000
  70
    32
  0
VERTEX
  8
AM_VIS
  5
467
 10
0.552707
 20
5.01659
 30
0.000000
  70
    32
  0
VERTEX
  8
AM_VIS
  5
468
 10
0.554409
 20
5.01670
 30
0.000000
  70
    32
  0
VERTEX
  8
AM_VIS
  5
469
 10
0.556112
 20
5.01682
 30
0.000000
  70
    32
  0
VERTEX
  8
AM_VIS
  5
46A
 10
0.557816
 20
5.01695
 30
0.000000
  70
    32
  0
VERTEX
  8
AM_VIS
  5
46B
 10
0.559521
 20
5.01709
 30
0.000000
  70
    32
  0
VERTEX
  8
AM_VIS
  5
46C
 10
0.561228
 20
5.01724
 30
0.000000
  70
    32
  0
VERTEX
  8
AM_VIS
  5
46D
 10
0.562935
 20
5.01740
 30
0.000000
  70
    32
  0
VERTEX
  8
AM_VIS
  5
46E
 10
0.564643
 20
5.01756
 30
0.000000
  70
    32
  0
VERTEX
  8
AM_VIS
  5
46F
 10
0.566353
 20
5.01773
 30
0.000000
  70
    32
  0
VERTEX
  8
AM_VIS
  5
470
 10
0.568062
 20
5.01792
 30
0.000000
  70
    32
  0
VERTEX
  8
AM_VIS
  5
471
 10
0.569773
 20
5.01811
 30
0.000000
  70
    32
  0
VERTEX
  8
AM_VIS
  5
472
 10
0.571484
 20
5.01831
 30
0.000000
  70
    32
  0
VERTEX
  8
AM_VIS
  5
473
 10
0.573195
 20
5.01851
 30
0.000000
  70
    32
  0
VERTEX
  8
AM_VIS
  5
474
 10
0.574906
 20
5.01873
 30
0.000000
  70
    32
  0
VERTEX
  8
AM_VIS
  5
475
 10
0.576618
 20
5.01896
 30
0.000000
  70
    32
  0
VERTEX
  8
AM_VIS
  5
476
 10
0.578330
 20
5.01919
 30
0.000000
  70
    32
  0
VERTEX
  8
AM_VIS
  5
477
 10
0.580043
 20
5.01943
 30
0.000000
  70
    32
  0
VERTEX
  8
AM_VIS
  5
478
 10
0.581755
 20
5.01968
 30
0.000000
  70
    32
  0
VERTEX
  8
AM_VIS
  5
479
 10
0.583467
 20
5.01994
 30
0.000000
  70
    32
  0
VERTEX
  8
AM_VIS
  5
47A
 10
0.585178
 20
5.02021
 30
0.000000
  70
    32
  0
VERTEX
  8
AM_VIS
  5
47B
 10
0.586890
 20
5.02048
 30
0.000000
  70
    32
  0
VERTEX
  8
AM_VIS
  5
47C
 10
0.588601
 20
5.02077
 30
0.000000
  70
    32
  0
VERTEX
  8
AM_VIS
  5
47D
 10
0.590312
 20
5.02106
 30
0.000000
  70
    32
  0
VERTEX
  8
AM_VIS
  5
47E
 10
0.592022
 20
5.02136
 30
0.000000
  70
    32
  0
VERTEX
  8
AM_VIS
  5
47F
 10
0.593731
 20
5.02167
 30
0.000000
  70
    32
  0
VERTEX
  8
AM_VIS
  5
480
 10
0.595440
 20
5.02199
 30
0.000000
  70
    32
  0
VERTEX
  8
AM_VIS
  5
481
 10
0.597148
 20
5.02232
 30
0.000000
  70
    32
  0
VERTEX
  8
AM_VIS
  5
482
 10
0.598855
 20
5.02265
 30
0.000000
  70
    32
  0
VERTEX
  8
AM_VIS
  5
483
 10
0.600561
 20
5.02300
 30
0.000000
  70
    32
  0
VERTEX
  8
AM_VIS
  5
484
 10
0.602266
 20
5.02335
 30
0.000000
  70
    32
  0
VERTEX
  8
AM_VIS
  5
485
 10
0.603970
 20
5.02371
 30
0.000000
  70
    32
  0
VERTEX
  8
AM_VIS
  5
486
 10
0.605672
 20
5.02408
 30
0.000000
  70
    32
  0
VERTEX
  8
AM_VIS
  5
487
 10
0.607373
 20
5.02446
 30
0.000000
  70
    32
  0
VERTEX
  8
AM_VIS
  5
488
 10
0.609073
 20
5.02484
 30
0.000000
  70
    32
  0
VERTEX
  8
AM_VIS
  5
489
 10
0.610771
 20
5.02524
 30
0.000000
  70
    32
  0
VERTEX
  8
AM_VIS
  5
48A
 10
0.612467
 20
5.02564
 30
0.000000
  70
    32
  0
VERTEX
  8
AM_VIS
  5
48B
 10
0.614162
 20
5.02605
 30
0.000000
  70
    32
  0
VERTEX
  8
AM_VIS
  5
48C
 10
0.615855
 20
5.02647
 30
0.000000
  70
    32
  0
VERTEX
  8
AM_VIS
  5
48D
 10
0.617546
 20
5.02690
 30
0.000000
  70
    32
  0
VERTEX
  8
AM_VIS
  5
48E
 10
0.619235
 20
5.02733
 30
0.000000
  70
    32
  0
VERTEX
  8
AM_VIS
  5
48F
 10
0.620922
 20
5.02777
 30
0.000000
  70
    32
  0
VERTEX
  8
AM_VIS
  5
490
 10
0.622607
 20
5.02823
 30
0.000000
  70
    32
  0
VERTEX
  8
AM_VIS
  5
491
 10
0.624289
 20
5.02869
 30
0.000000
  70
    32
  0
VERTEX
  8
AM_VIS
  5
492
 10
0.625969
 20
5.02916
 30
0.000000
  70
    32
  0
VERTEX
  8
AM_VIS
  5
493
 10
0.627647
 20
5.02963
 30
0.000000
  70
    32
  0
VERTEX
  8
AM_VIS
  5
494
 10
0.629322
 20
5.03012
 30
0.000000
  70
    32
  0
VERTEX
  8
AM_VIS
  5
495
 10
0.630995
 20
5.03061
 30
0.000000
  70
    32
  0
VERTEX
  8
AM_VIS
  5
496
 10
0.632665
 20
5.03111
 30
0.000000
  70
    32
  0
VERTEX
  8
AM_VIS
  5
497
 10
0.634332
 20
5.03162
 30
0.000000
  70
    32
  0
VERTEX
  8
AM_VIS
  5
498
 10
0.635996
 20
5.03214
 30
0.000000
  70
    32
  0
VERTEX
  8
AM_VIS
  5
499
 10
0.637657
 20
5.03267
 30
0.000000
  70
    32
  0
VERTEX
  8
AM_VIS
  5
49A
 10
0.639315
 20
5.03320
 30
0.000000
  70
    32
  0
VERTEX
  8
AM_VIS
  5
49B
 10
0.640970
 20
5.03375
 30
0.000000
  70
    32
  0
VERTEX
  8
AM_VIS
  5
49C
 10
0.642622
 20
5.03430
 30
0.000000
  70
    32
  0
VERTEX
  8
AM_VIS
  5
49D
 10
0.644271
 20
5.03486
 30
0.000000
  70
    32
  0
VERTEX
  8
AM_VIS
  5
49E
 10
0.645915
 20
5.03543
 30
0.000000
  70
    32
  0
VERTEX
  8
AM_VIS
  5
49F
 10
0.647557
 20
5.03600
 30
0.000000
  70
    32
  0
VERTEX
  8
AM_VIS
  5
4A0
 10
0.649195
 20
5.03659
 30
0.000000
  70
    32
  0
VERTEX
  8
AM_VIS
  5
4A1
 10
0.650829
 20
5.03718
 30
0.000000
  70
    32
  0
VERTEX
  8
AM_VIS
  5
4A2
 10
0.652459
 20
5.03778
 30
0.000000
  70
    32
  0
VERTEX
  8
AM_VIS
  5
4A3
 10
0.654086
 20
5.03839
 30
0.000000
  70
    32
  0
VERTEX
  8
AM_VIS
  5
4A4
 10
0.655708
 20
5.03900
 30
0.000000
  70
    32
  0
VERTEX
  8
AM_VIS
  5
4A5
 10
0.657327
 20
5.03963
 30
0.000000
  70
    32
  0
VERTEX
  8
AM_VIS
  5
4A6
 10
0.658941
 20
5.04026
 30
0.000000
  70
    32
  0
VERTEX
  8
AM_VIS
  5
4A7
 10
0.660551
 20
5.04090
 30
0.000000
  70
    32
  0
VERTEX
  8
AM_VIS
  5
4A8
 10
0.662157
 20
5.04155
 30
0.000000
  70
    32
  0
VERTEX
  8
AM_VIS
  5
4A9
 10
0.663759
 20
5.04221
 30
0.000000
  70
    32
  0
VERTEX
  8
AM_VIS
  5
4AA
 10
0.665356
 20
5.04287
 30
0.000000
  70
    32
  0
VERTEX
  8
AM_VIS
  5
4AB
 10
0.666949
 20
5.04354
 30
0.000000
  70
    32
  0
VERTEX
  8
AM_VIS
  5
4AC
 10
0.668537
 20
5.04422
 30
0.000000
  70
    32
  0
VERTEX
  8
AM_VIS
  5
4AD
 10
0.670121
 20
5.04491
 30
0.000000
  70
    32
  0
VERTEX
  8
AM_VIS
  5
4AE
 10
0.671700
 20
5.04560
 30
0.000000
  70
    32
  0
VERTEX
  8
AM_VIS
  5
4AF
 10
0.673274
 20
5.04631
 30
0.000000
  70
    32
  0
VERTEX
  8
AM_VIS
  5
4B0
 10
0.674844
 20
5.04702
 30
0.000000
  70
    32
  0
VERTEX
  8
AM_VIS
  5
4B1
 10
0.676409
 20
5.04773
 30
0.000000
  70
    32
  0
VERTEX
  8
AM_VIS
  5
4B2
 10
0.677970
 20
5.04846
 30
0.000000
  70
    32
  0
VERTEX
  8
AM_VIS
  5
4B3
 10
0.679525
 20
5.04919
 30
0.000000
  70
    32
  0
VERTEX
  8
AM_VIS
  5
4B4
 10
0.681075
 20
5.04992
 30
0.000000
  70
    32
  0
VERTEX
  8
AM_VIS
  5
4B5
 10
0.682621
 20
5.05067
 30
0.000000
  70
    32
  0
VERTEX
  8
AM_VIS
  5
4B6
 10
0.684161
 20
5.05142
 30
0.000000
  70
    32
  0
VERTEX
  8
AM_VIS
  5
4B7
 10
0.685697
 20
5.05218
 30
0.000000
  70
    32
  0
VERTEX
  8
AM_VIS
  5
4B8
 10
0.687227
 20
5.05294
 30
0.000000
  70
    32
  0
VERTEX
  8
AM_VIS
  5
4B9
 10
0.688752
 20
5.05371
 30
0.000000
  70
    32
  0
VERTEX
  8
AM_VIS
  5
4BA
 10
0.690271
 20
5.05449
 30
0.000000
  70
    32
  0
VERTEX
  8
AM_VIS
  5
4BB
 10
0.691786
 20
5.05527
 30
0.000000
  70
    32
  0
VERTEX
  8
AM_VIS
  5
4BC
 10
0.693295
 20
5.05607
 30
0.000000
  70
    32
  0
VERTEX
  8
AM_VIS
  5
4BD
 10
0.694799
 20
5.05686
 30
0.000000
  70
    32
  0
VERTEX
  8
AM_VIS
  5
4BE
 10
0.696297
 20
5.05767
 30
0.000000
  70
    32
  0
VERTEX
  8
AM_VIS
  5
4BF
 10
0.697789
 20
5.05847
 30
0.000000
  70
    32
  0
VERTEX
  8
AM_VIS
  5
4C0
 10
0.699276
 20
5.05929
 30
0.000000
  70
    32
  0
VERTEX
  8
AM_VIS
  5
4C1
 10
0.700758
 20
5.06011
 30
0.000000
  70
    32
  0
VERTEX
  8
AM_VIS
  5
4C2
 10
0.702233
 20
5.06094
 30
0.000000
  70
    32
  0
VERTEX
  8
AM_VIS
  5
4C3
 10
0.703703
 20
5.06177
 30
0.000000
  70
    32
  0
VERTEX
  8
AM_VIS
  5
4C4
 10
0.705167
 20
5.06261
 30
0.000000
  70
    32
  0
VERTEX
  8
AM_VIS
  5
4C5
 10
0.706625
 20
5.06346
 30
0.000000
  70
    32
  0
VERTEX
  8
AM_VIS
  5
4C6
 10
0.708077
 20
5.06431
 30
0.000000
  70
    32
  0
VERTEX
  8
AM_VIS
  5
4C7
 10
0.709524
 20
5.06516
 30
0.000000
  70
    32
  0
VERTEX
  8
AM_VIS
  5
4C8
 10
0.710964
 20
5.06602
 30
0.000000
  70
    32
  0
VERTEX
  8
AM_VIS
  5
4C9
 10
0.712398
 20
5.06689
 30
0.000000
  70
    32
  0
VERTEX
  8
AM_VIS
  5
4CA
 10
0.713826
 20
5.06776
 30
0.000000
  70
    32
  0
VERTEX
  8
AM_VIS
  5
4CB
 10
0.715248
 20
5.06864
 30
0.000000
  70
    32
  0
VERTEX
  8
AM_VIS
  5
4CC
 10
0.716663
 20
5.06952
 30
0.000000
  70
    32
  0
VERTEX
  8
AM_VIS
  5
4CD
 10
0.718072
 20
5.07041
 30
0.000000
  70
    32
  0
VERTEX
  8
AM_VIS
  5
4CE
 10
0.719475
 20
5.07130
 30
0.000000
  70
    32
  0
VERTEX
  8
AM_VIS
  5
4CF
 10
0.720872
 20
5.07220
 30
0.000000
  70
    32
  0
VERTEX
  8
AM_VIS
  5
4D0
 10
0.722261
 20
5.07310
 30
0.000000
  70
    32
  0
VERTEX
  8
AM_VIS
  5
4D1
 10
0.723645
 20
5.07401
 30
0.000000
  70
    32
  0
VERTEX
  8
AM_VIS
  5
4D2
 10
0.725021
 20
5.07492
 30
0.000000
  70
    32
  0
VERTEX
  8
AM_VIS
  5
4D3
 10
0.726391
 20
5.07584
 30
0.000000
  70
    32
  0
VERTEX
  8
AM_VIS
  5
4D4
 10
0.727755
 20
5.07676
 30
0.000000
  70
    32
  0
VERTEX
  8
AM_VIS
  5
4D5
 10
0.729111
 20
5.07768
 30
0.000000
  70
    32
  0
VERTEX
  8
AM_VIS
  5
4D6
 10
0.730461
 20
5.07861
 30
0.000000
  70
    32
  0
VERTEX
  8
AM_VIS
  5
4D7
 10
0.731804
 20
5.07955
 30
0.000000
  70
    32
  0
VERTEX
  8
AM_VIS
  5
4D8
 10
0.733140
 20
5.08049
 30
0.000000
  70
    32
  0
VERTEX
  8
AM_VIS
  5
4D9
 10
0.734469
 20
5.08143
 30
0.000000
  70
    32
  0
VERTEX
  8
AM_VIS
  5
4DA
 10
0.735791
 20
5.08238
 30
0.000000
  70
    32
  0
VERTEX
  8
AM_VIS
  5
4DB
 10
0.737105
 20
5.08333
 30
0.000000
  70
    32
  0
VERTEX
  8
AM_VIS
  5
4DC
 10
0.738413
 20
5.08428
 30
0.000000
  70
    32
  0
VERTEX
  8
AM_VIS
  5
4DD
 10
0.739714
 20
5.08524
 30
0.000000
  70
    32
  0
VERTEX
  8
AM_VIS
  5
4DE
 10
0.741007
 20
5.08620
 30
0.000000
  70
    32
  0
VERTEX
  8
AM_VIS
  5
4DF
 10
0.742292
 20
5.08717
 30
0.000000
  70
    32
  0
VERTEX
  8
AM_VIS
  5
4E0
 10
0.743571
 20
5.08814
 30
0.000000
  70
    32
  0
VERTEX
  8
AM_VIS
  5
4E1
 10
0.744842
 20
5.08911
 30
0.000000
  70
    32
  0
VERTEX
  8
AM_VIS
  5
4E2
 10
0.746105
 20
5.09009
 30
0.000000
  70
    32
  0
VERTEX
  8
AM_VIS
  5
4E3
 10
0.747361
 20
5.09107
 30
0.000000
  70
    32
  0
VERTEX
  8
AM_VIS
  5
4E4
 10
0.748610
 20
5.09206
 30
0.000000
  70
    32
  0
VERTEX
  8
AM_VIS
  5
4E5
 10
0.749850
 20
5.09304
 30
0.000000
  70
    32
  0
VERTEX
  8
AM_VIS
  5
4E6
 10
0.751083
 20
5.09403
 30
0.000000
  70
    32
  0
VERTEX
  8
AM_VIS
  5
4E7
 10
0.752308
 20
5.09503
 30
0.000000
  70
    32
  0
VERTEX
  8
AM_VIS
  5
4E8
 10
0.753526
 20
5.09602
 30
0.000000
  70
    32
  0
VERTEX
  8
AM_VIS
  5
4E9
 10
0.754735
 20
5.09702
 30
0.000000
  70
    32
  0
VERTEX
  8
AM_VIS
  5
4EA
 10
0.755937
 20
5.09803
 30
0.000000
  70
    32
  0
VERTEX
  8
AM_VIS
  5
4EB
 10
0.757130
 20
5.09903
 30
0.000000
  70
    32
  0
VERTEX
  8
AM_VIS
  5
4EC
 10
0.758316
 20
5.10004
 30
0.000000
  70
    32
  0
VERTEX
  8
AM_VIS
  5
4ED
 10
0.759493
 20
5.10105
 30
0.000000
  70
    32
  0
VERTEX
  8
AM_VIS
  5
4EE
 10
0.760662
 20
5.10206
 30
0.000000
  70
    32
  0
VERTEX
  8
AM_VIS
  5
4EF
 10
0.761823
 20
5.10308
 30
0.000000
  70
    32
  0
VERTEX
  8
AM_VIS
  5
4F0
 10
0.762976
 20
5.10410
 30
0.000000
  70
    32
  0
VERTEX
  8
AM_VIS
  5
4F1
 10
0.764120
 20
5.10512
 30
0.000000
  70
    32
  0
VERTEX
  8
AM_VIS
  5
4F2
 10
0.765257
 20
5.10614
 30
0.000000
  70
    32
  0
VERTEX
  8
AM_VIS
  5
4F3
 10
0.766389
 20
5.10717
 30
0.000000
  70
    32
  0
VERTEX
  8
AM_VIS
  5
4F4
 10
0.767516
 20
5.10821
 30
0.000000
  70
    32
  0
VERTEX
  8
AM_VIS
  5
4F5
 10
0.768640
 20
5.10925
 30
0.000000
  70
    32
  0
VERTEX
  8
AM_VIS
  5
4F6
 10
0.769758
 20
5.11030
 30
0.000000
  70
    32
  0
VERTEX
  8
AM_VIS
  5
4F7
 10
0.770872
 20
5.11135
 30
0.000000
  70
    32
  0
VERTEX
  8
AM_VIS
  5
4F8
 10
0.771982
 20
5.11241
 30
0.000000
  70
    32
  0
VERTEX
  8
AM_VIS
  5
4F9
 10
0.773087
 20
5.11347
 30
0.000000
  70
    32
  0
VERTEX
  8
AM_VIS
  5
4FA
 10
0.774187
 20
5.11454
 30
0.000000
  70
    32
  0
VERTEX
  8
AM_VIS
  5
4FB
 10
0.775283
 20
5.11562
 30
0.000000
  70
    32
  0
VERTEX
  8
AM_VIS
  5
4FC
 10
0.776373
 20
5.11670
 30
0.000000
  70
    32
  0
VERTEX
  8
AM_VIS
  5
4FD
 10
0.777459
 20
5.11778
 30
0.000000
  70
    32
  0
VERTEX
  8
AM_VIS
  5
4FE
 10
0.778540
 20
5.11887
 30
0.000000
  70
    32
  0
VERTEX
  8
AM_VIS
  5
4FF
 10
0.779615
 20
5.11997
 30
0.000000
  70
    32
  0
VERTEX
  8
AM_VIS
  5
500
 10
0.780686
 20
5.12107
 30
0.000000
  70
    32
  0
VERTEX
  8
AM_VIS
  5
501
 10
0.781752
 20
5.12217
 30
0.000000
  70
    32
  0
VERTEX
  8
AM_VIS
  5
502
 10
0.782812
 20
5.12328
 30
0.000000
  70
    32
  0
VERTEX
  8
AM_VIS
  5
503
 10
0.783867
 20
5.12440
 30
0.000000
  70
    32
  0
VERTEX
  8
AM_VIS
  5
504
 10
0.784917
 20
5.12552
 30
0.000000
  70
    32
  0
VERTEX
  8
AM_VIS
  5
505
 10
0.785961
 20
5.12665
 30
0.000000
  70
    32
  0
VERTEX
  8
AM_VIS
  5
506
 10
0.787000
 20
5.12778
 30
0.000000
  70
    32
  0
VERTEX
  8
AM_VIS
  5
507
 10
0.788033
 20
5.12891
 30
0.000000
  70
    32
  0
VERTEX
  8
AM_VIS
  5
508
 10
0.789061
 20
5.13005
 30
0.000000
  70
    32
  0
VERTEX
  8
AM_VIS
  5
509
 10
0.790083
 20
5.13120
 30
0.000000
  70
    32
  0
VERTEX
  8
AM_VIS
  5
50A
 10
0.791100
 20
5.13234
 30
0.000000
  70
    32
  0
VERTEX
  8
AM_VIS
  5
50B
 10
0.792110
 20
5.13350
 30
0.000000
  70
    32
  0
VERTEX
  8
AM_VIS
  5
50C
 10
0.793115
 20
5.13465
 30
0.000000
  70
    32
  0
VERTEX
  8
AM_VIS
  5
50D
 10
0.794114
 20
5.13582
 30
0.000000
  70
    32
  0
VERTEX
  8
AM_VIS
  5
50E
 10
0.795107
 20
5.13698
 30
0.000000
  70
    32
  0
VERTEX
  8
AM_VIS
  5
50F
 10
0.796094
 20
5.13815
 30
0.000000
  70
    32
  0
VERTEX
  8
AM_VIS
  5
510
 10
0.797076
 20
5.13933
 30
0.000000
  70
    32
  0
VERTEX
  8
AM_VIS
  5
511
 10
0.798050
 20
5.14050
 30
0.000000
  70
    32
  0
VERTEX
  8
AM_VIS
  5
512
 10
0.799019
 20
5.14169
 30
0.000000
  70
    32
  0
VERTEX
  8
AM_VIS
  5
513
 10
0.799982
 20
5.14287
 30
0.000000
  70
    32
  0
VERTEX
  8
AM_VIS
  5
514
 10
0.800938
 20
5.14406
 30
0.000000
  70
    32
  0
VERTEX
  8
AM_VIS
  5
515
 10
0.801888
 20
5.14525
 30
0.000000
  70
    32
  0
VERTEX
  8
AM_VIS
  5
516
 10
0.802831
 20
5.14645
 30
0.000000
  70
    32
  0
VERTEX
  8
AM_VIS
  5
517
 10
0.803768
 20
5.14765
 30
0.000000
  70
    32
  0
VERTEX
  8
AM_VIS
  5
518
 10
0.804698
 20
5.14886
 30
0.000000
  70
    32
  0
VERTEX
  8
AM_VIS
  5
519
 10
0.805622
 20
5.15006
 30
0.000000
  70
    32
  0
VERTEX
  8
AM_VIS
  5
51A
 10
0.806539
 20
5.15128
 30
0.000000
  70
    32
  0
VERTEX
  8
AM_VIS
  5
51B
 10
0.807449
 20
5.15249
 30
0.000000
  70
    32
  0
VERTEX
  8
AM_VIS
  5
51C
 10
0.808353
 20
5.15371
 30
0.000000
  70
    32
  0
VERTEX
  8
AM_VIS
  5
51D
 10
0.809250
 20
5.15493
 30
0.000000
  70
    32
  0
VERTEX
  8
AM_VIS
  5
51E
 10
0.810139
 20
5.15615
 30
0.000000
  70
    32
  0
VERTEX
  8
AM_VIS
  5
51F
 10
0.811022
 20
5.15738
 30
0.000000
  70
    32
  0
VERTEX
  8
AM_VIS
  5
520
 10
0.811898
 20
5.15861
 30
0.000000
  70
    32
  0
VERTEX
  8
AM_VIS
  5
521
 10
0.812766
 20
5.15984
 30
0.000000
  70
    32
  0
VERTEX
  8
AM_VIS
  5
522
 10
0.813628
 20
5.16108
 30
0.000000
  70
    32
  0
VERTEX
  8
AM_VIS
  5
523
 10
0.814482
 20
5.16232
 30
0.000000
  70
    32
  0
VERTEX
  8
AM_VIS
  5
524
 10
0.815329
 20
5.16356
 30
0.000000
  70
    32
  0
VERTEX
  8
AM_VIS
  5
525
 10
0.816169
 20
5.16481
 30
0.000000
  70
    32
  0
VERTEX
  8
AM_VIS
  5
526
 10
0.817001
 20
5.16605
 30
0.000000
  70
    32
  0
VERTEX
  8
AM_VIS
  5
527
 10
0.817826
 20
5.16730
 30
0.000000
  70
    32
  0
VERTEX
  8
AM_VIS
  5
528
 10
0.818643
 20
5.16856
 30
0.000000
  70
    32
  0
VERTEX
  8
AM_VIS
  5
529
 10
0.819453
 20
5.16981
 30
0.000000
  70
    32
  0
VERTEX
  8
AM_VIS
  5
52A
 10
0.820255
 20
5.17107
 30
0.000000
  70
    32
  0
VERTEX
  8
AM_VIS
  5
52B
 10
0.821049
 20
5.17233
 30
0.000000
  70
    32
  0
VERTEX
  8
AM_VIS
  5
52C
 10
0.821835
 20
5.17359
 30
0.000000
  70
    32
  0
VERTEX
  8
AM_VIS
  5
52D
 10
0.822614
 20
5.17486
 30
0.000000
  70
    32
  0
VERTEX
  8
AM_VIS
  5
52E
 10
0.823385
 20
5.17612
 30
0.000000
  70
    32
  0
VERTEX
  8
AM_VIS
  5
52F
 10
0.824147
 20
5.17739
 30
0.000000
  70
    32
  0
VERTEX
  8
AM_VIS
  5
530
 10
0.824902
 20
5.17866
 30
0.000000
  70
    32
  0
VERTEX
  8
AM_VIS
  5
531
 10
0.825649
 20
5.17993
 30
0.000000
  70
    32
  0
VERTEX
  8
AM_VIS
  5
532
 10
0.826387
 20
5.18121
 30
0.000000
  70
    32
  0
VERTEX
  8
AM_VIS
  5
533
 10
0.827118
 20
5.18248
 30
0.000000
  70
    32
  0
VERTEX
  8
AM_VIS
  5
534
 10
0.827840
 20
5.18376
 30
0.000000
  70
    32
  0
VERTEX
  8
AM_VIS
  5
535
 10
0.828554
 20
5.18504
 30
0.000000
  70
    32
  0
VERTEX
  8
AM_VIS
  5
536
 10
0.829259
 20
5.18632
 30
0.000000
  70
    32
  0
VERTEX
  8
AM_VIS
  5
537
 10
0.829956
 20
5.18761
 30
0.000000
  70
    32
  0
VERTEX
  8
AM_VIS
  5
538
 10
0.830644
 20
5.18889
 30
0.000000
  70
    32
  0
VERTEX
  8
AM_VIS
  5
539
 10
0.831324
 20
5.19018
 30
0.000000
  70
    32
  0
VERTEX
  8
AM_VIS
  5
53A
 10
0.831995
 20
5.19146
 30
0.000000
  70
    32
  0
VERTEX
  8
AM_VIS
  5
53B
 10
0.832658
 20
5.19275
 30
0.000000
  70
    32
  0
VERTEX
  8
AM_VIS
  5
53C
 10
0.833312
 20
5.19404
 30
0.000000
  70
    32
  0
VERTEX
  8
AM_VIS
  5
53D
 10
0.833957
 20
5.19533
 30
0.000000
  70
    32
  0
VERTEX
  8
AM_VIS
  5
53E
 10
0.834593
 20
5.19662
 30
0.000000
  70
    32
  0
VERTEX
  8
AM_VIS
  5
53F
 10
0.835220
 20
5.19792
 30
0.000000
  70
    32
  0
VERTEX
  8
AM_VIS
  5
540
 10
0.835838
 20
5.19921
 30
0.000000
  70
    32
  0
VERTEX
  8
AM_VIS
  5
541
 10
0.836448
 20
5.20051
 30
0.000000
  70
    32
  0
VERTEX
  8
AM_VIS
  5
542
 10
0.837049
 20
5.20180
 30
0.000000
  70
    32
  0
VERTEX
  8
AM_VIS
  5
543
 10
0.837641
 20
5.20310
 30
0.000000
  70
    32
  0
VERTEX
  8
AM_VIS
  5
544
 10
0.838224
 20
5.20439
 30
0.000000
  70
    32
  0
VERTEX
  8
AM_VIS
  5
545
 10
0.838798
 20
5.20569
 30
0.000000
  70
    32
  0
VERTEX
  8
AM_VIS
  5
546
 10
0.839364
 20
5.20699
 30
0.000000
  70
    32
  0
VERTEX
  8
AM_VIS
  5
547
 10
0.839921
 20
5.20829
 30
0.000000
  70
    32
  0
VERTEX
  8
AM_VIS
  5
548
 10
0.840469
 20
5.20959
 30
0.000000
  70
    32
  0
VERTEX
  8
AM_VIS
  5
549
 10
0.841008
 20
5.21088
 30
0.000000
  70
    32
  0
VERTEX
  8
AM_VIS
  5
54A
 10
0.841539
 20
5.21218
 30
0.000000
  70
    32
  0
VERTEX
  8
AM_VIS
  5
54B
 10
0.842060
 20
5.21348
 30
0.000000
  70
    32
  0
VERTEX
  8
AM_VIS
  5
54C
 10
0.842573
 20
5.21478
 30
0.000000
  70
    32
  0
VERTEX
  8
AM_VIS
  5
54D
 10
0.843077
 20
5.21608
 30
0.000000
  70
    32
  0
VERTEX
  8
AM_VIS
  5
54E
 10
0.843573
 20
5.21738
 30
0.000000
  70
    32
  0
VERTEX
  8
AM_VIS
  5
54F
 10
0.844059
 20
5.21868
 30
0.000000
  70
    32
  0
VERTEX
  8
AM_VIS
  5
550
 10
0.844537
 20
5.21998
 30
0.000000
  70
    32
  0
VERTEX
  8
AM_VIS
  5
551
 10
0.845007
 20
5.22128
 30
0.000000
  70
    32
  0
VERTEX
  8
AM_VIS
  5
552
 10
0.845467
 20
5.22258
 30
0.000000
  70
    32
  0
VERTEX
  8
AM_VIS
  5
553
 10
0.845919
 20
5.22388
 30
0.000000
  70
    32
  0
VERTEX
  8
AM_VIS
  5
554
 10
0.846362
 20
5.22517
 30
0.000000
  70
    32
  0
VERTEX
  8
AM_VIS
  5
555
 10
0.846796
 20
5.22647
 30
0.000000
  70
    32
  0
VERTEX
  8
AM_VIS
  5
556
 10
0.847221
 20
5.22777
 30
0.000000
  70
    32
  0
VERTEX
  8
AM_VIS
  5
557
 10
0.847638
 20
5.22907
 30
0.000000
  70
    32
  0
VERTEX
  8
AM_VIS
  5
558
 10
0.848046
 20
5.23036
 30
0.000000
  70
    32
  0
VERTEX
  8
AM_VIS
  5
559
 10
0.848446
 20
5.23166
 30
0.000000
  70
    32
  0
VERTEX
  8
AM_VIS
  5
55A
 10
0.848836
 20
5.23295
 30
0.000000
  70
    32
  0
VERTEX
  8
AM_VIS
  5
55B
 10
0.849218
 20
5.23424
 30
0.000000
  70
    32
  0
VERTEX
  8
AM_VIS
  5
55C
 10
0.849591
 20
5.23553
 30
0.000000
  70
    32
  0
VERTEX
  8
AM_VIS
  5
55D
 10
0.849956
 20
5.23683
 30
0.000000
  70
    32
  0
VERTEX
  8
AM_VIS
  5
55E
 10
0.850312
 20
5.23812
 30
0.000000
  70
    32
  0
VERTEX
  8
AM_VIS
  5
55F
 10
0.850659
 20
5.23940
 30
0.000000
  70
    32
  0
VERTEX
  8
AM_VIS
  5
560
 10
0.850998
 20
5.24069
 30
0.000000
  70
    32
  0
VERTEX
  8
AM_VIS
  5
561
 10
0.851328
 20
5.24198
 30
0.000000
  70
    32
  0
VERTEX
  8
AM_VIS
  5
562
 10
0.851649
 20
5.24326
 30
0.000000
  70
    32
  0
VERTEX
  8
AM_VIS
  5
563
 10
0.851961
 20
5.24455
 30
0.000000
  70
    32
  0
VERTEX
  8
AM_VIS
  5
564
 10
0.852265
 20
5.24583
 30
0.000000
  70
    32
  0
VERTEX
  8
AM_VIS
  5
565
 10
0.852560
 20
5.24711
 30
0.000000
  70
    32
  0
VERTEX
  8
AM_VIS
  5
566
 10
0.852847
 20
5.24839
 30
0.000000
  70
    32
  0
VERTEX
  8
AM_VIS
  5
567
 10
0.853125
 20
5.24966
 30
0.000000
  70
    32
  0
VERTEX
  8
AM_VIS
  5
568
 10
0.853394
 20
5.25094
 30
0.000000
  70
    32
  0
VERTEX
  8
AM_VIS
  5
569
 10
0.853655
 20
5.25221
 30
0.000000
  70
    32
  0
VERTEX
  8
AM_VIS
  5
56A
 10
0.853907
 20
5.25348
 30
0.000000
  70
    32
  0
VERTEX
  8
AM_VIS
  5
56B
 10
0.854150
 20
5.25475
 30
0.000000
  70
    32
  0
VERTEX
  8
AM_VIS
  5
56C
 10
0.854385
 20
5.25602
 30
0.000000
  70
    32
  0
VERTEX
  8
AM_VIS
  5
56D
 10
0.854611
 20
5.25729
 30
0.000000
  70
    32
  0
VERTEX
  8
AM_VIS
  5
56E
 10
0.854829
 20
5.25855
 30
0.000000
  70
    32
  0
VERTEX
  8
AM_VIS
  5
56F
 10
0.855038
 20
5.25981
 30
0.000000
  70
    32
  0
VERTEX
  8
AM_VIS
  5
570
 10
0.855238
 20
5.26107
 30
0.000000
  70
    32
  0
VERTEX
  8
AM_VIS
  5
571
 10
0.855430
 20
5.26233
 30
0.000000
  70
    32
  0
VERTEX
  8
AM_VIS
  5
572
 10
0.855613
 20
5.26358
 30
0.000000
  70
    32
  0
VERTEX
  8
AM_VIS
  5
573
 10
0.855788
 20
5.26483
 30
0.000000
  70
    32
  0
VERTEX
  8
AM_VIS
  5
574
 10
0.855954
 20
5.26608
 30
0.000000
  70
    32
  0
VERTEX
  8
AM_VIS
  5
575
 10
0.856111
 20
5.26733
 30
0.000000
  70
    32
  0
VERTEX
  8
AM_VIS
  5
576
 10
0.856260
 20
5.26857
 30
0.000000
  70
    32
  0
VERTEX
  8
AM_VIS
  5
577
 10
0.856400
 20
5.26981
 30
0.000000
  70
    32
  0
VERTEX
  8
AM_VIS
  5
578
 10
0.856532
 20
5.27105
 30
0.000000
  70
    32
  0
VERTEX
  8
AM_VIS
  5
579
 10
0.856655
 20
5.27228
 30
0.000000
  70
    32
  0
VERTEX
  8
AM_VIS
  5
57A
 10
0.856770
 20
5.27351
 30
0.000000
  70
    32
  0
VERTEX
  8
AM_VIS
  5
57B
 10
0.856876
 20
5.27474
 30
0.000000
  70
    32
  0
VERTEX
  8
AM_VIS
  5
57C
 10
0.856973
 20
5.27597
 30
0.000000
  70
    32
  0
VERTEX
  8
AM_VIS
  5
57D
 10
0.857062
 20
5.27719
 30
0.000000
  70
    32
  0
VERTEX
  8
AM_VIS
  5
57E
 10
0.857142
 20
5.27841
 30
0.000000
  70
    32
  0
VERTEX
  8
AM_VIS
  5
57F
 10
0.857214
 20
5.27963
 30
0.000000
  70
    32
  0
VERTEX
  8
AM_VIS
  5
580
 10
0.857278
 20
5.28084
 30
0.000000
  70
    32
  0
VERTEX
  8
AM_VIS
  5
581
 10
0.857332
 20
5.28205
 30
0.000000
  70
    32
  0
VERTEX
  8
AM_VIS
  5
582
 10
0.857379
 20
5.28325
 30
0.000000
  70
    32
  0
VERTEX
  8
AM_VIS
  5
583
 10
0.857417
 20
5.28446
 30
0.000000
  70
    32
  0
VERTEX
  8
AM_VIS
  5
584
 10
0.857446
 20
5.28565
 30
0.000000
  70
    32
  0
VERTEX
  8
AM_VIS
  5
585
 10
0.857467
 20
5.28685
 30
0.000000
  70
    32
  0
VERTEX
  8
AM_VIS
  5
586
 10
0.857479
 20
5.28804
 30
0.000000
  70
    32
  0
VERTEX
  8
AM_VIS
  5
587
 10
0.857483
 20
5.28923
 30
0.000000
  70
    32
  0
VERTEX
  8
AM_VIS
  5
588
 10
0.857478
 20
5.29041
 30
0.000000
  70
    32
  0
VERTEX
  8
AM_VIS
  5
589
 10
0.857465
 20
5.29160
 30
0.000000
  70
    32
  0
VERTEX
  8
AM_VIS
  5
58A
 10
0.857443
 20
5.29278
 30
0.000000
  70
    32
  0
VERTEX
  8
AM_VIS
  5
58B
 10
0.857413
 20
5.29397
 30
0.000000
  70
    32
  0
VERTEX
  8
AM_VIS
  5
58C
 10
0.857374
 20
5.29516
 30
0.000000
  70
    32
  0
VERTEX
  8
AM_VIS
  5
58D
 10
0.857327
 20
5.29634
 30
0.000000
  70
    32
  0
VERTEX
  8
AM_VIS
  5
58E
 10
0.857271
 20
5.29753
 30
0.000000
  70
    32
  0
VERTEX
  8
AM_VIS
  5
58F
 10
0.857207
 20
5.29872
 30
0.000000
  70
    32
  0
VERTEX
  8
AM_VIS
  5
590
 10
0.857134
 20
5.29990
 30
0.000000
  70
    32
  0
VERTEX
  8
AM_VIS
  5
591
 10
0.857053
 20
5.30109
 30
0.000000
  70
    32
  0
VERTEX
  8
AM_VIS
  5
592
 10
0.856964
 20
5.30227
 30
0.000000
  70
    32
  0
VERTEX
  8
AM_VIS
  5
593
 10
0.856865
 20
5.30346
 30
0.000000
  70
    32
  0
VERTEX
  8
AM_VIS
  5
594
 10
0.856759
 20
5.30464
 30
0.000000
  70
    32
  0
VERTEX
  8
AM_VIS
  5
595
 10
0.856643
 20
5.30583
 30
0.000000
  70
    32
  0
VERTEX
  8
AM_VIS
  5
596
 10
0.856519
 20
5.30701
 30
0.000000
  70
    32
  0
VERTEX
  8
AM_VIS
  5
597
 10
0.856387
 20
5.30820
 30
0.000000
  70
    32
  0
VERTEX
  8
AM_VIS
  5
598
 10
0.856246
 20
5.30938
 30
0.000000
  70
    32
  0
VERTEX
  8
AM_VIS
  5
599
 10
0.856097
 20
5.31056
 30
0.000000
  70
    32
  0
VERTEX
  8
AM_VIS
  5
59A
 10
0.855939
 20
5.31175
 30
0.000000
  70
    32
  0
VERTEX
  8
AM_VIS
  5
59B
 10
0.855773
 20
5.31293
 30
0.000000
  70
    32
  0
VERTEX
  8
AM_VIS
  5
59C
 10
0.855598
 20
5.31411
 30
0.000000
  70
    32
  0
VERTEX
  8
AM_VIS
  5
59D
 10
0.855414
 20
5.31529
 30
0.000000
  70
    32
  0
VERTEX
  8
AM_VIS
  5
59E
 10
0.855222
 20
5.31646
 30
0.000000
  70
    32
  0
VERTEX
  8
AM_VIS
  5
59F
 10
0.855022
 20
5.31764
 30
0.000000
  70
    32
  0
VERTEX
  8
AM_VIS
  5
5A0
 10
0.854813
 20
5.31882
 30
0.000000
  70
    32
  0
VERTEX
  8
AM_VIS
  5
5A1
 10
0.854595
 20
5.31999
 30
0.000000
  70
    32
  0
VERTEX
  8
AM_VIS
  5
5A2
 10
0.854369
 20
5.32117
 30
0.000000
  70
    32
  0
VERTEX
  8
AM_VIS
  5
5A3
 10
0.854134
 20
5.32234
 30
0.000000
  70
    32
  0
VERTEX
  8
AM_VIS
  5
5A4
 10
0.853891
 20
5.32351
 30
0.000000
  70
    32
  0
VERTEX
  8
AM_VIS
  5
5A5
 10
0.853639
 20
5.32468
 30
0.000000
  70
    32
  0
VERTEX
  8
AM_VIS
  5
5A6
 10
0.853379
 20
5.32585
 30
0.000000
  70
    32
  0
VERTEX
  8
AM_VIS
  5
5A7
 10
0.853110
 20
5.32702
 30
0.000000
  70
    32
  0
VERTEX
  8
AM_VIS
  5
5A8
 10
0.852833
 20
5.32819
 30
0.000000
  70
    32
  0
VERTEX
  8
AM_VIS
  5
5A9
 10
0.852547
 20
5.32935
 30
0.000000
  70
    32
  0
VERTEX
  8
AM_VIS
  5
5AA
 10
0.852252
 20
5.33051
 30
0.000000
  70
    32
  0
VERTEX
  8
AM_VIS
  5
5AB
 10
0.851949
 20
5.33168
 30
0.000000
  70
    32
  0
VERTEX
  8
AM_VIS
  5
5AC
 10
0.851637
 20
5.33283
 30
0.000000
  70
    32
  0
VERTEX
  8
AM_VIS
  5
5AD
 10
0.851317
 20
5.33399
 30
0.000000
  70
    32
  0
VERTEX
  8
AM_VIS
  5
5AE
 10
0.850988
 20
5.33515
 30
0.000000
  70
    32
  0
VERTEX
  8
AM_VIS
  5
5AF
 10
0.850651
 20
5.33630
 30
0.000000
  70
    32
  0
VERTEX
  8
AM_VIS
  5
5B0
 10
0.850305
 20
5.33745
 30
0.000000
  70
    32
  0
VERTEX
  8
AM_VIS
  5
5B1
 10
0.849951
 20
5.33860
 30
0.000000
  70
    32
  0
VERTEX
  8
AM_VIS
  5
5B2
 10
0.849588
 20
5.33975
 30
0.000000
  70
    32
  0
VERTEX
  8
AM_VIS
  5
5B3
 10
0.849216
 20
5.34090
 30
0.000000
  70
    32
  0
VERTEX
  8
AM_VIS
  5
5B4
 10
0.848836
 20
5.34204
 30
0.000000
  70
    32
  0
VERTEX
  8
AM_VIS
  5
5B5
 10
0.848447
 20
5.34318
 30
0.000000
  70
    32
  0
VERTEX
  8
AM_VIS
  5
5B6
 10
0.848050
 20
5.34432
 30
0.000000
  70
    32
  0
VERTEX
  8
AM_VIS
  5
5B7
 10
0.847644
 20
5.34546
 30
0.000000
  70
    32
  0
VERTEX
  8
AM_VIS
  5
5B8
 10
0.847229
 20
5.34659
 30
0.000000
  70
    32
  0
VERTEX
  8
AM_VIS
  5
5B9
 10
0.846806
 20
5.34773
 30
0.000000
  70
    32
  0
VERTEX
  8
AM_VIS
  5
5BA
 10
0.846374
 20
5.34885
 30
0.000000
  70
    32
  0
SEQEND
  8
AM_VIS
  5
5BB
  0
POLYLINE
  8
AM_HID
  5
5BC
  66
     1
 10
0.000000
 20
0.000000
 30
0.000000
  70
     8
  0
VERTEX
  8
AM_HID
  5
5BD
 10
0.846374
 20
5.34885
 30
0.000000
  70
    32
  0
VERTEX
  8
AM_HID
  5
5BE
 10
0.846022
 20
5.34973
 30
0.000000
  70
    32
  0
VERTEX
  8
AM_HID
  5
5BF
 10
0.845665
 20
5.35061
 30
0.000000
  70
    32
  0
VERTEX
  8
AM_HID
  5
5C0
 10
0.845303
 20
5.35148
 30
0.000000
  70
    32
  0
VERTEX
  8
AM_HID
  5
5C1
 10
0.844936
 20
5.35235
 30
0.000000
  70
    32
  0
VERTEX
  8
AM_HID
  5
5C2
 10
0.844564
 20
5.35322
 30
0.000000
  70
    32
  0
VERTEX
  8
AM_HID
  5
5C3
 10
0.844187
 20
5.35409
 30
0.000000
  70
    32
  0
VERTEX
  8
AM_HID
  5
5C4
 10
0.843805
 20
5.35496
 30
0.000000
  70
    32
  0
VERTEX
  8
AM_HID
  5
5C5
 10
0.843418
 20
5.35582
 30
0.000000
  70
    32
  0
VERTEX
  8
AM_HID
  5
5C6
 10
0.843026
 20
5.35669
 30
0.000000
  70
    32
  0
VERTEX
  8
AM_HID
  5
5C7
 10
0.842629
 20
5.35755
 30
0.000000
  70
    32
  0
VERTEX
  8
AM_HID
  5
5C8
 10
0.842227
 20
5.35841
 30
0.000000
  70
    32
  0
VERTEX
  8
AM_HID
  5
5C9
 10
0.841819
 20
5.35927
 30
0.000000
  70
    32
  0
VERTEX
  8
AM_HID
  5
5CA
 10
0.841407
 20
5.36012
 30
0.000000
  70
    32
  0
VERTEX
  8
AM_HID
  5
5CB
 10
0.840989
 20
5.36098
 30
0.000000
  70
    32
  0
VERTEX
  8
AM_HID
  5
5CC
 10
0.840566
 20
5.36183
 30
0.000000
  70
    32
  0
VERTEX
  8
AM_HID
  5
5CD
 10
0.840138
 20
5.36268
 30
0.000000
  70
    32
  0
VERTEX
  8
AM_HID
  5
5CE
 10
0.839705
 20
5.36353
 30
0.000000
  70
    32
  0
VERTEX
  8
AM_HID
  5
5CF
 10
0.839267
 20
5.36438
 30
0.000000
  70
    32
  0
VERTEX
  8
AM_HID
  5
5D0
 10
0.838823
 20
5.36522
 30
0.000000
  70
    32
  0
VERTEX
  8
AM_HID
  5
5D1
 10
0.838374
 20
5.36607
 30
0.000000
  70
    32
  0
VERTEX
  8
AM_HID
  5
5D2
 10
0.837920
 20
5.36691
 30
0.000000
  70
    32
  0
VERTEX
  8
AM_HID
  5
5D3
 10
0.837461
 20
5.36774
 30
0.000000
  70
    32
  0
VERTEX
  8
AM_HID
  5
5D4
 10
0.836996
 20
5.36858
 30
0.000000
  70
    32
  0
VERTEX
  8
AM_HID
  5
5D5
 10
0.836526
 20
5.36941
 30
0.000000
  70
    32
  0
VERTEX
  8
AM_HID
  5
5D6
 10
0.836051
 20
5.37025
 30
0.000000
  70
    32
  0
VERTEX
  8
AM_HID
  5
5D7
 10
0.835571
 20
5.37107
 30
0.000000
  70
    32
  0
VERTEX
  8
AM_HID
  5
5D8
 10
0.835085
 20
5.37190
 30
0.000000
  70
    32
  0
VERTEX
  8
AM_HID
  5
5D9
 10
0.834594
 20
5.37273
 30
0.000000
  70
    32
  0
VERTEX
  8
AM_HID
  5
5DA
 10
0.834097
 20
5.37355
 30
0.000000
  70
    32
  0
VERTEX
  8
AM_HID
  5
5DB
 10
0.833595
 20
5.37437
 30
0.000000
  70
    32
  0
VERTEX
  8
AM_HID
  5
5DC
 10
0.833088
 20
5.37519
 30
0.000000
  70
    32
  0
VERTEX
  8
AM_HID
  5
5DD
 10
0.832575
 20
5.37600
 30
0.000000
  70
    32
  0
VERTEX
  8
AM_HID
  5
5DE
 10
0.832057
 20
5.37681
 30
0.000000
  70
    32
  0
VERTEX
  8
AM_HID
  5
5DF
 10
0.831534
 20
5.37762
 30
0.000000
  70
    32
  0
VERTEX
  8
AM_HID
  5
5E0
 10
0.831005
 20
5.37843
 30
0.000000
  70
    32
  0
VERTEX
  8
AM_HID
  5
5E1
 10
0.830471
 20
5.37924
 30
0.000000
  70
    32
  0
VERTEX
  8
AM_HID
  5
5E2
 10
0.829932
 20
5.38004
 30
0.000000
  70
    32
  0
VERTEX
  8
AM_HID
  5
5E3
 10
0.829387
 20
5.38084
 30
0.000000
  70
    32
  0
VERTEX
  8
AM_HID
  5
5E4
 10
0.828838
 20
5.38164
 30
0.000000
  70
    32
  0
VERTEX
  8
AM_HID
  5
5E5
 10
0.828283
 20
5.38243
 30
0.000000
  70
    32
  0
VERTEX
  8
AM_HID
  5
5E6
 10
0.827724
 20
5.38322
 30
0.000000
  70
    32
  0
VERTEX
  8
AM_HID
  5
5E7
 10
0.827159
 20
5.38401
 30
0.000000
  70
    32
  0
VERTEX
  8
AM_HID
  5
5E8
 10
0.826589
 20
5.38480
 30
0.000000
  70
    32
  0
VERTEX
  8
AM_HID
  5
5E9
 10
0.826014
 20
5.38558
 30
0.000000
  70
    32
  0
VERTEX
  8
AM_HID
  5
5EA
 10
0.825434
 20
5.38637
 30
0.000000
  70
    32
  0
VERTEX
  8
AM_HID
  5
5EB
 10
0.824849
 20
5.38715
 30
0.000000
  70
    32
  0
VERTEX
  8
AM_HID
  5
5EC
 10
0.824259
 20
5.38792
 30
0.000000
  70
    32
  0
VERTEX
  8
AM_HID
  5
5ED
 10
0.823664
 20
5.38870
 30
0.000000
  70
    32
  0
VERTEX
  8
AM_HID
  5
5EE
 10
0.823065
 20
5.38947
 30
0.000000
  70
    32
  0
VERTEX
  8
AM_HID
  5
5EF
 10
0.822460
 20
5.39024
 30
0.000000
  70
    32
  0
VERTEX
  8
AM_HID
  5
5F0
 10
0.821851
 20
5.39100
 30
0.000000
  70
    32
  0
VERTEX
  8
AM_HID
  5
5F1
 10
0.821237
 20
5.39177
 30
0.000000
  70
    32
  0
VERTEX
  8
AM_HID
  5
5F2
 10
0.820618
 20
5.39253
 30
0.000000
  70
    32
  0
VERTEX
  8
AM_HID
  5
5F3
 10
0.819995
 20
5.39329
 30
0.000000
  70
    32
  0
VERTEX
  8
AM_HID
  5
5F4
 10
0.819366
 20
5.39404
 30
0.000000
  70
    32
  0
VERTEX
  8
AM_HID
  5
5F5
 10
0.818733
 20
5.39480
 30
0.000000
  70
    32
  0
VERTEX
  8
AM_HID
  5
5F6
 10
0.818096
 20
5.39555
 30
0.000000
  70
    32
  0
VERTEX
  8
AM_HID
  5
5F7
 10
0.817454
 20
5.39629
 30
0.000000
  70
    32
  0
VERTEX
  8
AM_HID
  5
5F8
 10
0.816807
 20
5.39704
 30
0.000000
  70
    32
  0
VERTEX
  8
AM_HID
  5
5F9
 10
0.816155
 20
5.39778
 30
0.000000
  70
    32
  0
VERTEX
  8
AM_HID
  5
5FA
 10
0.815500
 20
5.39852
 30
0.000000
  70
    32
  0
VERTEX
  8
AM_HID
  5
5FB
 10
0.814839
 20
5.39926
 30
0.000000
  70
    32
  0
VERTEX
  8
AM_HID
  5
5FC
 10
0.814174
 20
5.39999
 30
0.000000
  70
    32
  0
VERTEX
  8
AM_HID
  5
5FD
 10
0.813505
 20
5.40072
 30
0.000000
  70
    32
  0
VERTEX
  8
AM_HID
  5
5FE
 10
0.812831
 20
5.40145
 30
0.000000
  70
    32
  0
VERTEX
  8
AM_HID
  5
5FF
 10
0.812153
 20
5.40217
 30
0.000000
  70
    32
  0
VERTEX
  8
AM_HID
  5
600
 10
0.811471
 20
5.40290
 30
0.000000
  70
    32
  0
VERTEX
  8
AM_HID
  5
601
 10
0.810784
 20
5.40362
 30
0.000000
  70
    32
  0
VERTEX
  8
AM_HID
  5
602
 10
0.810093
 20
5.40433
 30
0.000000
  70
    32
  0
VERTEX
  8
AM_HID
  5
603
 10
0.809398
 20
5.40505
 30
0.000000
  70
    32
  0
VERTEX
  8
AM_HID
  5
604
 10
0.808698
 20
5.40576
 30
0.000000
  70
    32
  0
VERTEX
  8
AM_HID
  5
605
 10
0.807995
 20
5.40647
 30
0.000000
  70
    32
  0
VERTEX
  8
AM_HID
  5
606
 10
0.807287
 20
5.40717
 30
0.000000
  70
    32
  0
VERTEX
  8
AM_HID
  5
607
 10
0.806575
 20
5.40788
 30
0.000000
  70
    32
  0
VERTEX
  8
AM_HID
  5
608
 10
0.805858
 20
5.40858
 30
0.000000
  70
    32
  0
VERTEX
  8
AM_HID
  5
609
 10
0.805138
 20
5.40927
 30
0.000000
  70
    32
  0
VERTEX
  8
AM_HID
  5
60A
 10
0.804414
 20
5.40997
 30
0.000000
  70
    32
  0
VERTEX
  8
AM_HID
  5
60B
 10
0.803686
 20
5.41066
 30
0.000000
  70
    32
  0
VERTEX
  8
AM_HID
  5
60C
 10
0.802953
 20
5.41135
 30
0.000000
  70
    32
  0
VERTEX
  8
AM_HID
  5
60D
 10
0.802217
 20
5.41203
 30
0.000000
  70
    32
  0
VERTEX
  8
AM_HID
  5
60E
 10
0.801477
 20
5.41271
 30
0.000000
  70
    32
  0
VERTEX
  8
AM_HID
  5
60F
 10
0.800732
 20
5.41339
 30
0.000000
  70
    32
  0
VERTEX
  8
AM_HID
  5
610
 10
0.799984
 20
5.41407
 30
0.000000
  70
    32
  0
VERTEX
  8
AM_HID
  5
611
 10
0.799232
 20
5.41474
 30
0.000000
  70
    32
  0
VERTEX
  8
AM_HID
  5
612
 10
0.798477
 20
5.41541
 30
0.000000
  70
    32
  0
VERTEX
  8
AM_HID
  5
613
 10
0.797717
 20
5.41608
 30
0.000000
  70
    32
  0
VERTEX
  8
AM_HID
  5
614
 10
0.796954
 20
5.41674
 30
0.000000
  70
    32
  0
VERTEX
  8
AM_HID
  5
615
 10
0.796187
 20
5.41740
 30
0.000000
  70
    32
  0
VERTEX
  8
AM_HID
  5
616
 10
0.795416
 20
5.41806
 30
0.000000
  70
    32
  0
VERTEX
  8
AM_HID
  5
617
 10
0.794642
 20
5.41872
 30
0.000000
  70
    32
  0
VERTEX
  8
AM_HID
  5
618
 10
0.793864
 20
5.41937
 30
0.000000
  70
    32
  0
VERTEX
  8
AM_HID
  5
619
 10
0.793082
 20
5.42002
 30
0.000000
  70
    32
  0
VERTEX
  8
AM_HID
  5
61A
 10
0.792297
 20
5.42066
 30
0.000000
  70
    32
  0
VERTEX
  8
AM_HID
  5
61B
 10
0.791508
 20
5.42131
 30
0.000000
  70
    32
  0
VERTEX
  8
AM_HID
  5
61C
 10
0.790715
 20
5.42195
 30
0.000000
  70
    32
  0
VERTEX
  8
AM_HID
  5
61D
 10
0.789920
 20
5.42258
 30
0.000000
  70
    32
  0
VERTEX
  8
AM_HID
  5
61E
 10
0.789120
 20
5.42322
 30
0.000000
  70
    32
  0
VERTEX
  8
AM_HID
  5
61F
 10
0.788317
 20
5.42385
 30
0.000000
  70
    32
  0
VERTEX
  8
AM_HID
  5
620
 10
0.787511
 20
5.42447
 30
0.000000
  70
    32
  0
VERTEX
  8
AM_HID
  5
621
 10
0.786702
 20
5.42510
 30
0.000000
  70
    32
  0
VERTEX
  8
AM_HID
  5
622
 10
0.785889
 20
5.42572
 30
0.000000
  70
    32
  0
VERTEX
  8
AM_HID
  5
623
 10
0.785072
 20
5.42634
 30
0.000000
  70
    32
  0
VERTEX
  8
AM_HID
  5
624
 10
0.784253
 20
5.42695
 30
0.000000
  70
    32
  0
VERTEX
  8
AM_HID
  5
625
 10
0.783430
 20
5.42756
 30
0.000000
  70
    32
  0
VERTEX
  8
AM_HID
  5
626
 10
0.782604
 20
5.42817
 30
0.000000
  70
    32
  0
VERTEX
  8
AM_HID
  5
627
 10
0.781775
 20
5.42878
 30
0.000000
  70
    32
  0
VERTEX
  8
AM_HID
  5
628
 10
0.780942
 20
5.42938
 30
0.000000
  70
    32
  0
VERTEX
  8
AM_HID
  5
629
 10
0.780106
 20
5.42997
 30
0.000000
  70
    32
  0
VERTEX
  8
AM_HID
  5
62A
 10
0.779268
 20
5.43057
 30
0.000000
  70
    32
  0
VERTEX
  8
AM_HID
  5
62B
 10
0.778426
 20
5.43116
 30
0.000000
  70
    32
  0
VERTEX
  8
AM_HID
  5
62C
 10
0.777581
 20
5.43175
 30
0.000000
  70
    32
  0
VERTEX
  8
AM_HID
  5
62D
 10
0.776733
 20
5.43234
 30
0.000000
  70
    32
  0
VERTEX
  8
AM_HID
  5
62E
 10
0.775882
 20
5.43292
 30
0.000000
  70
    32
  0
VERTEX
  8
AM_HID
  5
62F
 10
0.775028
 20
5.43350
 30
0.000000
  70
    32
  0
VERTEX
  8
AM_HID
  5
630
 10
0.774171
 20
5.43407
 30
0.000000
  70
    32
  0
VERTEX
  8
AM_HID
  5
631
 10
0.773312
 20
5.43464
 30
0.000000
  70
    32
  0
VERTEX
  8
AM_HID
  5
632
 10
0.772449
 20
5.43521
 30
0.000000
  70
    32
  0
VERTEX
  8
AM_HID
  5
633
 10
0.771583
 20
5.43578
 30
0.000000
  70
    32
  0
VERTEX
  8
AM_HID
  5
634
 10
0.770715
 20
5.43634
 30
0.000000
  70
    32
  0
VERTEX
  8
AM_HID
  5
635
 10
0.769844
 20
5.43690
 30
0.000000
  70
    32
  0
VERTEX
  8
AM_HID
  5
636
 10
0.768970
 20
5.43745
 30
0.000000
  70
    32
  0
VERTEX
  8
AM_HID
  5
637
 10
0.768093
 20
5.43801
 30
0.000000
  70
    32
  0
VERTEX
  8
AM_HID
  5
638
 10
0.767214
 20
5.43855
 30
0.000000
  70
    32
  0
VERTEX
  8
AM_HID
  5
639
 10
0.766332
 20
5.43910
 30
0.000000
  70
    32
  0
VERTEX
  8
AM_HID
  5
63A
 10
0.765447
 20
5.43964
 30
0.000000
  70
    32
  0
VERTEX
  8
AM_HID
  5
63B
 10
0.764560
 20
5.44018
 30
0.000000
  70
    32
  0
VERTEX
  8
AM_HID
  5
63C
 10
0.763668
 20
5.44072
 30
0.000000
  70
    32
  0
VERTEX
  8
AM_HID
  5
63D
 10
0.762772
 20
5.44125
 30
0.000000
  70
    32
  0
VERTEX
  8
AM_HID
  5
63E
 10
0.761870
 20
5.44178
 30
0.000000
  70
    32
  0
VERTEX
  8
AM_HID
  5
63F
 10
0.760963
 20
5.44231
 30
0.000000
  70
    32
  0
VERTEX
  8
AM_HID
  5
640
 10
0.760052
 20
5.44284
 30
0.000000
  70
    32
  0
VERTEX
  8
AM_HID
  5
641
 10
0.759135
 20
5.44336
 30
0.000000
  70
    32
  0
VERTEX
  8
AM_HID
  5
642
 10
0.758213
 20
5.44389
 30
0.000000
  70
    32
  0
VERTEX
  8
AM_HID
  5
643
 10
0.757287
 20
5.44441
 30
0.000000
  70
    32
  0
VERTEX
  8
AM_HID
  5
644
 10
0.756355
 20
5.44493
 30
0.000000
  70
    32
  0
VERTEX
  8
AM_HID
  5
645
 10
0.755419
 20
5.44545
 30
0.000000
  70
    32
  0
VERTEX
  8
AM_HID
  5
646
 10
0.754477
 20
5.44596
 30
0.000000
  70
    32
  0
VERTEX
  8
AM_HID
  5
647
 10
0.753531
 20
5.44648
 30
0.000000
  70
    32
  0
VERTEX
  8
AM_HID
  5
648
 10
0.752580
 20
5.44699
 30
0.000000
  70
    32
  0
VERTEX
  8
AM_HID
  5
649
 10
0.751624
 20
5.44750
 30
0.000000
  70
    32
  0
VERTEX
  8
AM_HID
  5
64A
 10
0.750664
 20
5.44801
 30
0.000000
  70
    32
  0
VERTEX
  8
AM_HID
  5
64B
 10
0.749698
 20
5.44851
 30
0.000000
  70
    32
  0
VERTEX
  8
AM_HID
  5
64C
 10
0.748728
 20
5.44902
 30
0.000000
  70
    32
  0
VERTEX
  8
AM_HID
  5
64D
 10
0.747754
 20
5.44952
 30
0.000000
  70
    32
  0
VERTEX
  8
AM_HID
  5
64E
 10
0.746774
 20
5.45002
 30
0.000000
  70
    32
  0
VERTEX
  8
AM_HID
  5
64F
 10
0.745790
 20
5.45051
 30
0.000000
  70
    32
  0
VERTEX
  8
AM_HID
  5
650
 10
0.744802
 20
5.45101
 30
0.000000
  70
    32
  0
VERTEX
  8
AM_HID
  5
651
 10
0.743808
 20
5.45150
 30
0.000000
  70
    32
  0
VERTEX
  8
AM_HID
  5
652
 10
0.742811
 20
5.45199
 30
0.000000
  70
    32
  0
VERTEX
  8
AM_HID
  5
653
 10
0.741808
 20
5.45248
 30
0.000000
  70
    32
  0
VERTEX
  8
AM_HID
  5
654
 10
0.740802
 20
5.45296
 30
0.000000
  70
    32
  0
VERTEX
  8
AM_HID
  5
655
 10
0.739790
 20
5.45345
 30
0.000000
  70
    32
  0
VERTEX
  8
AM_HID
  5
656
 10
0.738775
 20
5.45393
 30
0.000000
  70
    32
  0
VERTEX
  8
AM_HID
  5
657
 10
0.737755
 20
5.45441
 30
0.000000
  70
    32
  0
VERTEX
  8
AM_HID
  5
658
 10
0.736730
 20
5.45488
 30
0.000000
  70
    32
  0
VERTEX
  8
AM_HID
  5
659
 10
0.735701
 20
5.45536
 30
0.000000
  70
    32
  0
VERTEX
  8
AM_HID
  5
65A
 10
0.734668
 20
5.45583
 30
0.000000
  70
    32
  0
VERTEX
  8
AM_HID
  5
65B
 10
0.733630
 20
5.45630
 30
0.000000
  70
    32
  0
VERTEX
  8
AM_HID
  5
65C
 10
0.732589
 20
5.45677
 30
0.000000
  70
    32
  0
VERTEX
  8
AM_HID
  5
65D
 10
0.731543
 20
5.45723
 30
0.000000
  70
    32
  0
VERTEX
  8
AM_HID
  5
65E
 10
0.730492
 20
5.45770
 30
0.000000
  70
    32
  0
VERTEX
  8
AM_HID
  5
65F
 10
0.729438
 20
5.45816
 30
0.000000
  70
    32
  0
VERTEX
  8
AM_HID
  5
660
 10
0.728379
 20
5.45861
 30
0.000000
  70
    32
  0
VERTEX
  8
AM_HID
  5
661
 10
0.727316
 20
5.45907
 30
0.000000
  70
    32
  0
VERTEX
  8
AM_HID
  5
662
 10
0.726249
 20
5.45952
 30
0.000000
  70
    32
  0
VERTEX
  8
AM_HID
  5
663
 10
0.725178
 20
5.45997
 30
0.000000
  70
    32
  0
VERTEX
  8
AM_HID
  5
664
 10
0.724103
 20
5.46042
 30
0.000000
  70
    32
  0
VERTEX
  8
AM_HID
  5
665
 10
0.723024
 20
5.46087
 30
0.000000
  70
    32
  0
VERTEX
  8
AM_HID
  5
666
 10
0.721941
 20
5.46131
 30
0.000000
  70
    32
  0
VERTEX
  8
AM_HID
  5
667
 10
0.720853
 20
5.46175
 30
0.000000
  70
    32
  0
VERTEX
  8
AM_HID
  5
668
 10
0.719762
 20
5.46219
 30
0.000000
  70
    32
  0
VERTEX
  8
AM_HID
  5
669
 10
0.718667
 20
5.46263
 30
0.000000
  70
    32
  0
VERTEX
  8
AM_HID
  5
66A
 10
0.717568
 20
5.46306
 30
0.000000
  70
    32
  0
VERTEX
  8
AM_HID
  5
66B
 10
0.716465
 20
5.46349
 30
0.000000
  70
    32
  0
VERTEX
  8
AM_HID
  5
66C
 10
0.715358
 20
5.46392
 30
0.000000
  70
    32
  0
VERTEX
  8
AM_HID
  5
66D
 10
0.714248
 20
5.46434
 30
0.000000
  70
    32
  0
VERTEX
  8
AM_HID
  5
66E
 10
0.713133
 20
5.46477
 30
0.000000
  70
    32
  0
VERTEX
  8
AM_HID
  5
66F
 10
0.712015
 20
5.46519
 30
0.000000
  70
    32
  0
VERTEX
  8
AM_HID
  5
670
 10
0.710893
 20
5.46561
 30
0.000000
  70
    32
  0
VERTEX
  8
AM_HID
  5
671
 10
0.709768
 20
5.46602
 30
0.000000
  70
    32
  0
VERTEX
  8
AM_HID
  5
672
 10
0.708638
 20
5.46643
 30
0.000000
  70
    32
  0
VERTEX
  8
AM_HID
  5
673
 10
0.707505
 20
5.46684
 30
0.000000
  70
    32
  0
VERTEX
  8
AM_HID
  5
674
 10
0.706369
 20
5.46725
 30
0.000000
  70
    32
  0
VERTEX
  8
AM_HID
  5
675
 10
0.705228
 20
5.46766
 30
0.000000
  70
    32
  0
VERTEX
  8
AM_HID
  5
676
 10
0.704084
 20
5.46806
 30
0.000000
  70
    32
  0
VERTEX
  8
AM_HID
  5
677
 10
0.702937
 20
5.46846
 30
0.000000
  70
    32
  0
VERTEX
  8
AM_HID
  5
678
 10
0.701786
 20
5.46885
 30
0.000000
  70
    32
  0
VERTEX
  8
AM_HID
  5
679
 10
0.700631
 20
5.46925
 30
0.000000
  70
    32
  0
VERTEX
  8
AM_HID
  5
67A
 10
0.699473
 20
5.46964
 30
0.000000
  70
    32
  0
VERTEX
  8
AM_HID
  5
67B
 10
0.698312
 20
5.47003
 30
0.000000
  70
    32
  0
VERTEX
  8
AM_HID
  5
67C
 10
0.697147
 20
5.47041
 30
0.000000
  70
    32
  0
VERTEX
  8
AM_HID
  5
67D
 10
0.695979
 20
5.47080
 30
0.000000
  70
    32
  0
VERTEX
  8
AM_HID
  5
67E
 10
0.694807
 20
5.47118
 30
0.000000
  70
    32
  0
VERTEX
  8
AM_HID
  5
67F
 10
0.693632
 20
5.47155
 30
0.000000
  70
    32
  0
VERTEX
  8
AM_HID
  5
680
 10
0.692454
 20
5.47193
 30
0.000000
  70
    32
  0
VERTEX
  8
AM_HID
  5
681
 10
0.691272
 20
5.47230
 30
0.000000
  70
    32
  0
VERTEX
  8
AM_HID
  5
682
 10
0.690087
 20
5.47267
 30
0.000000
  70
    32
  0
VERTEX
  8
AM_HID
  5
683
 10
0.688899
 20
5.47303
 30
0.000000
  70
    32
  0
VERTEX
  8
AM_HID
  5
684
 10
0.687708
 20
5.47340
 30
0.000000
  70
    32
  0
VERTEX
  8
AM_HID
  5
685
 10
0.686513
 20
5.47376
 30
0.000000
  70
    32
  0
VERTEX
  8
AM_HID
  5
686
 10
0.685315
 20
5.47411
 30
0.000000
  70
    32
  0
VERTEX
  8
AM_HID
  5
687
 10
0.684115
 20
5.47447
 30
0.000000
  70
    32
  0
VERTEX
  8
AM_HID
  5
688
 10
0.682911
 20
5.47482
 30
0.000000
  70
    32
  0
VERTEX
  8
AM_HID
  5
689
 10
0.681703
 20
5.47517
 30
0.000000
  70
    32
  0
VERTEX
  8
AM_HID
  5
68A
 10
0.680493
 20
5.47551
 30
0.000000
  70
    32
  0
VERTEX
  8
AM_HID
  5
68B
 10
0.679280
 20
5.47586
 30
0.000000
  70
    32
  0
VERTEX
  8
AM_HID
  5
68C
 10
0.678064
 20
5.47620
 30
0.000000
  70
    32
  0
VERTEX
  8
AM_HID
  5
68D
 10
0.676845
 20
5.47653
 30
0.000000
  70
    32
  0
VERTEX
  8
AM_HID
  5
68E
 10
0.675623
 20
5.47687
 30
0.000000
  70
    32
  0
VERTEX
  8
AM_HID
  5
68F
 10
0.674398
 20
5.47720
 30
0.000000
  70
    32
  0
VERTEX
  8
AM_HID
  5
690
 10
0.673170
 20
5.47753
 30
0.000000
  70
    32
  0
VERTEX
  8
AM_HID
  5
691
 10
0.671939
 20
5.47785
 30
0.000000
  70
    32
  0
VERTEX
  8
AM_HID
  5
692
 10
0.670705
 20
5.47817
 30
0.000000
  70
    32
  0
VERTEX
  8
AM_HID
  5
693
 10
0.669469
 20
5.47849
 30
0.000000
  70
    32
  0
VERTEX
  8
AM_HID
  5
694
 10
0.668230
 20
5.47881
 30
0.000000
  70
    32
  0
VERTEX
  8
AM_HID
  5
695
 10
0.666988
 20
5.47912
 30
0.000000
  70
    32
  0
VERTEX
  8
AM_HID
  5
696
 10
0.665743
 20
5.47943
 30
0.000000
  70
    32
  0
VERTEX
  8
AM_HID
  5
697
 10
0.664496
 20
5.47973
 30
0.000000
  70
    32
  0
VERTEX
  8
AM_HID
  5
698
 10
0.663245
 20
5.48004
 30
0.000000
  70
    32
  0
VERTEX
  8
AM_HID
  5
699
 10
0.661993
 20
5.48034
 30
0.000000
  70
    32
  0
VERTEX
  8
AM_HID
  5
69A
 10
0.660737
 20
5.48063
 30
0.000000
  70
    32
  0
VERTEX
  8
AM_HID
  5
69B
 10
0.659479
 20
5.48093
 30
0.000000
  70
    32
  0
VERTEX
  8
AM_HID
  5
69C
 10
0.658218
 20
5.48122
 30
0.000000
  70
    32
  0
VERTEX
  8
AM_HID
  5
69D
 10
0.656955
 20
5.48150
 30
0.000000
  70
    32
  0
VERTEX
  8
AM_HID
  5
69E
 10
0.655690
 20
5.48179
 30
0.000000
  70
    32
  0
VERTEX
  8
AM_HID
  5
69F
 10
0.654421
 20
5.48207
 30
0.000000
  70
    32
  0
VERTEX
  8
AM_HID
  5
6A0
 10
0.653151
 20
5.48235
 30
0.000000
  70
    32
  0
VERTEX
  8
AM_HID
  5
6A1
 10
0.651878
 20
5.48262
 30
0.000000
  70
    32
  0
VERTEX
  8
AM_HID
  5
6A2
 10
0.650602
 20
5.48289
 30
0.000000
  70
    32
  0
VERTEX
  8
AM_HID
  5
6A3
 10
0.649325
 20
5.48316
 30
0.000000
  70
    32
  0
VERTEX
  8
AM_HID
  5
6A4
 10
0.648045
 20
5.48343
 30
0.000000
  70
    32
  0
VERTEX
  8
AM_HID
  5
6A5
 10
0.646763
 20
5.48369
 30
0.000000
  70
    32
  0
VERTEX
  8
AM_HID
  5
6A6
 10
0.645478
 20
5.48395
 30
0.000000
  70
    32
  0
VERTEX
  8
AM_HID
  5
6A7
 10
0.644192
 20
5.48420
 30
0.000000
  70
    32
  0
VERTEX
  8
AM_HID
  5
6A8
 10
0.642903
 20
5.48446
 30
0.000000
  70
    32
  0
VERTEX
  8
AM_HID
  5
6A9
 10
0.641613
 20
5.48471
 30
0.000000
  70
    32
  0
VERTEX
  8
AM_HID
  5
6AA
 10
0.640320
 20
5.48495
 30
0.000000
  70
    32
  0
VERTEX
  8
AM_HID
  5
6AB
 10
0.639026
 20
5.48520
 30
0.000000
  70
    32
  0
VERTEX
  8
AM_HID
  5
6AC
 10
0.637729
 20
5.48544
 30
0.000000
  70
    32
  0
VERTEX
  8
AM_HID
  5
6AD
 10
0.636431
 20
5.48567
 30
0.000000
  70
    32
  0
VERTEX
  8
AM_HID
  5
6AE
 10
0.635131
 20
5.48591
 30
0.000000
  70
    32
  0
VERTEX
  8
AM_HID
  5
6AF
 10
0.633829
 20
5.48614
 30
0.000000
  70
    32
  0
VERTEX
  8
AM_HID
  5
6B0
 10
0.632525
 20
5.48637
 30
0.000000
  70
    32
  0
VERTEX
  8
AM_HID
  5
6B1
 10
0.631220
 20
5.48659
 30
0.000000
  70
    32
  0
VERTEX
  8
AM_HID
  5
6B2
 10
0.629912
 20
5.48682
 30
0.000000
  70
    32
  0
VERTEX
  8
AM_HID
  5
6B3
 10
0.628604
 20
5.48703
 30
0.000000
  70
    32
  0
VERTEX
  8
AM_HID
  5
6B4
 10
0.627293
 20
5.48725
 30
0.000000
  70
    32
  0
VERTEX
  8
AM_HID
  5
6B5
 10
0.625982
 20
5.48746
 30
0.000000
  70
    32
  0
VERTEX
  8
AM_HID
  5
6B6
 10
0.624668
 20
5.48767
 30
0.000000
  70
    32
  0
VERTEX
  8
AM_HID
  5
6B7
 10
0.623353
 20
5.48788
 30
0.000000
  70
    32
  0
VERTEX
  8
AM_HID
  5
6B8
 10
0.622037
 20
5.48808
 30
0.000000
  70
    32
  0
VERTEX
  8
AM_HID
  5
6B9
 10
0.620720
 20
5.48828
 30
0.000000
  70
    32
  0
VERTEX
  8
AM_HID
  5
6BA
 10
0.619401
 20
5.48848
 30
0.000000
  70
    32
  0
VERTEX
  8
AM_HID
  5
6BB
 10
0.618081
 20
5.48868
 30
0.000000
  70
    32
  0
VERTEX
  8
AM_HID
  5
6BC
 10
0.616759
 20
5.48887
 30
0.000000
  70
    32
  0
VERTEX
  8
AM_HID
  5
6BD
 10
0.615437
 20
5.48906
 30
0.000000
  70
    32
  0
VERTEX
  8
AM_HID
  5
6BE
 10
0.614113
 20
5.48924
 30
0.000000
  70
    32
  0
VERTEX
  8
AM_HID
  5
6BF
 10
0.612788
 20
5.48942
 30
0.000000
  70
    32
  0
VERTEX
  8
AM_HID
  5
6C0
 10
0.611462
 20
5.48960
 30
0.000000
  70
    32
  0
VERTEX
  8
AM_HID
  5
6C1
 10
0.610136
 20
5.48978
 30
0.000000
  70
    32
  0
VERTEX
  8
AM_HID
  5
6C2
 10
0.608808
 20
5.48995
 30
0.000000
  70
    32
  0
VERTEX
  8
AM_HID
  5
6C3
 10
0.607479
 20
5.49012
 30
0.000000
  70
    32
  0
VERTEX
  8
AM_HID
  5
6C4
 10
0.606149
 20
5.49029
 30
0.000000
  70
    32
  0
VERTEX
  8
AM_HID
  5
6C5
 10
0.604819
 20
5.49045
 30
0.000000
  70
    32
  0
VERTEX
  8
AM_HID
  5
6C6
 10
0.603487
 20
5.49061
 30
0.000000
  70
    32
  0
VERTEX
  8
AM_HID
  5
6C7
 10
0.602155
 20
5.49077
 30
0.000000
  70
    32
  0
VERTEX
  8
AM_HID
  5
6C8
 10
0.600822
 20
5.49093
 30
0.000000
  70
    32
  0
VERTEX
  8
AM_HID
  5
6C9
 10
0.599489
 20
5.49108
 30
0.000000
  70
    32
  0
VERTEX
  8
AM_HID
  5
6CA
 10
0.598155
 20
5.49123
 30
0.000000
  70
    32
  0
VERTEX
  8
AM_HID
  5
6CB
 10
0.596820
 20
5.49137
 30
0.000000
  70
    32
  0
VERTEX
  8
AM_HID
  5
6CC
 10
0.595485
 20
5.49152
 30
0.000000
  70
    32
  0
VERTEX
  8
AM_HID
  5
6CD
 10
0.594149
 20
5.49166
 30
0.000000
  70
    32
  0
VERTEX
  8
AM_HID
  5
6CE
 10
0.592813
 20
5.49179
 30
0.000000
  70
    32
  0
VERTEX
  8
AM_HID
  5
6CF
 10
0.591476
 20
5.49193
 30
0.000000
  70
    32
  0
VERTEX
  8
AM_HID
  5
6D0
 10
0.590139
 20
5.49206
 30
0.000000
  70
    32
  0
VERTEX
  8
AM_HID
  5
6D1
 10
0.588801
 20
5.49219
 30
0.000000
  70
    32
  0
VERTEX
  8
AM_HID
  5
6D2
 10
0.587464
 20
5.49231
 30
0.000000
  70
    32
  0
VERTEX
  8
AM_HID
  5
6D3
 10
0.586126
 20
5.49243
 30
0.000000
  70
    32
  0
VERTEX
  8
AM_HID
  5
6D4
 10
0.584788
 20
5.49255
 30
0.000000
  70
    32
  0
VERTEX
  8
AM_HID
  5
6D5
 10
0.583449
 20
5.49267
 30
0.000000
  70
    32
  0
VERTEX
  8
AM_HID
  5
6D6
 10
0.582111
 20
5.49278
 30
0.000000
  70
    32
  0
VERTEX
  8
AM_HID
  5
6D7
 10
0.580772
 20
5.49289
 30
0.000000
  70
    32
  0
VERTEX
  8
AM_HID
  5
6D8
 10
0.579434
 20
5.49300
 30
0.000000
  70
    32
  0
VERTEX
  8
AM_HID
  5
6D9
 10
0.578095
 20
5.49310
 30
0.000000
  70
    32
  0
VERTEX
  8
AM_HID
  5
6DA
 10
0.576757
 20
5.49320
 30
0.000000
  70
    32
  0
VERTEX
  8
AM_HID
  5
6DB
 10
0.575419
 20
5.49330
 30
0.000000
  70
    32
  0
VERTEX
  8
AM_HID
  5
6DC
 10
0.574080
 20
5.49340
 30
0.000000
  70
    32
  0
VERTEX
  8
AM_HID
  5
6DD
 10
0.572742
 20
5.49349
 30
0.000000
  70
    32
  0
VERTEX
  8
AM_HID
  5
6DE
 10
0.571404
 20
5.49358
 30
0.000000
  70
    32
  0
VERTEX
  8
AM_HID
  5
6DF
 10
0.570067
 20
5.49366
 30
0.000000
  70
    32
  0
VERTEX
  8
AM_HID
  5
6E0
 10
0.568730
 20
5.49375
 30
0.000000
  70
    32
  0
VERTEX
  8
AM_HID
  5
6E1
 10
0.567393
 20
5.49383
 30
0.000000
  70
    32
  0
VERTEX
  8
AM_HID
  5
6E2
 10
0.566056
 20
5.49391
 30
0.000000
  70
    32
  0
VERTEX
  8
AM_HID
  5
6E3
 10
0.564720
 20
5.49398
 30
0.000000
  70
    32
  0
VERTEX
  8
AM_HID
  5
6E4
 10
0.563384
 20
5.49405
 30
0.000000
  70
    32
  0
VERTEX
  8
AM_HID
  5
6E5
 10
0.562049
 20
5.49412
 30
0.000000
  70
    32
  0
VERTEX
  8
AM_HID
  5
6E6
 10
0.560715
 20
5.49419
 30
0.000000
  70
    32
  0
VERTEX
  8
AM_HID
  5
6E7
 10
0.559381
 20
5.49425
 30
0.000000
  70
    32
  0
VERTEX
  8
AM_HID
  5
6E8
 10
0.558048
 20
5.49431
 30
0.000000
  70
    32
  0
VERTEX
  8
AM_HID
  5
6E9
 10
0.556715
 20
5.49437
 30
0.000000
  70
    32
  0
VERTEX
  8
AM_HID
  5
6EA
 10
0.555383
 20
5.49442
 30
0.000000
  70
    32
  0
VERTEX
  8
AM_HID
  5
6EB
 10
0.554052
 20
5.49447
 30
0.000000
  70
    32
  0
VERTEX
  8
AM_HID
  5
6EC
 10
0.552722
 20
5.49452
 30
0.000000
  70
    32
  0
VERTEX
  8
AM_HID
  5
6ED
 10
0.551393
 20
5.49456
 30
0.000000
  70
    32
  0
VERTEX
  8
AM_HID
  5
6EE
 10
0.550064
 20
5.49460
 30
0.000000
  70
    32
  0
VERTEX
  8
AM_HID
  5
6EF
 10
0.548737
 20
5.49464
 30
0.000000
  70
    32
  0
VERTEX
  8
AM_HID
  5
6F0
 10
0.547410
 20
5.49468
 30
0.000000
  70
    32
  0
VERTEX
  8
AM_HID
  5
6F1
 10
0.546085
 20
5.49471
 30
0.000000
  70
    32
  0
VERTEX
  8
AM_HID
  5
6F2
 10
0.544760
 20
5.49474
 30
0.000000
  70
    32
  0
VERTEX
  8
AM_HID
  5
6F3
 10
0.543437
 20
5.49477
 30
0.000000
  70
    32
  0
VERTEX
  8
AM_HID
  5
6F4
 10
0.542115
 20
5.49480
 30
0.000000
  70
    32
  0
VERTEX
  8
AM_HID
  5
6F5
 10
0.540794
 20
5.49482
 30
0.000000
  70
    32
  0
VERTEX
  8
AM_HID
  5
6F6
 10
0.539474
 20
5.49484
 30
0.000000
  70
    32
  0
VERTEX
  8
AM_HID
  5
6F7
 10
0.538156
 20
5.49485
 30
0.000000
  70
    32
  0
VERTEX
  8
AM_HID
  5
6F8
 10
0.536839
 20
5.49487
 30
0.000000
  70
    32
  0
VERTEX
  8
AM_HID
  5
6F9
 10
0.535523
 20
5.49488
 30
0.000000
  70
    32
  0
VERTEX
  8
AM_HID
  5
6FA
 10
0.534209
 20
5.49488
 30
0.000000
  70
    32
  0
VERTEX
  8
AM_HID
  5
6FB
 10
0.532897
 20
5.49489
 30
0.000000
  70
    32
  0
VERTEX
  8
AM_HID
  5
6FC
 10
0.531585
 20
5.49489
 30
0.000000
  70
    32
  0
SEQEND
  8
AM_HID
  5
6FD
  0
LINE
  5
3E
  8
AM_VIS
 10
0.4387812436839483
 20
5.3953348550643723
 30
0.0
 11
0.6243893287724008
 21
5.3953348550643723
 31
0.0
  0
POLYLINE
  5
3F
  8
AM_HID
 10
0.3604853685638532
 20
5.3067496626624813
 30
0.0
 66
     1
 70
     8
  0
VERTEX
  8
AM_HID
  5
6FE
 10
0.360485
 20
5.30675
 30
0.000000
  70
    32
  0
VERTEX
  8
AM_HID
  5
6FF
 10
0.360372
 20
5.30661
 30
0.000000
  70
    32
  0
VERTEX
  8
AM_HID
  5
700
 10
0.360259
 20
5.30648
 30
0.000000
  70
    32
  0
VERTEX
  8
AM_HID
  5
701
 10
0.360145
 20
5.30634
 30
0.000000
  70
    32
  0
VERTEX
  8
AM_HID
  5
702
 10
0.360032
 20
5.30621
 30
0.000000
  70
    32
  0
VERTEX
  8
AM_HID
  5
703
 10
0.359919
 20
5.30607
 30
0.000000
  70
    32
  0
VERTEX
  8
AM_HID
  5
704
 10
0.359805
 20
5.30593
 30
0.000000
  70
    32
  0
VERTEX
  8
AM_HID
  5
705
 10
0.359692
 20
5.30580
 30
0.000000
  70
    32
  0
VERTEX
  8
AM_HID
  5
706
 10
0.359579
 20
5.30566
 30
0.000000
  70
    32
  0
VERTEX
  8
AM_HID
  5
707
 10
0.359465
 20
5.30553
 30
0.000000
  70
    32
  0
VERTEX
  8
AM_HID
  5
708
 10
0.359352
 20
5.30539
 30
0.000000
  70
    32
  0
VERTEX
  8
AM_HID
  5
709
 10
0.359239
 20
5.30525
 30
0.000000
  70
    32
  0
VERTEX
  8
AM_HID
  5
70A
 10
0.359125
 20
5.30512
 30
0.000000
  70
    32
  0
VERTEX
  8
AM_HID
  5
70B
 10
0.359012
 20
5.30498
 30
0.000000
  70
    32
  0
VERTEX
  8
AM_HID
  5
70C
 10
0.358899
 20
5.30484
 30
0.000000
  70
    32
  0
VERTEX
  8
AM_HID
  5
70D
 10
0.358785
 20
5.30471
 30
0.000000
  70
    32
  0
VERTEX
  8
AM_HID
  5
70E
 10
0.358672
 20
5.30457
 30
0.000000
  70
    32
  0
VERTEX
  8
AM_HID
  5
70F
 10
0.358559
 20
5.30444
 30
0.000000
  70
    32
  0
VERTEX
  8
AM_HID
  5
710
 10
0.358445
 20
5.30430
 30
0.000000
  70
    32
  0
VERTEX
  8
AM_HID
  5
711
 10
0.358332
 20
5.30416
 30
0.000000
  70
    32
  0
VERTEX
  8
AM_HID
  5
712
 10
0.358219
 20
5.30403
 30
0.000000
  70
    32
  0
VERTEX
  8
AM_HID
  5
713
 10
0.358105
 20
5.30389
 30
0.000000
  70
    32
  0
VERTEX
  8
AM_HID
  5
714
 10
0.357992
 20
5.30375
 30
0.000000
  70
    32
  0
VERTEX
  8
AM_HID
  5
715
 10
0.357879
 20
5.30362
 30
0.000000
  70
    32
  0
VERTEX
  8
AM_HID
  5
716
 10
0.357765
 20
5.30348
 30
0.000000
  70
    32
  0
VERTEX
  8
AM_HID
  5
717
 10
0.357652
 20
5.30334
 30
0.000000
  70
    32
  0
VERTEX
  8
AM_HID
  5
718
 10
0.357539
 20
5.30321
 30
0.000000
  70
    32
  0
VERTEX
  8
AM_HID
  5
719
 10
0.357425
 20
5.30307
 30
0.000000
  70
    32
  0
VERTEX
  8
AM_HID
  5
71A
 10
0.357312
 20
5.30293
 30
0.000000
  70
    32
  0
VERTEX
  8
AM_HID
  5
71B
 10
0.357199
 20
5.30280
 30
0.000000
  70
    32
  0
VERTEX
  8
AM_HID
  5
71C
 10
0.357085
 20
5.30266
 30
0.000000
  70
    32
  0
VERTEX
  8
AM_HID
  5
71D
 10
0.356972
 20
5.30252
 30
0.000000
  70
    32
  0
VERTEX
  8
AM_HID
  5
71E
 10
0.356859
 20
5.30239
 30
0.000000
  70
    32
  0
VERTEX
  8
AM_HID
  5
71F
 10
0.356745
 20
5.30225
 30
0.000000
  70
    32
  0
VERTEX
  8
AM_HID
  5
720
 10
0.356632
 20
5.30211
 30
0.000000
  70
    32
  0
VERTEX
  8
AM_HID
  5
721
 10
0.356519
 20
5.30198
 30
0.000000
  70
    32
  0
VERTEX
  8
AM_HID
  5
722
 10
0.356405
 20
5.30184
 30
0.000000
  70
    32
  0
VERTEX
  8
AM_HID
  5
723
 10
0.356292
 20
5.30170
 30
0.000000
  70
    32
  0
VERTEX
  8
AM_HID
  5
724
 10
0.356179
 20
5.30157
 30
0.000000
  70
    32
  0
VERTEX
  8
AM_HID
  5
725
 10
0.356065
 20
5.30143
 30
0.000000
  70
    32
  0
VERTEX
  8
AM_HID
  5
726
 10
0.355952
 20
5.30129
 30
0.000000
  70
    32
  0
VERTEX
  8
AM_HID
  5
727
 10
0.355839
 20
5.30116
 30
0.000000
  70
    32
  0
VERTEX
  8
AM_HID
  5
728
 10
0.355725
 20
5.30102
 30
0.000000
  70
    32
  0
VERTEX
  8
AM_HID
  5
729
 10
0.355612
 20
5.30088
 30
0.000000
  70
    32
  0
VERTEX
  8
AM_HID
  5
72A
 10
0.355499
 20
5.30075
 30
0.000000
  70
    32
  0
VERTEX
  8
AM_HID
  5
72B
 10
0.355385
 20
5.30061
 30
0.000000
  70
    32
  0
VERTEX
  8
AM_HID
  5
72C
 10
0.355272
 20
5.30047
 30
0.000000
  70
    32
  0
VERTEX
  8
AM_HID
  5
72D
 10
0.355159
 20
5.30033
 30
0.000000
  70
    32
  0
VERTEX
  8
AM_HID
  5
72E
 10
0.355045
 20
5.30020
 30
0.000000
  70
    32
  0
VERTEX
  8
AM_HID
  5
72F
 10
0.354932
 20
5.30006
 30
0.000000
  70
    32
  0
VERTEX
  8
AM_HID
  5
730
 10
0.354819
 20
5.29992
 30
0.000000
  70
    32
  0
VERTEX
  8
AM_HID
  5
731
 10
0.354705
 20
5.29979
 30
0.000000
  70
    32
  0
VERTEX
  8
AM_HID
  5
732
 10
0.354592
 20
5.29965
 30
0.000000
  70
    32
  0
VERTEX
  8
AM_HID
  5
733
 10
0.354478
 20
5.29951
 30
0.000000
  70
    32
  0
VERTEX
  8
AM_HID
  5
734
 10
0.354365
 20
5.29938
 30
0.000000
  70
    32
  0
VERTEX
  8
AM_HID
  5
735
 10
0.354252
 20
5.29924
 30
0.000000
  70
    32
  0
VERTEX
  8
AM_HID
  5
736
 10
0.354138
 20
5.29910
 30
0.000000
  70
    32
  0
VERTEX
  8
AM_HID
  5
737
 10
0.354025
 20
5.29896
 30
0.000000
  70
    32
  0
VERTEX
  8
AM_HID
  5
738
 10
0.353912
 20
5.29883
 30
0.000000
  70
    32
  0
VERTEX
  8
AM_HID
  5
739
 10
0.353798
 20
5.29869
 30
0.000000
  70
    32
  0
VERTEX
  8
AM_HID
  5
73A
 10
0.353685
 20
5.29855
 30
0.000000
  70
    32
  0
VERTEX
  8
AM_HID
  5
73B
 10
0.353572
 20
5.29841
 30
0.000000
  70
    32
  0
VERTEX
  8
AM_HID
  5
73C
 10
0.353458
 20
5.29828
 30
0.000000
  70
    32
  0
VERTEX
  8
AM_HID
  5
73D
 10
0.353345
 20
5.29814
 30
0.000000
  70
    32
  0
VERTEX
  8
AM_HID
  5
73E
 10
0.353232
 20
5.29800
 30
0.000000
  70
    32
  0
VERTEX
  8
AM_HID
  5
73F
 10
0.353118
 20
5.29787
 30
0.000000
  70
    32
  0
VERTEX
  8
AM_HID
  5
740
 10
0.353005
 20
5.29773
 30
0.000000
  70
    32
  0
VERTEX
  8
AM_HID
  5
741
 10
0.352892
 20
5.29759
 30
0.000000
  70
    32
  0
VERTEX
  8
AM_HID
  5
742
 10
0.352778
 20
5.29745
 30
0.000000
  70
    32
  0
VERTEX
  8
AM_HID
  5
743
 10
0.352665
 20
5.29732
 30
0.000000
  70
    32
  0
VERTEX
  8
AM_HID
  5
744
 10
0.352552
 20
5.29718
 30
0.000000
  70
    32
  0
VERTEX
  8
AM_HID
  5
745
 10
0.352438
 20
5.29704
 30
0.000000
  70
    32
  0
VERTEX
  8
AM_HID
  5
746
 10
0.352325
 20
5.29690
 30
0.000000
  70
    32
  0
VERTEX
  8
AM_HID
  5
747
 10
0.352212
 20
5.29676
 30
0.000000
  70
    32
  0
VERTEX
  8
AM_HID
  5
748
 10
0.352098
 20
5.29663
 30
0.000000
  70
    32
  0
VERTEX
  8
AM_HID
  5
749
 10
0.351985
 20
5.29649
 30
0.000000
  70
    32
  0
VERTEX
  8
AM_HID
  5
74A
 10
0.351871
 20
5.29635
 30
0.000000
  70
    32
  0
VERTEX
  8
AM_HID
  5
74B
 10
0.351758
 20
5.29621
 30
0.000000
  70
    32
  0
VERTEX
  8
AM_HID
  5
74C
 10
0.351645
 20
5.29608
 30
0.000000
  70
    32
  0
VERTEX
  8
AM_HID
  5
74D
 10
0.351531
 20
5.29594
 30
0.000000
  70
    32
  0
VERTEX
  8
AM_HID
  5
74E
 10
0.351418
 20
5.29580
 30
0.000000
  70
    32
  0
VERTEX
  8
AM_HID
  5
74F
 10
0.351305
 20
5.29566
 30
0.000000
  70
    32
  0
VERTEX
  8
AM_HID
  5
750
 10
0.351191
 20
5.29553
 30
0.000000
  70
    32
  0
VERTEX
  8
AM_HID
  5
751
 10
0.351078
 20
5.29539
 30
0.000000
  70
    32
  0
VERTEX
  8
AM_HID
  5
752
 10
0.350965
 20
5.29525
 30
0.000000
  70
    32
  0
VERTEX
  8
AM_HID
  5
753
 10
0.350851
 20
5.29511
 30
0.000000
  70
    32
  0
VERTEX
  8
AM_HID
  5
754
 10
0.350738
 20
5.29497
 30
0.000000
  70
    32
  0
VERTEX
  8
AM_HID
  5
755
 10
0.350625
 20
5.29484
 30
0.000000
  70
    32
  0
VERTEX
  8
AM_HID
  5
756
 10
0.350511
 20
5.29470
 30
0.000000
  70
    32
  0
VERTEX
  8
AM_HID
  5
757
 10
0.350398
 20
5.29456
 30
0.000000
  70
    32
  0
VERTEX
  8
AM_HID
  5
758
 10
0.350285
 20
5.29442
 30
0.000000
  70
    32
  0
VERTEX
  8
AM_HID
  5
759
 10
0.350171
 20
5.29428
 30
0.000000
  70
    32
  0
VERTEX
  8
AM_HID
  5
75A
 10
0.350058
 20
5.29415
 30
0.000000
  70
    32
  0
VERTEX
  8
AM_HID
  5
75B
 10
0.349945
 20
5.29401
 30
0.000000
  70
    32
  0
VERTEX
  8
AM_HID
  5
75C
 10
0.349831
 20
5.29387
 30
0.000000
  70
    32
  0
VERTEX
  8
AM_HID
  5
75D
 10
0.349718
 20
5.29373
 30
0.000000
  70
    32
  0
VERTEX
  8
AM_HID
  5
75E
 10
0.349604
 20
5.29359
 30
0.000000
  70
    32
  0
VERTEX
  8
AM_HID
  5
75F
 10
0.349491
 20
5.29346
 30
0.000000
  70
    32
  0
VERTEX
  8
AM_HID
  5
760
 10
0.349378
 20
5.29332
 30
0.000000
  70
    32
  0
VERTEX
  8
AM_HID
  5
761
 10
0.349264
 20
5.29318
 30
0.000000
  70
    32
  0
VERTEX
  8
AM_HID
  5
762
 10
0.349151
 20
5.29304
 30
0.000000
  70
    32
  0
VERTEX
  8
AM_HID
  5
763
 10
0.349038
 20
5.29290
 30
0.000000
  70
    32
  0
VERTEX
  8
AM_HID
  5
764
 10
0.348924
 20
5.29277
 30
0.000000
  70
    32
  0
VERTEX
  8
AM_HID
  5
765
 10
0.348811
 20
5.29263
 30
0.000000
  70
    32
  0
VERTEX
  8
AM_HID
  5
766
 10
0.348698
 20
5.29249
 30
0.000000
  70
    32
  0
VERTEX
  8
AM_HID
  5
767
 10
0.348584
 20
5.29235
 30
0.000000
  70
    32
  0
VERTEX
  8
AM_HID
  5
768
 10
0.348471
 20
5.29221
 30
0.000000
  70
    32
  0
VERTEX
  8
AM_HID
  5
769
 10
0.348358
 20
5.29207
 30
0.000000
  70
    32
  0
VERTEX
  8
AM_HID
  5
76A
 10
0.348244
 20
5.29194
 30
0.000000
  70
    32
  0
VERTEX
  8
AM_HID
  5
76B
 10
0.348131
 20
5.29180
 30
0.000000
  70
    32
  0
VERTEX
  8
AM_HID
  5
76C
 10
0.348018
 20
5.29166
 30
0.000000
  70
    32
  0
VERTEX
  8
AM_HID
  5
76D
 10
0.347904
 20
5.29152
 30
0.000000
  70
    32
  0
VERTEX
  8
AM_HID
  5
76E
 10
0.347791
 20
5.29138
 30
0.000000
  70
    32
  0
VERTEX
  8
AM_HID
  5
76F
 10
0.347677
 20
5.29124
 30
0.000000
  70
    32
  0
VERTEX
  8
AM_HID
  5
770
 10
0.347564
 20
5.29110
 30
0.000000
  70
    32
  0
VERTEX
  8
AM_HID
  5
771
 10
0.347451
 20
5.29097
 30
0.000000
  70
    32
  0
VERTEX
  8
AM_HID
  5
772
 10
0.347337
 20
5.29083
 30
0.000000
  70
    32
  0
VERTEX
  8
AM_HID
  5
773
 10
0.347224
 20
5.29069
 30
0.000000
  70
    32
  0
VERTEX
  8
AM_HID
  5
774
 10
0.347111
 20
5.29055
 30
0.000000
  70
    32
  0
VERTEX
  8
AM_HID
  5
775
 10
0.346997
 20
5.29041
 30
0.000000
  70
    32
  0
VERTEX
  8
AM_HID
  5
776
 10
0.346884
 20
5.29027
 30
0.000000
  70
    32
  0
VERTEX
  8
AM_HID
  5
777
 10
0.346771
 20
5.29013
 30
0.000000
  70
    32
  0
VERTEX
  8
AM_HID
  5
778
 10
0.346657
 20
5.29000
 30
0.000000
  70
    32
  0
VERTEX
  8
AM_HID
  5
779
 10
0.346544
 20
5.28986
 30
0.000000
  70
    32
  0
VERTEX
  8
AM_HID
  5
77A
 10
0.346431
 20
5.28972
 30
0.000000
  70
    32
  0
VERTEX
  8
AM_HID
  5
77B
 10
0.346317
 20
5.28958
 30
0.000000
  70
    32
  0
VERTEX
  8
AM_HID
  5
77C
 10
0.346204
 20
5.28944
 30
0.000000
  70
    32
  0
VERTEX
  8
AM_HID
  5
77D
 10
0.346091
 20
5.28930
 30
0.000000
  70
    32
  0
VERTEX
  8
AM_HID
  5
77E
 10
0.345977
 20
5.28916
 30
0.000000
  70
    32
  0
SEQEND
  8
AM_HID
  5
77F
  0
POLYLINE
  5
40
  8
AM_VIS
 10
0.4387812436835717
 20
5.39533485506393
 30
0.0
 66
     1
 70
     8
  0
VERTEX
  8
AM_VIS
  5
780
 10
0.438781
 20
5.39533
 30
0.000000
  70
    32
  0
VERTEX
  8
AM_VIS
  5
781
 10
0.438173
 20
5.39469
 30
0.000000
  70
    32
  0
VERTEX
  8
AM_VIS
  5
782
 10
0.437564
 20
5.39404
 30
0.000000
  70
    32
  0
VERTEX
  8
AM_VIS
  5
783
 10
0.436956
 20
5.39339
 30
0.000000
  70
    32
  0
VERTEX
  8
AM_VIS
  5
784
 10
0.436347
 20
5.39274
 30
0.000000
  70
    32
  0
VERTEX
  8
AM_VIS
  5
785
 10
0.435738
 20
5.39209
 30
0.000000
  70
    32
  0
VERTEX
  8
AM_VIS
  5
786
 10
0.435129
 20
5.39144
 30
0.000000
  70
    32
  0
VERTEX
  8
AM_VIS
  5
787
 10
0.434520
 20
5.39079
 30
0.000000
  70
    32
  0
VERTEX
  8
AM_VIS
  5
788
 10
0.433911
 20
5.39014
 30
0.000000
  70
    32
  0
VERTEX
  8
AM_VIS
  5
789
 10
0.433302
 20
5.38949
 30
0.000000
  70
    32
  0
VERTEX
  8
AM_VIS
  5
78A
 10
0.432693
 20
5.38883
 30
0.000000
  70
    32
  0
VERTEX
  8
AM_VIS
  5
78B
 10
0.432084
 20
5.38818
 30
0.000000
  70
    32
  0
VERTEX
  8
AM_VIS
  5
78C
 10
0.431475
 20
5.38752
 30
0.000000
  70
    32
  0
VERTEX
  8
AM_VIS
  5
78D
 10
0.430865
 20
5.38687
 30
0.000000
  70
    32
  0
VERTEX
  8
AM_VIS
  5
78E
 10
0.430256
 20
5.38621
 30
0.000000
  70
    32
  0
VERTEX
  8
AM_VIS
  5
78F
 10
0.429647
 20
5.38555
 30
0.000000
  70
    32
  0
VERTEX
  8
AM_VIS
  5
790
 10
0.429037
 20
5.38490
 30
0.000000
  70
    32
  0
VERTEX
  8
AM_VIS
  5
791
 10
0.428428
 20
5.38424
 30
0.000000
  70
    32
  0
VERTEX
  8
AM_VIS
  5
792
 10
0.427818
 20
5.38358
 30
0.000000
  70
    32
  0
VERTEX
  8
AM_VIS
  5
793
 10
0.427208
 20
5.38292
 30
0.000000
  70
    32
  0
VERTEX
  8
AM_VIS
  5
794
 10
0.426599
 20
5.38226
 30
0.000000
  70
    32
  0
VERTEX
  8
AM_VIS
  5
795
 10
0.425989
 20
5.38160
 30
0.000000
  70
    32
  0
VERTEX
  8
AM_VIS
  5
796
 10
0.425379
 20
5.38093
 30
0.000000
  70
    32
  0
VERTEX
  8
AM_VIS
  5
797
 10
0.424769
 20
5.38027
 30
0.000000
  70
    32
  0
VERTEX
  8
AM_VIS
  5
798
 10
0.424159
 20
5.37961
 30
0.000000
  70
    32
  0
VERTEX
  8
AM_VIS
  5
799
 10
0.423549
 20
5.37894
 30
0.000000
  70
    32
  0
VERTEX
  8
AM_VIS
  5
79A
 10
0.422939
 20
5.37828
 30
0.000000
  70
    32
  0
VERTEX
  8
AM_VIS
  5
79B
 10
0.422329
 20
5.37761
 30
0.000000
  70
    32
  0
VERTEX
  8
AM_VIS
  5
79C
 10
0.421718
 20
5.37695
 30
0.000000
  70
    32
  0
VERTEX
  8
AM_VIS
  5
79D
 10
0.421108
 20
5.37628
 30
0.000000
  70
    32
  0
VERTEX
  8
AM_VIS
  5
79E
 10
0.420498
 20
5.37561
 30
0.000000
  70
    32
  0
VERTEX
  8
AM_VIS
  5
79F
 10
0.419887
 20
5.37494
 30
0.000000
  70
    32
  0
VERTEX
  8
AM_VIS
  5
7A0
 10
0.419277
 20
5.37427
 30
0.000000
  70
    32
  0
VERTEX
  8
AM_VIS
  5
7A1
 10
0.418666
 20
5.37360
 30
0.000000
  70
    32
  0
VERTEX
  8
AM_VIS
  5
7A2
 10
0.418056
 20
5.37293
 30
0.000000
  70
    32
  0
VERTEX
  8
AM_VIS
  5
7A3
 10
0.417445
 20
5.37226
 30
0.000000
  70
    32
  0
VERTEX
  8
AM_VIS
  5
7A4
 10
0.416835
 20
5.37159
 30
0.000000
  70
    32
  0
VERTEX
  8
AM_VIS
  5
7A5
 10
0.416224
 20
5.37091
 30
0.000000
  70
    32
  0
VERTEX
  8
AM_VIS
  5
7A6
 10
0.415613
 20
5.37024
 30
0.000000
  70
    32
  0
VERTEX
  8
AM_VIS
  5
7A7
 10
0.415002
 20
5.36957
 30
0.000000
  70
    32
  0
VERTEX
  8
AM_VIS
  5
7A8
 10
0.414391
 20
5.36889
 30
0.000000
  70
    32
  0
VERTEX
  8
AM_VIS
  5
7A9
 10
0.413781
 20
5.36822
 30
0.000000
  70
    32
  0
VERTEX
  8
AM_VIS
  5
7AA
 10
0.413170
 20
5.36754
 30
0.000000
  70
    32
  0
VERTEX
  8
AM_VIS
  5
7AB
 10
0.412559
 20
5.36686
 30
0.000000
  70
    32
  0
VERTEX
  8
AM_VIS
  5
7AC
 10
0.411947
 20
5.36618
 30
0.000000
  70
    32
  0
VERTEX
  8
AM_VIS
  5
7AD
 10
0.411336
 20
5.36550
 30
0.000000
  70
    32
  0
VERTEX
  8
AM_VIS
  5
7AE
 10
0.410725
 20
5.36483
 30
0.000000
  70
    32
  0
VERTEX
  8
AM_VIS
  5
7AF
 10
0.410114
 20
5.36415
 30
0.000000
  70
    32
  0
VERTEX
  8
AM_VIS
  5
7B0
 10
0.409503
 20
5.36346
 30
0.000000
  70
    32
  0
VERTEX
  8
AM_VIS
  5
7B1
 10
0.408891
 20
5.36278
 30
0.000000
  70
    32
  0
VERTEX
  8
AM_VIS
  5
7B2
 10
0.408280
 20
5.36210
 30
0.000000
  70
    32
  0
VERTEX
  8
AM_VIS
  5
7B3
 10
0.407669
 20
5.36142
 30
0.000000
  70
    32
  0
VERTEX
  8
AM_VIS
  5
7B4
 10
0.407057
 20
5.36073
 30
0.000000
  70
    32
  0
VERTEX
  8
AM_VIS
  5
7B5
 10
0.406446
 20
5.36005
 30
0.000000
  70
    32
  0
VERTEX
  8
AM_VIS
  5
7B6
 10
0.405834
 20
5.35936
 30
0.000000
  70
    32
  0
VERTEX
  8
AM_VIS
  5
7B7
 10
0.405222
 20
5.35868
 30
0.000000
  70
    32
  0
VERTEX
  8
AM_VIS
  5
7B8
 10
0.404611
 20
5.35799
 30
0.000000
  70
    32
  0
VERTEX
  8
AM_VIS
  5
7B9
 10
0.403999
 20
5.35731
 30
0.000000
  70
    32
  0
VERTEX
  8
AM_VIS
  5
7BA
 10
0.403387
 20
5.35662
 30
0.000000
  70
    32
  0
VERTEX
  8
AM_VIS
  5
7BB
 10
0.402776
 20
5.35593
 30
0.000000
  70
    32
  0
VERTEX
  8
AM_VIS
  5
7BC
 10
0.402164
 20
5.35524
 30
0.000000
  70
    32
  0
VERTEX
  8
AM_VIS
  5
7BD
 10
0.401552
 20
5.35455
 30
0.000000
  70
    32
  0
VERTEX
  8
AM_VIS
  5
7BE
 10
0.400940
 20
5.35386
 30
0.000000
  70
    32
  0
VERTEX
  8
AM_VIS
  5
7BF
 10
0.400328
 20
5.35317
 30
0.000000
  70
    32
  0
VERTEX
  8
AM_VIS
  5
7C0
 10
0.399716
 20
5.35248
 30
0.000000
  70
    32
  0
VERTEX
  8
AM_VIS
  5
7C1
 10
0.399104
 20
5.35178
 30
0.000000
  70
    32
  0
VERTEX
  8
AM_VIS
  5
7C2
 10
0.398492
 20
5.35109
 30
0.000000
  70
    32
  0
VERTEX
  8
AM_VIS
  5
7C3
 10
0.397880
 20
5.35040
 30
0.000000
  70
    32
  0
VERTEX
  8
AM_VIS
  5
7C4
 10
0.397268
 20
5.34970
 30
0.000000
  70
    32
  0
VERTEX
  8
AM_VIS
  5
7C5
 10
0.396656
 20
5.34900
 30
0.000000
  70
    32
  0
VERTEX
  8
AM_VIS
  5
7C6
 10
0.396043
 20
5.34831
 30
0.000000
  70
    32
  0
VERTEX
  8
AM_VIS
  5
7C7
 10
0.395431
 20
5.34761
 30
0.000000
  70
    32
  0
VERTEX
  8
AM_VIS
  5
7C8
 10
0.394819
 20
5.34691
 30
0.000000
  70
    32
  0
VERTEX
  8
AM_VIS
  5
7C9
 10
0.394207
 20
5.34622
 30
0.000000
  70
    32
  0
VERTEX
  8
AM_VIS
  5
7CA
 10
0.393594
 20
5.34552
 30
0.000000
  70
    32
  0
VERTEX
  8
AM_VIS
  5
7CB
 10
0.392982
 20
5.34482
 30
0.000000
  70
    32
  0
VERTEX
  8
AM_VIS
  5
7CC
 10
0.392369
 20
5.34412
 30
0.000000
  70
    32
  0
VERTEX
  8
AM_VIS
  5
7CD
 10
0.391757
 20
5.34342
 30
0.000000
  70
    32
  0
VERTEX
  8
AM_VIS
  5
7CE
 10
0.391144
 20
5.34271
 30
0.000000
  70
    32
  0
VERTEX
  8
AM_VIS
  5
7CF
 10
0.390532
 20
5.34201
 30
0.000000
  70
    32
  0
VERTEX
  8
AM_VIS
  5
7D0
 10
0.389919
 20
5.34131
 30
0.000000
  70
    32
  0
VERTEX
  8
AM_VIS
  5
7D1
 10
0.389307
 20
5.34060
 30
0.000000
  70
    32
  0
VERTEX
  8
AM_VIS
  5
7D2
 10
0.388694
 20
5.33990
 30
0.000000
  70
    32
  0
VERTEX
  8
AM_VIS
  5
7D3
 10
0.388081
 20
5.33919
 30
0.000000
  70
    32
  0
VERTEX
  8
AM_VIS
  5
7D4
 10
0.387469
 20
5.33849
 30
0.000000
  70
    32
  0
VERTEX
  8
AM_VIS
  5
7D5
 10
0.386856
 20
5.33778
 30
0.000000
  70
    32
  0
VERTEX
  8
AM_VIS
  5
7D6
 10
0.386243
 20
5.33707
 30
0.000000
  70
    32
  0
VERTEX
  8
AM_VIS
  5
7D7
 10
0.385630
 20
5.33637
 30
0.000000
  70
    32
  0
VERTEX
  8
AM_VIS
  5
7D8
 10
0.385018
 20
5.33566
 30
0.000000
  70
    32
  0
VERTEX
  8
AM_VIS
  5
7D9
 10
0.384405
 20
5.33495
 30
0.000000
  70
    32
  0
VERTEX
  8
AM_VIS
  5
7DA
 10
0.383792
 20
5.33424
 30
0.000000
  70
    32
  0
VERTEX
  8
AM_VIS
  5
7DB
 10
0.383179
 20
5.33353
 30
0.000000
  70
    32
  0
VERTEX
  8
AM_VIS
  5
7DC
 10
0.382566
 20
5.33282
 30
0.000000
  70
    32
  0
VERTEX
  8
AM_VIS
  5
7DD
 10
0.381953
 20
5.33210
 30
0.000000
  70
    32
  0
VERTEX
  8
AM_VIS
  5
7DE
 10
0.381340
 20
5.33139
 30
0.000000
  70
    32
  0
VERTEX
  8
AM_VIS
  5
7DF
 10
0.380727
 20
5.33068
 30
0.000000
  70
    32
  0
VERTEX
  8
AM_VIS
  5
7E0
 10
0.380114
 20
5.32996
 30
0.000000
  70
    32
  0
VERTEX
  8
AM_VIS
  5
7E1
 10
0.379501
 20
5.32925
 30
0.000000
  70
    32
  0
VERTEX
  8
AM_VIS
  5
7E2
 10
0.378888
 20
5.32853
 30
0.000000
  70
    32
  0
VERTEX
  8
AM_VIS
  5
7E3
 10
0.378275
 20
5.32782
 30
0.000000
  70
    32
  0
VERTEX
  8
AM_VIS
  5
7E4
 10
0.377661
 20
5.32710
 30
0.000000
  70
    32
  0
VERTEX
  8
AM_VIS
  5
7E5
 10
0.377048
 20
5.32638
 30
0.000000
  70
    32
  0
VERTEX
  8
AM_VIS
  5
7E6
 10
0.376435
 20
5.32566
 30
0.000000
  70
    32
  0
VERTEX
  8
AM_VIS
  5
7E7
 10
0.375822
 20
5.32494
 30
0.000000
  70
    32
  0
VERTEX
  8
AM_VIS
  5
7E8
 10
0.375209
 20
5.32422
 30
0.000000
  70
    32
  0
VERTEX
  8
AM_VIS
  5
7E9
 10
0.374595
 20
5.32350
 30
0.000000
  70
    32
  0
VERTEX
  8
AM_VIS
  5
7EA
 10
0.373982
 20
5.32278
 30
0.000000
  70
    32
  0
VERTEX
  8
AM_VIS
  5
7EB
 10
0.373369
 20
5.32206
 30
0.000000
  70
    32
  0
VERTEX
  8
AM_VIS
  5
7EC
 10
0.372755
 20
5.32134
 30
0.000000
  70
    32
  0
VERTEX
  8
AM_VIS
  5
7ED
 10
0.372142
 20
5.32062
 30
0.000000
  70
    32
  0
VERTEX
  8
AM_VIS
  5
7EE
 10
0.371529
 20
5.31989
 30
0.000000
  70
    32
  0
VERTEX
  8
AM_VIS
  5
7EF
 10
0.370915
 20
5.31917
 30
0.000000
  70
    32
  0
VERTEX
  8
AM_VIS
  5
7F0
 10
0.370302
 20
5.31844
 30
0.000000
  70
    32
  0
VERTEX
  8
AM_VIS
  5
7F1
 10
0.369689
 20
5.31772
 30
0.000000
  70
    32
  0
VERTEX
  8
AM_VIS
  5
7F2
 10
0.369075
 20
5.31699
 30
0.000000
  70
    32
  0
VERTEX
  8
AM_VIS
  5
7F3
 10
0.368462
 20
5.31626
 30
0.000000
  70
    32
  0
VERTEX
  8
AM_VIS
  5
7F4
 10
0.367848
 20
5.31554
 30
0.000000
  70
    32
  0
VERTEX
  8
AM_VIS
  5
7F5
 10
0.367235
 20
5.31481
 30
0.000000
  70
    32
  0
VERTEX
  8
AM_VIS
  5
7F6
 10
0.366621
 20
5.31408
 30
0.000000
  70
    32
  0
VERTEX
  8
AM_VIS
  5
7F7
 10
0.366008
 20
5.31335
 30
0.000000
  70
    32
  0
VERTEX
  8
AM_VIS
  5
7F8
 10
0.365394
 20
5.31262
 30
0.000000
  70
    32
  0
VERTEX
  8
AM_VIS
  5
7F9
 10
0.364781
 20
5.31189
 30
0.000000
  70
    32
  0
VERTEX
  8
AM_VIS
  5
7FA
 10
0.364167
 20
5.31115
 30
0.000000
  70
    32
  0
VERTEX
  8
AM_VIS
  5
7FB
 10
0.363553
 20
5.31042
 30
0.000000
  70
    32
  0
VERTEX
  8
AM_VIS
  5
7FC
 10
0.362940
 20
5.30969
 30
0.000000
  70
    32
  0
VERTEX
  8
AM_VIS
  5
7FD
 10
0.362326
 20
5.30896
 30
0.000000
  70
    32
  0
VERTEX
  8
AM_VIS
  5
7FE
 10
0.361713
 20
5.30822
 30
0.000000
  70
    32
  0
VERTEX
  8
AM_VIS
  5
7FF
 10
0.361099
 20
5.30749
 30
0.000000
  70
    32
  0
VERTEX
  8
AM_VIS
  5
800
 10
0.360485
 20
5.30675
 30
0.000000
  70
    32
  0
SEQEND
  8
AM_VIS
  5
801
  0
POLYLINE
  5
41
  8
AM_HID
 10
0.438781243684332
 20
5.1680123047629092
 30
0.0
 66
     1
 70
     8
  0
VERTEX
  8
AM_HID
  5
802
 10
0.438781
 20
5.16801
 30
0.000000
  70
    32
  0
VERTEX
  8
AM_HID
  5
803
 10
0.438060
 20
5.16901
 30
0.000000
  70
    32
  0
VERTEX
  8
AM_HID
  5
804
 10
0.437339
 20
5.17001
 30
0.000000
  70
    32
  0
VERTEX
  8
AM_HID
  5
805
 10
0.436618
 20
5.17101
 30
0.000000
  70
    32
  0
VERTEX
  8
AM_HID
  5
806
 10
0.435897
 20
5.17200
 30
0.000000
  70
    32
  0
VERTEX
  8
AM_HID
  5
807
 10
0.435176
 20
5.17300
 30
0.000000
  70
    32
  0
VERTEX
  8
AM_HID
  5
808
 10
0.434454
 20
5.17400
 30
0.000000
  70
    32
  0
VERTEX
  8
AM_HID
  5
809
 10
0.433733
 20
5.17499
 30
0.000000
  70
    32
  0
VERTEX
  8
AM_HID
  5
80A
 10
0.433011
 20
5.17598
 30
0.000000
  70
    32
  0
VERTEX
  8
AM_HID
  5
80B
 10
0.432290
 20
5.17698
 30
0.000000
  70
    32
  0
VERTEX
  8
AM_HID
  5
80C
 10
0.431568
 20
5.17797
 30
0.000000
  70
    32
  0
VERTEX
  8
AM_HID
  5
80D
 10
0.430846
 20
5.17896
 30
0.000000
  70
    32
  0
VERTEX
  8
AM_HID
  5
80E
 10
0.430124
 20
5.17995
 30
0.000000
  70
    32
  0
VERTEX
  8
AM_HID
  5
80F
 10
0.429402
 20
5.18094
 30
0.000000
  70
    32
  0
VERTEX
  8
AM_HID
  5
810
 10
0.428680
 20
5.18193
 30
0.000000
  70
    32
  0
VERTEX
  8
AM_HID
  5
811
 10
0.427958
 20
5.18292
 30
0.000000
  70
    32
  0
VERTEX
  8
AM_HID
  5
812
 10
0.427236
 20
5.18391
 30
0.000000
  70
    32
  0
VERTEX
  8
AM_HID
  5
813
 10
0.426513
 20
5.18489
 30
0.000000
  70
    32
  0
VERTEX
  8
AM_HID
  5
814
 10
0.425791
 20
5.18588
 30
0.000000
  70
    32
  0
VERTEX
  8
AM_HID
  5
815
 10
0.425068
 20
5.18686
 30
0.000000
  70
    32
  0
VERTEX
  8
AM_HID
  5
816
 10
0.424346
 20
5.18785
 30
0.000000
  70
    32
  0
VERTEX
  8
AM_HID
  5
817
 10
0.423623
 20
5.18883
 30
0.000000
  70
    32
  0
VERTEX
  8
AM_HID
  5
818
 10
0.422900
 20
5.18981
 30
0.000000
  70
    32
  0
VERTEX
  8
AM_HID
  5
819
 10
0.422177
 20
5.19080
 30
0.000000
  70
    32
  0
VERTEX
  8
AM_HID
  5
81A
 10
0.421455
 20
5.19178
 30
0.000000
  70
    32
  0
VERTEX
  8
AM_HID
  5
81B
 10
0.420732
 20
5.19276
 30
0.000000
  70
    32
  0
VERTEX
  8
AM_HID
  5
81C
 10
0.420008
 20
5.19374
 30
0.000000
  70
    32
  0
VERTEX
  8
AM_HID
  5
81D
 10
0.419285
 20
5.19471
 30
0.000000
  70
    32
  0
VERTEX
  8
AM_HID
  5
81E
 10
0.418562
 20
5.19569
 30
0.000000
  70
    32
  0
VERTEX
  8
AM_HID
  5
81F
 10
0.417839
 20
5.19667
 30
0.000000
  70
    32
  0
VERTEX
  8
AM_HID
  5
820
 10
0.417115
 20
5.19764
 30
0.000000
  70
    32
  0
VERTEX
  8
AM_HID
  5
821
 10
0.416392
 20
5.19862
 30
0.000000
  70
    32
  0
VERTEX
  8
AM_HID
  5
822
 10
0.415668
 20
5.19959
 30
0.000000
  70
    32
  0
VERTEX
  8
AM_HID
  5
823
 10
0.414945
 20
5.20057
 30
0.000000
  70
    32
  0
VERTEX
  8
AM_HID
  5
824
 10
0.414221
 20
5.20154
 30
0.000000
  70
    32
  0
VERTEX
  8
AM_HID
  5
825
 10
0.413497
 20
5.20251
 30
0.000000
  70
    32
  0
VERTEX
  8
AM_HID
  5
826
 10
0.412773
 20
5.20348
 30
0.000000
  70
    32
  0
VERTEX
  8
AM_HID
  5
827
 10
0.412049
 20
5.20445
 30
0.000000
  70
    32
  0
VERTEX
  8
AM_HID
  5
828
 10
0.411325
 20
5.20542
 30
0.000000
  70
    32
  0
VERTEX
  8
AM_HID
  5
829
 10
0.410601
 20
5.20639
 30
0.000000
  70
    32
  0
VERTEX
  8
AM_HID
  5
82A
 10
0.409877
 20
5.20736
 30
0.000000
  70
    32
  0
VERTEX
  8
AM_HID
  5
82B
 10
0.409153
 20
5.20833
 30
0.000000
  70
    32
  0
VERTEX
  8
AM_HID
  5
82C
 10
0.408429
 20
5.20929
 30
0.000000
  70
    32
  0
VERTEX
  8
AM_HID
  5
82D
 10
0.407704
 20
5.21026
 30
0.000000
  70
    32
  0
VERTEX
  8
AM_HID
  5
82E
 10
0.406980
 20
5.21122
 30
0.000000
  70
    32
  0
VERTEX
  8
AM_HID
  5
82F
 10
0.406256
 20
5.21219
 30
0.000000
  70
    32
  0
VERTEX
  8
AM_HID
  5
830
 10
0.405531
 20
5.21315
 30
0.000000
  70
    32
  0
VERTEX
  8
AM_HID
  5
831
 10
0.404807
 20
5.21411
 30
0.000000
  70
    32
  0
VERTEX
  8
AM_HID
  5
832
 10
0.404082
 20
5.21507
 30
0.000000
  70
    32
  0
VERTEX
  8
AM_HID
  5
833
 10
0.403357
 20
5.21603
 30
0.000000
  70
    32
  0
VERTEX
  8
AM_HID
  5
834
 10
0.402632
 20
5.21699
 30
0.000000
  70
    32
  0
VERTEX
  8
AM_HID
  5
835
 10
0.401908
 20
5.21795
 30
0.000000
  70
    32
  0
VERTEX
  8
AM_HID
  5
836
 10
0.401183
 20
5.21891
 30
0.000000
  70
    32
  0
VERTEX
  8
AM_HID
  5
837
 10
0.400458
 20
5.21986
 30
0.000000
  70
    32
  0
VERTEX
  8
AM_HID
  5
838
 10
0.399733
 20
5.22082
 30
0.000000
  70
    32
  0
VERTEX
  8
AM_HID
  5
839
 10
0.399008
 20
5.22178
 30
0.000000
  70
    32
  0
VERTEX
  8
AM_HID
  5
83A
 10
0.398283
 20
5.22273
 30
0.000000
  70
    32
  0
VERTEX
  8
AM_HID
  5
83B
 10
0.397557
 20
5.22368
 30
0.000000
  70
    32
  0
VERTEX
  8
AM_HID
  5
83C
 10
0.396832
 20
5.22464
 30
0.000000
  70
    32
  0
VERTEX
  8
AM_HID
  5
83D
 10
0.396107
 20
5.22559
 30
0.000000
  70
    32
  0
VERTEX
  8
AM_HID
  5
83E
 10
0.395382
 20
5.22654
 30
0.000000
  70
    32
  0
VERTEX
  8
AM_HID
  5
83F
 10
0.394656
 20
5.22749
 30
0.000000
  70
    32
  0
VERTEX
  8
AM_HID
  5
840
 10
0.393931
 20
5.22844
 30
0.000000
  70
    32
  0
VERTEX
  8
AM_HID
  5
841
 10
0.393205
 20
5.22939
 30
0.000000
  70
    32
  0
VERTEX
  8
AM_HID
  5
842
 10
0.392480
 20
5.23033
 30
0.000000
  70
    32
  0
VERTEX
  8
AM_HID
  5
843
 10
0.391754
 20
5.23128
 30
0.000000
  70
    32
  0
VERTEX
  8
AM_HID
  5
844
 10
0.391029
 20
5.23223
 30
0.000000
  70
    32
  0
VERTEX
  8
AM_HID
  5
845
 10
0.390303
 20
5.23317
 30
0.000000
  70
    32
  0
VERTEX
  8
AM_HID
  5
846
 10
0.389577
 20
5.23412
 30
0.000000
  70
    32
  0
VERTEX
  8
AM_HID
  5
847
 10
0.388851
 20
5.23506
 30
0.000000
  70
    32
  0
VERTEX
  8
AM_HID
  5
848
 10
0.388126
 20
5.23600
 30
0.000000
  70
    32
  0
VERTEX
  8
AM_HID
  5
849
 10
0.387400
 20
5.23694
 30
0.000000
  70
    32
  0
VERTEX
  8
AM_HID
  5
84A
 10
0.386674
 20
5.23788
 30
0.000000
  70
    32
  0
VERTEX
  8
AM_HID
  5
84B
 10
0.385948
 20
5.23882
 30
0.000000
  70
    32
  0
VERTEX
  8
AM_HID
  5
84C
 10
0.385222
 20
5.23976
 30
0.000000
  70
    32
  0
VERTEX
  8
AM_HID
  5
84D
 10
0.384496
 20
5.24070
 30
0.000000
  70
    32
  0
VERTEX
  8
AM_HID
  5
84E
 10
0.383770
 20
5.24164
 30
0.000000
  70
    32
  0
VERTEX
  8
AM_HID
  5
84F
 10
0.383044
 20
5.24258
 30
0.000000
  70
    32
  0
VERTEX
  8
AM_HID
  5
850
 10
0.382318
 20
5.24351
 30
0.000000
  70
    32
  0
VERTEX
  8
AM_HID
  5
851
 10
0.381591
 20
5.24445
 30
0.000000
  70
    32
  0
VERTEX
  8
AM_HID
  5
852
 10
0.380865
 20
5.24538
 30
0.000000
  70
    32
  0
VERTEX
  8
AM_HID
  5
853
 10
0.380139
 20
5.24631
 30
0.000000
  70
    32
  0
VERTEX
  8
AM_HID
  5
854
 10
0.379413
 20
5.24724
 30
0.000000
  70
    32
  0
VERTEX
  8
AM_HID
  5
855
 10
0.378686
 20
5.24818
 30
0.000000
  70
    32
  0
VERTEX
  8
AM_HID
  5
856
 10
0.377960
 20
5.24911
 30
0.000000
  70
    32
  0
VERTEX
  8
AM_HID
  5
857
 10
0.377234
 20
5.25004
 30
0.000000
  70
    32
  0
VERTEX
  8
AM_HID
  5
858
 10
0.376507
 20
5.25096
 30
0.000000
  70
    32
  0
VERTEX
  8
AM_HID
  5
859
 10
0.375781
 20
5.25189
 30
0.000000
  70
    32
  0
VERTEX
  8
AM_HID
  5
85A
 10
0.375054
 20
5.25282
 30
0.000000
  70
    32
  0
VERTEX
  8
AM_HID
  5
85B
 10
0.374328
 20
5.25374
 30
0.000000
  70
    32
  0
VERTEX
  8
AM_HID
  5
85C
 10
0.373601
 20
5.25467
 30
0.000000
  70
    32
  0
VERTEX
  8
AM_HID
  5
85D
 10
0.372874
 20
5.25559
 30
0.000000
  70
    32
  0
VERTEX
  8
AM_HID
  5
85E
 10
0.372148
 20
5.25652
 30
0.000000
  70
    32
  0
VERTEX
  8
AM_HID
  5
85F
 10
0.371421
 20
5.25744
 30
0.000000
  70
    32
  0
VERTEX
  8
AM_HID
  5
860
 10
0.370695
 20
5.25836
 30
0.000000
  70
    32
  0
VERTEX
  8
AM_HID
  5
861
 10
0.369968
 20
5.25928
 30
0.000000
  70
    32
  0
VERTEX
  8
AM_HID
  5
862
 10
0.369241
 20
5.26020
 30
0.000000
  70
    32
  0
VERTEX
  8
AM_HID
  5
863
 10
0.368514
 20
5.26112
 30
0.000000
  70
    32
  0
VERTEX
  8
AM_HID
  5
864
 10
0.367788
 20
5.26204
 30
0.000000
  70
    32
  0
VERTEX
  8
AM_HID
  5
865
 10
0.367061
 20
5.26296
 30
0.000000
  70
    32
  0
VERTEX
  8
AM_HID
  5
866
 10
0.366334
 20
5.26387
 30
0.000000
  70
    32
  0
VERTEX
  8
AM_HID
  5
867
 10
0.365607
 20
5.26479
 30
0.000000
  70
    32
  0
VERTEX
  8
AM_HID
  5
868
 10
0.364880
 20
5.26570
 30
0.000000
  70
    32
  0
VERTEX
  8
AM_HID
  5
869
 10
0.364153
 20
5.26662
 30
0.000000
  70
    32
  0
VERTEX
  8
AM_HID
  5
86A
 10
0.363427
 20
5.26753
 30
0.000000
  70
    32
  0
VERTEX
  8
AM_HID
  5
86B
 10
0.362700
 20
5.26844
 30
0.000000
  70
    32
  0
VERTEX
  8
AM_HID
  5
86C
 10
0.361973
 20
5.26935
 30
0.000000
  70
    32
  0
VERTEX
  8
AM_HID
  5
86D
 10
0.361246
 20
5.27026
 30
0.000000
  70
    32
  0
VERTEX
  8
AM_HID
  5
86E
 10
0.360519
 20
5.27117
 30
0.000000
  70
    32
  0
VERTEX
  8
AM_HID
  5
86F
 10
0.359792
 20
5.27208
 30
0.000000
  70
    32
  0
VERTEX
  8
AM_HID
  5
870
 10
0.359065
 20
5.27299
 30
0.000000
  70
    32
  0
VERTEX
  8
AM_HID
  5
871
 10
0.358338
 20
5.27389
 30
0.000000
  70
    32
  0
VERTEX
  8
AM_HID
  5
872
 10
0.357611
 20
5.27480
 30
0.000000
  70
    32
  0
VERTEX
  8
AM_HID
  5
873
 10
0.356884
 20
5.27570
 30
0.000000
  70
    32
  0
VERTEX
  8
AM_HID
  5
874
 10
0.356157
 20
5.27661
 30
0.000000
  70
    32
  0
VERTEX
  8
AM_HID
  5
875
 10
0.355430
 20
5.27751
 30
0.000000
  70
    32
  0
VERTEX
  8
AM_HID
  5
876
 10
0.354703
 20
5.27841
 30
0.000000
  70
    32
  0
VERTEX
  8
AM_HID
  5
877
 10
0.353975
 20
5.27931
 30
0.000000
  70
    32
  0
VERTEX
  8
AM_HID
  5
878
 10
0.353248
 20
5.28021
 30
0.000000
  70
    32
  0
VERTEX
  8
AM_HID
  5
879
 10
0.352521
 20
5.28111
 30
0.000000
  70
    32
  0
VERTEX
  8
AM_HID
  5
87A
 10
0.351794
 20
5.28201
 30
0.000000
  70
    32
  0
VERTEX
  8
AM_HID
  5
87B
 10
0.351067
 20
5.28291
 30
0.000000
  70
    32
  0
VERTEX
  8
AM_HID
  5
87C
 10
0.350340
 20
5.28380
 30
0.000000
  70
    32
  0
VERTEX
  8
AM_HID
  5
87D
 10
0.349613
 20
5.28470
 30
0.000000
  70
    32
  0
VERTEX
  8
AM_HID
  5
87E
 10
0.348886
 20
5.28559
 30
0.000000
  70
    32
  0
VERTEX
  8
AM_HID
  5
87F
 10
0.348159
 20
5.28649
 30
0.000000
  70
    32
  0
VERTEX
  8
AM_HID
  5
880
 10
0.347431
 20
5.28738
 30
0.000000
  70
    32
  0
VERTEX
  8
AM_HID
  5
881
 10
0.346704
 20
5.28827
 30
0.000000
  70
    32
  0
VERTEX
  8
AM_HID
  5
882
 10
0.345977
 20
5.28916
 30
0.000000
  70
    32
  0
SEQEND
  8
AM_HID
  5
883
  0
LINE
  5
42
  8
AM_HID
 10
0.6243893287724003
 20
5.1680123047634767
 30
0.0
 11
0.4387812436839481
 21
5.1680123047634767
 31
0.0
  0
POLYLINE
  5
43
  8
AM_HID
 10
0.7171933713166276
 20
5.2891631272501165
 30
0.0
 66
     1
 70
     8
  0
VERTEX
  8
AM_HID
  5
884
 10
0.717193
 20
5.28916
 30
0.000000
  70
    32
  0
VERTEX
  8
AM_HID
  5
885
 10
0.716466
 20
5.28827
 30
0.000000
  70
    32
  0
VERTEX
  8
AM_HID
  5
886
 10
0.715739
 20
5.28738
 30
0.000000
  70
    32
  0
VERTEX
  8
AM_HID
  5
887
 10
0.715012
 20
5.28649
 30
0.000000
  70
    32
  0
VERTEX
  8
AM_HID
  5
888
 10
0.714285
 20
5.28559
 30
0.000000
  70
    32
  0
VERTEX
  8
AM_HID
  5
889
 10
0.713558
 20
5.28470
 30
0.000000
  70
    32
  0
VERTEX
  8
AM_HID
  5
88A
 10
0.712831
 20
5.28380
 30
0.000000
  70
    32
  0
VERTEX
  8
AM_HID
  5
88B
 10
0.712104
 20
5.28291
 30
0.000000
  70
    32
  0
VERTEX
  8
AM_HID
  5
88C
 10
0.711376
 20
5.28201
 30
0.000000
  70
    32
  0
VERTEX
  8
AM_HID
  5
88D
 10
0.710649
 20
5.28111
 30
0.000000
  70
    32
  0
VERTEX
  8
AM_HID
  5
88E
 10
0.709922
 20
5.28021
 30
0.000000
  70
    32
  0
VERTEX
  8
AM_HID
  5
88F
 10
0.709195
 20
5.27931
 30
0.000000
  70
    32
  0
VERTEX
  8
AM_HID
  5
890
 10
0.708468
 20
5.27841
 30
0.000000
  70
    32
  0
VERTEX
  8
AM_HID
  5
891
 10
0.707741
 20
5.27751
 30
0.000000
  70
    32
  0
VERTEX
  8
AM_HID
  5
892
 10
0.707014
 20
5.27661
 30
0.000000
  70
    32
  0
VERTEX
  8
AM_HID
  5
893
 10
0.706287
 20
5.27570
 30
0.000000
  70
    32
  0
VERTEX
  8
AM_HID
  5
894
 10
0.705560
 20
5.27480
 30
0.000000
  70
    32
  0
VERTEX
  8
AM_HID
  5
895
 10
0.704833
 20
5.27389
 30
0.000000
  70
    32
  0
VERTEX
  8
AM_HID
  5
896
 10
0.704106
 20
5.27299
 30
0.000000
  70
    32
  0
VERTEX
  8
AM_HID
  5
897
 10
0.703379
 20
5.27208
 30
0.000000
  70
    32
  0
VERTEX
  8
AM_HID
  5
898
 10
0.702652
 20
5.27117
 30
0.000000
  70
    32
  0
VERTEX
  8
AM_HID
  5
899
 10
0.701925
 20
5.27026
 30
0.000000
  70
    32
  0
VERTEX
  8
AM_HID
  5
89A
 10
0.701198
 20
5.26935
 30
0.000000
  70
    32
  0
VERTEX
  8
AM_HID
  5
89B
 10
0.700471
 20
5.26844
 30
0.000000
  70
    32
  0
VERTEX
  8
AM_HID
  5
89C
 10
0.699744
 20
5.26753
 30
0.000000
  70
    32
  0
VERTEX
  8
AM_HID
  5
89D
 10
0.699017
 20
5.26662
 30
0.000000
  70
    32
  0
VERTEX
  8
AM_HID
  5
89E
 10
0.698290
 20
5.26570
 30
0.000000
  70
    32
  0
VERTEX
  8
AM_HID
  5
89F
 10
0.697563
 20
5.26479
 30
0.000000
  70
    32
  0
VERTEX
  8
AM_HID
  5
8A0
 10
0.696837
 20
5.26387
 30
0.000000
  70
    32
  0
VERTEX
  8
AM_HID
  5
8A1
 10
0.696110
 20
5.26296
 30
0.000000
  70
    32
  0
VERTEX
  8
AM_HID
  5
8A2
 10
0.695383
 20
5.26204
 30
0.000000
  70
    32
  0
VERTEX
  8
AM_HID
  5
8A3
 10
0.694656
 20
5.26112
 30
0.000000
  70
    32
  0
VERTEX
  8
AM_HID
  5
8A4
 10
0.693929
 20
5.26020
 30
0.000000
  70
    32
  0
VERTEX
  8
AM_HID
  5
8A5
 10
0.693203
 20
5.25928
 30
0.000000
  70
    32
  0
VERTEX
  8
AM_HID
  5
8A6
 10
0.692476
 20
5.25836
 30
0.000000
  70
    32
  0
VERTEX
  8
AM_HID
  5
8A7
 10
0.691749
 20
5.25744
 30
0.000000
  70
    32
  0
VERTEX
  8
AM_HID
  5
8A8
 10
0.691023
 20
5.25652
 30
0.000000
  70
    32
  0
VERTEX
  8
AM_HID
  5
8A9
 10
0.690296
 20
5.25559
 30
0.000000
  70
    32
  0
VERTEX
  8
AM_HID
  5
8AA
 10
0.689570
 20
5.25467
 30
0.000000
  70
    32
  0
VERTEX
  8
AM_HID
  5
8AB
 10
0.688843
 20
5.25374
 30
0.000000
  70
    32
  0
VERTEX
  8
AM_HID
  5
8AC
 10
0.688116
 20
5.25282
 30
0.000000
  70
    32
  0
VERTEX
  8
AM_HID
  5
8AD
 10
0.687390
 20
5.25189
 30
0.000000
  70
    32
  0
VERTEX
  8
AM_HID
  5
8AE
 10
0.686663
 20
5.25096
 30
0.000000
  70
    32
  0
VERTEX
  8
AM_HID
  5
8AF
 10
0.685937
 20
5.25004
 30
0.000000
  70
    32
  0
VERTEX
  8
AM_HID
  5
8B0
 10
0.685211
 20
5.24911
 30
0.000000
  70
    32
  0
VERTEX
  8
AM_HID
  5
8B1
 10
0.684484
 20
5.24818
 30
0.000000
  70
    32
  0
VERTEX
  8
AM_HID
  5
8B2
 10
0.683758
 20
5.24724
 30
0.000000
  70
    32
  0
VERTEX
  8
AM_HID
  5
8B3
 10
0.683032
 20
5.24631
 30
0.000000
  70
    32
  0
VERTEX
  8
AM_HID
  5
8B4
 10
0.682305
 20
5.24538
 30
0.000000
  70
    32
  0
VERTEX
  8
AM_HID
  5
8B5
 10
0.681579
 20
5.24445
 30
0.000000
  70
    32
  0
VERTEX
  8
AM_HID
  5
8B6
 10
0.680853
 20
5.24351
 30
0.000000
  70
    32
  0
VERTEX
  8
AM_HID
  5
8B7
 10
0.680127
 20
5.24258
 30
0.000000
  70
    32
  0
VERTEX
  8
AM_HID
  5
8B8
 10
0.679401
 20
5.24164
 30
0.000000
  70
    32
  0
VERTEX
  8
AM_HID
  5
8B9
 10
0.678675
 20
5.24070
 30
0.000000
  70
    32
  0
VERTEX
  8
AM_HID
  5
8BA
 10
0.677949
 20
5.23976
 30
0.000000
  70
    32
  0
VERTEX
  8
AM_HID
  5
8BB
 10
0.677223
 20
5.23882
 30
0.000000
  70
    32
  0
VERTEX
  8
AM_HID
  5
8BC
 10
0.676497
 20
5.23788
 30
0.000000
  70
    32
  0
VERTEX
  8
AM_HID
  5
8BD
 10
0.675771
 20
5.23694
 30
0.000000
  70
    32
  0
VERTEX
  8
AM_HID
  5
8BE
 10
0.675045
 20
5.23600
 30
0.000000
  70
    32
  0
VERTEX
  8
AM_HID
  5
8BF
 10
0.674319
 20
5.23506
 30
0.000000
  70
    32
  0
VERTEX
  8
AM_HID
  5
8C0
 10
0.673593
 20
5.23412
 30
0.000000
  70
    32
  0
VERTEX
  8
AM_HID
  5
8C1
 10
0.672868
 20
5.23317
 30
0.000000
  70
    32
  0
VERTEX
  8
AM_HID
  5
8C2
 10
0.672142
 20
5.23223
 30
0.000000
  70
    32
  0
VERTEX
  8
AM_HID
  5
8C3
 10
0.671416
 20
5.23128
 30
0.000000
  70
    32
  0
VERTEX
  8
AM_HID
  5
8C4
 10
0.670691
 20
5.23033
 30
0.000000
  70
    32
  0
VERTEX
  8
AM_HID
  5
8C5
 10
0.669965
 20
5.22939
 30
0.000000
  70
    32
  0
VERTEX
  8
AM_HID
  5
8C6
 10
0.669240
 20
5.22844
 30
0.000000
  70
    32
  0
VERTEX
  8
AM_HID
  5
8C7
 10
0.668514
 20
5.22749
 30
0.000000
  70
    32
  0
VERTEX
  8
AM_HID
  5
8C8
 10
0.667789
 20
5.22654
 30
0.000000
  70
    32
  0
VERTEX
  8
AM_HID
  5
8C9
 10
0.667064
 20
5.22559
 30
0.000000
  70
    32
  0
VERTEX
  8
AM_HID
  5
8CA
 10
0.666338
 20
5.22464
 30
0.000000
  70
    32
  0
VERTEX
  8
AM_HID
  5
8CB
 10
0.665613
 20
5.22368
 30
0.000000
  70
    32
  0
VERTEX
  8
AM_HID
  5
8CC
 10
0.664888
 20
5.22273
 30
0.000000
  70
    32
  0
VERTEX
  8
AM_HID
  5
8CD
 10
0.664163
 20
5.22178
 30
0.000000
  70
    32
  0
VERTEX
  8
AM_HID
  5
8CE
 10
0.663438
 20
5.22082
 30
0.000000
  70
    32
  0
VERTEX
  8
AM_HID
  5
8CF
 10
0.662713
 20
5.21986
 30
0.000000
  70
    32
  0
VERTEX
  8
AM_HID
  5
8D0
 10
0.661988
 20
5.21891
 30
0.000000
  70
    32
  0
VERTEX
  8
AM_HID
  5
8D1
 10
0.661263
 20
5.21795
 30
0.000000
  70
    32
  0
VERTEX
  8
AM_HID
  5
8D2
 10
0.660538
 20
5.21699
 30
0.000000
  70
    32
  0
VERTEX
  8
AM_HID
  5
8D3
 10
0.659813
 20
5.21603
 30
0.000000
  70
    32
  0
VERTEX
  8
AM_HID
  5
8D4
 10
0.659089
 20
5.21507
 30
0.000000
  70
    32
  0
VERTEX
  8
AM_HID
  5
8D5
 10
0.658364
 20
5.21411
 30
0.000000
  70
    32
  0
VERTEX
  8
AM_HID
  5
8D6
 10
0.657639
 20
5.21315
 30
0.000000
  70
    32
  0
VERTEX
  8
AM_HID
  5
8D7
 10
0.656915
 20
5.21219
 30
0.000000
  70
    32
  0
VERTEX
  8
AM_HID
  5
8D8
 10
0.656190
 20
5.21122
 30
0.000000
  70
    32
  0
VERTEX
  8
AM_HID
  5
8D9
 10
0.655466
 20
5.21026
 30
0.000000
  70
    32
  0
VERTEX
  8
AM_HID
  5
8DA
 10
0.654742
 20
5.20929
 30
0.000000
  70
    32
  0
VERTEX
  8
AM_HID
  5
8DB
 10
0.654018
 20
5.20833
 30
0.000000
  70
    32
  0
VERTEX
  8
AM_HID
  5
8DC
 10
0.653293
 20
5.20736
 30
0.000000
  70
    32
  0
VERTEX
  8
AM_HID
  5
8DD
 10
0.652569
 20
5.20639
 30
0.000000
  70
    32
  0
VERTEX
  8
AM_HID
  5
8DE
 10
0.651845
 20
5.20542
 30
0.000000
  70
    32
  0
VERTEX
  8
AM_HID
  5
8DF
 10
0.651121
 20
5.20445
 30
0.000000
  70
    32
  0
VERTEX
  8
AM_HID
  5
8E0
 10
0.650397
 20
5.20348
 30
0.000000
  70
    32
  0
VERTEX
  8
AM_HID
  5
8E1
 10
0.649673
 20
5.20251
 30
0.000000
  70
    32
  0
VERTEX
  8
AM_HID
  5
8E2
 10
0.648950
 20
5.20154
 30
0.000000
  70
    32
  0
VERTEX
  8
AM_HID
  5
8E3
 10
0.648226
 20
5.20057
 30
0.000000
  70
    32
  0
VERTEX
  8
AM_HID
  5
8E4
 10
0.647502
 20
5.19959
 30
0.000000
  70
    32
  0
VERTEX
  8
AM_HID
  5
8E5
 10
0.646779
 20
5.19862
 30
0.000000
  70
    32
  0
VERTEX
  8
AM_HID
  5
8E6
 10
0.646055
 20
5.19764
 30
0.000000
  70
    32
  0
VERTEX
  8
AM_HID
  5
8E7
 10
0.645332
 20
5.19667
 30
0.000000
  70
    32
  0
VERTEX
  8
AM_HID
  5
8E8
 10
0.644609
 20
5.19569
 30
0.000000
  70
    32
  0
VERTEX
  8
AM_HID
  5
8E9
 10
0.643885
 20
5.19471
 30
0.000000
  70
    32
  0
VERTEX
  8
AM_HID
  5
8EA
 10
0.643162
 20
5.19374
 30
0.000000
  70
    32
  0
VERTEX
  8
AM_HID
  5
8EB
 10
0.642439
 20
5.19276
 30
0.000000
  70
    32
  0
VERTEX
  8
AM_HID
  5
8EC
 10
0.641716
 20
5.19178
 30
0.000000
  70
    32
  0
VERTEX
  8
AM_HID
  5
8ED
 10
0.640993
 20
5.19080
 30
0.000000
  70
    32
  0
VERTEX
  8
AM_HID
  5
8EE
 10
0.640270
 20
5.18981
 30
0.000000
  70
    32
  0
VERTEX
  8
AM_HID
  5
8EF
 10
0.639547
 20
5.18883
 30
0.000000
  70
    32
  0
VERTEX
  8
AM_HID
  5
8F0
 10
0.638825
 20
5.18785
 30
0.000000
  70
    32
  0
VERTEX
  8
AM_HID
  5
8F1
 10
0.638102
 20
5.18686
 30
0.000000
  70
    32
  0
VERTEX
  8
AM_HID
  5
8F2
 10
0.637380
 20
5.18588
 30
0.000000
  70
    32
  0
VERTEX
  8
AM_HID
  5
8F3
 10
0.636657
 20
5.18489
 30
0.000000
  70
    32
  0
VERTEX
  8
AM_HID
  5
8F4
 10
0.635935
 20
5.18391
 30
0.000000
  70
    32
  0
VERTEX
  8
AM_HID
  5
8F5
 10
0.635213
 20
5.18292
 30
0.000000
  70
    32
  0
VERTEX
  8
AM_HID
  5
8F6
 10
0.634490
 20
5.18193
 30
0.000000
  70
    32
  0
VERTEX
  8
AM_HID
  5
8F7
 10
0.633768
 20
5.18094
 30
0.000000
  70
    32
  0
VERTEX
  8
AM_HID
  5
8F8
 10
0.633046
 20
5.17995
 30
0.000000
  70
    32
  0
VERTEX
  8
AM_HID
  5
8F9
 10
0.632324
 20
5.17896
 30
0.000000
  70
    32
  0
VERTEX
  8
AM_HID
  5
8FA
 10
0.631603
 20
5.17797
 30
0.000000
  70
    32
  0
VERTEX
  8
AM_HID
  5
8FB
 10
0.630881
 20
5.17698
 30
0.000000
  70
    32
  0
VERTEX
  8
AM_HID
  5
8FC
 10
0.630159
 20
5.17598
 30
0.000000
  70
    32
  0
VERTEX
  8
AM_HID
  5
8FD
 10
0.629438
 20
5.17499
 30
0.000000
  70
    32
  0
VERTEX
  8
AM_HID
  5
8FE
 10
0.628716
 20
5.17400
 30
0.000000
  70
    32
  0
VERTEX
  8
AM_HID
  5
8FF
 10
0.627995
 20
5.17300
 30
0.000000
  70
    32
  0
VERTEX
  8
AM_HID
  5
900
 10
0.627273
 20
5.17200
 30
0.000000
  70
    32
  0
VERTEX
  8
AM_HID
  5
901
 10
0.626552
 20
5.17101
 30
0.000000
  70
    32
  0
VERTEX
  8
AM_HID
  5
902
 10
0.625831
 20
5.17001
 30
0.000000
  70
    32
  0
VERTEX
  8
AM_HID
  5
903
 10
0.625110
 20
5.16901
 30
0.000000
  70
    32
  0
VERTEX
  8
AM_HID
  5
904
 10
0.624389
 20
5.16801
 30
0.000000
  70
    32
  0
SEQEND
  8
AM_HID
  5
905
  0
POLYLINE
  5
44
  8
AM_VIS
 10
0.7026852038921139
 20
5.3067496626629778
 30
0.0
 66
     1
 70
     8
  0
VERTEX
  8
AM_VIS
  5
906
 10
0.702685
 20
5.30675
 30
0.000000
  70
    32
  0
VERTEX
  8
AM_VIS
  5
907
 10
0.702072
 20
5.30749
 30
0.000000
  70
    32
  0
VERTEX
  8
AM_VIS
  5
908
 10
0.701458
 20
5.30822
 30
0.000000
  70
    32
  0
VERTEX
  8
AM_VIS
  5
909
 10
0.700844
 20
5.30896
 30
0.000000
  70
    32
  0
VERTEX
  8
AM_VIS
  5
90A
 10
0.700231
 20
5.30969
 30
0.000000
  70
    32
  0
VERTEX
  8
AM_VIS
  5
90B
 10
0.699617
 20
5.31042
 30
0.000000
  70
    32
  0
VERTEX
  8
AM_VIS
  5
90C
 10
0.699004
 20
5.31115
 30
0.000000
  70
    32
  0
VERTEX
  8
AM_VIS
  5
90D
 10
0.698390
 20
5.31189
 30
0.000000
  70
    32
  0
VERTEX
  8
AM_VIS
  5
90E
 10
0.697776
 20
5.31262
 30
0.000000
  70
    32
  0
VERTEX
  8
AM_VIS
  5
90F
 10
0.697163
 20
5.31335
 30
0.000000
  70
    32
  0
VERTEX
  8
AM_VIS
  5
910
 10
0.696549
 20
5.31408
 30
0.000000
  70
    32
  0
VERTEX
  8
AM_VIS
  5
911
 10
0.695936
 20
5.31481
 30
0.000000
  70
    32
  0
VERTEX
  8
AM_VIS
  5
912
 10
0.695322
 20
5.31554
 30
0.000000
  70
    32
  0
VERTEX
  8
AM_VIS
  5
913
 10
0.694709
 20
5.31626
 30
0.000000
  70
    32
  0
VERTEX
  8
AM_VIS
  5
914
 10
0.694095
 20
5.31699
 30
0.000000
  70
    32
  0
VERTEX
  8
AM_VIS
  5
915
 10
0.693482
 20
5.31772
 30
0.000000
  70
    32
  0
VERTEX
  8
AM_VIS
  5
916
 10
0.692869
 20
5.31844
 30
0.000000
  70
    32
  0
VERTEX
  8
AM_VIS
  5
917
 10
0.692255
 20
5.31917
 30
0.000000
  70
    32
  0
VERTEX
  8
AM_VIS
  5
918
 10
0.691642
 20
5.31989
 30
0.000000
  70
    32
  0
VERTEX
  8
AM_VIS
  5
919
 10
0.691028
 20
5.32062
 30
0.000000
  70
    32
  0
VERTEX
  8
AM_VIS
  5
91A
 10
0.690415
 20
5.32134
 30
0.000000
  70
    32
  0
VERTEX
  8
AM_VIS
  5
91B
 10
0.689802
 20
5.32206
 30
0.000000
  70
    32
  0
VERTEX
  8
AM_VIS
  5
91C
 10
0.689188
 20
5.32278
 30
0.000000
  70
    32
  0
VERTEX
  8
AM_VIS
  5
91D
 10
0.688575
 20
5.32350
 30
0.000000
  70
    32
  0
VERTEX
  8
AM_VIS
  5
91E
 10
0.687962
 20
5.32422
 30
0.000000
  70
    32
  0
VERTEX
  8
AM_VIS
  5
91F
 10
0.687349
 20
5.32494
 30
0.000000
  70
    32
  0
VERTEX
  8
AM_VIS
  5
920
 10
0.686735
 20
5.32566
 30
0.000000
  70
    32
  0
VERTEX
  8
AM_VIS
  5
921
 10
0.686122
 20
5.32638
 30
0.000000
  70
    32
  0
VERTEX
  8
AM_VIS
  5
922
 10
0.685509
 20
5.32710
 30
0.000000
  70
    32
  0
VERTEX
  8
AM_VIS
  5
923
 10
0.684896
 20
5.32782
 30
0.000000
  70
    32
  0
VERTEX
  8
AM_VIS
  5
924
 10
0.684283
 20
5.32853
 30
0.000000
  70
    32
  0
VERTEX
  8
AM_VIS
  5
925
 10
0.683670
 20
5.32925
 30
0.000000
  70
    32
  0
VERTEX
  8
AM_VIS
  5
926
 10
0.683057
 20
5.32996
 30
0.000000
  70
    32
  0
VERTEX
  8
AM_VIS
  5
927
 10
0.682444
 20
5.33068
 30
0.000000
  70
    32
  0
VERTEX
  8
AM_VIS
  5
928
 10
0.681831
 20
5.33139
 30
0.000000
  70
    32
  0
VERTEX
  8
AM_VIS
  5
929
 10
0.681218
 20
5.33210
 30
0.000000
  70
    32
  0
VERTEX
  8
AM_VIS
  5
92A
 10
0.680605
 20
5.33282
 30
0.000000
  70
    32
  0
VERTEX
  8
AM_VIS
  5
92B
 10
0.679992
 20
5.33353
 30
0.000000
  70
    32
  0
VERTEX
  8
AM_VIS
  5
92C
 10
0.679379
 20
5.33424
 30
0.000000
  70
    32
  0
VERTEX
  8
AM_VIS
  5
92D
 10
0.678766
 20
5.33495
 30
0.000000
  70
    32
  0
VERTEX
  8
AM_VIS
  5
92E
 10
0.678153
 20
5.33566
 30
0.000000
  70
    32
  0
VERTEX
  8
AM_VIS
  5
92F
 10
0.677540
 20
5.33637
 30
0.000000
  70
    32
  0
VERTEX
  8
AM_VIS
  5
930
 10
0.676927
 20
5.33707
 30
0.000000
  70
    32
  0
VERTEX
  8
AM_VIS
  5
931
 10
0.676315
 20
5.33778
 30
0.000000
  70
    32
  0
VERTEX
  8
AM_VIS
  5
932
 10
0.675702
 20
5.33849
 30
0.000000
  70
    32
  0
VERTEX
  8
AM_VIS
  5
933
 10
0.675089
 20
5.33919
 30
0.000000
  70
    32
  0
VERTEX
  8
AM_VIS
  5
934
 10
0.674477
 20
5.33990
 30
0.000000
  70
    32
  0
VERTEX
  8
AM_VIS
  5
935
 10
0.673864
 20
5.34060
 30
0.000000
  70
    32
  0
VERTEX
  8
AM_VIS
  5
936
 10
0.673251
 20
5.34131
 30
0.000000
  70
    32
  0
VERTEX
  8
AM_VIS
  5
937
 10
0.672639
 20
5.34201
 30
0.000000
  70
    32
  0
VERTEX
  8
AM_VIS
  5
938
 10
0.672026
 20
5.34271
 30
0.000000
  70
    32
  0
VERTEX
  8
AM_VIS
  5
939
 10
0.671414
 20
5.34342
 30
0.000000
  70
    32
  0
VERTEX
  8
AM_VIS
  5
93A
 10
0.670801
 20
5.34412
 30
0.000000
  70
    32
  0
VERTEX
  8
AM_VIS
  5
93B
 10
0.670189
 20
5.34482
 30
0.000000
  70
    32
  0
VERTEX
  8
AM_VIS
  5
93C
 10
0.669576
 20
5.34552
 30
0.000000
  70
    32
  0
VERTEX
  8
AM_VIS
  5
93D
 10
0.668964
 20
5.34622
 30
0.000000
  70
    32
  0
VERTEX
  8
AM_VIS
  5
93E
 10
0.668352
 20
5.34691
 30
0.000000
  70
    32
  0
VERTEX
  8
AM_VIS
  5
93F
 10
0.667739
 20
5.34761
 30
0.000000
  70
    32
  0
VERTEX
  8
AM_VIS
  5
940
 10
0.667127
 20
5.34831
 30
0.000000
  70
    32
  0
VERTEX
  8
AM_VIS
  5
941
 10
0.666515
 20
5.34900
 30
0.000000
  70
    32
  0
VERTEX
  8
AM_VIS
  5
942
 10
0.665903
 20
5.34970
 30
0.000000
  70
    32
  0
VERTEX
  8
AM_VIS
  5
943
 10
0.665291
 20
5.35040
 30
0.000000
  70
    32
  0
VERTEX
  8
AM_VIS
  5
944
 10
0.664678
 20
5.35109
 30
0.000000
  70
    32
  0
VERTEX
  8
AM_VIS
  5
945
 10
0.664066
 20
5.35178
 30
0.000000
  70
    32
  0
VERTEX
  8
AM_VIS
  5
946
 10
0.663454
 20
5.35248
 30
0.000000
  70
    32
  0
VERTEX
  8
AM_VIS
  5
947
 10
0.662842
 20
5.35317
 30
0.000000
  70
    32
  0
VERTEX
  8
AM_VIS
  5
948
 10
0.662230
 20
5.35386
 30
0.000000
  70
    32
  0
VERTEX
  8
AM_VIS
  5
949
 10
0.661619
 20
5.35455
 30
0.000000
  70
    32
  0
VERTEX
  8
AM_VIS
  5
94A
 10
0.661007
 20
5.35524
 30
0.000000
  70
    32
  0
VERTEX
  8
AM_VIS
  5
94B
 10
0.660395
 20
5.35593
 30
0.000000
  70
    32
  0
VERTEX
  8
AM_VIS
  5
94C
 10
0.659783
 20
5.35662
 30
0.000000
  70
    32
  0
VERTEX
  8
AM_VIS
  5
94D
 10
0.659171
 20
5.35731
 30
0.000000
  70
    32
  0
VERTEX
  8
AM_VIS
  5
94E
 10
0.658560
 20
5.35799
 30
0.000000
  70
    32
  0
VERTEX
  8
AM_VIS
  5
94F
 10
0.657948
 20
5.35868
 30
0.000000
  70
    32
  0
VERTEX
  8
AM_VIS
  5
950
 10
0.657336
 20
5.35936
 30
0.000000
  70
    32
  0
VERTEX
  8
AM_VIS
  5
951
 10
0.656725
 20
5.36005
 30
0.000000
  70
    32
  0
VERTEX
  8
AM_VIS
  5
952
 10
0.656113
 20
5.36073
 30
0.000000
  70
    32
  0
VERTEX
  8
AM_VIS
  5
953
 10
0.655502
 20
5.36142
 30
0.000000
  70
    32
  0
VERTEX
  8
AM_VIS
  5
954
 10
0.654891
 20
5.36210
 30
0.000000
  70
    32
  0
VERTEX
  8
AM_VIS
  5
955
 10
0.654279
 20
5.36278
 30
0.000000
  70
    32
  0
VERTEX
  8
AM_VIS
  5
956
 10
0.653668
 20
5.36346
 30
0.000000
  70
    32
  0
VERTEX
  8
AM_VIS
  5
957
 10
0.653057
 20
5.36415
 30
0.000000
  70
    32
  0
VERTEX
  8
AM_VIS
  5
958
 10
0.652445
 20
5.36483
 30
0.000000
  70
    32
  0
VERTEX
  8
AM_VIS
  5
959
 10
0.651834
 20
5.36550
 30
0.000000
  70
    32
  0
VERTEX
  8
AM_VIS
  5
95A
 10
0.651223
 20
5.36618
 30
0.000000
  70
    32
  0
VERTEX
  8
AM_VIS
  5
95B
 10
0.650612
 20
5.36686
 30
0.000000
  70
    32
  0
VERTEX
  8
AM_VIS
  5
95C
 10
0.650001
 20
5.36754
 30
0.000000
  70
    32
  0
VERTEX
  8
AM_VIS
  5
95D
 10
0.649390
 20
5.36822
 30
0.000000
  70
    32
  0
VERTEX
  8
AM_VIS
  5
95E
 10
0.648779
 20
5.36889
 30
0.000000
  70
    32
  0
VERTEX
  8
AM_VIS
  5
95F
 10
0.648168
 20
5.36957
 30
0.000000
  70
    32
  0
VERTEX
  8
AM_VIS
  5
960
 10
0.647557
 20
5.37024
 30
0.000000
  70
    32
  0
VERTEX
  8
AM_VIS
  5
961
 10
0.646947
 20
5.37091
 30
0.000000
  70
    32
  0
VERTEX
  8
AM_VIS
  5
962
 10
0.646336
 20
5.37159
 30
0.000000
  70
    32
  0
VERTEX
  8
AM_VIS
  5
963
 10
0.645725
 20
5.37226
 30
0.000000
  70
    32
  0
VERTEX
  8
AM_VIS
  5
964
 10
0.645115
 20
5.37293
 30
0.000000
  70
    32
  0
VERTEX
  8
AM_VIS
  5
965
 10
0.644504
 20
5.37360
 30
0.000000
  70
    32
  0
VERTEX
  8
AM_VIS
  5
966
 10
0.643894
 20
5.37427
 30
0.000000
  70
    32
  0
VERTEX
  8
AM_VIS
  5
967
 10
0.643283
 20
5.37494
 30
0.000000
  70
    32
  0
VERTEX
  8
AM_VIS
  5
968
 10
0.642673
 20
5.37561
 30
0.000000
  70
    32
  0
VERTEX
  8
AM_VIS
  5
969
 10
0.642062
 20
5.37628
 30
0.000000
  70
    32
  0
VERTEX
  8
AM_VIS
  5
96A
 10
0.641452
 20
5.37695
 30
0.000000
  70
    32
  0
VERTEX
  8
AM_VIS
  5
96B
 10
0.640842
 20
5.37761
 30
0.000000
  70
    32
  0
VERTEX
  8
AM_VIS
  5
96C
 10
0.640232
 20
5.37828
 30
0.000000
  70
    32
  0
VERTEX
  8
AM_VIS
  5
96D
 10
0.639622
 20
5.37894
 30
0.000000
  70
    32
  0
VERTEX
  8
AM_VIS
  5
96E
 10
0.639012
 20
5.37961
 30
0.000000
  70
    32
  0
VERTEX
  8
AM_VIS
  5
96F
 10
0.638402
 20
5.38027
 30
0.000000
  70
    32
  0
VERTEX
  8
AM_VIS
  5
970
 10
0.637792
 20
5.38093
 30
0.000000
  70
    32
  0
VERTEX
  8
AM_VIS
  5
971
 10
0.637182
 20
5.38160
 30
0.000000
  70
    32
  0
VERTEX
  8
AM_VIS
  5
972
 10
0.636572
 20
5.38226
 30
0.000000
  70
    32
  0
VERTEX
  8
AM_VIS
  5
973
 10
0.635962
 20
5.38292
 30
0.000000
  70
    32
  0
VERTEX
  8
AM_VIS
  5
974
 10
0.635353
 20
5.38358
 30
0.000000
  70
    32
  0
VERTEX
  8
AM_VIS
  5
975
 10
0.634743
 20
5.38424
 30
0.000000
  70
    32
  0
VERTEX
  8
AM_VIS
  5
976
 10
0.634133
 20
5.38490
 30
0.000000
  70
    32
  0
VERTEX
  8
AM_VIS
  5
977
 10
0.633524
 20
5.38555
 30
0.000000
  70
    32
  0
VERTEX
  8
AM_VIS
  5
978
 10
0.632915
 20
5.38621
 30
0.000000
  70
    32
  0
VERTEX
  8
AM_VIS
  5
979
 10
0.632305
 20
5.38687
 30
0.000000
  70
    32
  0
VERTEX
  8
AM_VIS
  5
97A
 10
0.631696
 20
5.38752
 30
0.000000
  70
    32
  0
VERTEX
  8
AM_VIS
  5
97B
 10
0.631087
 20
5.38818
 30
0.000000
  70
    32
  0
VERTEX
  8
AM_VIS
  5
97C
 10
0.630477
 20
5.38883
 30
0.000000
  70
    32
  0
VERTEX
  8
AM_VIS
  5
97D
 10
0.629868
 20
5.38949
 30
0.000000
  70
    32
  0
VERTEX
  8
AM_VIS
  5
97E
 10
0.629259
 20
5.39014
 30
0.000000
  70
    32
  0
VERTEX
  8
AM_VIS
  5
97F
 10
0.628650
 20
5.39079
 30
0.000000
  70
    32
  0
VERTEX
  8
AM_VIS
  5
980
 10
0.628041
 20
5.39144
 30
0.000000
  70
    32
  0
VERTEX
  8
AM_VIS
  5
981
 10
0.627433
 20
5.39209
 30
0.000000
  70
    32
  0
VERTEX
  8
AM_VIS
  5
982
 10
0.626824
 20
5.39274
 30
0.000000
  70
    32
  0
VERTEX
  8
AM_VIS
  5
983
 10
0.626215
 20
5.39339
 30
0.000000
  70
    32
  0
VERTEX
  8
AM_VIS
  5
984
 10
0.625606
 20
5.39404
 30
0.000000
  70
    32
  0
VERTEX
  8
AM_VIS
  5
985
 10
0.624998
 20
5.39469
 30
0.000000
  70
    32
  0
VERTEX
  8
AM_VIS
  5
986
 10
0.624389
 20
5.39533
 30
0.000000
  70
    32
  0
SEQEND
  8
AM_VIS
  5
987
  0
POLYLINE
  5
45
  8
AM_HID
 10
0.7171933713166269
 20
5.2891631272501156
 30
0.0
 66
     1
 70
     8
  0
VERTEX
  8
AM_HID
  5
988
 10
0.717193
 20
5.28916
 30
0.000000
  70
    32
  0
VERTEX
  8
AM_HID
  5
989
 10
0.717080
 20
5.28930
 30
0.000000
  70
    32
  0
VERTEX
  8
AM_HID
  5
98A
 10
0.716967
 20
5.28944
 30
0.000000
  70
    32
  0
VERTEX
  8
AM_HID
  5
98B
 10
0.716853
 20
5.28958
 30
0.000000
  70
    32
  0
VERTEX
  8
AM_HID
  5
98C
 10
0.716740
 20
5.28972
 30
0.000000
  70
    32
  0
VERTEX
  8
AM_HID
  5
98D
 10
0.716627
 20
5.28986
 30
0.000000
  70
    32
  0
VERTEX
  8
AM_HID
  5
98E
 10
0.716513
 20
5.29000
 30
0.000000
  70
    32
  0
VERTEX
  8
AM_HID
  5
98F
 10
0.716400
 20
5.29013
 30
0.000000
  70
    32
  0
VERTEX
  8
AM_HID
  5
990
 10
0.716287
 20
5.29027
 30
0.000000
  70
    32
  0
VERTEX
  8
AM_HID
  5
991
 10
0.716173
 20
5.29041
 30
0.000000
  70
    32
  0
VERTEX
  8
AM_HID
  5
992
 10
0.716060
 20
5.29055
 30
0.000000
  70
    32
  0
VERTEX
  8
AM_HID
  5
993
 10
0.715946
 20
5.29069
 30
0.000000
  70
    32
  0
VERTEX
  8
AM_HID
  5
994
 10
0.715833
 20
5.29083
 30
0.000000
  70
    32
  0
VERTEX
  8
AM_HID
  5
995
 10
0.715720
 20
5.29097
 30
0.000000
  70
    32
  0
VERTEX
  8
AM_HID
  5
996
 10
0.715606
 20
5.29110
 30
0.000000
  70
    32
  0
VERTEX
  8
AM_HID
  5
997
 10
0.715493
 20
5.29124
 30
0.000000
  70
    32
  0
VERTEX
  8
AM_HID
  5
998
 10
0.715380
 20
5.29138
 30
0.000000
  70
    32
  0
VERTEX
  8
AM_HID
  5
999
 10
0.715266
 20
5.29152
 30
0.000000
  70
    32
  0
VERTEX
  8
AM_HID
  5
99A
 10
0.715153
 20
5.29166
 30
0.000000
  70
    32
  0
VERTEX
  8
AM_HID
  5
99B
 10
0.715040
 20
5.29180
 30
0.000000
  70
    32
  0
VERTEX
  8
AM_HID
  5
99C
 10
0.714926
 20
5.29194
 30
0.000000
  70
    32
  0
VERTEX
  8
AM_HID
  5
99D
 10
0.714813
 20
5.29207
 30
0.000000
  70
    32
  0
VERTEX
  8
AM_HID
  5
99E
 10
0.714700
 20
5.29221
 30
0.000000
  70
    32
  0
VERTEX
  8
AM_HID
  5
99F
 10
0.714586
 20
5.29235
 30
0.000000
  70
    32
  0
VERTEX
  8
AM_HID
  5
9A0
 10
0.714473
 20
5.29249
 30
0.000000
  70
    32
  0
VERTEX
  8
AM_HID
  5
9A1
 10
0.714360
 20
5.29263
 30
0.000000
  70
    32
  0
VERTEX
  8
AM_HID
  5
9A2
 10
0.714246
 20
5.29277
 30
0.000000
  70
    32
  0
VERTEX
  8
AM_HID
  5
9A3
 10
0.714133
 20
5.29290
 30
0.000000
  70
    32
  0
VERTEX
  8
AM_HID
  5
9A4
 10
0.714019
 20
5.29304
 30
0.000000
  70
    32
  0
VERTEX
  8
AM_HID
  5
9A5
 10
0.713906
 20
5.29318
 30
0.000000
  70
    32
  0
VERTEX
  8
AM_HID
  5
9A6
 10
0.713793
 20
5.29332
 30
0.000000
  70
    32
  0
VERTEX
  8
AM_HID
  5
9A7
 10
0.713679
 20
5.29346
 30
0.000000
  70
    32
  0
VERTEX
  8
AM_HID
  5
9A8
 10
0.713566
 20
5.29359
 30
0.000000
  70
    32
  0
VERTEX
  8
AM_HID
  5
9A9
 10
0.713453
 20
5.29373
 30
0.000000
  70
    32
  0
VERTEX
  8
AM_HID
  5
9AA
 10
0.713339
 20
5.29387
 30
0.000000
  70
    32
  0
VERTEX
  8
AM_HID
  5
9AB
 10
0.713226
 20
5.29401
 30
0.000000
  70
    32
  0
VERTEX
  8
AM_HID
  5
9AC
 10
0.713113
 20
5.29415
 30
0.000000
  70
    32
  0
VERTEX
  8
AM_HID
  5
9AD
 10
0.712999
 20
5.29428
 30
0.000000
  70
    32
  0
VERTEX
  8
AM_HID
  5
9AE
 10
0.712886
 20
5.29442
 30
0.000000
  70
    32
  0
VERTEX
  8
AM_HID
  5
9AF
 10
0.712773
 20
5.29456
 30
0.000000
  70
    32
  0
VERTEX
  8
AM_HID
  5
9B0
 10
0.712659
 20
5.29470
 30
0.000000
  70
    32
  0
VERTEX
  8
AM_HID
  5
9B1
 10
0.712546
 20
5.29484
 30
0.000000
  70
    32
  0
VERTEX
  8
AM_HID
  5
9B2
 10
0.712433
 20
5.29497
 30
0.000000
  70
    32
  0
VERTEX
  8
AM_HID
  5
9B3
 10
0.712319
 20
5.29511
 30
0.000000
  70
    32
  0
VERTEX
  8
AM_HID
  5
9B4
 10
0.712206
 20
5.29525
 30
0.000000
  70
    32
  0
VERTEX
  8
AM_HID
  5
9B5
 10
0.712093
 20
5.29539
 30
0.000000
  70
    32
  0
VERTEX
  8
AM_HID
  5
9B6
 10
0.711979
 20
5.29553
 30
0.000000
  70
    32
  0
VERTEX
  8
AM_HID
  5
9B7
 10
0.711866
 20
5.29566
 30
0.000000
  70
    32
  0
VERTEX
  8
AM_HID
  5
9B8
 10
0.711752
 20
5.29580
 30
0.000000
  70
    32
  0
VERTEX
  8
AM_HID
  5
9B9
 10
0.711639
 20
5.29594
 30
0.000000
  70
    32
  0
VERTEX
  8
AM_HID
  5
9BA
 10
0.711526
 20
5.29608
 30
0.000000
  70
    32
  0
VERTEX
  8
AM_HID
  5
9BB
 10
0.711412
 20
5.29621
 30
0.000000
  70
    32
  0
VERTEX
  8
AM_HID
  5
9BC
 10
0.711299
 20
5.29635
 30
0.000000
  70
    32
  0
VERTEX
  8
AM_HID
  5
9BD
 10
0.711186
 20
5.29649
 30
0.000000
  70
    32
  0
VERTEX
  8
AM_HID
  5
9BE
 10
0.711072
 20
5.29663
 30
0.000000
  70
    32
  0
VERTEX
  8
AM_HID
  5
9BF
 10
0.710959
 20
5.29676
 30
0.000000
  70
    32
  0
VERTEX
  8
AM_HID
  5
9C0
 10
0.710846
 20
5.29690
 30
0.000000
  70
    32
  0
VERTEX
  8
AM_HID
  5
9C1
 10
0.710732
 20
5.29704
 30
0.000000
  70
    32
  0
VERTEX
  8
AM_HID
  5
9C2
 10
0.710619
 20
5.29718
 30
0.000000
  70
    32
  0
VERTEX
  8
AM_HID
  5
9C3
 10
0.710506
 20
5.29732
 30
0.000000
  70
    32
  0
VERTEX
  8
AM_HID
  5
9C4
 10
0.710392
 20
5.29745
 30
0.000000
  70
    32
  0
VERTEX
  8
AM_HID
  5
9C5
 10
0.710279
 20
5.29759
 30
0.000000
  70
    32
  0
VERTEX
  8
AM_HID
  5
9C6
 10
0.710166
 20
5.29773
 30
0.000000
  70
    32
  0
VERTEX
  8
AM_HID
  5
9C7
 10
0.710052
 20
5.29787
 30
0.000000
  70
    32
  0
VERTEX
  8
AM_HID
  5
9C8
 10
0.709939
 20
5.29800
 30
0.000000
  70
    32
  0
VERTEX
  8
AM_HID
  5
9C9
 10
0.709826
 20
5.29814
 30
0.000000
  70
    32
  0
VERTEX
  8
AM_HID
  5
9CA
 10
0.709712
 20
5.29828
 30
0.000000
  70
    32
  0
VERTEX
  8
AM_HID
  5
9CB
 10
0.709599
 20
5.29841
 30
0.000000
  70
    32
  0
VERTEX
  8
AM_HID
  5
9CC
 10
0.709486
 20
5.29855
 30
0.000000
  70
    32
  0
VERTEX
  8
AM_HID
  5
9CD
 10
0.709372
 20
5.29869
 30
0.000000
  70
    32
  0
VERTEX
  8
AM_HID
  5
9CE
 10
0.709259
 20
5.29883
 30
0.000000
  70
    32
  0
VERTEX
  8
AM_HID
  5
9CF
 10
0.709145
 20
5.29896
 30
0.000000
  70
    32
  0
VERTEX
  8
AM_HID
  5
9D0
 10
0.709032
 20
5.29910
 30
0.000000
  70
    32
  0
VERTEX
  8
AM_HID
  5
9D1
 10
0.708919
 20
5.29924
 30
0.000000
  70
    32
  0
VERTEX
  8
AM_HID
  5
9D2
 10
0.708805
 20
5.29938
 30
0.000000
  70
    32
  0
VERTEX
  8
AM_HID
  5
9D3
 10
0.708692
 20
5.29951
 30
0.000000
  70
    32
  0
VERTEX
  8
AM_HID
  5
9D4
 10
0.708579
 20
5.29965
 30
0.000000
  70
    32
  0
VERTEX
  8
AM_HID
  5
9D5
 10
0.708465
 20
5.29979
 30
0.000000
  70
    32
  0
VERTEX
  8
AM_HID
  5
9D6
 10
0.708352
 20
5.29992
 30
0.000000
  70
    32
  0
VERTEX
  8
AM_HID
  5
9D7
 10
0.708239
 20
5.30006
 30
0.000000
  70
    32
  0
VERTEX
  8
AM_HID
  5
9D8
 10
0.708125
 20
5.30020
 30
0.000000
  70
    32
  0
VERTEX
  8
AM_HID
  5
9D9
 10
0.708012
 20
5.30033
 30
0.000000
  70
    32
  0
VERTEX
  8
AM_HID
  5
9DA
 10
0.707899
 20
5.30047
 30
0.000000
  70
    32
  0
VERTEX
  8
AM_HID
  5
9DB
 10
0.707785
 20
5.30061
 30
0.000000
  70
    32
  0
VERTEX
  8
AM_HID
  5
9DC
 10
0.707672
 20
5.30075
 30
0.000000
  70
    32
  0
VERTEX
  8
AM_HID
  5
9DD
 10
0.707559
 20
5.30088
 30
0.000000
  70
    32
  0
VERTEX
  8
AM_HID
  5
9DE
 10
0.707445
 20
5.30102
 30
0.000000
  70
    32
  0
VERTEX
  8
AM_HID
  5
9DF
 10
0.707332
 20
5.30116
 30
0.000000
  70
    32
  0
VERTEX
  8
AM_HID
  5
9E0
 10
0.707219
 20
5.30129
 30
0.000000
  70
    32
  0
VERTEX
  8
AM_HID
  5
9E1
 10
0.707105
 20
5.30143
 30
0.000000
  70
    32
  0
VERTEX
  8
AM_HID
  5
9E2
 10
0.706992
 20
5.30157
 30
0.000000
  70
    32
  0
VERTEX
  8
AM_HID
  5
9E3
 10
0.706879
 20
5.30170
 30
0.000000
  70
    32
  0
VERTEX
  8
AM_HID
  5
9E4
 10
0.706765
 20
5.30184
 30
0.000000
  70
    32
  0
VERTEX
  8
AM_HID
  5
9E5
 10
0.706652
 20
5.30198
 30
0.000000
  70
    32
  0
VERTEX
  8
AM_HID
  5
9E6
 10
0.706539
 20
5.30211
 30
0.000000
  70
    32
  0
VERTEX
  8
AM_HID
  5
9E7
 10
0.706425
 20
5.30225
 30
0.000000
  70
    32
  0
VERTEX
  8
AM_HID
  5
9E8
 10
0.706312
 20
5.30239
 30
0.000000
  70
    32
  0
VERTEX
  8
AM_HID
  5
9E9
 10
0.706199
 20
5.30252
 30
0.000000
  70
    32
  0
VERTEX
  8
AM_HID
  5
9EA
 10
0.706085
 20
5.30266
 30
0.000000
  70
    32
  0
VERTEX
  8
AM_HID
  5
9EB
 10
0.705972
 20
5.30280
 30
0.000000
  70
    32
  0
VERTEX
  8
AM_HID
  5
9EC
 10
0.705859
 20
5.30293
 30
0.000000
  70
    32
  0
VERTEX
  8
AM_HID
  5
9ED
 10
0.705745
 20
5.30307
 30
0.000000
  70
    32
  0
VERTEX
  8
AM_HID
  5
9EE
 10
0.705632
 20
5.30321
 30
0.000000
  70
    32
  0
VERTEX
  8
AM_HID
  5
9EF
 10
0.705519
 20
5.30334
 30
0.000000
  70
    32
  0
VERTEX
  8
AM_HID
  5
9F0
 10
0.705405
 20
5.30348
 30
0.000000
  70
    32
  0
VERTEX
  8
AM_HID
  5
9F1
 10
0.705292
 20
5.30362
 30
0.000000
  70
    32
  0
VERTEX
  8
AM_HID
  5
9F2
 10
0.705179
 20
5.30375
 30
0.000000
  70
    32
  0
VERTEX
  8
AM_HID
  5
9F3
 10
0.705065
 20
5.30389
 30
0.000000
  70
    32
  0
VERTEX
  8
AM_HID
  5
9F4
 10
0.704952
 20
5.30403
 30
0.000000
  70
    32
  0
VERTEX
  8
AM_HID
  5
9F5
 10
0.704839
 20
5.30416
 30
0.000000
  70
    32
  0
VERTEX
  8
AM_HID
  5
9F6
 10
0.704725
 20
5.30430
 30
0.000000
  70
    32
  0
VERTEX
  8
AM_HID
  5
9F7
 10
0.704612
 20
5.30444
 30
0.000000
  70
    32
  0
VERTEX
  8
AM_HID
  5
9F8
 10
0.704499
 20
5.30457
 30
0.000000
  70
    32
  0
VERTEX
  8
AM_HID
  5
9F9
 10
0.704385
 20
5.30471
 30
0.000000
  70
    32
  0
VERTEX
  8
AM_HID
  5
9FA
 10
0.704272
 20
5.30484
 30
0.000000
  70
    32
  0
VERTEX
  8
AM_HID
  5
9FB
 10
0.704159
 20
5.30498
 30
0.000000
  70
    32
  0
VERTEX
  8
AM_HID
  5
9FC
 10
0.704045
 20
5.30512
 30
0.000000
  70
    32
  0
VERTEX
  8
AM_HID
  5
9FD
 10
0.703932
 20
5.30525
 30
0.000000
  70
    32
  0
VERTEX
  8
AM_HID
  5
9FE
 10
0.703819
 20
5.30539
 30
0.000000
  70
    32
  0
VERTEX
  8
AM_HID
  5
9FF
 10
0.703705
 20
5.30553
 30
0.000000
  70
    32
  0
VERTEX
  8
AM_HID
  5
A00
 10
0.703592
 20
5.30566
 30
0.000000
  70
    32
  0
VERTEX
  8
AM_HID
  5
A01
 10
0.703479
 20
5.30580
 30
0.000000
  70
    32
  0
VERTEX
  8
AM_HID
  5
A02
 10
0.703365
 20
5.30593
 30
0.000000
  70
    32
  0
VERTEX
  8
AM_HID
  5
A03
 10
0.703252
 20
5.30607
 30
0.000000
  70
    32
  0
VERTEX
  8
AM_HID
  5
A04
 10
0.703139
 20
5.30621
 30
0.000000
  70
    32
  0
VERTEX
  8
AM_HID
  5
A05
 10
0.703025
 20
5.30634
 30
0.000000
  70
    32
  0
VERTEX
  8
AM_HID
  5
A06
 10
0.702912
 20
5.30648
 30
0.000000
  70
    32
  0
VERTEX
  8
AM_HID
  5
A07
 10
0.702799
 20
5.30661
 30
0.000000
  70
    32
  0
VERTEX
  8
AM_HID
  5
A08
 10
0.702685
 20
5.30675
 30
0.000000
  70
    32
  0
SEQEND
  8
AM_HID
  5
A09
  0
LINE
  5
46
  8
AM_HID
 10
0.4387812436839478
 20
5.210857191158996
 30
0.0
 11
0.4387812436839478
 21
5.1680123047634758
 31
0.0
  0
LINE
  5
47
  8
AM_VIS
 10
0.6243893287724003
 20
5.210857191158996
 30
0.0
 11
0.4387812436839478
 21
5.210857191158996
 31
0.0
  0
LINE
  5
48
  8
AM_HID
 10
0.6243893287724003
 20
5.210857191158996
 30
0.0
 11
0.6243893287724003
 21
5.168012304763475
 31
0.0
  0
LINE
  5
49
  8
AM_HID
 10
0.345977201139722
 20
5.3245184663094438
 30
0.0
 11
0.345977201139722
 21
5.2891631272501174
 31
0.0
  0
LINE
  5
4A
  8
AM_VIS
 10
0.4387812436839481
 20
5.210857191158996
 30
0.0
 11
0.3459772011397217
 21
5.3245184663094429
 31
0.0
  0
LINE
  5
4B
  8
AM_VIS
 10
0.4387812436839483
 20
5.4381797414598916
 30
0.0
 11
0.4387812436839483
 21
5.3953348550643723
 31
0.0
  0
LINE
  5
4C
  8
AM_VIS
 10
0.3459772011397222
 20
5.3245184663094429
 30
0.0
 11
0.4387812436839483
 21
5.4381797414598898
 31
0.0
  0
LINE
  5
4D
  8
AM_VIS
 10
0.6243893287724008
 20
5.4381797414598916
 30
0.0
 11
0.6243893287724008
 21
5.3953348550643723
 31
0.0
  0
LINE
  5
4E
  8
AM_VIS
 10
0.4387812436839483
 20
5.4381797414598907
 30
0.0
 11
0.6243893287724008
 21
5.4381797414598907
 31
0.0
  0
LINE
  5
4F
  8
AM_VIS
 10
0.7171933713166265
 20
5.3245184663094429
 30
0.0
 11
0.6243893287724003
 21
5.210857191158996
 31
0.0
  0
LINE
  5
50
  8
AM_HID
 10
0.7171933713166268
 20
5.3245184663094438
 30
0.0
 11
0.7171933713166268
 21
5.2891631272501174
 31
0.0
  0
LINE
  5
51
  8
AM_VIS
 10
0.6243893287724011
 20
5.4381797414598907
 30
0.0
 11
0.7171933713166271
 21
5.3245184663094429
 31
0.0
  0
POLYLINE
  5
52
  8
AM_VIS
 10
0.5315852862281749
 20
5.1035475971886468
 30
0.0
 66
     1
 70
     8
  0
VERTEX
  8
AM_VIS
  5
A0A
 10
0.531585
 20
5.10355
 30
0.000000
  70
    32
  0
VERTEX
  8
AM_VIS
  5
A0B
 10
0.546919
 20
5.10381
 30
0.000000
  70
    32
  0
VERTEX
  8
AM_VIS
  5
A0C
 10
0.562216
 20
5.10461
 30
0.000000
  70
    32
  0
VERTEX
  8
AM_VIS
  5
A0D
 10
0.577439
 20
5.10594
 30
0.000000
  70
    32
  0
VERTEX
  8
AM_VIS
  5
A0E
 10
0.592551
 20
5.10779
 30
0.000000
  70
    32
  0
VERTEX
  8
AM_VIS
  5
A0F
 10
0.607517
 20
5.11017
 30
0.000000
  70
    32
  0
VERTEX
  8
AM_VIS
  5
A10
 10
0.622299
 20
5.11306
 30
0.000000
  70
    32
  0
VERTEX
  8
AM_VIS
  5
A11
 10
0.636863
 20
5.11646
 30
0.000000
  70
    32
  0
VERTEX
  8
AM_VIS
  5
A12
 10
0.651174
 20
5.12037
 30
0.000000
  70
    32
  0
VERTEX
  8
AM_VIS
  5
A13
 10
0.665196
 20
5.12476
 30
0.000000
  70
    32
  0
VERTEX
  8
AM_VIS
  5
A14
 10
0.678897
 20
5.12964
 30
0.000000
  70
    32
  0
VERTEX
  8
AM_VIS
  5
A15
 10
0.692242
 20
5.13499
 30
0.000000
  70
    32
  0
VERTEX
  8
AM_VIS
  5
A16
 10
0.705201
 20
5.14079
 30
0.000000
  70
    32
  0
VERTEX
  8
AM_VIS
  5
A17
 10
0.717741
 20
5.14703
 30
0.000000
  70
    32
  0
VERTEX
  8
AM_VIS
  5
A18
 10
0.729833
 20
5.15371
 30
0.000000
  70
    32
  0
VERTEX
  8
AM_VIS
  5
A19
 10
0.741447
 20
5.16079
 30
0.000000
  70
    32
  0
VERTEX
  8
AM_VIS
  5
A1A
 10
0.752556
 20
5.16827
 30
0.000000
  70
    32
  0
VERTEX
  8
AM_VIS
  5
A1B
 10
0.763133
 20
5.17612
 30
0.000000
  70
    32
  0
VERTEX
  8
AM_VIS
  5
A1C
 10
0.773151
 20
5.18434
 30
0.000000
  70
    32
  0
VERTEX
  8
AM_VIS
  5
A1D
 10
0.782588
 20
5.19289
 30
0.000000
  70
    32
  0
VERTEX
  8
AM_VIS
  5
A1E
 10
0.791420
 20
5.20175
 30
0.000000
  70
    32
  0
VERTEX
  8
AM_VIS
  5
A1F
 10
0.799625
 20
5.21092
 30
0.000000
  70
    32
  0
VERTEX
  8
AM_VIS
  5
A20
 10
0.807186
 20
5.22035
 30
0.000000
  70
    32
  0
VERTEX
  8
AM_VIS
  5
A21
 10
0.814082
 20
5.23004
 30
0.000000
  70
    32
  0
VERTEX
  8
AM_VIS
  5
A22
 10
0.820298
 20
5.23996
 30
0.000000
  70
    32
  0
VERTEX
  8
AM_VIS
  5
A23
 10
0.825818
 20
5.25008
 30
0.000000
  70
    32
  0
VERTEX
  8
AM_VIS
  5
A24
 10
0.830629
 20
5.26037
 30
0.000000
  70
    32
  0
VERTEX
  8
AM_VIS
  5
A25
 10
0.834720
 20
5.27083
 30
0.000000
  70
    32
  0
VERTEX
  8
AM_VIS
  5
A26
 10
0.838081
 20
5.28141
 30
0.000000
  70
    32
  0
VERTEX
  8
AM_VIS
  5
A27
 10
0.840703
 20
5.29210
 30
0.000000
  70
    32
  0
VERTEX
  8
AM_VIS
  5
A28
 10
0.842581
 20
5.30286
 30
0.000000
  70
    32
  0
VERTEX
  8
AM_VIS
  5
A29
 10
0.843709
 20
5.31368
 30
0.000000
  70
    32
  0
VERTEX
  8
AM_VIS
  5
A2A
 10
0.844085
 20
5.32452
 30
0.000000
  70
    32
  0
VERTEX
  8
AM_VIS
  5
A2B
 10
0.843709
 20
5.33536
 30
0.000000
  70
    32
  0
VERTEX
  8
AM_VIS
  5
A2C
 10
0.842581
 20
5.34618
 30
0.000000
  70
    32
  0
VERTEX
  8
AM_VIS
  5
A2D
 10
0.840703
 20
5.35694
 30
0.000000
  70
    32
  0
VERTEX
  8
AM_VIS
  5
A2E
 10
0.838081
 20
5.36763
 30
0.000000
  70
    32
  0
VERTEX
  8
AM_VIS
  5
A2F
 10
0.834720
 20
5.37821
 30
0.000000
  70
    32
  0
VERTEX
  8
AM_VIS
  5
A30
 10
0.830629
 20
5.38866
 30
0.000000
  70
    32
  0
VERTEX
  8
AM_VIS
  5
A31
 10
0.825818
 20
5.39896
 30
0.000000
  70
    32
  0
VERTEX
  8
AM_VIS
  5
A32
 10
0.820298
 20
5.40908
 30
0.000000
  70
    32
  0
VERTEX
  8
AM_VIS
  5
A33
 10
0.814082
 20
5.41900
 30
0.000000
  70
    32
  0
VERTEX
  8
AM_VIS
  5
A34
 10
0.807186
 20
5.42868
 30
0.000000
  70
    32
  0
VERTEX
  8
AM_VIS
  5
A35
 10
0.799625
 20
5.43812
 30
0.000000
  70
    32
  0
VERTEX
  8
AM_VIS
  5
A36
 10
0.791420
 20
5.44728
 30
0.000000
  70
    32
  0
VERTEX
  8
AM_VIS
  5
A37
 10
0.782588
 20
5.45615
 30
0.000000
  70
    32
  0
VERTEX
  8
AM_VIS
  5
A38
 10
0.773151
 20
5.46470
 30
0.000000
  70
    32
  0
VERTEX
  8
AM_VIS
  5
A39
 10
0.763133
 20
5.47291
 30
0.000000
  70
    32
  0
VERTEX
  8
AM_VIS
  5
A3A
 10
0.752556
 20
5.48077
 30
0.000000
  70
    32
  0
VERTEX
  8
AM_VIS
  5
A3B
 10
0.741447
 20
5.48825
 30
0.000000
  70
    32
  0
VERTEX
  8
AM_VIS
  5
A3C
 10
0.729833
 20
5.49533
 30
0.000000
  70
    32
  0
VERTEX
  8
AM_VIS
  5
A3D
 10
0.717741
 20
5.50200
 30
0.000000
  70
    32
  0
VERTEX
  8
AM_VIS
  5
A3E
 10
0.705201
 20
5.50825
 30
0.000000
  70
    32
  0
VERTEX
  8
AM_VIS
  5
A3F
 10
0.692242
 20
5.51405
 30
0.000000
  70
    32
  0
VERTEX
  8
AM_VIS
  5
A40
 10
0.678897
 20
5.51940
 30
0.000000
  70
    32
  0
VERTEX
  8
AM_VIS
  5
A41
 10
0.665196
 20
5.52427
 30
0.000000
  70
    32
  0
VERTEX
  8
AM_VIS
  5
A42
 10
0.651174
 20
5.52867
 30
0.000000
  70
    32
  0
VERTEX
  8
AM_VIS
  5
A43
 10
0.636863
 20
5.53257
 30
0.000000
  70
    32
  0
VERTEX
  8
AM_VIS
  5
A44
 10
0.622299
 20
5.53597
 30
0.000000
  70
    32
  0
VERTEX
  8
AM_VIS
  5
A45
 10
0.607517
 20
5.53887
 30
0.000000
  70
    32
  0
VERTEX
  8
AM_VIS
  5
A46
 10
0.592551
 20
5.54124
 30
0.000000
  70
    32
  0
VERTEX
  8
AM_VIS
  5
A47
 10
0.577439
 20
5.54310
 30
0.000000
  70
    32
  0
VERTEX
  8
AM_VIS
  5
A48
 10
0.562216
 20
5.54443
 30
0.000000
  70
    32
  0
VERTEX
  8
AM_VIS
  5
A49
 10
0.546919
 20
5.54522
 30
0.000000
  70
    32
  0
VERTEX
  8
AM_VIS
  5
A4A
 10
0.531585
 20
5.54549
 30
0.000000
  70
    32
  0
VERTEX
  8
AM_VIS
  5
A4B
 10
0.516252
 20
5.54522
 30
0.000000
  70
    32
  0
VERTEX
  8
AM_VIS
  5
A4C
 10
0.500955
 20
5.54443
 30
0.000000
  70
    32
  0
VERTEX
  8
AM_VIS
  5
A4D
 10
0.485732
 20
5.54310
 30
0.000000
  70
    32
  0
VERTEX
  8
AM_VIS
  5
A4E
 10
0.470620
 20
5.54124
 30
0.000000
  70
    32
  0
VERTEX
  8
AM_VIS
  5
A4F
 10
0.455654
 20
5.53887
 30
0.000000
  70
    32
  0
VERTEX
  8
AM_VIS
  5
A50
 10
0.440871
 20
5.53597
 30
0.000000
  70
    32
  0
VERTEX
  8
AM_VIS
  5
A51
 10
0.426307
 20
5.53257
 30
0.000000
  70
    32
  0
VERTEX
  8
AM_VIS
  5
A52
 10
0.411997
 20
5.52867
 30
0.000000
  70
    32
  0
VERTEX
  8
AM_VIS
  5
A53
 10
0.397974
 20
5.52427
 30
0.000000
  70
    32
  0
VERTEX
  8
AM_VIS
  5
A54
 10
0.384274
 20
5.51940
 30
0.000000
  70
    32
  0
VERTEX
  8
AM_VIS
  5
A55
 10
0.370928
 20
5.51405
 30
0.000000
  70
    32
  0
VERTEX
  8
AM_VIS
  5
A56
 10
0.357970
 20
5.50825
 30
0.000000
  70
    32
  0
VERTEX
  8
AM_VIS
  5
A57
 10
0.345429
 20
5.50200
 30
0.000000
  70
    32
  0
VERTEX
  8
AM_VIS
  5
A58
 10
0.333337
 20
5.49533
 30
0.000000
  70
    32
  0
VERTEX
  8
AM_VIS
  5
A59
 10
0.321723
 20
5.48825
 30
0.000000
  70
    32
  0
VERTEX
  8
AM_VIS
  5
A5A
 10
0.310614
 20
5.48077
 30
0.000000
  70
    32
  0
VERTEX
  8
AM_VIS
  5
A5B
 10
0.300038
 20
5.47291
 30
0.000000
  70
    32
  0
VERTEX
  8
AM_VIS
  5
A5C
 10
0.290020
 20
5.46470
 30
0.000000
  70
    32
  0
VERTEX
  8
AM_VIS
  5
A5D
 10
0.280583
 20
5.45615
 30
0.000000
  70
    32
  0
VERTEX
  8
AM_VIS
  5
A5E
 10
0.271751
 20
5.44728
 30
0.000000
  70
    32
  0
VERTEX
  8
AM_VIS
  5
A5F
 10
0.263545
 20
5.43812
 30
0.000000
  70
    32
  0
VERTEX
  8
AM_VIS
  5
A60
 10
0.255985
 20
5.42868
 30
0.000000
  70
    32
  0
VERTEX
  8
AM_VIS
  5
A61
 10
0.249089
 20
5.41900
 30
0.000000
  70
    32
  0
VERTEX
  8
AM_VIS
  5
A62
 10
0.242873
 20
5.40908
 30
0.000000
  70
    32
  0
VERTEX
  8
AM_VIS
  5
A63
 10
0.237353
 20
5.39896
 30
0.000000
  70
    32
  0
VERTEX
  8
AM_VIS
  5
A64
 10
0.232541
 20
5.38866
 30
0.000000
  70
    32
  0
VERTEX
  8
AM_VIS
  5
A65
 10
0.228451
 20
5.37821
 30
0.000000
  70
    32
  0
VERTEX
  8
AM_VIS
  5
A66
 10
0.225090
 20
5.36763
 30
0.000000
  70
    32
  0
VERTEX
  8
AM_VIS
  5
A67
 10
0.222468
 20
5.35694
 30
0.000000
  70
    32
  0
VERTEX
  8
AM_VIS
  5
A68
 10
0.220590
 20
5.34618
 30
0.000000
  70
    32
  0
VERTEX
  8
AM_VIS
  5
A69
 10
0.219462
 20
5.33536
 30
0.000000
  70
    32
  0
VERTEX
  8
AM_VIS
  5
A6A
 10
0.219085
 20
5.32452
 30
0.000000
  70
    32
  0
VERTEX
  8
AM_VIS
  5
A6B
 10
0.219462
 20
5.31368
 30
0.000000
  70
    32
  0
VERTEX
  8
AM_VIS
  5
A6C
 10
0.220590
 20
5.30286
 30
0.000000
  70
    32
  0
VERTEX
  8
AM_VIS
  5
A6D
 10
0.222468
 20
5.29210
 30
0.000000
  70
    32
  0
VERTEX
  8
AM_VIS
  5
A6E
 10
0.225090
 20
5.28141
 30
0.000000
  70
    32
  0
VERTEX
  8
AM_VIS
  5
A6F
 10
0.228451
 20
5.27083
 30
0.000000
  70
    32
  0
VERTEX
  8
AM_VIS
  5
A70
 10
0.232541
 20
5.26037
 30
0.000000
  70
    32
  0
VERTEX
  8
AM_VIS
  5
A71
 10
0.237353
 20
5.25008
 30
0.000000
  70
    32
  0
VERTEX
  8
AM_VIS
  5
A72
 10
0.242873
 20
5.23996
 30
0.000000
  70
    32
  0
VERTEX
  8
AM_VIS
  5
A73
 10
0.249089
 20
5.23004
 30
0.000000
  70
    32
  0
VERTEX
  8
AM_VIS
  5
A74
 10
0.255985
 20
5.22035
 30
0.000000
  70
    32
  0
VERTEX
  8
AM_VIS
  5
A75
 10
0.263545
 20
5.21092
 30
0.000000
  70
    32
  0
VERTEX
  8
AM_VIS
  5
A76
 10
0.271751
 20
5.20175
 30
0.000000
  70
    32
  0
VERTEX
  8
AM_VIS
  5
A77
 10
0.280583
 20
5.19289
 30
0.000000
  70
    32
  0
VERTEX
  8
AM_VIS
  5
A78
 10
0.290020
 20
5.18434
 30
0.000000
  70
    32
  0
VERTEX
  8
AM_VIS
  5
A79
 10
0.300038
 20
5.17612
 30
0.000000
  70
    32
  0
VERTEX
  8
AM_VIS
  5
A7A
 10
0.310614
 20
5.16827
 30
0.000000
  70
    32
  0
VERTEX
  8
AM_VIS
  5
A7B
 10
0.321723
 20
5.16079
 30
0.000000
  70
    32
  0
VERTEX
  8
AM_VIS
  5
A7C
 10
0.333337
 20
5.15371
 30
0.000000
  70
    32
  0
VERTEX
  8
AM_VIS
  5
A7D
 10
0.345429
 20
5.14703
 30
0.000000
  70
    32
  0
VERTEX
  8
AM_VIS
  5
A7E
 10
0.357970
 20
5.14079
 30
0.000000
  70
    32
  0
VERTEX
  8
AM_VIS
  5
A7F
 10
0.370928
 20
5.13499
 30
0.000000
  70
    32
  0
VERTEX
  8
AM_VIS
  5
A80
 10
0.384274
 20
5.12964
 30
0.000000
  70
    32
  0
VERTEX
  8
AM_VIS
  5
A81
 10
0.397974
 20
5.12476
 30
0.000000
  70
    32
  0
VERTEX
  8
AM_VIS
  5
A82
 10
0.411997
 20
5.12037
 30
0.000000
  70
    32
  0
VERTEX
  8
AM_VIS
  5
A83
 10
0.426307
 20
5.11646
 30
0.000000
  70
    32
  0
VERTEX
  8
AM_VIS
  5
A84
 10
0.440871
 20
5.11306
 30
0.000000
  70
    32
  0
VERTEX
  8
AM_VIS
  5
A85
 10
0.455654
 20
5.11017
 30
0.000000
  70
    32
  0
VERTEX
  8
AM_VIS
  5
A86
 10
0.470620
 20
5.10779
 30
0.000000
  70
    32
  0
VERTEX
  8
AM_VIS
  5
A87
 10
0.485732
 20
5.10594
 30
0.000000
  70
    32
  0
VERTEX
  8
AM_VIS
  5
A88
 10
0.500955
 20
5.10461
 30
0.000000
  70
    32
  0
VERTEX
  8
AM_VIS
  5
A89
 10
0.516252
 20
5.10381
 30
0.000000
  70
    32
  0
VERTEX
  8
AM_VIS
  5
A8A
 10
0.531585
 20
5.10355
 30
0.000000
  70
    32
  0
SEQEND
  8
AM_VIS
  5
A8B
  0
LINE
  5
53
  8
AM_HID
 10
-0.9374867040626568
 20
4.6729573202965957
 30
0.0
 11
-0.5624867040626569
 21
4.6729573202965957
 31
0.0
  0
LINE
  5
54
  8
AM_HID
 10
-0.9374867040626568
 20
4.1729573202965957
 30
0.0
 11
-0.5624867040626569
 21
4.1729573202965957
 31
0.0
  0
LINE
  5
55
  8
AM_HID
 10
-0.9374867040626568
 20
2.9229573202965962
 30
0.0
 11
-0.5624867040626569
 21
2.9229573202965962
 31
0.0
  0
LINE
  5
56
  8
AM_HID
 10
-0.9374867040626568
 20
2.4229573202965962
 30
0.0
 11
-0.5624867040626569
 21
2.4229573202965962
 31
0.0
  0
LINE
  5
57
  8
AM_HID
 10
-0.9374867040626568
 20
6.4229573202965957
 30
0.0
 11
-0.5624867040626569
 21
6.4229573202965957
 31
0.0
  0
LINE
  5
58
  8
AM_HID
 10
-0.9374867040626568
 20
5.9229573202965957
 30
0.0
 11
-0.5624867040626569
 21
5.9229573202965957
 31
0.0
  0
LINE
  5
59
  8
AM_VIS
 10
-0.9374867040626568
 20
6.6729573202965957
 30
0.0
 11
-0.5624867040626569
 21
6.6729573202965957
 31
0.0
  0
LINE
  5
5A
  8
AM_VIS
 10
-0.9374867040626568
 20
2.1729573202965962
 30
0.0
 11
-0.5624867040626569
 21
2.1729573202965962
 31
0.0
  0
LINE
  5
5B
  8
AM_VIS
 10
-0.5624867040626569
 20
5.6479573202965963
 30
0.0
 11
1.4375132959373429
 21
5.6479573202965963
 31
0.0
  0
LINE
  5
5C
  8
AM_VIS
 10
-0.5624867040626569
 20
3.1979573202965961
 30
0.0
 11
1.4375132959373429
 21
3.1979573202965961
 31
0.0
  0
LINE
  5
5D
  8
AM_HID
 10
1.4375132959373429
 20
3.4479573202965961
 30
0.0
 11
-0.5624867040626569
 21
3.4479573202965961
 31
0.0
  0
LINE
  5
5E
  8
AM_HID
 10
1.4375132959373429
 20
5.3979573202965963
 30
0.0
 11
-0.5624867040626569
 21
5.3979573202965963
 31
0.0
  0
LINE
  5
5F
  8
AM_VIS
 10
0.8326581124788891
 20
5.3837274322411641
 30
0.0
 11
0.8463743251928088
 21
5.348854513399802
 31
0.0
  0
LINE
  5
60
  8
AM_VIS
 10
0.2305124599774611
 20
5.3837274322411641
 30
0.0
 11
0.2167962472635414
 21
5.348854513399802
 31
0.0
  0
LINE
  5
163
  8
0
 10
3.0489335107649111
 20
4.3604573202965957
 30
0.0
 11
3.0489335107649111
 21
0.9986812413562651
 31
0.0
  0
LINE
  5
164
  8
0
 10
7.5489335107649111
 20
4.3604573202965957
 30
0.0
 11
7.5489335107649111
 21
0.9986812413562651
 31
0.0
  0
LINE
  5
165
  8
0
 10
3.1739335107649111
 20
1.1786812413562651
 30
0.0
 11
4.947772796479196
 21
1.1786812413562651
 31
0.0
  0
LINE
  5
166
  8
0
 10
7.4239335107649111
 20
1.1786812413562651
 30
0.0
 11
5.6500942250506254
 21
1.1786812413562651
 31
0.0
  0
SOLID
  5
167
  8
0
 10
3.1739335107649111
 20
1.1995145746895981
 30
0.0
 11
3.1739335107649111
 21
1.157847908022932
 31
0.0
 12
3.0489335107649111
 22
1.1786812413562651
 32
0.0
 13
3.0489335107649111
 23
1.1786812413562651
 33
0.0
  0
SOLID
  5
168
  8
0
 10
7.4239335107649111
 20
1.1995145746895981
 30
0.0
 11
7.4239335107649111
 21
1.157847908022932
 31
0.0
 12
7.5489335107649111
 22
1.1786812413562651
 32
0.0
 13
7.5489335107649111
 23
1.1786812413562651
 33
0.0
  0
INSERT
  5
169
  8
0
  2
*U4
 10
0.0
 20
0.0
 30
0.0
  0
INSERT
  5
180
  8
0
  2
*U8
 10
0.0
 20
0.0
 30
0.0
  0
INSERT
  5
181
  8
0
  2
*U9
 10
0.0
 20
0.0
 30
0.0
  0
ENDSEC
  0
EOF
